  0
SECTION
  2
HEADER
  9
$ACADVER
  1
AC1009
  9
$INSBASE
 10
0.0
 20
0.0
 30
0.0
  9
$EXTMIN
 10
-540.03295646984225
 20
-807.9415135626723
 30
-0.0015258207003583
  9
$EXTMAX
 10
540.03296149898449
 20
797.71714468765686
 30
0.0000000349246037
  9
$LIMMIN
 10
0.0
 20
0.0
  9
$LIMMAX
 10
0.0
 20
0.0
  9
$ORTHOMODE
 70
     0
  9
$REGENMODE
 70
     1
  9
$FILLMODE
 70
     1
  9
$QTEXTMODE
 70
     0
  9
$MIRRTEXT
 70
     1
  9
$DRAGMODE
 70
     2
  9
$LTSCALE
 40
30.48
  9
$OSMODE
 70
   231
  9
$ATTMODE
 70
     1
  9
$TEXTSIZE
 40
0.0
  9
$TRACEWID
 40
1.0
  9
$TEXTSTYLE
  7
STANDARD
  9
$CLAYER
  8
DATA
  9
$CELTYPE
  6
BYLAYER
  9
$CECOLOR
 62
   256
  9
$DIMSCALE
 40
1.0
  9
$DIMASZ
 40
0.18
  9
$DIMEXO
 40
0.0625
  9
$DIMDLI
 40
0.38
  9
$DIMRND
 40
0.0
  9
$DIMDLE
 40
0.0
  9
$DIMEXE
 40
0.18
  9
$DIMTP
 40
0.0
  9
$DIMTM
 40
0.0
  9
$DIMTXT
 40
0.18
  9
$DIMCEN
 40
0.09
  9
$DIMTSZ
 40
0.0
  9
$DIMTOL
 70
     0
  9
$DIMLIM
 70
     0
  9
$DIMTIH
 70
     1
  9
$DIMTOH
 70
     1
  9
$DIMSE1
 70
     0
  9
$DIMSE2
 70
     0
  9
$DIMTAD
 70
     0
  9
$DIMZIN
 70
     0
  9
$DIMBLK
  1

  9
$DIMASO
 70
     1
  9
$DIMSHO
 70
     1
  9
$DIMPOST
  1

  9
$DIMAPOST
  1

  9
$DIMALT
 70
     0
  9
$DIMALTD
 70
     2
  9
$DIMALTF
 40
25.399999999999999
  9
$DIMLFAC
 40
1.0
  9
$DIMTOFL
 70
     0
  9
$DIMTVP
 40
0.0
  9
$DIMTIX
 70
     0
  9
$DIMSOXD
 70
     0
  9
$DIMSAH
 70
     0
  9
$DIMBLK1
  1

  9
$DIMBLK2
  1

  9
$DIMSTYLE
  2
STANDARD
  9
$DIMCLRD
 70
     0
  9
$DIMCLRE
 70
     0
  9
$DIMCLRT
 70
     0
  9
$DIMTFAC
 40
1.0
  9
$DIMGAP
 40
0.09
  9
$LUNITS
 70
     2
  9
$LUPREC
 70
     4
  9
$SKETCHINC
 40
0.1
  9
$FILLETRAD
 40
0.0
  9
$AUNITS
 70
     0
  9
$AUPREC
 70
     0
  9
$MENU
  1
acad
  9
$ELEVATION
 40
0.0
  9
$PELEVATION
 40
0.0
  9
$THICKNESS
 40
0.0
  9
$LIMCHECK
 70
     0
  9
$BLIPMODE
 70
     0
  9
$CHAMFERA
 40
0.0
  9
$CHAMFERB
 40
0.0
  9
$SKPOLY
 70
     0
  9
$TDCREATE
 40
2456216.69619213
  9
$TDUPDATE
 40
2456216.708048136
  9
$TDINDWG
 40
0.0005358681
  9
$TDUSRTIMER
 40
0.0005318981
  9
$USRTIMER
 70
     1
  9
$ANGBASE
 50
0.0
  9
$ANGDIR
 70
     0
  9
$PDMODE
 70
     1
  9
$PDSIZE
 40
-2.0
  9
$PLINEWID
 40
0.0
  9
$COORDS
 70
     2
  9
$SPLFRAME
 70
     0
  9
$SPLINETYPE
 70
     6
  9
$SPLINESEGS
 70
     8
  9
$ATTDIA
 70
     0
  9
$ATTREQ
 70
     1
  9
$HANDLING
 70
     1
  9
$HANDSEED
  5
D7C
  9
$SURFTAB1
 70
     6
  9
$SURFTAB2
 70
     6
  9
$SURFTYPE
 70
     6
  9
$SURFU
 70
     6
  9
$SURFV
 70
     6
  9
$UCSNAME
  2

  9
$UCSORG
 10
0.0
 20
0.0
 30
0.0
  9
$UCSXDIR
 10
1.0
 20
0.0
 30
0.0
  9
$UCSYDIR
 10
0.0
 20
1.0
 30
0.0
  9
$PUCSNAME
  2

  9
$PUCSORG
 10
0.0
 20
0.0
 30
0.0
  9
$PUCSXDIR
 10
1.0
 20
0.0
 30
0.0
  9
$PUCSYDIR
 10
0.0
 20
1.0
 30
0.0
  9
$USERI1
 70
     0
  9
$USERI2
 70
     0
  9
$USERI3
 70
     0
  9
$USERI4
 70
     0
  9
$USERI5
 70
     0
  9
$USERR1
 40
0.0
  9
$USERR2
 40
0.0
  9
$USERR3
 40
0.0
  9
$USERR4
 40
0.0
  9
$USERR5
 40
0.0
  9
$WORLDVIEW
 70
     1
  9
$SHADEDGE
 70
     3
  9
$SHADEDIF
 70
    70
  9
$TILEMODE
 70
     1
  9
$MAXACTVP
 70
    64
  9
$PLIMCHECK
 70
     0
  9
$PEXTMIN
 10
1.0000000000000000E+020
 20
1.0000000000000000E+020
 30
1.0000000000000000E+020
  9
$PEXTMAX
 10
-1.0000000000000000E+020
 20
-1.0000000000000000E+020
 30
-1.0000000000000000E+020
  9
$PLIMMIN
 10
0.0
 20
0.0
  9
$PLIMMAX
 10
12.0
 20
9.0
  9
$UNITMODE
 70
     0
  9
$VISRETAIN
 70
     0
  9
$PLINEGEN
 70
     1
  9
$PSLTSCALE
 70
     0
  0
ENDSEC
  0
SECTION
  2
TABLES
  0
TABLE
  2
VPORT
 70
     1
  0
VPORT
  2
*ACTIVE
 70
     0
 10
0.0
 20
0.0
 11
1.0
 21
1.0
 12
0.0000025145709515
 22
-3.5336441639788059
 13
0.0
 23
0.0
 14
1.0
 24
1.0
 15
0.0
 25
0.0
 16
0.0
 26
0.0
 36
1.0
 17
0.0
 27
0.0
 37
0.0
 40
1615.3045197355209
 41
2.2333333333333329
 42
50.0
 43
0.0
 44
0.0
 50
0.0
 51
0.0
 71
     0
 72
  2000
 73
     1
 74
     1
 75
     0
 76
     0
 77
     0
 78
     0
  0
ENDTAB
  0
TABLE
  2
LTYPE
 70
    12
  0
LTYPE
  2
CONTINUOUS
 70
     0
  3
Solid line
 72
    65
 73
     0
 40
0.0
  0
LTYPE
  2
PHANTOM2
 70
     0
  3
___ _ _ ___ _ _ ___ _ _ ___ _ _
 72
    65
 73
     6
 40
1.25
 49
0.625
 49
-0.125
 49
0.125
 49
-0.125
 49
0.125
 49
-0.125
  0
ENDTAB
  0
TABLE
  2
LAYER
 70
     5
  0
LAYER
  2
0
 70
     0
 62
     7
  6
CONTINUOUS
  0
LAYER
  2
DATA
 70
     0
 62
     7
  6
CONTINUOUS
  0
LAYER
  2
HIBINO-BASE
 70
     0
 62
     7
  6
CONTINUOUS
  0
LAYER
  2
SPEC
 70
     0
 62
     7
  6
CONTINUOUS
  0
LAYER
  2
DIMNSIONS
 70
     0
 62
     7
  6
CONTINUOUS
  0
ENDTAB
  0
TABLE
  2
STYLE
 70
     3
  0
STYLE
  2
STANDARD
 70
     0
 40
0.0
 41
1.0
 50
0.0
 71
     0
 42
0.0
  3
txt
  4
BIGFONT.SHX
  0
ENDTAB
  0
TABLE
  2
VIEW
 70
     0
  0
ENDTAB
  0
TABLE
  2
UCS
 70
     0
  0
ENDTAB
  0
TABLE
  2
APPID
 70
     4
  0
APPID
  2
ACAD
 70
     0
  0
APPID
  2
ACADANNOTATIVE
 70
     0
  0
APPID
  2
ACAD_NAV_VCDISPLAY
 70
     0
  0
APPID
  2
ACAD_MLEADERVER
 70
     0
  0
ENDTAB
  0
TABLE
  2
DIMSTYLE
 70
     2
  0
DIMSTYLE
  2
STANDARD
 70
     0
  3

  4

  5

  6

  7

 40
1.0
 41
0.18
 42
0.0625
 43
0.38
 44
0.18
 45
0.0
 46
0.0
 47
0.0
 48
0.0
140
0.18
141
0.09
142
0.0
143
25.399999999999999
144
1.0
145
0.0
146
1.0
147
0.09
 71
     0
 72
     0
 73
     1
 74
     1
 75
     0
 76
     0
 77
     0
 78
     0
170
     0
171
     2
172
     0
173
     0
174
     0
175
     0
176
     0
177
     0
178
     0
  0
ENDTAB
  0
ENDSEC
  0
SECTION
  2
BLOCKS
  0
BLOCK
  8
0
  2
$MODEL_SPACE
 70
     0
 10
0.0
 20
0.0
 30
0.0
  3
$MODEL_SPACE
  1

  0
ENDBLK
  5
90D
  8
0
  0
BLOCK
 67
     1
  8
0
  2
$PAPER_SPACE
 70
     0
 10
0.0
 20
0.0
 30
0.0
  3
$PAPER_SPACE
  1

  0
ENDBLK
  5
909
 67
     1
  8
0
  0
ENDSEC
  0
SECTION
  2
ENTITIES
  0
LINE
  5
2C
  8
HIBINO-BASE
  6
CONTINUOUS
 62
     7
 10
-539.99999999999977
 20
797.66823947432954
 30
0.0
 11
539.99999999999977
 21
797.66823947432954
 31
0.0
  0
LINE
  5
2D
  8
HIBINO-BASE
  6
CONTINUOUS
 62
     7
 10
539.99999999999977
 20
-762.33176052567035
 30
0.0
 11
-539.99999999999977
 21
-762.33176052567035
 31
0.0
  0
LINE
  5
2E
  8
HIBINO-BASE
  6
CONTINUOUS
 62
     7
 10
-539.99999999999977
 20
-762.33176052567035
 30
0.0
 11
-539.99999999999977
 21
797.66823947432954
 31
0.0
  0
LINE
  5
2F
  8
HIBINO-BASE
  6
CONTINUOUS
 62
     7
 10
539.99999999999977
 20
797.66823947432954
 30
0.0
 11
539.99999999999977
 21
-762.33176052567035
 31
0.0
  0
LINE
  5
30
  8
HIBINO-BASE
  6
CONTINUOUS
 62
     7
 10
0.0
 20
-627.33176052567035
 30
0.0
 11
539.99999999999977
 21
-627.33176052567035
 31
0.0
  0
LINE
  5
31
  8
HIBINO-BASE
  6
CONTINUOUS
 62
     7
 10
0.0
 20
-762.33176052567035
 30
0.0
 11
0.0
 21
-627.33176052567035
 31
0.0
  0
TEXT
  5
32
  8
HIBINO-BASE
 62
     7
 10
5.3999999999999986
 20
-642.38392052567042
 30
0.0
 40
9.7730468749999986
  1
NOTE
 41
0.7
 11
5.4000000000000004
 21
-632.61087365067044
 31
0.0
 73
     3
  0
LINE
  5
33
  8
HIBINO-BASE
  6
CONTINUOUS
 62
     7
 10
210.0
 20
-762.33176052567035
 30
0.0
 11
210.0
 21
-627.33176052567035
 31
0.0
  0
TEXT
  5
34
  8
HIBINO-BASE
 62
     7
 10
215.40000000000001
 20
-642.38392052567042
 30
0.0
 40
9.7730468749999986
  1
TITLE
 41
0.7
 11
215.40000000000001
 21
-632.61087365067044
 31
0.0
 73
     3
  0
LINE
  5
35
  8
HIBINO-BASE
  6
CONTINUOUS
 62
     7
 10
0.0
 20
-702.33176052567035
 30
0.0
 11
539.99999999999977
 21
-702.33176052567035
 31
0.0
  0
TEXT
  5
36
  8
HIBINO-BASE
 62
     7
 10
290.39999999999998
 20
-717.04600052567037
 30
0.0
 40
9.7730468749999986
  1
DRAWN
 41
0.7
 11
290.39999999999998
 21
-707.2729536506705
 31
0.0
 73
     3
  0
TEXT
  5
37
  8
HIBINO-BASE
 62
     7
 10
140.39999999999989
 20
-717.04600052567037
 30
0.0
 40
9.7730468749999986
  1
DATE
 41
0.7
 11
140.39999999999989
 21
-707.2729536506705
 31
0.0
 73
     3
  0
TEXT
  5
38
  8
HIBINO-BASE
 62
     7
 10
80.399999999999963
 20
-717.04600052567037
 30
0.0
 40
9.7730468749999986
  1
SCALE
 41
0.7
 11
80.399999999999963
 21
-707.2729536506705
 31
0.0
 73
     3
  0
TEXT
  5
39
  8
HIBINO-BASE
 62
     7
 10
215.40000000000001
 20
-717.04600052567037
 30
0.0
 40
9.7730468749999986
  1
DESIGN
 41
0.7
 11
215.40000000000001
 21
-707.2729536506705
 31
0.0
 73
     3
  0
TEXT
  5
3A
  8
HIBINO-BASE
 62
     7
 10
440.39999999999992
 20
-717.04600052567037
 30
0.0
 40
9.7730468749999986
  1
DRAWING NO.
 41
0.7
 11
440.39999999999992
 21
-707.2729536506705
 31
0.0
 73
     3
  0
TEXT
  5
3B
  8
HIBINO-BASE
 62
     7
 10
365.39999999999998
 20
-717.04600052567037
 30
0.0
 40
9.7730468749999986
  1
CHECK
 41
0.7
 11
365.39999999999998
 21
-707.2729536506705
 31
0.0
 73
     3
  0
LINE
  5
3C
  8
HIBINO-BASE
  6
CONTINUOUS
 62
     7
 10
86.249999999999986
 20
-754.83176052567035
 30
0.0
 11
108.75
 21
-732.33176052567035
 31
0.0
  0
TEXT
  5
3D
  8
HIBINO-BASE
 62
     7
 10
82.499999999999986
 20
-738.98542052567018
 30
0.0
 40
9.7730468749999986
  1
1
 41
0.7
 11
82.499999999999986
 21
-729.2123736506702
 31
0.0
 73
     3
  0
LINE
  5
3E
  8
HIBINO-BASE
  6
CONTINUOUS
 62
     7
 10
74.999999999999986
 20
-762.33176052567035
 30
0.0
 11
74.999999999999986
 21
-702.33176052567035
 31
0.0
  0
LINE
  5
3F
  8
HIBINO-BASE
  6
CONTINUOUS
 62
     7
 10
134.99999999999989
 20
-762.33176052567035
 30
0.0
 11
134.99999999999989
 21
-702.33176052567035
 31
0.0
  0
LINE
  5
40
  8
HIBINO-BASE
  6
CONTINUOUS
 62
     7
 10
285.0
 20
-702.33176052567035
 30
0.0
 11
285.0
 21
-762.33176052567035
 31
0.0
  0
LINE
  5
41
  8
HIBINO-BASE
  6
CONTINUOUS
 62
     7
 10
435.0
 20
-702.33176052567035
 30
0.0
 11
435.0
 21
-762.33176052567035
 31
0.0
  0
LINE
  5
42
  8
HIBINO-BASE
  6
CONTINUOUS
 62
     7
 10
360.0
 20
-762.33176052567035
 30
0.0
 11
360.0
 21
-702.33176052567035
 31
0.0
  0
TEXT
  5
43
  8
HIBINO-BASE
 62
     7
 10
140.13924
 20
-745.14988052567037
 30
0.0
 40
9.7730468749999986
  1
'12.10.
 41
0.7
 11
140.13924
 21
-735.37683365067039
 31
0.0
 73
     3
  0
TEXT
  5
44
  8
HIBINO-BASE
 62
     7
 10
105.0
 20
-750.23542052567018
 30
0.0
 40
9.7730468749999986
  1
6
 41
0.7
 11
105.0
 21
-740.46237365067032
 31
0.0
 73
     3
  0
TEXT
  5
45
  8
HIBINO-BASE
 62
     7
 10
294.03486006620773
 20
-745.14988052567037
 30
0.0
 40
9.7730468749999986
  1
Ootake
 41
0.7
 11
294.03486006620773
 21
-735.37683365067039
 31
0.0
 73
     3
  0
TEXT
  5
46
  8
HIBINO-BASE
 62
     7
 10
23.30000000000009
 20
-750.47576052567024
 30
0.0
 40
19.546093750000001
  1
A4
 41
0.7
 11
23.30000000000009
 21
-730.92966677567028
 31
0.0
 73
     3
  0
TEXT
  5
47
  8
HIBINO-BASE
 62
     7
 10
5.749999999999992
 20
-718.04849052567033
 30
0.0
 40
9.7730468749999986
  1
PAPER SIZE
 41
0.7
 11
5.749999999999992
 21
-708.27544365067035
 31
0.0
 73
     3
  0
TEXT
  5
48
  8
HIBINO-BASE
 62
     7
 10
-523.44218845865885
 20
-800.88320193072786
 30
0.0
 40
21.174934895833331
  1
Hibino-Intersound Corporation
 41
0.7
 11
-523.44218845865885
 21
-779.70826703489445
 31
0.0
 73
     3
  0
TEXT
  5
49
  8
HIBINO-BASE
 62
     7
 10
121.0836580812834
 20
-798.7766724109913
 30
0.0
 40
21.174934895833331
  1
ヒビノインターサウンド株式会社
 41
0.7
 11
121.0836580812834
 21
-777.60173751515811
 31
0.0
 73
     3
  0
LINE
  5
4A
  8
SPEC
  6
CONTINUOUS
 62
     7
 10
-494.99999999999989
 20
737.66823947432954
 30
0.0
 11
390.0
 21
737.66823947432954
 31
0.0
  0
LINE
  5
4B
  8
SPEC
  6
CONTINUOUS
 62
     7
 10
-494.99999999999989
 20
715.16823947432954
 30
0.0
 11
390.0
 21
715.16823947432954
 31
0.0
  0
LINE
  5
4C
  8
SPEC
  6
CONTINUOUS
 62
     7
 10
-279.99999999999989
 20
670.16823947432954
 30
0.0
 11
390.0
 21
670.16823947432954
 31
0.0
  0
LINE
  5
4D
  8
SPEC
  6
CONTINUOUS
 62
     7
 10
-494.99999999999989
 20
692.66823947432954
 30
0.0
 11
390.0
 21
692.66823947432954
 31
0.0
  0
LINE
  5
4E
  8
SPEC
  6
CONTINUOUS
 62
     7
 10
-494.99999999999989
 20
737.66823947432954
 30
0.0
 11
-494.99999999999989
 21
355.16823947432943
 31
0.0
  0
TEXT
  5
4F
  8
SPEC
 62
     7
 10
-487.49999999999989
 20
746.02785947432949
 30
0.0
 40
14.6595703125
  1
仕様
 41
0.7
 11
-487.49999999999989
 21
760.6874297868294
 31
0.0
 73
     3
  0
LINE
  5
50
  8
SPEC
  6
CONTINUOUS
 62
     7
 10
-279.99999999999989
 20
737.66823947432954
 30
0.0
 11
-279.99999999999989
 21
355.16823947432943
 31
0.0
  0
LINE
  5
51
  8
SPEC
  6
CONTINUOUS
 62
     7
 10
390.0
 20
737.66823947432954
 30
0.0
 11
390.0
 21
355.16823947432943
 31
0.0
  0
LINE
  5
52
  8
SPEC
  6
CONTINUOUS
 62
     7
 10
-279.99999999999989
 20
647.66823947432954
 30
0.0
 11
390.0
 21
647.66823947432954
 31
0.0
  0
LINE
  5
53
  8
SPEC
  6
CONTINUOUS
 62
     7
 10
-494.99999999999989
 20
625.16823947432954
 30
0.0
 11
390.0
 21
625.16823947432954
 31
0.0
  0
LINE
  5
54
  8
SPEC
  6
CONTINUOUS
 62
     7
 10
-279.99999999999989
 20
602.66823947432954
 30
0.0
 11
390.0
 21
602.66823947432954
 31
0.0
  0
LINE
  5
55
  8
SPEC
  6
CONTINUOUS
 62
     7
 10
-494.99999999999989
 20
580.16823947432954
 30
0.0
 11
390.0
 21
580.16823947432954
 31
0.0
  0
LINE
  5
56
  8
SPEC
  6
CONTINUOUS
 62
     7
 10
-279.99999999999989
 20
557.66823947432931
 30
0.0
 11
390.0
 21
557.66823947432931
 31
0.0
  0
LINE
  5
57
  8
SPEC
  6
CONTINUOUS
 62
     7
 10
-494.99999999999989
 20
535.16823947432943
 30
0.0
 11
390.0
 21
535.16823947432943
 31
0.0
  0
LINE
  5
58
  8
SPEC
  6
CONTINUOUS
 62
     7
 10
-494.99999999999989
 20
512.66823947432943
 30
0.0
 11
390.0
 21
512.66823947432943
 31
0.0
  0
LINE
  5
59
  8
SPEC
  6
CONTINUOUS
 62
     7
 10
-494.99999999999989
 20
490.16823947432943
 30
0.0
 11
390.0
 21
490.16823947432943
 31
0.0
  0
LINE
  5
5A
  8
SPEC
  6
CONTINUOUS
 62
     7
 10
-494.99999999999989
 20
467.66823947432943
 30
0.0
 11
390.0
 21
467.66823947432943
 31
0.0
  0
LINE
  5
5B
  8
SPEC
  6
CONTINUOUS
 62
     7
 10
-494.99999999999989
 20
445.16823947432931
 30
0.0
 11
390.0
 21
445.16823947432931
 31
0.0
  0
TEXT
  5
5C
  8
SPEC
 62
     7
 10
-274.58022730035839
 20
473.28393828923589
 30
0.0
 40
11.401888020833329
  1
483(W)\U+00D744(H)\U+00D7343(D)mm(突起部含まず）
 41
0.7
 11
-274.58022730035839
 21
484.68582631006927
 31
0.0
 73
     3
  0
TEXT
  5
5D
  8
SPEC
 62
     7
 10
-274.78545415640048
 20
451.57963271293988
 30
0.0
 40
11.401888020833329
  1
約5.5kg
 41
0.7
 11
-274.78545415640048
 21
462.98152073377321
 31
0.0
 73
     3
  0
TEXT
  5
5E
  8
SPEC
 62
     7
 10
-490.00456045598389
 20
450.59904827848419
 30
0.0
 40
11.401888020833329
  1
質量
 41
0.7
 11
-490.00456045598389
 21
462.00093629931757
 31
0.0
 73
     3
  0
LINE
  5
5F
  8
SPEC
  6
CONTINUOUS
 62
     7
 10
-279.99999999999989
 20
422.66823947432943
 30
0.0
 11
390.0
 21
422.66823947432943
 31
0.0
  0
LINE
  5
60
  8
SPEC
  6
CONTINUOUS
 62
     7
 10
-279.99999999999989
 20
400.16823947432943
 30
0.0
 11
390.0
 21
400.16823947432943
 31
0.0
  0
LINE
  5
61
  8
SPEC
  6
CONTINUOUS
 62
     7
 10
-279.99999999999989
 20
377.66823947432943
 30
0.0
 11
390.0
 21
377.66823947432943
 31
0.0
  0
LINE
  5
62
  8
SPEC
  6
CONTINUOUS
 62
     7
 10
-494.99999999999989
 20
355.16823947432943
 30
0.0
 11
390.0
 21
355.16823947432943
 31
0.0
  0
TEXT
  5
63
  8
SPEC
 62
     7
 10
-489.76543308288808
 20
720.45030121303512
 30
0.0
 40
11.401888020833329
  1
周波数帯域
 41
0.7
 11
-489.76543308288808
 21
731.85218923386844
 31
0.0
 73
     3
  0
TEXT
  5
64
  8
SPEC
 62
     7
 10
-274.41820056656292
 20
721.26625966472511
 30
0.0
 40
11.401888020833329
  1
470-865、925-952MHz
 41
0.7
 11
-274.41820056656292
 21
732.66814768555844
 31
0.0
 73
     3
  0
TEXT
  5
65
  8
SPEC
 62
     7
 10
-489.76543308288808
 20
698.3021515887026
 30
0.0
 40
11.401888020833329
  1
周波数選択ステップ
 41
0.7
 11
-489.76543308288808
 21
709.70403960953581
 31
0.0
 73
     3
  0
TEXT
  5
66
  8
SPEC
 62
     7
 10
-274.57033739143571
 20
697.92868918800696
 30
0.0
 40
11.401888020833329
  1
25、200、1000kHz
 41
0.7
 11
-274.57033739143571
 21
709.33057720884017
 31
0.0
 73
     3
  0
TEXT
  5
67
  8
SPEC
 62
     7
 10
-489.53198648498039
 20
675.56758467159079
 30
0.0
 40
11.401888020833329
  1
RF入力
 41
0.7
 11
-489.53198648498039
 21
686.96947269242412
 31
0.0
 73
     3
  0
TEXT
  5
68
  8
SPEC
 62
     7
 10
-276.27574944815689
 20
676.22291519848955
 30
0.0
 40
11.401888020833329
  1
コネクター：BNC
 41
0.7
 11
-276.27574944815689
 21
687.62480321932276
 31
0.0
 73
     3
  0
TEXT
  5
69
  8
SPEC
 62
     7
 10
-274.05993556172552
 20
653.77609690512827
 30
0.0
 40
11.401888020833329
  1
実行インピーダンス：50\U+03A9
 41
0.7
 11
-274.05993556172552
 21
665.17798492596148
 31
0.0
 73
     3
  0
TEXT
  5
6A
  8
SPEC
 62
     7
 10
-275.33228789328098
 20
630.76082541845835
 30
0.0
 40
11.401888020833329
  1
アクティブアンテナ用電源電圧：DC12V、150mA
 41
0.7
 11
-275.33228789328098
 21
642.16271343929179
 31
0.0
 73
     3
  0
TEXT
  5
6B
  8
SPEC
 62
     7
 10
-490.8549530927092
 20
609.31115280643974
 30
0.0
 40
11.401888020833329
  1
カスケード出力
 41
0.7
 11
-490.8549530927092
 21
620.71304082727295
 31
0.0
 73
     3
  0
TEXT
  5
6C
  8
SPEC
 62
     7
 10
-276.09423839512641
 20
608.26082541845835
 30
0.0
 40
11.401888020833329
  1
コネクタータイプ：BNC
 41
0.7
 11
-276.09423839512641
 21
619.66271343929179
 31
0.0
 73
     3
  0
TEXT
  5
6D
  8
SPEC
 62
     7
 10
-274.82432089205082
 20
585.76082541845835
 30
0.0
 40
11.401888020833329
  1
実行インピーダンス：50\U+03A9
 41
0.7
 11
-274.82432089205082
 21
597.16271343929168
 31
0.0
 73
     3
  0
TEXT
  5
6E
  8
SPEC
 62
     7
 10
-490.3489183058951
 20
563.53280907945123
 30
0.0
 40
11.401888020833329
  1
モニター音声出力
 41
0.7
 11
-490.3489183058951
 21
574.93469710028455
 31
0.0
 73
     3
  0
TEXT
  5
6F
  8
SPEC
 62
     7
 10
-274.82432089205082
 20
563.26082541845835
 30
0.0
 40
11.401888020833329
  1
周波数特性：40～18kHz、\U+00B13dB
 41
0.7
 11
-274.82432089205082
 21
574.66271343929179
 31
0.0
 73
     3
  0
TEXT
  5
70
  8
SPEC
 62
     7
 10
-276.42621524435617
 20
541.72730639525355
 30
0.0
 40
11.401888020833329
  1
コネクター：標準フォーン(モノラル)
 41
0.7
 11
-276.42621524435617
 21
553.12919441608688
 31
0.0
 73
     3
  0
TEXT
  5
71
  8
SPEC
 62
     7
 10
-489.6523308037971
 20
518.58908846589509
 30
0.0
 40
11.401888020833329
  1
PC/ネットワーク用コネクタ ー
 41
0.7
 11
-489.6523308037971
 21
529.99097648672841
 31
0.0
 73
     3
  0
TEXT
  5
72
  8
SPEC
 62
     7
 10
-275.41190371297682
 20
518.92802405908049
 30
0.0
 40
11.401888020833329
  1
イーサネット：RJ-45 \U+00D72
 41
0.7
 11
-275.41190371297682
 21
530.3299120799137
 31
0.0
 73
     3
  0
TEXT
  5
73
  8
SPEC
 62
     7
 10
-490.07716751573747
 20
496.33925982896687
 30
0.0
 40
11.401888020833329
  1
電源
 41
0.7
 11
-490.07716751573747
 21
507.74114784980009
 31
0.0
 73
     3
  0
TEXT
  5
74
  8
SPEC
 62
     7
 10
-274.06539759851108
 20
495.9230842661554
 30
0.0
 40
11.401888020833329
  1
AC100V、50-60Hz、最大0.9A
 41
0.7
 11
-274.06539759851108
 21
507.32497228698878
 31
0.0
 73
     3
  0
TEXT
  5
75
  8
SPEC
 62
     7
 10
-490.25661078389589
 20
474.0940278071746
 30
0.0
 40
11.401888020833329
  1
寸法
 41
0.7
 11
-490.25661078389589
 21
485.49591582800792
 31
0.0
 73
     3
  0
TEXT
  5
76
  8
SPEC
 62
     7
 10
-489.65563994454789
 20
428.87109146764578
 30
0.0
 40
11.401888020833329
  1
付属品
 41
0.7
 11
-489.65563994454789
 21
440.27297948847911
 31
0.0
 73
     3
  0
TEXT
  5
77
  8
SPEC
 62
     7
 10
-275.4058889697281
 20
428.49911615301318
 30
0.0
 40
11.401888020833329
  1
1/2波長アンテナ \U+00D72、ハードウェアキット一式、50\U+03A9同軸ケーブル(約55cm）、
 41
0.7
 11
-275.4058889697281
 21
439.90100417384639
 31
0.0
 73
     3
  0
TEXT
  5
78
  8
SPEC
 62
     7
 10
-274.8201054953467
 20
405.99373193555272
 30
0.0
 40
11.401888020833329
  1
50\U+03A9同軸ケーブル(約85㎝)、50\U+03A9同軸ケーブル(カスケード接続用)\U+00D72　電源ケーブル(約230㎝)、
 41
0.7
 11
-274.8201054953467
 21
417.39561995638599
 31
0.0
 73
     3
  0
TEXT
  5
79
  8
SPEC
 62
     7
 10
-275.03146761834279
 20
383.86310657202648
 30
0.0
 40
11.401888020833329
  1
電源延長ケーブル(約30㎝）、イーサネットケーブル(約90㎝）、
 41
0.7
 11
-275.03146761834279
 21
395.26499459285981
 31
0.0
 73
     3
  0
TEXT
  5
7A
  8
SPEC
 62
     7
 10
-275.53100382616469
 20
361.61287467593752
 30
0.0
 40
11.401888020833329
  1
イーサネットジャンパーケーブル(約20㎝)
 41
0.7
 11
-275.53100382616469
 21
373.01476269677079
 31
0.0
 73
     3
  0
TEXT
  5
7B
  8
DIMNSIONS
 62
     7
 10
-120.0
 20
-688.71482052567035
 30
0.0
 40
14.6595703125
  1
(単位：mm)
 41
0.7
 11
-120.0
 21
-674.05525021317044
 31
0.0
 73
     3
  0
LINE
  5
7C
  8
DIMNSIONS
  6
CONTINUOUS
 62
     7
 10
-400.0
 20
-512.0
 30
0.0
 11
-400.0
 21
-572.0
 31
0.0
  0
LINE
  5
7D
  8
DIMNSIONS
  6
CONTINUOUS
 62
     7
 10
83.0
 20
-512.0
 30
0.0
 11
83.0
 21
-572.0
 31
0.0
  0
LINE
  5
7E
  8
DIMNSIONS
  6
CONTINUOUS
 62
     7
 10
-400.0
 20
-560.0
 30
0.0
 11
83.0
 21
-560.0
 31
0.0
  0
LINE
  5
7F
  8
DIMNSIONS
  6
CONTINUOUS
 62
     7
 10
-400.0
 20
-560.0
 30
0.0
 11
-384.99626464843749
 21
-555.97976122909847
 31
0.0
  0
LINE
  5
80
  8
DIMNSIONS
  6
CONTINUOUS
 62
     7
 10
-400.0
 20
-560.0
 30
0.0
 11
-384.99626464843749
 21
-564.02023877090153
 31
0.0
  0
LINE
  5
81
  8
DIMNSIONS
  6
CONTINUOUS
 62
     7
 10
83.0
 20
-560.0
 30
0.0
 11
67.996264648437503
 21
-564.02023877090153
 31
0.0
  0
LINE
  5
82
  8
DIMNSIONS
  6
CONTINUOUS
 62
     7
 10
83.0
 20
-560.0
 30
0.0
 11
67.996264648437503
 21
-555.97976122909847
 31
0.0
  0
TEXT
  5
83
  8
DIMNSIONS
 62
     7
 10
-174.3750040372212
 20
-554.03666604846694
 30
0.0
 40
16.288414856361239
  1
483
 41
0.7
 11
-174.3750040372212
 21
-537.74825119210573
 31
0.0
 73
     3
  0
LINE
  5
84
  8
DIMNSIONS
  6
CONTINUOUS
 62
     7
 10
-412.0
 20
-500.0
 30
0.0
 11
-472.0
 21
-500.0
 31
0.0
  0
LINE
  5
85
  8
DIMNSIONS
  6
CONTINUOUS
 62
     7
 10
-412.0
 20
-456.0
 30
0.0
 11
-472.0
 21
-456.0
 31
0.0
  0
LINE
  5
86
  8
DIMNSIONS
  6
CONTINUOUS
 62
     7
 10
-460.0
 20
-500.0
 30
0.0
 11
-460.0
 21
-456.0
 31
0.0
  0
LINE
  5
87
  8
DIMNSIONS
  6
CONTINUOUS
 62
     7
 10
-460.0
 20
-500.0
 30
0.0
 11
-464.02023877090141
 21
-484.99626464843749
 31
0.0
  0
LINE
  5
88
  8
DIMNSIONS
  6
CONTINUOUS
 62
     7
 10
-460.0
 20
-500.0
 30
0.0
 11
-455.97976122909847
 21
-484.99626464843749
 31
0.0
  0
LINE
  5
89
  8
DIMNSIONS
  6
CONTINUOUS
 62
     7
 10
-460.0
 20
-456.0
 30
0.0
 11
-455.97976122909847
 21
-471.00373535156251
 31
0.0
  0
LINE
  5
8A
  8
DIMNSIONS
  6
CONTINUOUS
 62
     7
 10
-460.0
 20
-456.0
 30
0.0
 11
-464.02023877090141
 21
-471.00373535156251
 31
0.0
  0
TEXT
  5
8B
  8
DIMNSIONS
 62
     7
 10
-465.96333395153289
 20
-488.5833353519439
 30
0.0
 40
16.288414856361239
  1
44
 50
90.0
 41
0.7
 11
-482.25174880789422
 21
-488.5833353519439
 31
0.0
 73
     3
  0
LINE
  5
8C
  8
DIMNSIONS
  6
CONTINUOUS
 62
     7
 10
-376.25
 20
-422.0
 30
0.0
 11
-472.0
 21
-422.0
 31
0.0
  0
LINE
  5
8D
  8
DIMNSIONS
  6
CONTINUOUS
 62
     7
 10
-412.0
 20
-400.0
 30
0.0
 11
-472.0
 21
-400.0
 31
0.0
  0
LINE
  5
8E
  8
DIMNSIONS
  6
CONTINUOUS
 62
     7
 10
-460.0
 20
-400.0
 30
0.0
 11
-460.0
 21
-422.0
 31
0.0
  0
LINE
  5
8F
  8
DIMNSIONS
  6
CONTINUOUS
 62
     7
 10
-460.0
 20
-422.0
 30
0.0
 11
-460.0
 21
-452.0
 31
0.0
  0
LINE
  5
90
  8
DIMNSIONS
  6
CONTINUOUS
 62
     7
 10
-460.0
 20
-422.0
 30
0.0
 11
-455.97976122909847
 21
-437.00373535156251
 31
0.0
  0
LINE
  5
91
  8
DIMNSIONS
  6
CONTINUOUS
 62
     7
 10
-460.0
 20
-422.0
 30
0.0
 11
-464.02023877090141
 21
-437.00373535156251
 31
0.0
  0
LINE
  5
92
  8
DIMNSIONS
  6
CONTINUOUS
 62
     7
 10
-460.0
 20
-400.0
 30
0.0
 11
-460.0
 21
-370.0
 31
0.0
  0
LINE
  5
93
  8
DIMNSIONS
  6
CONTINUOUS
 62
     7
 10
-460.0
 20
-400.0
 30
0.0
 11
-464.02023877090141
 21
-384.99626464843749
 31
0.0
  0
LINE
  5
94
  8
DIMNSIONS
  6
CONTINUOUS
 62
     7
 10
-460.0
 20
-400.0
 30
0.0
 11
-455.97976122909847
 21
-384.99626464843749
 31
0.0
  0
TEXT
  5
95
  8
DIMNSIONS
 62
     7
 10
-465.96333421647569
 20
-421.58333636124922
 30
0.0
 40
16.288416312658931
  1
22
 50
90.0
 41
0.7
 11
-482.2517505291346
 21
-421.58333636124922
 31
0.0
 73
     3
  0
LINE
  5
96
  8
DIMNSIONS
  6
CONTINUOUS
 62
     7
 10
-412.0
 20
-400.0
 30
0.0
 11
-442.0
 21
-400.0
 31
0.0
  0
LINE
  5
97
  8
DIMNSIONS
  6
CONTINUOUS
 62
     7
 10
-412.0
 20
-396.0
 30
0.0
 11
-442.0
 21
-396.0
 31
0.0
  0
LINE
  5
98
  8
DIMNSIONS
  6
CONTINUOUS
 62
     7
 10
-430.0
 20
-396.0
 30
0.0
 11
-430.0
 21
-400.0
 31
0.0
  0
LINE
  5
99
  8
DIMNSIONS
  6
CONTINUOUS
 62
     7
 10
-430.0
 20
-400.0
 30
0.0
 11
-430.0
 21
-430.0
 31
0.0
  0
LINE
  5
9A
  8
DIMNSIONS
  6
CONTINUOUS
 62
     7
 10
-430.0
 20
-400.0
 30
0.0
 11
-425.97976122909847
 21
-415.0037353515624
 31
0.0
  0
LINE
  5
9B
  8
DIMNSIONS
  6
CONTINUOUS
 62
     7
 10
-430.0
 20
-400.0
 30
0.0
 11
-434.02023877090141
 21
-415.0037353515624
 31
0.0
  0
LINE
  5
9C
  8
DIMNSIONS
  6
CONTINUOUS
 62
     7
 10
-430.0
 20
-396.0
 30
0.0
 11
-430.0
 21
-354.70833181937542
 31
0.0
  0
LINE
  5
9D
  8
DIMNSIONS
  6
CONTINUOUS
 62
     7
 10
-430.0
 20
-396.0
 30
0.0
 11
-434.02023877090141
 21
-380.99626464843749
 31
0.0
  0
LINE
  5
9E
  8
DIMNSIONS
  6
CONTINUOUS
 62
     7
 10
-430.0
 20
-396.0
 30
0.0
 11
-425.97976122909847
 21
-380.99626464843749
 31
0.0
  0
TEXT
  5
9F
  8
DIMNSIONS
 62
     7
 10
-435.96333421647557
 20
-365.29166818062458
 30
0.0
 40
16.288416312658931
  1
4
 50
90.0
 41
0.7
 11
-452.2517505291346
 21
-365.29166818062458
 31
0.0
 73
     3
  0
LINE
  5
A0
  8
DIMNSIONS
  6
CONTINUOUS
 62
     7
 10
-412.0
 20
-400.0
 30
0.0
 11
-472.0
 21
-400.0
 31
0.0
  0
LINE
  5
A1
  8
DIMNSIONS
  6
CONTINUOUS
 62
     7
 10
-379.5
 20
-57.0
 30
0.0
 11
-472.0
 21
-57.0
 31
0.0
  0
LINE
  5
A2
  8
DIMNSIONS
  6
CONTINUOUS
 62
     7
 10
-460.0
 20
-400.0
 30
0.0
 11
-460.0
 21
-57.0
 31
0.0
  0
LINE
  5
A3
  8
DIMNSIONS
  6
CONTINUOUS
 62
     7
 10
-460.0
 20
-400.0
 30
0.0
 11
-464.02023877090141
 21
-384.99626464843749
 31
0.0
  0
LINE
  5
A4
  8
DIMNSIONS
  6
CONTINUOUS
 62
     7
 10
-460.0
 20
-400.0
 30
0.0
 11
-455.97976122909847
 21
-384.99626464843749
 31
0.0
  0
LINE
  5
A5
  8
DIMNSIONS
  6
CONTINUOUS
 62
     7
 10
-460.0
 20
-57.0
 30
0.0
 11
-455.97976122909847
 21
-72.003735351562483
 31
0.0
  0
LINE
  5
A6
  8
DIMNSIONS
  6
CONTINUOUS
 62
     7
 10
-460.0
 20
-57.0
 30
0.0
 11
-464.02023877090141
 21
-72.003735351562483
 31
0.0
  0
TEXT
  5
A7
  8
DIMNSIONS
 62
     7
 10
-465.96333421647569
 20
-244.3750050465265
 30
0.0
 40
16.288416312658931
  1
343
 50
90.0
 41
0.7
 11
-482.2517505291346
 21
-244.3750050465265
 31
0.0
 73
     3
  0
TEXT
  5
A8
  8
DATA
 62
     7
 10
300.0
 20
-696.53904281251073
 30
0.0
 40
14.6595703125
  1
AXT600J
 41
0.7
 11
300.0
 21
-681.87947250001071
 31
0.0
 73
     3
  0
TEXT
  5
A9
  8
DATA
 62
     7
 10
300.0
 20
-652.04642052567044
 30
0.0
 40
14.6595703125
  1
SHURE
 41
0.7
 11
300.0
 21
-637.38685021317042
 31
0.0
 73
     3
  0
TEXT
  5
AA
  8
DATA
 62
     7
 10
288.57493464988909
 20
-671.71100095928171
 30
0.0
 40
9.7730468749999986
  1
スペクトラムマネージャー
 41
0.7
 11
288.57493464988909
 21
-661.93795408428173
 31
0.0
 73
     3
  0
LINE
  5
AB
  8
DATA
  6
CONTINUOUS
 62
     7
 10
-400.0
 20
-498.5
 30
0.0
 11
-400.0
 21
-457.5
 31
0.0
  0
LINE
  5
AC
  8
DATA
  6
CONTINUOUS
 62
     7
 10
81.5
 20
-500.0
 30
0.0
 11
-398.5
 21
-500.0
 31
0.0
  0
LINE
  5
AD
  8
DATA
  6
CONTINUOUS
 62
     7
 10
83.0
 20
-457.5
 30
0.0
 11
83.0
 21
-498.5
 31
0.0
  0
LINE
  5
AE
  8
DATA
  6
CONTINUOUS
 62
     7
 10
-398.5
 20
-456.0
 30
0.0
 11
81.5
 21
-456.0
 31
0.0
  0
LINE
  5
AF
  8
DATA
  6
CONTINUOUS
 62
     7
 10
83.0
 20
-400.0
 30
0.0
 11
53.0
 21
-400.0
 31
0.0
  0
LINE
  5
B0
  8
DATA
  6
CONTINUOUS
 62
     7
 10
43.0
 20
-400.0
 30
0.0
 11
-360.0
 21
-400.0
 31
0.0
  0
LINE
  5
B1
  8
DATA
  6
CONTINUOUS
 62
     7
 10
-370.0
 20
-400.0
 30
0.0
 11
-400.0
 21
-400.0
 31
0.0
  0
LINE
  5
B2
  8
DATA
  6
CONTINUOUS
 62
     7
 10
-363.44999999999999
 20
-422.0
 30
0.0
 11
-360.80000001192087
 21
-422.0
 31
0.0
  0
LINE
  5
B3
  8
DATA
  6
CONTINUOUS
 62
     7
 10
-360.0
 20
-500.0
 30
0.0
 11
-360.0
 21
-456.0
 31
0.0
  0
LINE
  5
B4
  8
DATA
  6
CONTINUOUS
 62
     7
 10
-360.0
 20
-421.19999998807913
 30
0.0
 11
-360.0
 21
-79.999999999999844
 31
0.0
  0
LINE
  5
B5
  8
DATA
  6
CONTINUOUS
 62
     7
 10
-360.0
 20
-57.12745562777917
 30
0.0
 11
-360.0
 21
-57.000000000000057
 31
0.0
  0
LINE
  5
B6
  8
DATA
  6
CONTINUOUS
 62
     7
 10
-364.25
 20
-496.18220930678132
 30
0.0
 11
-364.25
 21
-459.81779069321851
 31
0.0
  0
LINE
  5
B7
  8
DATA
  6
CONTINUOUS
 62
     7
 10
-364.25
 20
-421.19999999999987
 30
0.0
 11
-364.25
 21
-415.57886729414298
 31
0.0
  0
LINE
  5
B8
  8
DATA
  6
CONTINUOUS
 62
     7
 10
-370.0
 20
-500.0
 30
0.0
 11
-370.0
 21
-493.69999999999987
 31
0.0
  0
LINE
  5
B9
  8
DATA
  6
CONTINUOUS
 62
     7
 10
-370.0
 20
-462.29999999999978
 30
0.0
 11
-370.0
 21
-456.0
 31
0.0
  0
LINE
  5
BA
  8
DATA
  6
CONTINUOUS
 62
     7
 10
-370.0
 20
-462.30000000000001
 30
0.0
 11
-367.25
 21
-462.30000000000001
 31
0.0
  0
LINE
  5
BB
  8
DATA
  6
CONTINUOUS
 62
     7
 10
-367.25000000000011
 20
-493.69999999999999
 30
0.0
 11
-370.0
 21
-493.69999999999999
 31
0.0
  0
LINE
  5
BC
  8
DATA
  6
CONTINUOUS
 62
     7
 10
-392.55181499999998
 20
-458.60000000000002
 30
0.0
 11
-389.44818500000002
 21
-458.60000000000002
 31
0.0
  0
LINE
  5
BD
  8
DATA
  6
CONTINUOUS
 62
     7
 10
-392.55181499999998
 20
-465.60000000000002
 30
0.0
 11
-389.44818500000002
 21
-465.60000000000002
 31
0.0
  0
ARC
  5
BE
  8
DATA
  6
CONTINUOUS
 62
     7
 10
-389.44818500000002
 20
-462.10000000000002
 30
0.0
 40
3.5
 50
270.0
 51
90.0
  0
ARC
  5
BF
  8
DATA
  6
CONTINUOUS
 62
     7
 10
-392.55181499999998
 20
-462.10000000000002
 30
0.0
 40
3.5
 50
90.0
 51
270.0
  0
LINE
  5
C0
  8
DATA
  6
CONTINUOUS
 62
     7
 10
-392.55181499999998
 20
-497.39999999999998
 30
0.0
 11
-389.44818500000002
 21
-497.39999999999998
 31
0.0
  0
LINE
  5
C1
  8
DATA
  6
CONTINUOUS
 62
     7
 10
-392.55181499999998
 20
-490.39999999999992
 30
0.0
 11
-389.44818500000002
 21
-490.39999999999992
 31
0.0
  0
ARC
  5
C2
  8
DATA
  6
CONTINUOUS
 62
     7
 10
-389.44818500000002
 20
-493.89999999999998
 30
0.0
 40
3.5
 50
270.0
 51
90.0
  0
ARC
  5
C3
  8
DATA
  6
CONTINUOUS
 62
     7
 10
-392.55181499999998
 20
-493.89999999999998
 30
0.0
 40
3.5
 50
90.0
 51
270.0
  0
LINE
  5
C4
  8
DATA
  6
CONTINUOUS
 62
     7
 10
75.551815000000033
 20
-458.60000000000002
 30
0.0
 11
72.448184999999967
 21
-458.60000000000002
 31
0.0
  0
LINE
  5
C5
  8
DATA
  6
CONTINUOUS
 62
     7
 10
75.551815000000033
 20
-465.60000000000002
 30
0.0
 11
72.448184999999967
 21
-465.60000000000002
 31
0.0
  0
ARC
  5
C6
  8
DATA
  6
CONTINUOUS
 62
     7
 10
72.448184999999967
 20
-462.10000000000002
 30
0.0
 40
3.5
 50
90.0
 51
270.0
  0
ARC
  5
C7
  8
DATA
  6
CONTINUOUS
 62
     7
 10
75.551815000000033
 20
-462.10000000000002
 30
0.0
 40
3.5
 50
270.0
 51
90.0
  0
LINE
  5
C8
  8
DATA
  6
CONTINUOUS
 62
     7
 10
75.551815000000033
 20
-497.39999999999998
 30
0.0
 11
72.448184999999967
 21
-497.39999999999998
 31
0.0
  0
LINE
  5
C9
  8
DATA
  6
CONTINUOUS
 62
     7
 10
75.551815000000033
 20
-490.39999999999992
 30
0.0
 11
72.448184999999967
 21
-490.39999999999992
 31
0.0
  0
ARC
  5
CA
  8
DATA
  6
CONTINUOUS
 62
     7
 10
72.448184999999967
 20
-493.89999999999998
 30
0.0
 40
3.5
 50
90.0
 51
270.0
  0
ARC
  5
CB
  8
DATA
  6
CONTINUOUS
 62
     7
 10
75.551815000000033
 20
-493.89999999999998
 30
0.0
 40
3.5
 50
270.0
 51
90.0
  0
LINE
  5
CC
  8
DATA
  6
CONTINUOUS
 62
     7
 10
-368.64846477820367
 20
-472.0294721730005
 30
0.0
 11
-377.3342835510274
 21
-472.01001120517958
 31
0.0
  0
ARC
  5
CD
  8
DATA
  6
CONTINUOUS
 62
     7
 10
-373.00367451017792
 20
-477.50963167711222
 30
0.0
 40
6.9999999999991349
 50
128.21823229719229
 51
51.525020587835392
  0
ARC
  5
CE
  8
DATA
  6
CONTINUOUS
 62
     7
 10
-398.5
 20
-457.5
 30
0.0
 40
1.5
 50
90.0
 51
180.0
  0
ARC
  5
CF
  8
DATA
  6
CONTINUOUS
 62
     7
 10
-398.5
 20
-498.5
 30
0.0
 40
1.5
 50
180.0
 51
270.0
  0
ARC
  5
D0
  8
DATA
  6
CONTINUOUS
 62
     7
 10
81.5
 20
-457.5
 30
0.0
 40
1.5
 50
0.0
 51
90.0
  0
ARC
  5
D1
  8
DATA
  6
CONTINUOUS
 62
     7
 10
81.5
 20
-498.5
 30
0.0
 40
1.5
 50
270.0
 51
0.0
  0
LINE
  5
D2
  8
DATA
  6
CONTINUOUS
 62
     7
 10
-321.0
 20
-464.5
 30
0.0
 11
-321.0
 21
-490.5
 31
0.0
  0
LINE
  5
D3
  8
DATA
  6
CONTINUOUS
 62
     7
 10
-190.0
 20
-464.5
 30
0.0
 11
-190.0
 21
-490.5
 31
0.0
  0
LINE
  5
D4
  8
DATA
  6
CONTINUOUS
 62
     7
 10
-320.0
 20
-463.49999999999989
 30
0.0
 11
-191.0
 21
-463.49999999999989
 31
0.0
  0
LINE
  5
D5
  8
DATA
  6
CONTINUOUS
 62
     7
 10
-320.0
 20
-491.5
 30
0.0
 11
-191.0
 21
-491.5
 31
0.0
  0
TEXT
  5
D6
  8
DATA
 62
     7
 10
-356.8380276516196
 20
-468.99855762588533
 30
0.0
 40
3.2576822916666659
  1
AXT600
 41
0.7
 11
-356.8380276516196
 21
-467.36971648005192
 31
0.0
 73
     2
  0
LINE
  5
D7
  8
DATA
  6
CONTINUOUS
 62
     7
 10
24.300000011920929
 20
-462.5
 30
0.0
 11
37.699999988079071
 21
-462.5
 31
0.0
  0
LINE
  5
D8
  8
DATA
  6
CONTINUOUS
 62
     7
 10
24.300000011920929
 20
-492.49999999999989
 30
0.0
 11
37.699999988079071
 21
-492.49999999999989
 31
0.0
  0
TEXT
  5
D9
  8
DATA
 62
     7
 10
-357.28921061898512
 20
-471.45306136502597
 30
0.0
 40
1.3030729166666659
  1
470-952 MHz
 41
0.7
 11
-357.28921061898512
 21
-470.80152490669258
 31
0.0
 73
     2
  0
ARC
  5
DA
  8
DATA
  6
CONTINUOUS
 62
     7
 10
-320.0
 20
-464.5
 30
0.0
 40
1.0
 50
90.0
 51
180.0
  0
ARC
  5
DB
  8
DATA
  6
CONTINUOUS
 62
     7
 10
-320.0
 20
-490.5
 30
0.0
 40
1.0
 50
180.0
 51
270.0
  0
ARC
  5
DC
  8
DATA
  6
CONTINUOUS
 62
     7
 10
-191.0
 20
-464.5
 30
0.0
 40
1.0
 50
0.0
 51
90.0
  0
ARC
  5
DD
  8
DATA
  6
CONTINUOUS
 62
     7
 10
-191.0
 20
-490.5
 30
0.0
 40
1.0
 50
270.0
 51
0.0
  0
POLYLINE
  5
DE
  8
DATA
  6
CONTINUOUS
 62
     7
 66
     1
 10
0.0
 20
0.0
 30
0.0
 70
   129
  0
VERTEX
  5
93D
  8
DATA
  6
CONTINUOUS
 62
     7
 10
-202.0
 20
-466.02180417403429
 30
0.0
  0
VERTEX
  5
93E
  8
DATA
  6
CONTINUOUS
 62
     7
 10
-193.5
 20
-466.02180417403429
 30
0.0
  0
VERTEX
  5
93F
  8
DATA
  6
CONTINUOUS
 62
     7
 10
-193.5
 20
-466.02180417403429
 30
0.0
 42
-0.4142135623730617
  0
VERTEX
  5
940
  8
DATA
  6
CONTINUOUS
 62
     7
 10
-193.0
 20
-466.52180417403429
 30
0.0
  0
VERTEX
  5
941
  8
DATA
  6
CONTINUOUS
 62
     7
 10
-193.0
 20
-469.52180417403429
 30
0.0
  0
VERTEX
  5
942
  8
DATA
  6
CONTINUOUS
 62
     7
 10
-193.0
 20
-469.52180417403429
 30
0.0
 42
-0.4142135623730951
  0
VERTEX
  5
943
  8
DATA
  6
CONTINUOUS
 62
     7
 10
-193.5
 20
-470.02180417403429
 30
0.0
  0
VERTEX
  5
944
  8
DATA
  6
CONTINUOUS
 62
     7
 10
-202.0
 20
-470.02180417403429
 30
0.0
  0
VERTEX
  5
945
  8
DATA
  6
CONTINUOUS
 62
     7
 10
-202.0
 20
-470.02180417403429
 30
0.0
 42
-0.4142135623730784
  0
VERTEX
  5
946
  8
DATA
  6
CONTINUOUS
 62
     7
 10
-202.5
 20
-469.52180417403429
 30
0.0
  0
VERTEX
  5
947
  8
DATA
  6
CONTINUOUS
 62
     7
 10
-202.5
 20
-466.52180417403429
 30
0.0
  0
VERTEX
  5
948
  8
DATA
  6
CONTINUOUS
 62
     7
 10
-202.5
 20
-466.52180417403429
 30
0.0
 42
-0.4142135623731284
  0
VERTEX
  5
949
  8
DATA
  6
CONTINUOUS
 62
     7
 10
-202.0
 20
-466.02180417403429
 30
0.0
  0
SEQEND
  5
94A
  8
DATA
  6
CONTINUOUS
 62
     7
  0
POLYLINE
  5
ED
  8
DATA
  6
CONTINUOUS
 62
     7
 66
     1
 10
0.0
 20
0.0
 30
0.0
 70
   129
  0
VERTEX
  5
94B
  8
DATA
  6
CONTINUOUS
 62
     7
 10
-202.0
 20
-472.52180417403429
 30
0.0
  0
VERTEX
  5
94C
  8
DATA
  6
CONTINUOUS
 62
     7
 10
-193.5
 20
-472.52180417403429
 30
0.0
  0
VERTEX
  5
94D
  8
DATA
  6
CONTINUOUS
 62
     7
 10
-193.5
 20
-472.52180417403429
 30
0.0
 42
-0.4142135623730951
  0
VERTEX
  5
94E
  8
DATA
  6
CONTINUOUS
 62
     7
 10
-193.0
 20
-473.02180417403429
 30
0.0
  0
VERTEX
  5
94F
  8
DATA
  6
CONTINUOUS
 62
     7
 10
-193.0
 20
-476.02180417403417
 30
0.0
  0
VERTEX
  5
950
  8
DATA
  6
CONTINUOUS
 62
     7
 10
-193.0
 20
-476.02180417403417
 30
0.0
 42
-0.4142135623731618
  0
VERTEX
  5
951
  8
DATA
  6
CONTINUOUS
 62
     7
 10
-193.5
 20
-476.52180417403429
 30
0.0
  0
VERTEX
  5
952
  8
DATA
  6
CONTINUOUS
 62
     7
 10
-202.0
 20
-476.52180417403429
 30
0.0
  0
VERTEX
  5
953
  8
DATA
  6
CONTINUOUS
 62
     7
 10
-202.0
 20
-476.52180417403429
 30
0.0
 42
-0.4142135623730118
  0
VERTEX
  5
954
  8
DATA
  6
CONTINUOUS
 62
     7
 10
-202.5
 20
-476.02180417403412
 30
0.0
  0
VERTEX
  5
955
  8
DATA
  6
CONTINUOUS
 62
     7
 10
-202.5
 20
-473.02180417403412
 30
0.0
  0
VERTEX
  5
956
  8
DATA
  6
CONTINUOUS
 62
     7
 10
-202.5
 20
-473.02180417403412
 30
0.0
 42
-0.1989123673797293
  0
VERTEX
  5
957
  8
DATA
  6
CONTINUOUS
 62
     7
 10
-202.35355339059331
 20
-472.6682507834409
 30
0.0
  0
VERTEX
  5
958
  8
DATA
  6
CONTINUOUS
 62
     7
 10
-202.35355339059319
 20
-472.66825078344078
 30
0.0
 42
-0.1989123673795848
  0
VERTEX
  5
959
  8
DATA
  6
CONTINUOUS
 62
     7
 10
-202.0
 20
-472.52180417403429
 30
0.0
  0
SEQEND
  5
95A
  8
DATA
  6
CONTINUOUS
 62
     7
  0
POLYLINE
  5
FE
  8
DATA
  6
CONTINUOUS
 62
     7
 66
     1
 10
0.0
 20
0.0
 30
0.0
 70
   129
  0
VERTEX
  5
95B
  8
DATA
  6
CONTINUOUS
 62
     7
 10
-202.0
 20
-479.02180417403429
 30
0.0
  0
VERTEX
  5
95C
  8
DATA
  6
CONTINUOUS
 62
     7
 10
-193.5
 20
-479.02180417403429
 30
0.0
  0
VERTEX
  5
95D
  8
DATA
  6
CONTINUOUS
 62
     7
 10
-193.5
 20
-479.02180417403429
 30
0.0
 42
-0.4142135623730951
  0
VERTEX
  5
95E
  8
DATA
  6
CONTINUOUS
 62
     7
 10
-193.0
 20
-479.52180417403429
 30
0.0
  0
VERTEX
  5
95F
  8
DATA
  6
CONTINUOUS
 62
     7
 10
-193.0
 20
-482.52180417403429
 30
0.0
  0
VERTEX
  5
960
  8
DATA
  6
CONTINUOUS
 62
     7
 10
-193.0
 20
-482.52180417403429
 30
0.0
 42
-0.4142135623731284
  0
VERTEX
  5
961
  8
DATA
  6
CONTINUOUS
 62
     7
 10
-193.5
 20
-483.02180417403429
 30
0.0
  0
VERTEX
  5
962
  8
DATA
  6
CONTINUOUS
 62
     7
 10
-202.0
 20
-483.0218041740344
 30
0.0
  0
VERTEX
  5
963
  8
DATA
  6
CONTINUOUS
 62
     7
 10
-202.0
 20
-483.0218041740344
 30
0.0
 42
-0.4142135623730451
  0
VERTEX
  5
964
  8
DATA
  6
CONTINUOUS
 62
     7
 10
-202.5
 20
-482.5218041740344
 30
0.0
  0
VERTEX
  5
965
  8
DATA
  6
CONTINUOUS
 62
     7
 10
-202.5
 20
-479.52180417403429
 30
0.0
  0
VERTEX
  5
966
  8
DATA
  6
CONTINUOUS
 62
     7
 10
-202.5
 20
-479.52180417403429
 30
0.0
 42
-0.4142135623730951
  0
VERTEX
  5
967
  8
DATA
  6
CONTINUOUS
 62
     7
 10
-202.0
 20
-479.02180417403429
 30
0.0
  0
SEQEND
  5
968
  8
DATA
  6
CONTINUOUS
 62
     7
  0
POLYLINE
  5
10D
  8
DATA
  6
CONTINUOUS
 62
     7
 66
     1
 10
0.0
 20
0.0
 30
0.0
 70
   129
  0
VERTEX
  5
969
  8
DATA
  6
CONTINUOUS
 62
     7
 10
-202.0
 20
-485.52180417403429
 30
0.0
  0
VERTEX
  5
96A
  8
DATA
  6
CONTINUOUS
 62
     7
 10
-193.5
 20
-485.52180417403429
 30
0.0
  0
VERTEX
  5
96B
  8
DATA
  6
CONTINUOUS
 62
     7
 10
-193.4999999999998
 20
-485.52180417403429
 30
0.0
 42
-0.1989123673796501
  0
VERTEX
  5
96C
  8
DATA
  6
CONTINUOUS
 62
     7
 10
-193.14644660940669
 20
-485.6682507834409
 30
0.0
  0
VERTEX
  5
96D
  8
DATA
  6
CONTINUOUS
 62
     7
 10
-193.14644660940669
 20
-485.66825078344112
 30
0.0
 42
-0.1989123673796684
  0
VERTEX
  5
96E
  8
DATA
  6
CONTINUOUS
 62
     7
 10
-193.0
 20
-486.02180417403429
 30
0.0
  0
VERTEX
  5
96F
  8
DATA
  6
CONTINUOUS
 62
     7
 10
-193.0
 20
-489.02180417403429
 30
0.0
  0
VERTEX
  5
970
  8
DATA
  6
CONTINUOUS
 62
     7
 10
-193.0
 20
-489.02180417403429
 30
0.0
 42
-0.4142135623730951
  0
VERTEX
  5
971
  8
DATA
  6
CONTINUOUS
 62
     7
 10
-193.5
 20
-489.52180417403429
 30
0.0
  0
VERTEX
  5
972
  8
DATA
  6
CONTINUOUS
 62
     7
 10
-202.0
 20
-489.52180417403429
 30
0.0
  0
VERTEX
  5
973
  8
DATA
  6
CONTINUOUS
 62
     7
 10
-202.0
 20
-489.52180417403429
 30
0.0
 42
-0.4142135623730784
  0
VERTEX
  5
974
  8
DATA
  6
CONTINUOUS
 62
     7
 10
-202.5
 20
-489.02180417403429
 30
0.0
  0
VERTEX
  5
975
  8
DATA
  6
CONTINUOUS
 62
     7
 10
-202.5
 20
-486.02180417403412
 30
0.0
  0
VERTEX
  5
976
  8
DATA
  6
CONTINUOUS
 62
     7
 10
-202.5
 20
-486.02180417403429
 30
0.0
 42
-0.1989123673798284
  0
VERTEX
  5
977
  8
DATA
  6
CONTINUOUS
 62
     7
 10
-202.35355339059319
 20
-485.6682507834409
 30
0.0
  0
VERTEX
  5
978
  8
DATA
  6
CONTINUOUS
 62
     7
 10
-202.35355339059331
 20
-485.6682507834409
 30
0.0
 42
-0.1989123673796266
  0
VERTEX
  5
979
  8
DATA
  6
CONTINUOUS
 62
     7
 10
-202.0
 20
-485.52180417403429
 30
0.0
  0
SEQEND
  5
97A
  8
DATA
  6
CONTINUOUS
 62
     7
  0
TEXT
  5
120
  8
DATA
 62
     7
 10
-202.40763960159441
 20
-461.93152151346499
 30
0.0
 40
1.8633942708333331
  1
navigate
 41
0.7
 11
-202.40763960159441
 21
-460.9998243780484
 31
0.0
 73
     2
  0
LINE
  5
121
  8
DATA
  6
CONTINUOUS
 62
     7
 10
-208.0
 20
-467.30000001192082
 30
0.0
 11
-208.0
 21
-489.89999998807917
 31
0.0
  0
LINE
  5
122
  8
DATA
  6
CONTINUOUS
 62
     7
 10
-275.0
 20
-467.30000000000001
 30
0.0
 11
-275.0
 21
-489.89999998807917
 31
0.0
  0
LINE
  5
123
  8
DATA
  6
CONTINUOUS
 62
     7
 10
-274.19999999999999
 20
-466.5
 30
0.0
 11
-208.8000000119209
 21
-466.5
 31
0.0
  0
LINE
  5
124
  8
DATA
  6
CONTINUOUS
 62
     7
 10
-274.19999998807913
 20
-490.69999999999999
 30
0.0
 11
-208.8000000119209
 21
-490.69999999999999
 31
0.0
  0
ARC
  5
125
  8
DATA
  6
CONTINUOUS
 62
     7
 10
-274.19999999999999
 20
-467.30000000000001
 30
0.0
 40
0.7999999999999546
 50
90.0
 51
180.00000000000401
  0
ARC
  5
126
  8
DATA
  6
CONTINUOUS
 62
     7
 10
-208.8000000119209
 20
-467.30000001192082
 30
0.0
 40
0.8000000119209291
 50
0.0
 51
90.0
  0
ARC
  5
127
  8
DATA
  6
CONTINUOUS
 62
     7
 10
-274.19999998807913
 20
-489.89999998807917
 30
0.0
 40
0.8000000119209291
 50
180.0
 51
270.0
  0
ARC
  5
128
  8
DATA
  6
CONTINUOUS
 62
     7
 10
-208.8000000119209
 20
-489.89999998807917
 30
0.0
 40
0.8000000119209291
 50
270.0
 51
0.0
  0
LINE
  5
129
  8
DATA
  6
CONTINUOUS
 62
     7
 10
-318.0
 20
-466.5
 30
0.0
 11
-318.0
 21
-488.49999999999989
 31
0.0
  0
LINE
  5
12A
  8
DATA
  6
CONTINUOUS
 62
     7
 10
-315.0
 20
-466.5
 30
0.0
 11
-315.0
 21
-488.49999999999989
 31
0.0
  0
LINE
  5
12B
  8
DATA
  6
CONTINUOUS
 62
     7
 10
-318.0
 20
-488.49999999999989
 30
0.0
 11
-315.0
 21
-488.49999999999989
 31
0.0
  0
LINE
  5
12C
  8
DATA
  6
CONTINUOUS
 62
     7
 10
-318.0
 20
-466.5
 30
0.0
 11
-315.0
 21
-466.5
 31
0.0
  0
LINE
  5
12D
  8
DATA
  6
CONTINUOUS
 62
     7
 10
-183.0
 20
-464.5
 30
0.0
 11
-183.0
 21
-490.5
 31
0.0
  0
LINE
  5
12E
  8
DATA
  6
CONTINUOUS
 62
     7
 10
-52.0
 20
-464.5
 30
0.0
 11
-52.0
 21
-490.5
 31
0.0
  0
LINE
  5
12F
  8
DATA
  6
CONTINUOUS
 62
     7
 10
-182.0
 20
-463.49999999999989
 30
0.0
 11
-53.0
 21
-463.49999999999989
 31
0.0
  0
LINE
  5
130
  8
DATA
  6
CONTINUOUS
 62
     7
 10
-182.0
 20
-491.5
 30
0.0
 11
-53.0
 21
-491.5
 31
0.0
  0
ARC
  5
131
  8
DATA
  6
CONTINUOUS
 62
     7
 10
-182.0
 20
-464.5
 30
0.0
 40
1.0
 50
90.0
 51
180.0
  0
ARC
  5
132
  8
DATA
  6
CONTINUOUS
 62
     7
 10
-182.0
 20
-490.5
 30
0.0
 40
1.0
 50
180.0
 51
270.0
  0
ARC
  5
133
  8
DATA
  6
CONTINUOUS
 62
     7
 10
-53.0
 20
-464.5
 30
0.0
 40
1.0
 50
0.0
 51
90.0
  0
ARC
  5
134
  8
DATA
  6
CONTINUOUS
 62
     7
 10
-53.0
 20
-490.5
 30
0.0
 40
1.0
 50
270.0
 51
0.0
  0
POLYLINE
  5
135
  8
DATA
  6
CONTINUOUS
 62
     7
 66
     1
 10
0.0
 20
0.0
 30
0.0
 70
   129
  0
VERTEX
  5
97B
  8
DATA
  6
CONTINUOUS
 62
     7
 10
-64.0
 20
-466.02180417403429
 30
0.0
  0
VERTEX
  5
97C
  8
DATA
  6
CONTINUOUS
 62
     7
 10
-55.5
 20
-466.02180417403429
 30
0.0
  0
VERTEX
  5
97D
  8
DATA
  6
CONTINUOUS
 62
     7
 10
-55.5
 20
-466.02180417403429
 30
0.0
 42
-0.1989123673795993
  0
VERTEX
  5
97E
  8
DATA
  6
CONTINUOUS
 62
     7
 10
-55.146446609406709
 20
-466.16825078344101
 30
0.0
  0
VERTEX
  5
97F
  8
DATA
  6
CONTINUOUS
 62
     7
 10
-55.146446609406709
 20
-466.16825078344101
 30
0.0
 42
-0.1989123673796919
  0
VERTEX
  5
980
  8
DATA
  6
CONTINUOUS
 62
     7
 10
-55.000000000000021
 20
-466.52180417403429
 30
0.0
  0
VERTEX
  5
981
  8
DATA
  6
CONTINUOUS
 62
     7
 10
-55.0
 20
-469.52180417403429
 30
0.0
  0
VERTEX
  5
982
  8
DATA
  6
CONTINUOUS
 62
     7
 10
-55.0
 20
-469.52180417403429
 30
0.0
 42
-0.1989123673796632
  0
VERTEX
  5
983
  8
DATA
  6
CONTINUOUS
 62
     7
 10
-55.146446609406709
 20
-469.87535756462762
 30
0.0
  0
VERTEX
  5
984
  8
DATA
  6
CONTINUOUS
 62
     7
 10
-55.146446609406709
 20
-469.87535756462762
 30
0.0
 42
-0.1989123673796737
  0
VERTEX
  5
985
  8
DATA
  6
CONTINUOUS
 62
     7
 10
-55.499999999999993
 20
-470.02180417403429
 30
0.0
  0
VERTEX
  5
986
  8
DATA
  6
CONTINUOUS
 62
     7
 10
-63.999999999999993
 20
-470.02180417403429
 30
0.0
  0
VERTEX
  5
987
  8
DATA
  6
CONTINUOUS
 62
     7
 10
-63.999999999999993
 20
-470.02180417403429
 30
0.0
 42
-0.1989123673797534
  0
VERTEX
  5
988
  8
DATA
  6
CONTINUOUS
 62
     7
 10
-64.353553390593291
 20
-469.87535756462762
 30
0.0
  0
VERTEX
  5
989
  8
DATA
  6
CONTINUOUS
 62
     7
 10
-64.353553390593291
 20
-469.87535756462762
 30
0.0
 42
-0.1989123673796084
  0
VERTEX
  5
98A
  8
DATA
  6
CONTINUOUS
 62
     7
 10
-64.5
 20
-469.52180417403429
 30
0.0
  0
VERTEX
  5
98B
  8
DATA
  6
CONTINUOUS
 62
     7
 10
-64.5
 20
-466.52180417403429
 30
0.0
  0
VERTEX
  5
98C
  8
DATA
  6
CONTINUOUS
 62
     7
 10
-64.5
 20
-466.52180417403429
 30
0.0
 42
-0.4142135623731284
  0
VERTEX
  5
98D
  8
DATA
  6
CONTINUOUS
 62
     7
 10
-64.0
 20
-466.02180417403429
 30
0.0
  0
SEQEND
  5
98E
  8
DATA
  6
CONTINUOUS
 62
     7
  0
POLYLINE
  5
14A
  8
DATA
  6
CONTINUOUS
 62
     7
 66
     1
 10
0.0
 20
0.0
 30
0.0
 70
   129
  0
VERTEX
  5
98F
  8
DATA
  6
CONTINUOUS
 62
     7
 10
-64.0
 20
-472.52180417403429
 30
0.0
  0
VERTEX
  5
990
  8
DATA
  6
CONTINUOUS
 62
     7
 10
-55.499999999999993
 20
-472.52180417403429
 30
0.0
  0
VERTEX
  5
991
  8
DATA
  6
CONTINUOUS
 62
     7
 10
-55.499999999999609
 20
-472.52180417403429
 30
0.0
 42
-0.1989123673794933
  0
VERTEX
  5
992
  8
DATA
  6
CONTINUOUS
 62
     7
 10
-55.146446609406652
 20
-472.66825078344078
 30
0.0
  0
VERTEX
  5
993
  8
DATA
  6
CONTINUOUS
 62
     7
 10
-55.146446609406652
 20
-472.66825078344078
 30
0.0
 42
-0.1989123673796032
  0
VERTEX
  5
994
  8
DATA
  6
CONTINUOUS
 62
     7
 10
-55.0
 20
-473.02180417403412
 30
0.0
  0
VERTEX
  5
995
  8
DATA
  6
CONTINUOUS
 62
     7
 10
-55.0
 20
-476.02180417403429
 30
0.0
  0
VERTEX
  5
996
  8
DATA
  6
CONTINUOUS
 62
     7
 10
-55.0
 20
-476.02180417403451
 30
0.0
 42
-0.1989123673795432
  0
VERTEX
  5
997
  8
DATA
  6
CONTINUOUS
 62
     7
 10
-55.146446609406681
 20
-476.37535756462751
 30
0.0
  0
VERTEX
  5
998
  8
DATA
  6
CONTINUOUS
 62
     7
 10
-55.14644660940673
 20
-476.37535756462762
 30
0.0
 42
-0.1989123673796032
  0
VERTEX
  5
999
  8
DATA
  6
CONTINUOUS
 62
     7
 10
-55.499999999999993
 20
-476.52180417403429
 30
0.0
  0
VERTEX
  5
99A
  8
DATA
  6
CONTINUOUS
 62
     7
 10
-63.999999999999993
 20
-476.52180417403429
 30
0.0
  0
VERTEX
  5
99B
  8
DATA
  6
CONTINUOUS
 62
     7
 10
-63.999999999999993
 20
-476.52180417403429
 30
0.0
 42
-0.4142135623730659
  0
VERTEX
  5
99C
  8
DATA
  6
CONTINUOUS
 62
     7
 10
-64.5
 20
-476.02180417403417
 30
0.0
  0
VERTEX
  5
99D
  8
DATA
  6
CONTINUOUS
 62
     7
 10
-64.5
 20
-473.02180417403412
 30
0.0
  0
VERTEX
  5
99E
  8
DATA
  6
CONTINUOUS
 62
     7
 10
-64.5
 20
-473.02180417403378
 30
0.0
 42
-0.1989123673796963
  0
VERTEX
  5
99F
  8
DATA
  6
CONTINUOUS
 62
     7
 10
-64.353553390593333
 20
-472.66825078344073
 30
0.0
  0
VERTEX
  5
9A0
  8
DATA
  6
CONTINUOUS
 62
     7
 10
-64.353553390593191
 20
-472.66825078344073
 30
0.0
 42
-0.1989123673794021
  0
VERTEX
  5
9A1
  8
DATA
  6
CONTINUOUS
 62
     7
 10
-64.0
 20
-472.52180417403429
 30
0.0
  0
SEQEND
  5
9A2
  8
DATA
  6
CONTINUOUS
 62
     7
  0
POLYLINE
  5
15F
  8
DATA
  6
CONTINUOUS
 62
     7
 66
     1
 10
0.0
 20
0.0
 30
0.0
 70
   129
  0
VERTEX
  5
9A3
  8
DATA
  6
CONTINUOUS
 62
     7
 10
-64.0
 20
-479.02180417403429
 30
0.0
  0
VERTEX
  5
9A4
  8
DATA
  6
CONTINUOUS
 62
     7
 10
-55.499999999999993
 20
-479.02180417403429
 30
0.0
  0
VERTEX
  5
9A5
  8
DATA
  6
CONTINUOUS
 62
     7
 10
-55.499999999999858
 20
-479.02180417403429
 30
0.0
 42
-0.1989123673798358
  0
VERTEX
  5
9A6
  8
DATA
  6
CONTINUOUS
 62
     7
 10
-55.146446609406652
 20
-479.1682507834409
 30
0.0
  0
VERTEX
  5
9A7
  8
DATA
  6
CONTINUOUS
 62
     7
 10
-55.146446609406681
 20
-479.1682507834409
 30
0.0
 42
-0.1989123673796319
  0
VERTEX
  5
9A8
  8
DATA
  6
CONTINUOUS
 62
     7
 10
-55.0
 20
-479.52180417403429
 30
0.0
  0
VERTEX
  5
9A9
  8
DATA
  6
CONTINUOUS
 62
     7
 10
-55.0
 20
-482.52180417403429
 30
0.0
  0
VERTEX
  5
9AA
  8
DATA
  6
CONTINUOUS
 62
     7
 10
-55.0
 20
-482.5218041740344
 30
0.0
 42
-0.1989123673795432
  0
VERTEX
  5
9AB
  8
DATA
  6
CONTINUOUS
 62
     7
 10
-55.146446609406681
 20
-482.87535756462762
 30
0.0
  0
VERTEX
  5
9AC
  8
DATA
  6
CONTINUOUS
 62
     7
 10
-55.14644660940673
 20
-482.87535756462768
 30
0.0
 42
-0.1989123673796032
  0
VERTEX
  5
9AD
  8
DATA
  6
CONTINUOUS
 62
     7
 10
-55.499999999999993
 20
-483.02180417403429
 30
0.0
  0
VERTEX
  5
9AE
  8
DATA
  6
CONTINUOUS
 62
     7
 10
-63.999999999999993
 20
-483.0218041740344
 30
0.0
  0
VERTEX
  5
9AF
  8
DATA
  6
CONTINUOUS
 62
     7
 10
-63.999999999999993
 20
-483.0218041740344
 30
0.0
 42
-0.4142135623730659
  0
VERTEX
  5
9B0
  8
DATA
  6
CONTINUOUS
 62
     7
 10
-64.5
 20
-482.5218041740344
 30
0.0
  0
VERTEX
  5
9B1
  8
DATA
  6
CONTINUOUS
 62
     7
 10
-64.5
 20
-479.52180417403429
 30
0.0
  0
VERTEX
  5
9B2
  8
DATA
  6
CONTINUOUS
 62
     7
 10
-64.5
 20
-479.521804174034
 30
0.0
 42
-0.198912367379658
  0
VERTEX
  5
9B3
  8
DATA
  6
CONTINUOUS
 62
     7
 10
-64.353553390593319
 20
-479.1682507834409
 30
0.0
  0
VERTEX
  5
9B4
  8
DATA
  6
CONTINUOUS
 62
     7
 10
-64.353553390593291
 20
-479.16825078344078
 30
0.0
 42
-0.1989123673795509
  0
VERTEX
  5
9B5
  8
DATA
  6
CONTINUOUS
 62
     7
 10
-64.0
 20
-479.02180417403429
 30
0.0
  0
SEQEND
  5
9B6
  8
DATA
  6
CONTINUOUS
 62
     7
  0
POLYLINE
  5
174
  8
DATA
  6
CONTINUOUS
 62
     7
 66
     1
 10
0.0
 20
0.0
 30
0.0
 70
   129
  0
VERTEX
  5
9B7
  8
DATA
  6
CONTINUOUS
 62
     7
 10
-64.0
 20
-485.52180417403429
 30
0.0
  0
VERTEX
  5
9B8
  8
DATA
  6
CONTINUOUS
 62
     7
 10
-55.499999999999993
 20
-485.52180417403429
 30
0.0
  0
VERTEX
  5
9B9
  8
DATA
  6
CONTINUOUS
 62
     7
 10
-55.499999999999737
 20
-485.52180417403429
 30
0.0
 42
-0.1989123673796839
  0
VERTEX
  5
9BA
  8
DATA
  6
CONTINUOUS
 62
     7
 10
-55.146446609406681
 20
-485.6682507834409
 30
0.0
  0
VERTEX
  5
9BB
  8
DATA
  6
CONTINUOUS
 62
     7
 10
-55.146446609406603
 20
-485.66825078344112
 30
0.0
 42
-0.1989123673796005
  0
VERTEX
  5
9BC
  8
DATA
  6
CONTINUOUS
 62
     7
 10
-55.0
 20
-486.02180417403429
 30
0.0
  0
VERTEX
  5
9BD
  8
DATA
  6
CONTINUOUS
 62
     7
 10
-55.0
 20
-489.02180417403429
 30
0.0
  0
VERTEX
  5
9BE
  8
DATA
  6
CONTINUOUS
 62
     7
 10
-55.0
 20
-489.02180417403429
 30
0.0
 42
-0.1989123673797171
  0
VERTEX
  5
9BF
  8
DATA
  6
CONTINUOUS
 62
     7
 10
-55.146446609406709
 20
-489.37535756462762
 30
0.0
  0
VERTEX
  5
9C0
  8
DATA
  6
CONTINUOUS
 62
     7
 10
-55.146446609406709
 20
-489.37535756462762
 30
0.0
 42
-0.1989123673796737
  0
VERTEX
  5
9C1
  8
DATA
  6
CONTINUOUS
 62
     7
 10
-55.499999999999993
 20
-489.52180417403429
 30
0.0
  0
VERTEX
  5
9C2
  8
DATA
  6
CONTINUOUS
 62
     7
 10
-63.999999999999993
 20
-489.52180417403429
 30
0.0
  0
VERTEX
  5
9C3
  8
DATA
  6
CONTINUOUS
 62
     7
 10
-63.999999999999993
 20
-489.52180417403429
 30
0.0
 42
-0.1989123673797534
  0
VERTEX
  5
9C4
  8
DATA
  6
CONTINUOUS
 62
     7
 10
-64.353553390593291
 20
-489.37535756462762
 30
0.0
  0
VERTEX
  5
9C5
  8
DATA
  6
CONTINUOUS
 62
     7
 10
-64.353553390593291
 20
-489.37535756462762
 30
0.0
 42
-0.1989123673796084
  0
VERTEX
  5
9C6
  8
DATA
  6
CONTINUOUS
 62
     7
 10
-64.5
 20
-489.02180417403429
 30
0.0
  0
VERTEX
  5
9C7
  8
DATA
  6
CONTINUOUS
 62
     7
 10
-64.5
 20
-486.02180417403412
 30
0.0
  0
VERTEX
  5
9C8
  8
DATA
  6
CONTINUOUS
 62
     7
 10
-64.5
 20
-486.02180417403412
 30
0.0
 42
-0.4142135623729619
  0
VERTEX
  5
9C9
  8
DATA
  6
CONTINUOUS
 62
     7
 10
-64.0
 20
-485.52180417403429
 30
0.0
  0
SEQEND
  5
9CA
  8
DATA
  6
CONTINUOUS
 62
     7
  0
TEXT
  5
189
  8
DATA
 62
     7
 10
-64.407639601594425
 20
-461.93152151346499
 30
0.0
 40
1.8633942708333331
  1
navigate
 41
0.7
 11
-64.407639601594425
 21
-460.9998243780484
 31
0.0
 73
     2
  0
LINE
  5
18A
  8
DATA
  6
CONTINUOUS
 62
     7
 10
-70.0
 20
-467.30000001192082
 30
0.0
 11
-70.0
 21
-489.89999998807917
 31
0.0
  0
LINE
  5
18B
  8
DATA
  6
CONTINUOUS
 62
     7
 10
-137.0
 20
-467.30000000000001
 30
0.0
 11
-137.0
 21
-489.89999998807917
 31
0.0
  0
LINE
  5
18C
  8
DATA
  6
CONTINUOUS
 62
     7
 10
-136.19999999999999
 20
-466.5
 30
0.0
 11
-70.800000011920943
 21
-466.5
 31
0.0
  0
LINE
  5
18D
  8
DATA
  6
CONTINUOUS
 62
     7
 10
-136.1999999880791
 20
-490.69999999999999
 30
0.0
 11
-70.800000011920943
 21
-490.69999999999999
 31
0.0
  0
ARC
  5
18E
  8
DATA
  6
CONTINUOUS
 62
     7
 10
-136.19999999999999
 20
-467.30000000000001
 30
0.0
 40
0.7999999999999546
 50
90.0
 51
180.00000000000401
  0
ARC
  5
18F
  8
DATA
  6
CONTINUOUS
 62
     7
 10
-70.800000011920943
 20
-467.30000001192082
 30
0.0
 40
0.8000000119209291
 50
0.0
 51
90.0
  0
ARC
  5
190
  8
DATA
  6
CONTINUOUS
 62
     7
 10
-136.1999999880791
 20
-489.89999998807917
 30
0.0
 40
0.8000000119209291
 50
180.0
 51
270.0
  0
ARC
  5
191
  8
DATA
  6
CONTINUOUS
 62
     7
 10
-70.800000011920943
 20
-489.89999998807917
 30
0.0
 40
0.8000000119209291
 50
270.0
 51
0.0
  0
LINE
  5
192
  8
DATA
  6
CONTINUOUS
 62
     7
 10
-180.0
 20
-466.5
 30
0.0
 11
-180.0
 21
-488.49999999999989
 31
0.0
  0
LINE
  5
193
  8
DATA
  6
CONTINUOUS
 62
     7
 10
-177.0
 20
-466.5
 30
0.0
 11
-177.0
 21
-488.49999999999989
 31
0.0
  0
LINE
  5
194
  8
DATA
  6
CONTINUOUS
 62
     7
 10
-180.0
 20
-488.49999999999989
 30
0.0
 11
-177.0
 21
-488.49999999999989
 31
0.0
  0
LINE
  5
195
  8
DATA
  6
CONTINUOUS
 62
     7
 10
-180.0
 20
-466.5
 30
0.0
 11
-177.0
 21
-466.5
 31
0.0
  0
CIRCLE
  5
196
  8
DATA
  6
CONTINUOUS
 62
     7
 10
-26.0
 20
-478.0
 30
0.0
 40
11.0
  0
CIRCLE
  5
197
  8
DATA
  6
CONTINUOUS
 62
     7
 10
-26.0
 20
-478.0
 30
0.0
 40
10.0
  0
CIRCLE
  5
198
  8
DATA
  6
CONTINUOUS
 62
     7
 10
-26.0
 20
-478.0
 30
0.0
 40
6.5
  0
TEXT
  5
199
  8
DATA
 62
     7
 10
-30.29619650260517
 20
-461.93152151346499
 30
0.0
 40
1.8633942708333331
  1
control
 41
0.7
 11
-30.29619650260517
 21
-460.9998243780484
 31
0.0
 73
     2
  0
POLYLINE
  5
19A
  8
DATA
  6
CONTINUOUS
 62
     7
 66
     1
 10
0.0
 20
0.0
 30
0.0
 70
   129
  0
VERTEX
  5
9CB
  8
DATA
  6
CONTINUOUS
 62
     7
 10
-48.0
 20
-469.28170141169358
 30
0.0
  0
VERTEX
  5
9CC
  8
DATA
  6
CONTINUOUS
 62
     7
 10
-39.5
 20
-469.28170141169358
 30
0.0
  0
VERTEX
  5
9CD
  8
DATA
  6
CONTINUOUS
 62
     7
 10
-39.5
 20
-469.28170141169358
 30
0.0
 42
-0.1989123673796654
  0
VERTEX
  5
9CE
  8
DATA
  6
CONTINUOUS
 62
     7
 10
-39.146446609406709
 20
-469.42814802110018
 30
0.0
  0
VERTEX
  5
9CF
  8
DATA
  6
CONTINUOUS
 62
     7
 10
-39.146446609406652
 20
-469.42814802110041
 30
0.0
 42
-0.1989123673795457
  0
VERTEX
  5
9D0
  8
DATA
  6
CONTINUOUS
 62
     7
 10
-39.0
 20
-469.78170141169358
 30
0.0
  0
VERTEX
  5
9D1
  8
DATA
  6
CONTINUOUS
 62
     7
 10
-39.0
 20
-472.78170141169369
 30
0.0
  0
VERTEX
  5
9D2
  8
DATA
  6
CONTINUOUS
 62
     7
 10
-39.0
 20
-472.78170141169369
 30
0.0
 42
-0.4142135623731284
  0
VERTEX
  5
9D3
  8
DATA
  6
CONTINUOUS
 62
     7
 10
-39.5
 20
-473.28170141169369
 30
0.0
  0
VERTEX
  5
9D4
  8
DATA
  6
CONTINUOUS
 62
     7
 10
-48.000000000000021
 20
-473.28170141169358
 30
0.0
  0
VERTEX
  5
9D5
  8
DATA
  6
CONTINUOUS
 62
     7
 10
-48.000000000000043
 20
-473.28170141169358
 30
0.0
 42
-0.1989123673797451
  0
VERTEX
  5
9D6
  8
DATA
  6
CONTINUOUS
 62
     7
 10
-48.353553390593312
 20
-473.13525480228691
 30
0.0
  0
VERTEX
  5
9D7
  8
DATA
  6
CONTINUOUS
 62
     7
 10
-48.353553390593312
 20
-473.13525480228691
 30
0.0
 42
-0.1989123673796084
  0
VERTEX
  5
9D8
  8
DATA
  6
CONTINUOUS
 62
     7
 10
-48.500000000000021
 20
-472.78170141169358
 30
0.0
  0
VERTEX
  5
9D9
  8
DATA
  6
CONTINUOUS
 62
     7
 10
-48.500000000000021
 20
-469.7817014116934
 30
0.0
  0
VERTEX
  5
9DA
  8
DATA
  6
CONTINUOUS
 62
     7
 10
-48.500000000000021
 20
-469.7817014116934
 30
0.0
 42
-0.4142135623730284
  0
VERTEX
  5
9DB
  8
DATA
  6
CONTINUOUS
 62
     7
 10
-48.0
 20
-469.28170141169358
 30
0.0
  0
SEQEND
  5
9DC
  8
DATA
  6
CONTINUOUS
 62
     7
  0
TEXT
  5
1AD
  8
DATA
 62
     7
 10
-46.782367360770202
 20
-472.14243046874992
 30
0.0
 40
1.8633942708333331
  1
enter
 41
0.7
 11
-46.782367360770202
 21
-471.21073333333322
 31
0.0
 73
     2
  0
POLYLINE
  5
1AE
  8
DATA
  6
CONTINUOUS
 62
     7
 66
     1
 10
0.0
 20
0.0
 30
0.0
 70
   129
  0
VERTEX
  5
9DD
  8
DATA
  6
CONTINUOUS
 62
     7
 10
-48.0
 20
-482.71829858830631
 30
0.0
  0
VERTEX
  5
9DE
  8
DATA
  6
CONTINUOUS
 62
     7
 10
-39.5
 20
-482.71829858830631
 30
0.0
  0
VERTEX
  5
9DF
  8
DATA
  6
CONTINUOUS
 62
     7
 10
-39.499999999999851
 20
-482.71829858830631
 30
0.0
 42
-0.1989123673797835
  0
VERTEX
  5
9E0
  8
DATA
  6
CONTINUOUS
 62
     7
 10
-39.146446609406659
 20
-482.86474519771309
 30
0.0
  0
VERTEX
  5
9E1
  8
DATA
  6
CONTINUOUS
 62
     7
 10
-39.146446609406532
 20
-482.86474519771309
 30
0.0
 42
-0.1989123673794804
  0
VERTEX
  5
9E2
  8
DATA
  6
CONTINUOUS
 62
     7
 10
-39.0
 20
-483.21829858830631
 30
0.0
  0
VERTEX
  5
9E3
  8
DATA
  6
CONTINUOUS
 62
     7
 10
-39.0
 20
-486.21829858830631
 30
0.0
  0
VERTEX
  5
9E4
  8
DATA
  6
CONTINUOUS
 62
     7
 10
-39.0
 20
-486.2182985883066
 30
0.0
 42
-0.1989123673795493
  0
VERTEX
  5
9E5
  8
DATA
  6
CONTINUOUS
 62
     7
 10
-39.146446609406681
 20
-486.5718519788997
 30
0.0
  0
VERTEX
  5
9E6
  8
DATA
  6
CONTINUOUS
 62
     7
 10
-39.146446609406681
 20
-486.5718519788997
 30
0.0
 42
-0.1989123673796266
  0
VERTEX
  5
9E7
  8
DATA
  6
CONTINUOUS
 62
     7
 10
-39.499999999999993
 20
-486.71829858830642
 30
0.0
  0
VERTEX
  5
9E8
  8
DATA
  6
CONTINUOUS
 62
     7
 10
-48.0
 20
-486.7182985883066
 30
0.0
  0
VERTEX
  5
9E9
  8
DATA
  6
CONTINUOUS
 62
     7
 10
-48.0
 20
-486.7182985883066
 30
0.0
 42
-0.4142135623730577
  0
VERTEX
  5
9EA
  8
DATA
  6
CONTINUOUS
 62
     7
 10
-48.500000000000021
 20
-486.2182985883066
 30
0.0
  0
VERTEX
  5
9EB
  8
DATA
  6
CONTINUOUS
 62
     7
 10
-48.500000000000021
 20
-483.21829858830631
 30
0.0
  0
VERTEX
  5
9EC
  8
DATA
  6
CONTINUOUS
 62
     7
 10
-48.500000000000021
 20
-483.2182985883062
 30
0.0
 42
-0.1989123673795119
  0
VERTEX
  5
9ED
  8
DATA
  6
CONTINUOUS
 62
     7
 10
-48.353553390593348
 20
-482.86474519771309
 30
0.0
  0
VERTEX
  5
9EE
  8
DATA
  6
CONTINUOUS
 62
     7
 10
-48.353553390593319
 20
-482.86474519771292
 30
0.0
 42
-0.1989123673796005
  0
VERTEX
  5
9EF
  8
DATA
  6
CONTINUOUS
 62
     7
 10
-48.0
 20
-482.71829858830631
 30
0.0
  0
SEQEND
  5
9F0
  8
DATA
  6
CONTINUOUS
 62
     7
  0
TEXT
  5
1C3
  8
DATA
 62
     7
 10
-45.969256160407717
 20
-485.58251631643861
 30
0.0
 40
1.8633942708333331
  1
exit
 41
0.7
 11
-45.969256160407717
 21
-484.65081918102197
 31
0.0
 73
     2
  0
TEXT
  5
1C4
  8
DATA
 62
     7
 10
-28.442570327764191
 20
-491.73267169060449
 30
0.0
 40
1.8633942708333331
  1
push
 41
0.7
 11
-28.442570327764191
 21
-490.80097455518779
 31
0.0
 73
     2
  0
CIRCLE
  5
1C5
  8
DATA
  6
CONTINUOUS
 62
     7
 10
4.0
 20
-470.00000000000011
 30
0.0
 40
7.0
  0
CIRCLE
  5
1C6
  8
DATA
  6
CONTINUOUS
 62
     7
 10
4.0
 20
-470.00000000000011
 30
0.0
 40
6.0
  0
CIRCLE
  5
1C7
  8
DATA
  6
CONTINUOUS
 62
     7
 10
4.0
 20
-470.00000000000011
 30
0.0
 40
2.6499999999999999
  0
TEXT
  5
1C8
  8
DATA
 62
     7
 10
0.0981854858068263
 20
-461.93152151346499
 30
0.0
 40
1.8633942708333331
  1
monitor
 41
0.7
 11
0.0981854858068263
 21
-460.9998243780484
 31
0.0
 73
     2
  0
LINE
  5
1C9
  8
DATA
  6
CONTINUOUS
 62
     7
 10
38.5
 20
-491.69999998807913
 30
0.0
 11
38.5
 21
-463.30000001192087
 31
0.0
  0
LINE
  5
1CA
  8
DATA
  6
CONTINUOUS
 62
     7
 10
23.5
 20
-491.69999998807913
 30
0.0
 11
23.5
 21
-463.30000001192087
 31
0.0
  0
TEXT
  5
1CB
  8
DATA
 62
     7
 10
27.750409518820721
 20
-461.93152151346499
 30
0.0
 40
1.8633942708333331
  1
Power
 41
0.7
 11
27.750409518820721
 21
-460.9998243780484
 31
0.0
 73
     2
  0
LINE
  5
1CC
  8
DATA
  6
CONTINUOUS
 62
     7
 10
26.800000000000001
 20
-467.0
 30
0.0
 11
35.199999988079071
 21
-467.0
 31
0.0
  0
LINE
  5
1CD
  8
DATA
  6
CONTINUOUS
 62
     7
 10
26.800000011920929
 20
-488.0
 30
0.0
 11
35.199999988079071
 21
-488.0
 31
0.0
  0
LINE
  5
1CE
  8
DATA
  6
CONTINUOUS
 62
     7
 10
26.0
 20
-481.67366218885979
 30
0.0
 11
26.0
 21
-467.80000000000001
 31
0.0
  0
LINE
  5
1CF
  8
DATA
  6
CONTINUOUS
 62
     7
 10
36.0
 20
-481.67366218885979
 30
0.0
 11
36.0
 21
-467.80000001192087
 31
0.0
  0
LINE
  5
1D0
  8
DATA
  6
CONTINUOUS
 62
     7
 10
28.0
 20
-483.67366218885968
 30
0.0
 11
34.0
 21
-483.67366218885968
 31
0.0
  0
ARC
  5
1D1
  8
DATA
  6
CONTINUOUS
 62
     7
 10
28.0
 20
-481.67366218885979
 30
0.0
 40
2.0
 50
180.0
 51
270.0
  0
ARC
  5
1D2
  8
DATA
  6
CONTINUOUS
 62
     7
 10
34.0
 20
-481.67366218885979
 30
0.0
 40
2.0
 50
270.0
 51
0.0
  0
ARC
  5
1D3
  8
DATA
  6
CONTINUOUS
 62
     7
 10
26.800000000000001
 20
-467.80000000000001
 30
0.0
 40
0.8000000000000682
 50
90.0
 51
179.99999999999591
  0
ARC
  5
1D4
  8
DATA
  6
CONTINUOUS
 62
     7
 10
35.199999988079071
 20
-467.80000001192087
 30
0.0
 40
0.8000000119209291
 50
0.0
 51
90.0
  0
LINE
  5
1D5
  8
DATA
  6
CONTINUOUS
 62
     7
 10
26.0
 20
-487.19999998807913
 30
0.0
 11
26.0
 21
-481.18454625945969
 31
0.0
  0
LINE
  5
1D6
  8
DATA
  6
CONTINUOUS
 62
     7
 10
36.0
 20
-487.19999998807913
 30
0.0
 11
36.0
 21
-481.67366218885979
 31
0.0
  0
ARC
  5
1D7
  8
DATA
  6
CONTINUOUS
 62
     7
 10
26.800000011920929
 20
-487.19999998807913
 30
0.0
 40
0.8000000119209291
 50
180.0
 51
270.0
  0
ARC
  5
1D8
  8
DATA
  6
CONTINUOUS
 62
     7
 10
35.199999988079071
 20
-487.19999998807913
 30
0.0
 40
0.8000000119209291
 50
270.0
 51
0.0
  0
LINE
  5
1D9
  8
DATA
  6
CONTINUOUS
 62
     7
 10
30.999999994039531
 20
-468.44298522276972
 30
0.0
 11
30.999999994039531
 21
-471.44298522276972
 31
0.0
  0
ARC
  5
1DA
  8
DATA
  6
CONTINUOUS
 62
     7
 10
31.000000000000131
 20
-480.50905020781141
 30
0.0
 40
2.0000000000009011
 50
112.02431283703579
 51
67.975687162973259
  0
LINE
  5
1DB
  8
DATA
  6
CONTINUOUS
 62
     7
 10
30.999999994039531
 20
-477.05482008076171
 30
0.0
 11
30.999999994039531
 21
-480.05482008076171
 31
0.0
  0
ARC
  5
1DC
  8
DATA
  6
CONTINUOUS
 62
     7
 10
24.300000011920929
 20
-463.30000001192087
 30
0.0
 40
0.8000000119209291
 50
90.0
 51
180.0
  0
ARC
  5
1DD
  8
DATA
  6
CONTINUOUS
 62
     7
 10
24.300000011920929
 20
-491.69999998807913
 30
0.0
 40
0.8000000119209291
 50
180.0
 51
270.0
  0
ARC
  5
1DE
  8
DATA
  6
CONTINUOUS
 62
     7
 10
37.699999988079071
 20
-491.69999998807913
 30
0.0
 40
0.8000000119209291
 50
270.0
 51
0.0
  0
ARC
  5
1DF
  8
DATA
  6
CONTINUOUS
 62
     7
 10
37.699999988079071
 20
-463.30000001192087
 30
0.0
 40
0.8000000119209291
 50
0.0
 51
90.0
  0
LINE
  5
1E0
  8
DATA
  6
CONTINUOUS
 62
     7
 10
43.0
 20
-492.49999999999989
 30
0.0
 11
-360.0
 21
-492.49999999999989
 31
0.0
  0
LINE
  5
1E1
  8
DATA
  6
CONTINUOUS
 62
     7
 10
43.0
 20
-462.5
 30
0.0
 11
-360.0
 21
-462.5
 31
0.0
  0
CIRCLE
  5
1E2
  8
DATA
  6
CONTINUOUS
 62
     7
 10
4.0
 20
-484.52327851626308
 30
0.0
 40
3.25
  0
CIRCLE
  5
1E3
  8
DATA
  6
CONTINUOUS
 62
     7
 10
4.0
 20
-484.52327851626308
 30
0.0
 40
4.5
  0
CIRCLE
  5
1E4
  8
DATA
  6
CONTINUOUS
 62
     7
 10
-8.0
 20
-464.35193439909273
 30
0.0
 40
1.25
  0
CIRCLE
  5
1E5
  8
DATA
  6
CONTINUOUS
 62
     7
 10
-8.0
 20
-474.35193439909278
 30
0.0
 40
1.25
  0
CIRCLE
  5
1E6
  8
DATA
  6
CONTINUOUS
 62
     7
 10
-8.0
 20
-481.35193439909273
 30
0.0
 40
1.25
  0
TEXT
  5
1E7
  8
DATA
 62
     7
 10
-6.2993227178612923
 20
-465.01805282651821
 30
0.0
 40
1.677054843749999
  1
clip
 41
0.7
 11
-6.2993227178612923
 21
-464.17952540464319
 31
0.0
 73
     2
  0
TEXT
  5
1E8
  8
DATA
 62
     7
 10
-8.2046786001283731
 20
-469.22045578709572
 30
0.0
 40
1.677054843749999
  1
push
 41
0.7
 11
-8.2046786001283731
 21
-468.38192836522069
 31
0.0
 73
     2
  0
TEXT
  5
1E9
  8
DATA
 62
     7
 10
-5.937347033412216
 20
-475.03398228697142
 30
0.0
 40
1.677054843749999
  1
on
 41
0.7
 11
-5.937347033412216
 21
-474.19545486509628
 31
0.0
 73
     2
  0
TEXT
  5
1EA
  8
DATA
 62
     7
 10
-5.7725098239714043
 20
-482.0898034342722
 30
0.0
 40
1.677054843749999
  1
off
 41
0.7
 11
-5.7725098239714043
 21
-481.25127601239711
 31
0.0
 73
     2
  0
LINE
  5
1EB
  8
DATA
  6
CONTINUOUS
 62
     7
 10
-8.0
 20
-479.15325454655613
 30
0.0
 11
-8.0
 21
-476.21954716253509
 31
0.0
  0
LINE
  5
1EC
  8
DATA
  6
CONTINUOUS
 62
     7
 10
-8.0
 20
-472.54713978058521
 30
0.0
 11
-8.0
 21
-470.435573373485
 31
0.0
  0
LINE
  5
1ED
  8
DATA
  6
CONTINUOUS
 62
     7
 10
-366.49273430855902
 20
-456.91493887602809
 30
0.0
 11
-370.0
 21
-456.0
 31
0.0
  0
LINE
  5
1EE
  8
DATA
  6
CONTINUOUS
 62
     7
 10
-370.0
 20
-500.0
 30
0.0
 11
-366.49273430855902
 21
-499.08506112397191
 31
0.0
  0
LINE
  5
1EF
  8
DATA
  6
CONTINUOUS
 62
     7
 10
43.0
 20
-500.0
 30
0.0
 11
43.0
 21
-456.0
 31
0.0
  0
LINE
  5
1F0
  8
DATA
  6
CONTINUOUS
 62
     7
 10
47.25
 20
-496.18220930678132
 30
0.0
 11
47.25
 21
-459.81779069321851
 31
0.0
  0
LINE
  5
1F1
  8
DATA
  6
CONTINUOUS
 62
     7
 10
53.0
 20
-500.0
 30
0.0
 11
53.0
 21
-493.69999999999987
 31
0.0
  0
LINE
  5
1F2
  8
DATA
  6
CONTINUOUS
 62
     7
 10
53.0
 20
-462.29999999999978
 30
0.0
 11
53.0
 21
-456.0
 31
0.0
  0
LINE
  5
1F3
  8
DATA
  6
CONTINUOUS
 62
     7
 10
53.0
 20
-462.30000000000001
 30
0.0
 11
50.25
 21
-462.30000000000001
 31
0.0
  0
LINE
  5
1F4
  8
DATA
  6
CONTINUOUS
 62
     7
 10
50.250000000000021
 20
-493.69999999999999
 30
0.0
 11
53.0
 21
-493.69999999999999
 31
0.0
  0
LINE
  5
1F5
  8
DATA
  6
CONTINUOUS
 62
     7
 10
49.492734308558987
 20
-456.91493887602809
 30
0.0
 11
53.0
 21
-456.0
 31
0.0
  0
LINE
  5
1F6
  8
DATA
  6
CONTINUOUS
 62
     7
 10
53.0
 20
-500.0
 30
0.0
 11
49.492734308558987
 21
-499.08506112397191
 31
0.0
  0
TEXT
  5
1F7
  8
DATA
 62
     7
 10
-356.81393958009119
 20
-491.34613992125611
 30
0.0
 40
2.2021932291666659
  1
Spectrum Manager
 41
0.7
 11
-356.81393958009119
 21
-490.24504330667281
 31
0.0
 73
     2
  0
LINE
  5
1F8
  8
DATA
  6
CONTINUOUS
 62
     7
 10
2.675000000000006
 20
-472.29496732002877
 30
0.0
 11
0.9999999999999792
 21
-475.1961524227064
 31
0.0
  0
ARC
  5
1F9
  8
DATA
  6
CONTINUOUS
 62
     7
 10
-3.919466362205271
 20
-485.3616744997118
 30
0.0
 40
1.7500000000000511
 50
328.68759820582619
 51
211.31240179417401
  0
LINE
  5
1FA
  8
DATA
  6
CONTINUOUS
 62
     7
 10
-5.4145724906181369
 20
-486.77047501042478
 30
0.0
 11
-5.4145724906181369
 21
-485.77047501042478
 31
0.0
  0
LINE
  5
1FB
  8
DATA
  6
CONTINUOUS
 62
     7
 10
-4.9145724906181369
 20
-486.77047501042478
 30
0.0
 11
-5.4145724906181369
 21
-486.77047501042478
 31
0.0
  0
LINE
  5
1FC
  8
DATA
  6
CONTINUOUS
 62
     7
 10
-4.9145724906181369
 20
-485.77047501042478
 30
0.0
 11
-4.9145724906181369
 21
-486.77047501042478
 31
0.0
  0
LINE
  5
1FD
  8
DATA
  6
CONTINUOUS
 62
     7
 10
-5.4145724906181369
 20
-485.77047501042478
 30
0.0
 11
-4.9145724906181369
 21
-485.77047501042478
 31
0.0
  0
LINE
  5
1FE
  8
DATA
  6
CONTINUOUS
 62
     7
 10
-2.9243602337924162
 20
-486.77047501042478
 30
0.0
 11
-2.9243602337924162
 21
-485.77047501042478
 31
0.0
  0
LINE
  5
1FF
  8
DATA
  6
CONTINUOUS
 62
     7
 10
-2.4243602337924162
 20
-486.77047501042478
 30
0.0
 11
-2.9243602337924162
 21
-486.77047501042478
 31
0.0
  0
LINE
  5
200
  8
DATA
  6
CONTINUOUS
 62
     7
 10
-2.4243602337924162
 20
-485.77047501042478
 30
0.0
 11
-2.4243602337924162
 21
-486.77047501042478
 31
0.0
  0
LINE
  5
201
  8
DATA
  6
CONTINUOUS
 62
     7
 10
-2.9243602337924162
 20
-485.77047501042478
 30
0.0
 11
-2.4243602337924162
 21
-485.77047501042478
 31
0.0
  0
LINE
  5
202
  8
DATA
  6
CONTINUOUS
 62
     7
 10
-379.0
 20
-396.0
 30
0.0
 11
-400.0
 21
-396.0
 31
0.0
  0
LINE
  5
203
  8
DATA
  6
CONTINUOUS
 62
     7
 10
-367.5
 20
-383.0
 30
0.0
 11
-367.5
 21
-78.036782172789543
 31
0.0
  0
LINE
  5
204
  8
DATA
  6
CONTINUOUS
 62
     7
 10
50.5
 20
-80.465795604177472
 30
0.0
 11
50.5
 21
-383.0
 31
0.0
  0
LINE
  5
205
  8
DATA
  6
CONTINUOUS
 62
     7
 10
-400.0
 20
-400.0
 30
0.0
 11
-400.0
 21
-396.0
 31
0.0
  0
LINE
  5
206
  8
DATA
  6
CONTINUOUS
 62
     7
 10
-379.0
 20
-396.0
 30
0.0
 11
-367.5
 21
-383.0
 31
0.0
  0
LINE
  5
207
  8
DATA
  6
CONTINUOUS
 62
     7
 10
-360.0
 20
-398.5
 30
0.0
 11
43.0
 21
-398.5
 31
0.0
  0
LINE
  5
208
  8
DATA
  6
CONTINUOUS
 62
     7
 10
-364.84984145297238
 20
-412.53951646232798
 30
0.0
 11
-370.0
 21
-400.0
 31
0.0
  0
ARC
  5
209
  8
DATA
  6
CONTINUOUS
 62
     7
 10
-372.25000000000011
 20
-415.57886729414281
 30
0.0
 40
8.0000000000000568
 50
359.99999999999881
 51
22.328656378018021
  0
LINE
  5
20A
  8
DATA
  6
CONTINUOUS
 62
     7
 10
42.999999999999979
 20
-380.0
 30
0.0
 11
-360.0
 21
-380.0
 31
0.0
  0
LINE
  5
20B
  8
DATA
  6
CONTINUOUS
 62
     7
 10
46.449999988079057
 20
-422.0
 30
0.0
 11
43.800000011920929
 21
-422.0
 31
0.0
  0
LINE
  5
20C
  8
DATA
  6
CONTINUOUS
 62
     7
 10
43.0
 20
-421.19999998807913
 30
0.0
 11
43.0
 21
-80.481280813785347
 31
0.0
  0
LINE
  5
20D
  8
DATA
  6
CONTINUOUS
 62
     7
 10
47.25
 20
-421.19999998807913
 30
0.0
 11
47.25
 21
-415.57886729414298
 31
0.0
  0
LINE
  5
20E
  8
DATA
  6
CONTINUOUS
 62
     7
 10
62.0
 20
-396.0
 30
0.0
 11
83.0
 21
-396.0
 31
0.0
  0
LINE
  5
20F
  8
DATA
  6
CONTINUOUS
 62
     7
 10
83.0
 20
-400.0
 30
0.0
 11
83.0
 21
-396.0
 31
0.0
  0
LINE
  5
210
  8
DATA
  6
CONTINUOUS
 62
     7
 10
62.0
 20
-396.0
 30
0.0
 11
50.5
 21
-383.0
 31
0.0
  0
LINE
  5
211
  8
DATA
  6
CONTINUOUS
 62
     7
 10
47.849841452972392
 20
-412.53951646232798
 30
0.0
 11
53.0
 21
-400.0
 31
0.0
  0
ARC
  5
212
  8
DATA
  6
CONTINUOUS
 62
     7
 10
55.250000000000057
 20
-415.57886729414281
 30
0.0
 40
7.9999999999999902
 50
157.671343621982
 51
180.00000000000119
  0
ARC
  5
213
  8
DATA
  6
CONTINUOUS
 62
     7
 10
-363.4500000000001
 20
-421.19999999999987
 30
0.0
 40
0.7999999999999546
 50
180.0
 51
270.00000000000409
  0
ARC
  5
214
  8
DATA
  6
CONTINUOUS
 62
     7
 10
-360.80000001192087
 20
-421.19999998807913
 30
0.0
 40
0.8000000119209291
 50
270.0
 51
0.0
  0
ARC
  5
215
  8
DATA
  6
CONTINUOUS
 62
     7
 10
43.800000011920929
 20
-421.19999998807913
 30
0.0
 40
0.8000000119209291
 50
180.0
 51
270.0
  0
ARC
  5
216
  8
DATA
  6
CONTINUOUS
 62
     7
 10
46.449999988079057
 20
-421.19999998807913
 30
0.0
 40
0.8000000119209291
 50
270.0
 51
0.0
  0
LINE
  5
217
  8
DATA
  6
CONTINUOUS
 62
     7
 10
-37.0
 20
-408.49999999999989
 30
0.0
 11
-37.0
 21
-401.49999999999989
 31
0.0
  0
LINE
  5
218
  8
DATA
  6
CONTINUOUS
 62
     7
 10
-15.0
 20
-408.49999999999989
 30
0.0
 11
-15.0
 21
-401.49999999999989
 31
0.0
  0
LINE
  5
219
  8
DATA
  6
CONTINUOUS
 62
     7
 10
-202.5
 20
-401.0
 30
0.0
 11
-202.5
 21
-400.0
 31
0.0
  0
LINE
  5
21A
  8
DATA
  6
CONTINUOUS
 62
     7
 10
-193.0
 20
-401.0
 30
0.0
 11
-193.0
 21
-400.0
 31
0.0
  0
LINE
  5
21B
  8
DATA
  6
CONTINUOUS
 62
     7
 10
-202.5
 20
-401.0
 30
0.0
 11
-193.0
 21
-401.0
 31
0.0
  0
LINE
  5
21C
  8
DATA
  6
CONTINUOUS
 62
     7
 10
-64.5
 20
-401.0
 30
0.0
 11
-64.5
 21
-400.0
 31
0.0
  0
LINE
  5
21D
  8
DATA
  6
CONTINUOUS
 62
     7
 10
-55.000000000000021
 20
-401.0
 30
0.0
 11
-55.000000000000021
 21
-400.0
 31
0.0
  0
LINE
  5
21E
  8
DATA
  6
CONTINUOUS
 62
     7
 10
-64.5
 20
-401.0
 30
0.0
 11
-55.000000000000021
 21
-401.0
 31
0.0
  0
LINE
  5
21F
  8
DATA
  6
CONTINUOUS
 62
     7
 10
-48.499999999977433
 20
-401.0
 30
0.0
 11
-48.499999999976978
 21
-400.0
 31
0.0
  0
LINE
  5
220
  8
DATA
  6
CONTINUOUS
 62
     7
 10
-39.0
 20
-401.0
 30
0.0
 11
-39.0
 21
-400.0
 31
0.0
  0
LINE
  5
221
  8
DATA
  6
CONTINUOUS
 62
     7
 10
-48.499999999977447
 20
-401.0
 30
0.0
 11
-39.0
 21
-401.0
 31
0.0
  0
LINE
  5
222
  8
DATA
  6
CONTINUOUS
 62
     7
 10
-37.0
 20
-401.49999999999989
 30
0.0
 11
-15.0
 21
-401.49999999999989
 31
0.0
  0
LINE
  5
223
  8
DATA
  6
CONTINUOUS
 62
     7
 10
-31.0
 20
-401.49999999999989
 30
0.0
 11
-31.0
 21
-400.0
 31
0.0
  0
LINE
  5
224
  8
DATA
  6
CONTINUOUS
 62
     7
 10
-21.0
 20
-400.0
 30
0.0
 11
-21.0
 21
-401.49999999999989
 31
0.0
  0
LINE
  5
225
  8
DATA
  6
CONTINUOUS
 62
     7
 10
-16.0
 20
-411.5
 30
0.0
 11
-36.0
 21
-411.5
 31
0.0
  0
LINE
  5
226
  8
DATA
  6
CONTINUOUS
 62
     7
 10
-15.0
 20
-408.49999999999989
 30
0.0
 11
-37.0
 21
-408.49999999999989
 31
0.0
  0
LINE
  5
227
  8
DATA
  6
CONTINUOUS
 62
     7
 10
-36.0
 20
-411.5
 30
0.0
 11
-37.0
 21
-408.49999999999989
 31
0.0
  0
LINE
  5
228
  8
DATA
  6
CONTINUOUS
 62
     7
 10
-16.0
 20
-411.5
 30
0.0
 11
-15.0
 21
-408.49999999999989
 31
0.0
  0
LINE
  5
229
  8
DATA
  6
CONTINUOUS
 62
     7
 10
-3.0
 20
-407.0
 30
0.0
 11
-3.0
 21
-402.0
 31
0.0
  0
LINE
  5
22A
  8
DATA
  6
CONTINUOUS
 62
     7
 10
11.0
 20
-407.0
 30
0.0
 11
11.0
 21
-402.0
 31
0.0
  0
LINE
  5
22B
  8
DATA
  6
CONTINUOUS
 62
     7
 10
-3.0
 20
-402.0
 30
0.0
 11
11.0
 21
-402.0
 31
0.0
  0
LINE
  5
22C
  8
DATA
  6
CONTINUOUS
 62
     7
 10
2.5
 20
-401.0
 30
0.0
 11
2.5
 21
-400.0
 31
0.0
  0
LINE
  5
22D
  8
DATA
  6
CONTINUOUS
 62
     7
 10
5.5
 20
-400.0
 30
0.0
 11
5.5
 21
-401.0
 31
0.0
  0
LINE
  5
22E
  8
DATA
  6
CONTINUOUS
 62
     7
 10
1.5
 20
-402.0
 30
0.0
 11
1.5
 21
-401.0
 31
0.0
  0
LINE
  5
22F
  8
DATA
  6
CONTINUOUS
 62
     7
 10
6.5
 20
-401.0
 30
0.0
 11
6.5
 21
-402.0
 31
0.0
  0
LINE
  5
230
  8
DATA
  6
CONTINUOUS
 62
     7
 10
1.5
 20
-401.0
 30
0.0
 11
6.5
 21
-401.0
 31
0.0
  0
LINE
  5
231
  8
DATA
  6
CONTINUOUS
 62
     7
 10
-2.0
 20
-410.0
 30
0.0
 11
10.0
 21
-410.0
 31
0.0
  0
LINE
  5
232
  8
DATA
  6
CONTINUOUS
 62
     7
 10
-2.0
 20
-410.0
 30
0.0
 11
-3.0
 21
-407.0
 31
0.0
  0
LINE
  5
233
  8
DATA
  6
CONTINUOUS
 62
     7
 10
10.0
 20
-410.0
 30
0.0
 11
11.0
 21
-407.0
 31
0.0
  0
LINE
  5
234
  8
DATA
  6
CONTINUOUS
 62
     7
 10
-3.0
 20
-407.0
 30
0.0
 11
11.0
 21
-407.0
 31
0.0
  0
LINE
  5
235
  8
DATA
  6
CONTINUOUS
 62
     7
 10
-36.0
 20
-408.49999999999989
 30
0.0
 11
-36.0
 21
-401.49999999999989
 31
0.0
  0
LINE
  5
236
  8
DATA
  6
CONTINUOUS
 62
     7
 10
-35.0
 20
-408.49999999999989
 30
0.0
 11
-35.0
 21
-401.49999999999989
 31
0.0
  0
LINE
  5
237
  8
DATA
  6
CONTINUOUS
 62
     7
 10
-34.0
 20
-408.49999999999989
 30
0.0
 11
-34.0
 21
-401.49999999999989
 31
0.0
  0
LINE
  5
238
  8
DATA
  6
CONTINUOUS
 62
     7
 10
-33.0
 20
-408.49999999999989
 30
0.0
 11
-33.0
 21
-401.49999999999989
 31
0.0
  0
LINE
  5
239
  8
DATA
  6
CONTINUOUS
 62
     7
 10
-32.0
 20
-408.49999999999989
 30
0.0
 11
-32.0
 21
-401.49999999999989
 31
0.0
  0
LINE
  5
23A
  8
DATA
  6
CONTINUOUS
 62
     7
 10
-31.0
 20
-408.49999999999989
 30
0.0
 11
-31.0
 21
-401.49999999999989
 31
0.0
  0
LINE
  5
23B
  8
DATA
  6
CONTINUOUS
 62
     7
 10
-30.0
 20
-408.49999999999989
 30
0.0
 11
-30.0
 21
-401.49999999999989
 31
0.0
  0
LINE
  5
23C
  8
DATA
  6
CONTINUOUS
 62
     7
 10
-29.0
 20
-408.49999999999989
 30
0.0
 11
-29.0
 21
-401.49999999999989
 31
0.0
  0
LINE
  5
23D
  8
DATA
  6
CONTINUOUS
 62
     7
 10
-28.0
 20
-408.49999999999989
 30
0.0
 11
-28.0
 21
-401.49999999999989
 31
0.0
  0
LINE
  5
23E
  8
DATA
  6
CONTINUOUS
 62
     7
 10
-27.0
 20
-408.49999999999989
 30
0.0
 11
-27.0
 21
-401.49999999999989
 31
0.0
  0
LINE
  5
23F
  8
DATA
  6
CONTINUOUS
 62
     7
 10
-26.0
 20
-408.49999999999989
 30
0.0
 11
-26.0
 21
-401.49999999999989
 31
0.0
  0
LINE
  5
240
  8
DATA
  6
CONTINUOUS
 62
     7
 10
-25.0
 20
-408.49999999999989
 30
0.0
 11
-25.0
 21
-401.49999999999989
 31
0.0
  0
LINE
  5
241
  8
DATA
  6
CONTINUOUS
 62
     7
 10
-24.0
 20
-408.49999999999989
 30
0.0
 11
-24.0
 21
-401.49999999999989
 31
0.0
  0
LINE
  5
242
  8
DATA
  6
CONTINUOUS
 62
     7
 10
-23.0
 20
-408.49999999999989
 30
0.0
 11
-23.0
 21
-401.49999999999989
 31
0.0
  0
LINE
  5
243
  8
DATA
  6
CONTINUOUS
 62
     7
 10
-22.0
 20
-408.49999999999989
 30
0.0
 11
-22.0
 21
-401.49999999999989
 31
0.0
  0
LINE
  5
244
  8
DATA
  6
CONTINUOUS
 62
     7
 10
-21.0
 20
-408.49999999999989
 30
0.0
 11
-21.0
 21
-401.49999999999989
 31
0.0
  0
LINE
  5
245
  8
DATA
  6
CONTINUOUS
 62
     7
 10
-20.0
 20
-408.49999999999989
 30
0.0
 11
-20.0
 21
-401.49999999999989
 31
0.0
  0
LINE
  5
246
  8
DATA
  6
CONTINUOUS
 62
     7
 10
-19.0
 20
-408.49999999999989
 30
0.0
 11
-19.0
 21
-401.49999999999989
 31
0.0
  0
LINE
  5
247
  8
DATA
  6
CONTINUOUS
 62
     7
 10
-18.0
 20
-408.49999999999989
 30
0.0
 11
-18.0
 21
-401.49999999999989
 31
0.0
  0
LINE
  5
248
  8
DATA
  6
CONTINUOUS
 62
     7
 10
-17.0
 20
-408.49999999999989
 30
0.0
 11
-17.0
 21
-401.49999999999989
 31
0.0
  0
LINE
  5
249
  8
DATA
  6
CONTINUOUS
 62
     7
 10
-16.0
 20
-408.49999999999989
 30
0.0
 11
-16.0
 21
-401.49999999999989
 31
0.0
  0
LINE
  5
24A
  8
DATA
  6
CONTINUOUS
 62
     7
 10
-2.0
 20
-407.0
 30
0.0
 11
-2.0
 21
-402.0
 31
0.0
  0
LINE
  5
24B
  8
DATA
  6
CONTINUOUS
 62
     7
 10
-1.0
 20
-407.0
 30
0.0
 11
-1.0
 21
-402.0
 31
0.0
  0
LINE
  5
24C
  8
DATA
  6
CONTINUOUS
 62
     7
 10
0.0
 20
-407.0
 30
0.0
 11
0.0
 21
-402.0
 31
0.0
  0
LINE
  5
24D
  8
DATA
  6
CONTINUOUS
 62
     7
 10
1.0
 20
-407.0
 30
0.0
 11
1.0
 21
-402.0
 31
0.0
  0
LINE
  5
24E
  8
DATA
  6
CONTINUOUS
 62
     7
 10
2.0
 20
-407.0
 30
0.0
 11
2.0
 21
-402.0
 31
0.0
  0
LINE
  5
24F
  8
DATA
  6
CONTINUOUS
 62
     7
 10
3.0
 20
-407.0
 30
0.0
 11
3.0
 21
-402.0
 31
0.0
  0
LINE
  5
250
  8
DATA
  6
CONTINUOUS
 62
     7
 10
4.0
 20
-407.0
 30
0.0
 11
4.0
 21
-402.0
 31
0.0
  0
LINE
  5
251
  8
DATA
  6
CONTINUOUS
 62
     7
 10
5.0
 20
-407.0
 30
0.0
 11
5.0
 21
-402.0
 31
0.0
  0
LINE
  5
252
  8
DATA
  6
CONTINUOUS
 62
     7
 10
6.0
 20
-407.0
 30
0.0
 11
6.0
 21
-402.0
 31
0.0
  0
LINE
  5
253
  8
DATA
  6
CONTINUOUS
 62
     7
 10
7.0
 20
-407.0
 30
0.0
 11
7.0
 21
-402.0
 31
0.0
  0
LINE
  5
254
  8
DATA
  6
CONTINUOUS
 62
     7
 10
8.0
 20
-407.0
 30
0.0
 11
8.0
 21
-402.0
 31
0.0
  0
LINE
  5
255
  8
DATA
  6
CONTINUOUS
 62
     7
 10
9.0
 20
-407.0
 30
0.0
 11
9.0
 21
-402.0
 31
0.0
  0
LINE
  5
256
  8
DATA
  6
CONTINUOUS
 62
     7
 10
10.0
 20
-407.0
 30
0.0
 11
10.0
 21
-402.0
 31
0.0
  0
LINE
  5
257
  8
DATA
  6
CONTINUOUS
 62
     7
 10
26.0
 20
-403.0
 30
0.0
 11
26.0
 21
-400.49999999999989
 31
0.0
  0
LINE
  5
258
  8
DATA
  6
CONTINUOUS
 62
     7
 10
36.0
 20
-403.0
 30
0.0
 11
36.0
 21
-400.49999999999989
 31
0.0
  0
LINE
  5
259
  8
DATA
  6
CONTINUOUS
 62
     7
 10
28.0
 20
-405.0
 30
0.0
 11
34.0
 21
-405.0
 31
0.0
  0
LINE
  5
25A
  8
DATA
  6
CONTINUOUS
 62
     7
 10
23.5
 20
-400.5
 30
0.0
 11
23.5
 21
-400.0
 31
0.0
  0
LINE
  5
25B
  8
DATA
  6
CONTINUOUS
 62
     7
 10
38.5
 20
-400.5
 30
0.0
 11
38.5
 21
-400.0
 31
0.0
  0
LINE
  5
25C
  8
DATA
  6
CONTINUOUS
 62
     7
 10
23.5
 20
-400.49999999999989
 30
0.0
 11
38.5
 21
-400.49999999999989
 31
0.0
  0
ARC
  5
25D
  8
DATA
  6
CONTINUOUS
 62
     7
 10
28.0
 20
-403.0
 30
0.0
 40
2.0
 50
180.0
 51
270.0
  0
ARC
  5
25E
  8
DATA
  6
CONTINUOUS
 62
     7
 10
34.0
 20
-403.0
 30
0.0
 40
2.0
 50
270.0
 51
0.0
  0
LINE
  5
25F
  8
DATA
  6
CONTINUOUS
 62
     7
 10
43.272262576577681
 20
-57.0
 30
0.0
 11
45.834365697931382
 21
-57.0
 31
0.0
  0
LINE
  5
260
  8
DATA
  6
CONTINUOUS
 62
     7
 10
-360.0
 20
-80.0
 30
0.0
 11
42.839037384103669
 21
-80.0
 31
0.0
  0
LINE
  5
261
  8
DATA
  6
CONTINUOUS
 62
     7
 10
50.166611392910312
 20
-76.829259296060854
 30
0.0
 11
46.621030165370023
 21
-57.654538557428722
 31
0.0
  0
LINE
  5
262
  8
DATA
  6
CONTINUOUS
 62
     7
 10
38.6343709991514
 20
-79.681280813785364
 30
0.0
 11
42.48421700234617
 21
-57.662216935241879
 31
0.0
  0
ARC
  5
263
  8
DATA
  6
CONTINUOUS
 62
     7
 10
30.500000000000011
 20
-80.465795604177501
 30
0.0
 40
20.0
 50
0.0000000000001137
 51
10.47618474973563
  0
ARC
  5
264
  8
DATA
  6
CONTINUOUS
 62
     7
 10
43.272262576577681
 20
-57.79999999999999
 30
0.0
 40
0.7999999999999901
 50
90.0
 51
170.08256664708921
  0
ARC
  5
265
  8
DATA
  6
CONTINUOUS
 62
     7
 10
45.834365697931382
 20
-57.800000011920922
 30
0.0
 40
0.8000000119209287
 50
10.47618474973522
 51
90.0
  0
LINE
  5
266
  8
DATA
  6
CONTINUOUS
 62
     7
 10
42.200000000000003
 20
-79.681280813785364
 30
0.0
 11
38.6343709991514
 21
-79.681280813785364
 31
0.0
  0
ARC
  5
267
  8
DATA
  6
CONTINUOUS
 62
     7
 10
42.200000000000003
 20
-80.481280813785347
 30
0.0
 40
0.7999999999999972
 50
0.0
 51
90.0
  0
LINE
  5
268
  8
DATA
  6
CONTINUOUS
 62
     7
 10
-360.43322519247403
 20
-57.0
 30
0.0
 11
-362.99532831382771
 21
-57.0
 31
0.0
  0
LINE
  5
269
  8
DATA
  6
CONTINUOUS
 62
     7
 10
-367.32757400880661
 20
-76.829259296060883
 30
0.0
 11
-363.78199278126641
 21
-57.654538557428722
 31
0.0
  0
LINE
  5
26A
  8
DATA
  6
CONTINUOUS
 62
     7
 10
-355.79533361504781
 20
-79.681280813785364
 30
0.0
 11
-359.64517961824248
 21
-57.662216935241879
 31
0.0
  0
ARC
  5
26B
  8
DATA
  6
CONTINUOUS
 62
     7
 10
-347.66096261589638
 20
-80.465795604177501
 30
0.0
 40
19.999999999999979
 50
169.52381525026439
 51
172.66911098132741
  0
ARC
  5
26C
  8
DATA
  6
CONTINUOUS
 62
     7
 10
-360.43322519247403
 20
-57.79999999999999
 30
0.0
 40
0.7999999999999848
 50
9.9174333529109955
 51
90.0
  0
ARC
  5
26D
  8
DATA
  6
CONTINUOUS
 62
     7
 10
-362.99532831382771
 20
-57.800000011920922
 30
0.0
 40
0.8000000119209291
 50
90.0
 51
169.5238152502649
  0
LINE
  5
26E
  8
DATA
  6
CONTINUOUS
 62
     7
 10
-359.36096261589643
 20
-79.681280813785364
 30
0.0
 11
-355.79533361504781
 21
-79.681280813785364
 31
0.0
  0
ARC
  5
26F
  8
DATA
  6
CONTINUOUS
 62
     7
 10
-359.36096261589643
 20
-80.481280813785347
 30
0.0
 40
0.7999999999999972
 50
90.0
 51
143.0153516820881
  0
ARC
  5
270
  8
DATA
  6
CONTINUOUS
 62
     7
 10
-364.5
 20
-78.036782172789685
 30
0.0
 40
2.9999999999999769
 50
177.65072521821051
 51
179.9999999999973
  0
ARC
  5
271
  8
DATA
  6
CONTINUOUS
 62
     7
 10
-364.5
 20
-78.036782172789685
 30
0.0
 40
2.9999999999999769
 50
177.65072521821051
 51
179.9999999999973
  0
CIRCLE
  5
272
  8
DATA
  6
CONTINUOUS
 62
     7
 10
-158.5
 20
-373.0
 30
0.0
 40
3.1500000000000048
  0
LINE
  5
273
  8
DATA
  6
CONTINUOUS
 62
     7
 10
-160.25
 20
-373.0
 30
0.0
 11
-156.75
 21
-373.0
 31
0.0
  0
LINE
  5
274
  8
DATA
  6
CONTINUOUS
 62
     7
 10
-158.5
 20
-374.75
 30
0.0
 11
-158.5
 21
-371.25
 31
0.0
  0
CIRCLE
  5
275
  8
DATA
  6
CONTINUOUS
 62
     7
 10
-68.5
 20
-373.0
 30
0.0
 40
3.1500000000000048
  0
LINE
  5
276
  8
DATA
  6
CONTINUOUS
 62
     7
 10
-70.25
 20
-373.0
 30
0.0
 11
-66.75
 21
-373.0
 31
0.0
  0
LINE
  5
277
  8
DATA
  6
CONTINUOUS
 62
     7
 10
-68.5
 20
-374.75
 30
0.0
 11
-68.5
 21
-371.25
 31
0.0
  0
CIRCLE
  5
278
  8
DATA
  6
CONTINUOUS
 62
     7
 10
-248.5
 20
-373.0
 30
0.0
 40
3.1500000000000048
  0
LINE
  5
279
  8
DATA
  6
CONTINUOUS
 62
     7
 10
-250.25
 20
-373.0
 30
0.0
 11
-246.75
 21
-373.0
 31
0.0
  0
LINE
  5
27A
  8
DATA
  6
CONTINUOUS
 62
     7
 10
-248.5
 20
-374.75
 30
0.0
 11
-248.5
 21
-371.25
 31
0.0
  0
LINE
  5
27B
  8
DATA
  6
CONTINUOUS
 62
     7
 10
-360.0
 20
-380.0
 30
0.0
 11
-330.0
 21
-380.0
 31
0.0
  0
CIRCLE
  5
27C
  8
DATA
  6
CONTINUOUS
 62
     7
 10
-352.99999999999989
 20
-348.0
 30
0.0
 40
3.1500000000000341
  0
LINE
  5
27D
  8
DATA
  6
CONTINUOUS
 62
     7
 10
-354.74999999999989
 20
-348.0
 30
0.0
 11
-351.24999999999989
 21
-348.0
 31
0.0
  0
LINE
  5
27E
  8
DATA
  6
CONTINUOUS
 62
     7
 10
-352.99999999999989
 20
-349.75
 30
0.0
 11
-352.99999999999989
 21
-346.25
 31
0.0
  0
CIRCLE
  5
27F
  8
DATA
  6
CONTINUOUS
 62
     7
 10
-352.99999999999989
 20
-230.0
 30
0.0
 40
3.1500000000000341
  0
LINE
  5
280
  8
DATA
  6
CONTINUOUS
 62
     7
 10
-354.74999999999989
 20
-230.0
 30
0.0
 11
-351.24999999999989
 21
-230.0
 31
0.0
  0
LINE
  5
281
  8
DATA
  6
CONTINUOUS
 62
     7
 10
-352.99999999999989
 20
-231.75
 30
0.0
 11
-352.99999999999989
 21
-228.25
 31
0.0
  0
CIRCLE
  5
282
  8
DATA
  6
CONTINUOUS
 62
     7
 10
-352.99999999999989
 20
-112.0
 30
0.0
 40
3.1500000000000341
  0
LINE
  5
283
  8
DATA
  6
CONTINUOUS
 62
     7
 10
-354.74999999999989
 20
-112.0
 30
0.0
 11
-351.24999999999989
 21
-112.0
 31
0.0
  0
LINE
  5
284
  8
DATA
  6
CONTINUOUS
 62
     7
 10
-352.99999999999989
 20
-113.75
 30
0.0
 11
-352.99999999999989
 21
-110.25
 31
0.0
  0
CIRCLE
  5
285
  8
DATA
  6
CONTINUOUS
 62
     7
 10
35.99999999999995
 20
-348.0
 30
0.0
 40
3.1500000000000341
  0
LINE
  5
286
  8
DATA
  6
CONTINUOUS
 62
     7
 10
37.749999999999943
 20
-348.0
 30
0.0
 11
34.24999999999995
 21
-348.0
 31
0.0
  0
LINE
  5
287
  8
DATA
  6
CONTINUOUS
 62
     7
 10
35.99999999999995
 20
-349.75
 30
0.0
 11
35.99999999999995
 21
-346.25
 31
0.0
  0
CIRCLE
  5
288
  8
DATA
  6
CONTINUOUS
 62
     7
 10
35.99999999999995
 20
-230.0
 30
0.0
 40
3.1500000000000341
  0
LINE
  5
289
  8
DATA
  6
CONTINUOUS
 62
     7
 10
37.749999999999943
 20
-230.0
 30
0.0
 11
34.24999999999995
 21
-230.0
 31
0.0
  0
LINE
  5
28A
  8
DATA
  6
CONTINUOUS
 62
     7
 10
35.99999999999995
 20
-231.75
 30
0.0
 11
35.99999999999995
 21
-228.25
 31
0.0
  0
CIRCLE
  5
28B
  8
DATA
  6
CONTINUOUS
 62
     7
 10
35.99999999999995
 20
-112.0
 30
0.0
 40
3.1500000000000341
  0
LINE
  5
28C
  8
DATA
  6
CONTINUOUS
 62
     7
 10
37.749999999999943
 20
-112.0
 30
0.0
 11
34.24999999999995
 21
-112.0
 31
0.0
  0
LINE
  5
28D
  8
DATA
  6
CONTINUOUS
 62
     7
 10
35.99999999999995
 20
-113.75
 30
0.0
 11
35.99999999999995
 21
-110.25
 31
0.0
  0
CIRCLE
  5
28E
  8
DATA
  6
CONTINUOUS
 62
     7
 10
-158.5
 20
-87.05145345554466
 30
0.0
 40
3.1500000000000048
  0
LINE
  5
28F
  8
DATA
  6
CONTINUOUS
 62
     7
 10
-160.25
 20
-87.05145345554466
 30
0.0
 11
-156.75
 21
-87.05145345554466
 31
0.0
  0
LINE
  5
290
  8
DATA
  6
CONTINUOUS
 62
     7
 10
-158.5
 20
-88.801453455544646
 30
0.0
 11
-158.5
 21
-85.301453455544646
 31
0.0
  0
CIRCLE
  5
291
  8
DATA
  6
CONTINUOUS
 62
     7
 10
-68.5
 20
-87.05145345554466
 30
0.0
 40
3.1500000000000048
  0
LINE
  5
292
  8
DATA
  6
CONTINUOUS
 62
     7
 10
-70.25
 20
-87.05145345554466
 30
0.0
 11
-66.75
 21
-87.05145345554466
 31
0.0
  0
LINE
  5
293
  8
DATA
  6
CONTINUOUS
 62
     7
 10
-68.5
 20
-88.801453455544646
 30
0.0
 11
-68.5
 21
-85.301453455544646
 31
0.0
  0
CIRCLE
  5
294
  8
DATA
  6
CONTINUOUS
 62
     7
 10
-248.5
 20
-87.05145345554466
 30
0.0
 40
3.1500000000000048
  0
LINE
  5
295
  8
DATA
  6
CONTINUOUS
 62
     7
 10
-250.25
 20
-87.05145345554466
 30
0.0
 11
-246.75
 21
-87.05145345554466
 31
0.0
  0
LINE
  5
296
  8
DATA
  6
CONTINUOUS
 62
     7
 10
-248.5
 20
-88.801453455544646
 30
0.0
 11
-248.5
 21
-85.301453455544646
 31
0.0
  0
LINE
  5
297
  8
DATA
  6
CONTINUOUS
 62
     7
 10
60.358884242152051
 20
-483.98648499393511
 30
0.0
 11
51.673065469328442
 21
-484.00594596175591
 31
0.0
  0
ARC
  5
298
  8
DATA
  6
CONTINUOUS
 62
     7
 10
56.003674510177923
 20
-478.50632548982321
 30
0.0
 40
6.9999999999990878
 50
308.4749794121646
 51
231.78176770280771
  0
LINE
  5
299
  8
DATA
  6
CONTINUOUS
 62
     7
 10
-400.0
 20
62.5
 30
0.0
 11
-400.0
 21
21.5
 31
0.0
  0
LINE
  5
29A
  8
DATA
  6
CONTINUOUS
 62
     7
 10
83.0
 20
21.5
 30
0.0
 11
83.0
 21
62.5
 31
0.0
  0
LINE
  5
29B
  8
DATA
  6
CONTINUOUS
 62
     7
 10
-392.55181499999998
 20
22.599999999999969
 30
0.0
 11
-389.44818500000002
 21
22.599999999999969
 31
0.0
  0
LINE
  5
29C
  8
DATA
  6
CONTINUOUS
 62
     7
 10
-392.55181499999998
 20
29.599999999999969
 30
0.0
 11
-389.44818500000002
 21
29.599999999999969
 31
0.0
  0
ARC
  5
29D
  8
DATA
  6
CONTINUOUS
 62
     7
 10
-389.44818500000002
 20
26.099999999999969
 30
0.0
 40
3.5
 50
270.0
 51
90.0
  0
ARC
  5
29E
  8
DATA
  6
CONTINUOUS
 62
     7
 10
-392.55181499999998
 20
26.099999999999969
 30
0.0
 40
3.5
 50
90.0
 51
270.0
  0
LINE
  5
29F
  8
DATA
  6
CONTINUOUS
 62
     7
 10
-392.55181499999998
 20
61.400000000000027
 30
0.0
 11
-389.44818500000002
 21
61.400000000000027
 31
0.0
  0
LINE
  5
2A0
  8
DATA
  6
CONTINUOUS
 62
     7
 10
-392.55181499999998
 20
54.400000000000027
 30
0.0
 11
-389.44818500000002
 21
54.400000000000027
 31
0.0
  0
ARC
  5
2A1
  8
DATA
  6
CONTINUOUS
 62
     7
 10
-389.44818500000002
 20
57.90000000000002
 30
0.0
 40
3.5
 50
270.0
 51
90.0
  0
ARC
  5
2A2
  8
DATA
  6
CONTINUOUS
 62
     7
 10
-392.55181499999998
 20
57.90000000000002
 30
0.0
 40
3.5
 50
90.0
 51
270.0
  0
LINE
  5
2A3
  8
DATA
  6
CONTINUOUS
 62
     7
 10
75.551815000000033
 20
22.599999999999969
 30
0.0
 11
72.448184999999967
 21
22.599999999999969
 31
0.0
  0
LINE
  5
2A4
  8
DATA
  6
CONTINUOUS
 62
     7
 10
75.551815000000033
 20
29.599999999999969
 30
0.0
 11
72.448184999999967
 21
29.599999999999969
 31
0.0
  0
ARC
  5
2A5
  8
DATA
  6
CONTINUOUS
 62
     7
 10
72.448184999999967
 20
26.099999999999969
 30
0.0
 40
3.5
 50
90.0
 51
270.0
  0
ARC
  5
2A6
  8
DATA
  6
CONTINUOUS
 62
     7
 10
75.551815000000033
 20
26.099999999999969
 30
0.0
 40
3.5
 50
270.0
 51
90.0
  0
LINE
  5
2A7
  8
DATA
  6
CONTINUOUS
 62
     7
 10
75.551815000000033
 20
61.400000000000027
 30
0.0
 11
72.448184999999967
 21
61.400000000000027
 31
0.0
  0
LINE
  5
2A8
  8
DATA
  6
CONTINUOUS
 62
     7
 10
75.551815000000033
 20
54.400000000000027
 30
0.0
 11
72.448184999999967
 21
54.400000000000027
 31
0.0
  0
ARC
  5
2A9
  8
DATA
  6
CONTINUOUS
 62
     7
 10
72.448184999999967
 20
57.90000000000002
 30
0.0
 40
3.5
 50
90.0
 51
270.0
  0
ARC
  5
2AA
  8
DATA
  6
CONTINUOUS
 62
     7
 10
75.551815000000033
 20
57.90000000000002
 30
0.0
 40
3.5
 50
270.0
 51
90.0
  0
LINE
  5
2AB
  8
DATA
  6
CONTINUOUS
 62
     7
 10
-368.64846477820367
 20
36.029472173000492
 30
0.0
 11
-377.3342835510274
 21
36.010011205179687
 31
0.0
  0
ARC
  5
2AC
  8
DATA
  6
CONTINUOUS
 62
     7
 10
-373.00367451017792
 20
41.509631677112218
 30
0.0
 40
6.9999999999990878
 50
308.4749794121646
 51
231.78176770280771
  0
ARC
  5
2AD
  8
DATA
  6
CONTINUOUS
 62
     7
 10
-398.5
 20
21.5
 30
0.0
 40
1.5
 50
180.0
 51
270.0
  0
ARC
  5
2AE
  8
DATA
  6
CONTINUOUS
 62
     7
 10
-398.5
 20
62.5
 30
0.0
 40
1.5
 50
90.0
 51
180.0
  0
ARC
  5
2AF
  8
DATA
  6
CONTINUOUS
 62
     7
 10
81.5
 20
21.5
 30
0.0
 40
1.5
 50
270.0
 51
0.0
  0
ARC
  5
2B0
  8
DATA
  6
CONTINUOUS
 62
     7
 10
81.5
 20
62.5
 30
0.0
 40
1.5
 50
0.0
 51
90.0
  0
LINE
  5
2B1
  8
DATA
  6
CONTINUOUS
 62
     7
 10
60.358884242152051
 20
47.986484993935051
 30
0.0
 11
51.673065469328442
 21
48.005945961755849
 31
0.0
  0
ARC
  5
2B2
  8
DATA
  6
CONTINUOUS
 62
     7
 10
56.003674510177923
 20
42.506325489823318
 30
0.0
 40
6.9999999999991349
 50
128.21823229719229
 51
51.525020587835392
  0
LINE
  5
2B3
  8
DATA
  6
CONTINUOUS
 62
     7
 10
-363.78199278126641
 20
23.195155248194229
 30
0.0
 11
-363.78199278126641
 21
60.804844751805781
 31
0.0
  0
LINE
  5
2B4
  8
DATA
  6
CONTINUOUS
 62
     7
 10
-359.91855367189339
 20
23.2527483944341
 30
0.0
 11
-359.91855367189339
 21
60.7472516055659
 31
0.0
  0
LINE
  5
2B5
  8
DATA
  6
CONTINUOUS
 62
     7
 10
-355.79533361504781
 20
20.0
 30
0.0
 11
-355.79533361504781
 21
64.0
 31
0.0
  0
CIRCLE
  5
2B6
  8
DATA
  6
CONTINUOUS
 62
     7
 10
-335.5
 20
51.0
 30
0.0
 40
4.8500000000000227
  0
CIRCLE
  5
2B7
  8
DATA
  6
CONTINUOUS
 62
     7
 10
-335.5
 20
51.0
 30
0.0
 40
6.1000000000000227
  0
POLYLINE
  5
2B8
  8
DATA
  6
CONTINUOUS
 62
     7
 66
     1
 10
0.0
 20
0.0
 30
0.0
  0
VERTEX
  5
9F1
  8
DATA
  6
CONTINUOUS
 62
     7
 10
-336.5
 20
55.74578760586693
 30
0.0
  0
VERTEX
  5
9F2
  8
DATA
  6
CONTINUOUS
 62
     7
 10
-336.5
 20
56.5
 30
0.0
  0
VERTEX
  5
9F3
  8
DATA
  6
CONTINUOUS
 62
     7
 10
-334.5
 20
56.5
 30
0.0
  0
VERTEX
  5
9F4
  8
DATA
  6
CONTINUOUS
 62
     7
 10
-334.5
 20
55.74578760586693
 30
0.0
  0
SEQEND
  5
9F5
  8
DATA
  6
CONTINUOUS
 62
     7
  0
POLYLINE
  5
2BF
  8
DATA
  6
CONTINUOUS
 62
     7
 66
     1
 10
0.0
 20
0.0
 30
0.0
  0
VERTEX
  5
9F6
  8
DATA
  6
CONTINUOUS
 62
     7
 10
-334.5
 20
46.254212394133063
 30
0.0
  0
VERTEX
  5
9F7
  8
DATA
  6
CONTINUOUS
 62
     7
 10
-334.5
 20
45.499999999999993
 30
0.0
  0
VERTEX
  5
9F8
  8
DATA
  6
CONTINUOUS
 62
     7
 10
-336.5
 20
45.499999999999993
 30
0.0
  0
VERTEX
  5
9F9
  8
DATA
  6
CONTINUOUS
 62
     7
 10
-336.5
 20
46.254212394133063
 30
0.0
  0
SEQEND
  5
9FA
  8
DATA
  6
CONTINUOUS
 62
     7
  0
CIRCLE
  5
2C6
  8
DATA
  6
CONTINUOUS
 62
     7
 10
-335.5
 20
51.0
 30
0.0
 40
2.5
  0
CIRCLE
  5
2C7
  8
DATA
  6
CONTINUOUS
 62
     7
 10
-335.5
 20
51.0
 30
0.0
 40
1.0
  0
CIRCLE
  5
2C8
  8
DATA
  6
CONTINUOUS
 62
     7
 10
-335.5
 20
51.0
 30
0.0
 40
5.9499999999999877
  0
CIRCLE
  5
2C9
  8
DATA
  6
CONTINUOUS
 62
     7
 10
-306.5
 20
51.0
 30
0.0
 40
4.8500000000000227
  0
CIRCLE
  5
2CA
  8
DATA
  6
CONTINUOUS
 62
     7
 10
-306.5
 20
51.0
 30
0.0
 40
6.1000000000000227
  0
POLYLINE
  5
2CB
  8
DATA
  6
CONTINUOUS
 62
     7
 66
     1
 10
0.0
 20
0.0
 30
0.0
  0
VERTEX
  5
9FB
  8
DATA
  6
CONTINUOUS
 62
     7
 10
-307.5
 20
55.74578760586693
 30
0.0
  0
VERTEX
  5
9FC
  8
DATA
  6
CONTINUOUS
 62
     7
 10
-307.5
 20
56.5
 30
0.0
  0
VERTEX
  5
9FD
  8
DATA
  6
CONTINUOUS
 62
     7
 10
-305.5
 20
56.5
 30
0.0
  0
VERTEX
  5
9FE
  8
DATA
  6
CONTINUOUS
 62
     7
 10
-305.5
 20
55.74578760586693
 30
0.0
  0
SEQEND
  5
9FF
  8
DATA
  6
CONTINUOUS
 62
     7
  0
POLYLINE
  5
2D2
  8
DATA
  6
CONTINUOUS
 62
     7
 66
     1
 10
0.0
 20
0.0
 30
0.0
  0
VERTEX
  5
A00
  8
DATA
  6
CONTINUOUS
 62
     7
 10
-305.5
 20
46.254212394133063
 30
0.0
  0
VERTEX
  5
A01
  8
DATA
  6
CONTINUOUS
 62
     7
 10
-305.5
 20
45.499999999999993
 30
0.0
  0
VERTEX
  5
A02
  8
DATA
  6
CONTINUOUS
 62
     7
 10
-307.5
 20
45.499999999999993
 30
0.0
  0
VERTEX
  5
A03
  8
DATA
  6
CONTINUOUS
 62
     7
 10
-307.5
 20
46.254212394133063
 30
0.0
  0
SEQEND
  5
A04
  8
DATA
  6
CONTINUOUS
 62
     7
  0
CIRCLE
  5
2D9
  8
DATA
  6
CONTINUOUS
 62
     7
 10
-306.5
 20
51.0
 30
0.0
 40
2.5
  0
CIRCLE
  5
2DA
  8
DATA
  6
CONTINUOUS
 62
     7
 10
-306.5
 20
51.0
 30
0.0
 40
1.0
  0
CIRCLE
  5
2DB
  8
DATA
  6
CONTINUOUS
 62
     7
 10
-306.5
 20
51.0
 30
0.0
 40
5.9499999999999877
  0
CIRCLE
  5
2DC
  8
DATA
  6
CONTINUOUS
 62
     7
 10
-335.5
 20
32.0
 30
0.0
 40
4.8500000000000227
  0
CIRCLE
  5
2DD
  8
DATA
  6
CONTINUOUS
 62
     7
 10
-335.5
 20
32.0
 30
0.0
 40
6.1000000000000227
  0
POLYLINE
  5
2DE
  8
DATA
  6
CONTINUOUS
 62
     7
 66
     1
 10
0.0
 20
0.0
 30
0.0
  0
VERTEX
  5
A05
  8
DATA
  6
CONTINUOUS
 62
     7
 10
-336.5
 20
36.745787605866937
 30
0.0
  0
VERTEX
  5
A06
  8
DATA
  6
CONTINUOUS
 62
     7
 10
-336.5
 20
37.5
 30
0.0
  0
VERTEX
  5
A07
  8
DATA
  6
CONTINUOUS
 62
     7
 10
-334.5
 20
37.5
 30
0.0
  0
VERTEX
  5
A08
  8
DATA
  6
CONTINUOUS
 62
     7
 10
-334.5
 20
36.745787605866937
 30
0.0
  0
SEQEND
  5
A09
  8
DATA
  6
CONTINUOUS
 62
     7
  0
POLYLINE
  5
2E5
  8
DATA
  6
CONTINUOUS
 62
     7
 66
     1
 10
0.0
 20
0.0
 30
0.0
  0
VERTEX
  5
A0A
  8
DATA
  6
CONTINUOUS
 62
     7
 10
-334.5
 20
27.25421239413307
 30
0.0
  0
VERTEX
  5
A0B
  8
DATA
  6
CONTINUOUS
 62
     7
 10
-334.5
 20
26.5
 30
0.0
  0
VERTEX
  5
A0C
  8
DATA
  6
CONTINUOUS
 62
     7
 10
-336.5
 20
26.5
 30
0.0
  0
VERTEX
  5
A0D
  8
DATA
  6
CONTINUOUS
 62
     7
 10
-336.5
 20
27.25421239413307
 30
0.0
  0
SEQEND
  5
A0E
  8
DATA
  6
CONTINUOUS
 62
     7
  0
CIRCLE
  5
2EC
  8
DATA
  6
CONTINUOUS
 62
     7
 10
-335.5
 20
32.0
 30
0.0
 40
2.5
  0
CIRCLE
  5
2ED
  8
DATA
  6
CONTINUOUS
 62
     7
 10
-335.5
 20
32.0
 30
0.0
 40
1.0
  0
CIRCLE
  5
2EE
  8
DATA
  6
CONTINUOUS
 62
     7
 10
-335.5
 20
32.0
 30
0.0
 40
5.9499999999999877
  0
CIRCLE
  5
2EF
  8
DATA
  6
CONTINUOUS
 62
     7
 10
-306.5
 20
32.0
 30
0.0
 40
4.8500000000000227
  0
CIRCLE
  5
2F0
  8
DATA
  6
CONTINUOUS
 62
     7
 10
-306.5
 20
32.0
 30
0.0
 40
6.1000000000000227
  0
POLYLINE
  5
2F1
  8
DATA
  6
CONTINUOUS
 62
     7
 66
     1
 10
0.0
 20
0.0
 30
0.0
  0
VERTEX
  5
A0F
  8
DATA
  6
CONTINUOUS
 62
     7
 10
-307.5
 20
36.745787605866937
 30
0.0
  0
VERTEX
  5
A10
  8
DATA
  6
CONTINUOUS
 62
     7
 10
-307.5
 20
37.5
 30
0.0
  0
VERTEX
  5
A11
  8
DATA
  6
CONTINUOUS
 62
     7
 10
-305.5
 20
37.5
 30
0.0
  0
VERTEX
  5
A12
  8
DATA
  6
CONTINUOUS
 62
     7
 10
-305.5
 20
36.745787605866937
 30
0.0
  0
SEQEND
  5
A13
  8
DATA
  6
CONTINUOUS
 62
     7
  0
POLYLINE
  5
2F8
  8
DATA
  6
CONTINUOUS
 62
     7
 66
     1
 10
0.0
 20
0.0
 30
0.0
  0
VERTEX
  5
A14
  8
DATA
  6
CONTINUOUS
 62
     7
 10
-305.5
 20
27.25421239413307
 30
0.0
  0
VERTEX
  5
A15
  8
DATA
  6
CONTINUOUS
 62
     7
 10
-305.5
 20
26.5
 30
0.0
  0
VERTEX
  5
A16
  8
DATA
  6
CONTINUOUS
 62
     7
 10
-307.5
 20
26.5
 30
0.0
  0
VERTEX
  5
A17
  8
DATA
  6
CONTINUOUS
 62
     7
 10
-307.5
 20
27.25421239413307
 30
0.0
  0
SEQEND
  5
A18
  8
DATA
  6
CONTINUOUS
 62
     7
  0
CIRCLE
  5
2FF
  8
DATA
  6
CONTINUOUS
 62
     7
 10
-306.5
 20
32.0
 30
0.0
 40
2.5
  0
CIRCLE
  5
300
  8
DATA
  6
CONTINUOUS
 62
     7
 10
-306.5
 20
32.0
 30
0.0
 40
1.0
  0
CIRCLE
  5
301
  8
DATA
  6
CONTINUOUS
 62
     7
 10
-306.5
 20
32.0
 30
0.0
 40
5.9499999999999877
  0
CIRCLE
  5
302
  8
DATA
  6
CONTINUOUS
 62
     7
 10
-321.0
 20
41.5
 30
0.0
 40
2.5
  0
LINE
  5
303
  8
DATA
  6
CONTINUOUS
 62
     7
 10
-322.37225959240283
 20
41.5
 30
0.0
 11
-319.62774040759717
 21
41.5
 31
0.0
  0
LINE
  5
304
  8
DATA
  6
CONTINUOUS
 62
     7
 10
-321.0
 20
40.127740407597301
 30
0.0
 11
-321.0
 21
42.872259592402678
 31
0.0
  0
TEXT
  5
305
  8
DATA
 62
     7
 10
-314.30422298638518
 20
56.981952919864497
 30
0.0
 40
2.6061466100254278
  1
B
 50
180.0
 41
0.7
 11
-314.30422298638518
 21
55.67887961485178
 31
0.0
 73
     2
  0
TEXT
  5
306
  8
DATA
 62
     7
 10
-326.63663344179832
 20
56.981952919864497
 30
0.0
 40
2.6061466100254278
  1
A
 50
180.0
 41
0.7
 11
-326.63663344179832
 21
55.67887961485178
 31
0.0
 73
     2
  0
CIRCLE
  5
307
  8
DATA
  6
CONTINUOUS
 62
     7
 10
-321.0
 20
35.87514807217682
 30
0.0
 40
2.0
  0
TEXT
  5
308
  8
DATA
 62
     7
 10
-314.96279299771669
 20
48.921399910233092
 30
0.0
 40
2.6061466100254278
  1
cascade
 50
180.0
 41
0.7
 11
-314.96279299771669
 21
47.618326605220382
 31
0.0
 73
     2
  0
TEXT
  5
309
  8
DATA
 62
     7
 10
-318.46140868083512
 20
52.254340835496571
 30
0.0
 40
2.6061466100254278
  1
out
 50
180.0
 41
0.7
 11
-318.46140868083512
 21
50.951267530483847
 31
0.0
 73
     2
  0
TEXT
  5
30A
  8
DATA
 62
     7
 10
-314.27050581874892
 20
26.655705524944491
 30
0.0
 40
3.6486052540355991
  1
ant.in
 50
180.0
 41
0.7
 11
-314.27050581874892
 21
24.83140289792669
 31
0.0
 73
     2
  0
LINE
  5
30B
  8
DATA
  6
CONTINUOUS
 62
     7
 10
-312.60000000000002
 20
32.0
 30
0.0
 11
-329.39999999999998
 21
32.0
 31
0.0
  0
LINE
  5
30C
  8
DATA
  6
CONTINUOUS
 62
     7
 10
-321.0
 20
33.875148072176813
 30
0.0
 11
-321.0
 21
32.0
 31
0.0
  0
TEXT
  5
30D
  8
DATA
 62
     7
 10
-338.9825015361958
 20
40.95679931598923
 30
0.0
 40
1.6679338304162741
  1
12.7V
 50
180.0
 41
0.7
 11
-338.9825015361958
 21
40.1228324007811
 31
0.0
 73
     2
  0
TEXT
  5
30E
  8
DATA
 62
     7
 10
-350.0362799675317
 20
41.165291044791267
 30
0.0
 40
2.084917288020343
  1
out
 50
180.0
 41
0.7
 11
-350.0362799675317
 21
40.1228324007811
 31
0.0
 73
     2
  0
LINE
  5
30F
  8
DATA
  6
CONTINUOUS
 62
     7
 10
-349.38137027528143
 20
39.663635615941757
 30
0.0
 11
-345.5221812654305
 21
39.663635615941757
 31
0.0
  0
LINE
  5
310
  8
DATA
  6
CONTINUOUS
 62
     7
 10
-341.60000000000002
 20
32.0
 30
0.0
 11
-347.66970164194532
 21
32.0
 31
0.0
  0
LINE
  5
311
  8
DATA
  6
CONTINUOUS
 62
     7
 10
-347.66970164194532
 20
38.073815045744631
 30
0.0
 11
-347.66970164194532
 21
32.0
 31
0.0
  0
LINE
  5
312
  8
DATA
  6
CONTINUOUS
 62
     7
 10
-349.30698159278842
 20
40.684339469070629
 30
0.0
 11
-348.89871925456748
 21
40.684339469070629
 31
0.0
  0
LINE
  5
313
  8
DATA
  6
CONTINUOUS
 62
     7
 10
-348.50698159278841
 20
40.684339469070629
 30
0.0
 11
-348.09871925456758
 21
40.684339469070629
 31
0.0
  0
LINE
  5
314
  8
DATA
  6
CONTINUOUS
 62
     7
 10
-347.7069815927884
 20
40.684339469070629
 30
0.0
 11
-347.29871925456752
 21
40.684339469070629
 31
0.0
  0
LINE
  5
315
  8
DATA
  6
CONTINUOUS
 62
     7
 10
-346.90698159278838
 20
40.684339469070629
 30
0.0
 11
-346.49871925456762
 21
40.684339469070629
 31
0.0
  0
LINE
  5
316
  8
DATA
  6
CONTINUOUS
 62
     7
 10
-346.10698159278837
 20
40.684339469070629
 30
0.0
 11
-345.69871925456761
 21
40.684339469070629
 31
0.0
  0
LINE
  5
317
  8
DATA
  6
CONTINUOUS
 62
     7
 10
-354.83618554687752
 20
61.5
 30
0.0
 11
-354.83618554687752
 21
23.5
 31
0.0
  0
LINE
  5
318
  8
DATA
  6
CONTINUOUS
 62
     7
 10
-297.83618554687752
 20
61.5
 30
0.0
 11
-297.83618554687752
 21
23.5
 31
0.0
  0
LINE
  5
319
  8
DATA
  6
CONTINUOUS
 62
     7
 10
-353.33618554687752
 20
63.0
 30
0.0
 11
-299.33618554687752
 21
63.0
 31
0.0
  0
LINE
  5
31A
  8
DATA
  6
CONTINUOUS
 62
     7
 10
-353.33618554687752
 20
22.0
 30
0.0
 11
-299.33618554687752
 21
22.0
 31
0.0
  0
ARC
  5
31B
  8
DATA
  6
CONTINUOUS
 62
     7
 10
-353.33618554687752
 20
61.5
 30
0.0
 40
1.5
 50
90.0
 51
180.0
  0
ARC
  5
31C
  8
DATA
  6
CONTINUOUS
 62
     7
 10
-299.33618554687752
 20
61.5
 30
0.0
 40
1.5
 50
0.0
 51
90.0
  0
ARC
  5
31D
  8
DATA
  6
CONTINUOUS
 62
     7
 10
-353.33618554687752
 20
23.5
 30
0.0
 40
1.5
 50
180.0
 51
270.0
  0
ARC
  5
31E
  8
DATA
  6
CONTINUOUS
 62
     7
 10
-299.33618554687752
 20
23.5
 30
0.0
 40
1.5
 50
270.0
 51
0.0
  0
LINE
  5
31F
  8
DATA
  6
CONTINUOUS
 62
     7
 10
-355.79533361504781
 20
21.0
 30
0.0
 11
38.795333615047639
 21
21.0
 31
0.0
  0
POLYLINE
  5
320
  8
DATA
  6
CONTINUOUS
 62
     7
 66
     1
 10
0.0
 20
0.0
 30
0.0
 70
     1
  0
VERTEX
  5
A19
  8
DATA
  6
CONTINUOUS
 62
     7
 10
-93.357028738644999
 20
57.03359960982835
 30
0.0
  0
VERTEX
  5
A1A
  8
DATA
  6
CONTINUOUS
 62
     7
 10
-77.857028738645013
 20
57.03359960982835
 30
0.0
  0
VERTEX
  5
A1B
  8
DATA
  6
CONTINUOUS
 62
     7
 10
-77.857028738645013
 20
32.033599609828258
 30
0.0
  0
VERTEX
  5
A1C
  8
DATA
  6
CONTINUOUS
 62
     7
 10
-93.357028738644999
 20
32.033599609828258
 30
0.0
  0
SEQEND
  5
A1D
  8
DATA
  6
CONTINUOUS
 62
     7
  0
LINE
  5
327
  8
DATA
  6
CONTINUOUS
 62
     7
 10
-88.857028738644999
 20
55.533599609828187
 30
0.0
 11
-88.857028738644999
 21
54.533599609828187
 31
0.0
  0
LINE
  5
328
  8
DATA
  6
CONTINUOUS
 62
     7
 10
-88.857028738644999
 20
54.533599609828187
 30
0.0
 11
-91.857028738644985
 21
54.533599609828187
 31
0.0
  0
LINE
  5
329
  8
DATA
  6
CONTINUOUS
 62
     7
 10
-91.857028738644985
 20
54.533599609828187
 30
0.0
 11
-91.857028738644985
 21
47.03359960982818
 31
0.0
  0
LINE
  5
32A
  8
DATA
  6
CONTINUOUS
 62
     7
 10
-82.357028738645013
 20
55.533599609828187
 30
0.0
 11
-82.357028738645013
 21
54.533599609828187
 31
0.0
  0
LINE
  5
32B
  8
DATA
  6
CONTINUOUS
 62
     7
 10
-82.357028738645013
 20
54.533599609828187
 30
0.0
 11
-79.357028738645013
 21
54.533599609828187
 31
0.0
  0
LINE
  5
32C
  8
DATA
  6
CONTINUOUS
 62
     7
 10
-79.357028738645013
 20
54.533599609828187
 30
0.0
 11
-79.357028738645013
 21
47.03359960982818
 31
0.0
  0
LINE
  5
32D
  8
DATA
  6
CONTINUOUS
 62
     7
 10
-91.857028738644985
 20
47.03359960982818
 30
0.0
 11
-79.357028738645013
 21
47.03359960982818
 31
0.0
  0
LINE
  5
32E
  8
DATA
  6
CONTINUOUS
 62
     7
 10
-82.107028738645013
 20
54.78359960982818
 30
0.0
 11
-79.357028738645013
 21
54.78359960982818
 31
0.0
  0
LINE
  5
32F
  8
DATA
  6
CONTINUOUS
 62
     7
 10
-82.107028738645013
 20
54.78359960982818
 30
0.0
 11
-82.107028738645013
 21
55.783599609828187
 31
0.0
  0
LINE
  5
330
  8
DATA
  6
CONTINUOUS
 62
     7
 10
-79.357028738645013
 20
54.78359960982818
 30
0.0
 11
-79.357028738645013
 21
55.783599609828187
 31
0.0
  0
LINE
  5
331
  8
DATA
  6
CONTINUOUS
 62
     7
 10
-79.357028738645013
 20
55.783599609828187
 30
0.0
 11
-82.107028738645013
 21
55.783599609828187
 31
0.0
  0
LINE
  5
332
  8
DATA
  6
CONTINUOUS
 62
     7
 10
-89.107028738645013
 20
54.78359960982818
 30
0.0
 11
-91.857028738644985
 21
54.78359960982818
 31
0.0
  0
LINE
  5
333
  8
DATA
  6
CONTINUOUS
 62
     7
 10
-89.107028738645013
 20
54.78359960982818
 30
0.0
 11
-89.107028738645013
 21
55.783599609828187
 31
0.0
  0
LINE
  5
334
  8
DATA
  6
CONTINUOUS
 62
     7
 10
-91.857028738644985
 20
54.78359960982818
 30
0.0
 11
-91.857028738644985
 21
55.783599609828187
 31
0.0
  0
LINE
  5
335
  8
DATA
  6
CONTINUOUS
 62
     7
 10
-91.857028738644985
 20
55.783599609828187
 30
0.0
 11
-89.107028738645013
 21
55.783599609828187
 31
0.0
  0
LINE
  5
336
  8
DATA
  6
CONTINUOUS
 62
     7
 10
-82.357028738645013
 20
55.533599609828187
 30
0.0
 11
-83.357028738645013
 21
55.533599609828187
 31
0.0
  0
LINE
  5
337
  8
DATA
  6
CONTINUOUS
 62
     7
 10
-88.857028738644999
 20
55.533599609828187
 30
0.0
 11
-87.857028738645013
 21
55.533599609828187
 31
0.0
  0
LINE
  5
338
  8
DATA
  6
CONTINUOUS
 62
     7
 10
-87.857028738645013
 20
55.533599609828187
 30
0.0
 11
-87.857028738645013
 21
56.53359960982818
 31
0.0
  0
LINE
  5
339
  8
DATA
  6
CONTINUOUS
 62
     7
 10
-83.357028738645013
 20
55.533599609828187
 30
0.0
 11
-83.357028738645013
 21
56.53359960982818
 31
0.0
  0
LINE
  5
33A
  8
DATA
  6
CONTINUOUS
 62
     7
 10
-83.357028738645013
 20
56.53359960982818
 30
0.0
 11
-87.857028738645013
 21
56.53359960982818
 31
0.0
  0
LINE
  5
33B
  8
DATA
  6
CONTINUOUS
 62
     7
 10
-93.357028738644999
 20
43.53359960982818
 30
0.0
 11
-77.857028738645013
 21
43.53359960982818
 31
0.0
  0
LINE
  5
33C
  8
DATA
  6
CONTINUOUS
 62
     7
 10
-82.357028738645013
 20
33.533599609828222
 30
0.0
 11
-82.357028738645013
 21
34.533599609828187
 31
0.0
  0
LINE
  5
33D
  8
DATA
  6
CONTINUOUS
 62
     7
 10
-82.357028738645013
 20
34.533599609828187
 30
0.0
 11
-79.357028738645013
 21
34.533599609828187
 31
0.0
  0
LINE
  5
33E
  8
DATA
  6
CONTINUOUS
 62
     7
 10
-79.357028738645013
 20
34.533599609828187
 30
0.0
 11
-79.357028738645013
 21
42.03359960982818
 31
0.0
  0
LINE
  5
33F
  8
DATA
  6
CONTINUOUS
 62
     7
 10
-88.857028738644999
 20
33.533599609828222
 30
0.0
 11
-88.857028738644999
 21
34.533599609828187
 31
0.0
  0
LINE
  5
340
  8
DATA
  6
CONTINUOUS
 62
     7
 10
-88.857028738644999
 20
34.533599609828187
 30
0.0
 11
-91.857028738644985
 21
34.533599609828187
 31
0.0
  0
LINE
  5
341
  8
DATA
  6
CONTINUOUS
 62
     7
 10
-91.857028738644985
 20
34.533599609828187
 30
0.0
 11
-91.857028738644985
 21
42.03359960982818
 31
0.0
  0
LINE
  5
342
  8
DATA
  6
CONTINUOUS
 62
     7
 10
-79.357028738645013
 20
42.03359960982818
 30
0.0
 11
-91.857028738644985
 21
42.03359960982818
 31
0.0
  0
LINE
  5
343
  8
DATA
  6
CONTINUOUS
 62
     7
 10
-89.107028738645013
 20
34.283599609828201
 30
0.0
 11
-91.857028738644985
 21
34.283599609828201
 31
0.0
  0
LINE
  5
344
  8
DATA
  6
CONTINUOUS
 62
     7
 10
-89.107028738645013
 20
34.283599609828201
 30
0.0
 11
-89.107028738645013
 21
33.283599609828229
 31
0.0
  0
LINE
  5
345
  8
DATA
  6
CONTINUOUS
 62
     7
 10
-91.857028738644985
 20
34.283599609828201
 30
0.0
 11
-91.857028738644985
 21
33.283599609828229
 31
0.0
  0
LINE
  5
346
  8
DATA
  6
CONTINUOUS
 62
     7
 10
-91.857028738644985
 20
33.283599609828229
 30
0.0
 11
-89.107028738645013
 21
33.283599609828229
 31
0.0
  0
LINE
  5
347
  8
DATA
  6
CONTINUOUS
 62
     7
 10
-82.107028738645013
 20
34.283599609828201
 30
0.0
 11
-79.357028738645013
 21
34.283599609828201
 31
0.0
  0
LINE
  5
348
  8
DATA
  6
CONTINUOUS
 62
     7
 10
-82.107028738645013
 20
34.283599609828201
 30
0.0
 11
-82.107028738645013
 21
33.283599609828229
 31
0.0
  0
LINE
  5
349
  8
DATA
  6
CONTINUOUS
 62
     7
 10
-79.357028738645013
 20
34.283599609828201
 30
0.0
 11
-79.357028738645013
 21
33.283599609828229
 31
0.0
  0
LINE
  5
34A
  8
DATA
  6
CONTINUOUS
 62
     7
 10
-79.357028738645013
 20
33.283599609828229
 30
0.0
 11
-82.107028738645013
 21
33.283599609828229
 31
0.0
  0
LINE
  5
34B
  8
DATA
  6
CONTINUOUS
 62
     7
 10
-88.857028738644999
 20
33.533599609828222
 30
0.0
 11
-87.857028738645013
 21
33.533599609828222
 31
0.0
  0
LINE
  5
34C
  8
DATA
  6
CONTINUOUS
 62
     7
 10
-82.357028738645013
 20
33.533599609828222
 30
0.0
 11
-83.357028738645013
 21
33.533599609828222
 31
0.0
  0
LINE
  5
34D
  8
DATA
  6
CONTINUOUS
 62
     7
 10
-83.357028738645013
 20
33.533599609828222
 30
0.0
 11
-83.357028738645013
 21
32.533599609828251
 31
0.0
  0
LINE
  5
34E
  8
DATA
  6
CONTINUOUS
 62
     7
 10
-87.857028738645013
 20
33.533599609828222
 30
0.0
 11
-87.857028738645013
 21
32.533599609828251
 31
0.0
  0
LINE
  5
34F
  8
DATA
  6
CONTINUOUS
 62
     7
 10
-87.857028738645013
 20
32.533599609828251
 30
0.0
 11
-83.357028738645013
 21
32.533599609828251
 31
0.0
  0
LINE
  5
350
  8
DATA
  6
CONTINUOUS
 62
     7
 10
-77.857028738645013
 20
45.533599609828187
 30
0.0
 11
-93.357028738644999
 21
45.533599609828187
 31
0.0
  0
LINE
  5
351
  8
DATA
  6
CONTINUOUS
 62
     7
 10
-31.356406201587589
 20
26.563208482305232
 30
0.0
 11
-31.356406201587589
 21
56.563208482305171
 31
0.0
  0
LINE
  5
352
  8
DATA
  6
CONTINUOUS
 62
     7
 10
3.6435937984124172
 20
56.563208482305171
 30
0.0
 11
3.6435937984124172
 21
26.563208482305232
 31
0.0
  0
LINE
  5
353
  8
DATA
  6
CONTINUOUS
 62
     7
 10
-29.106406201587561
 20
55.500989691319248
 30
0.0
 11
1.3935937984124389
 21
55.500989691319248
 31
0.0
  0
LINE
  5
354
  8
DATA
  6
CONTINUOUS
 62
     7
 10
-29.106406201587561
 20
27.500989691319251
 30
0.0
 11
-29.106406201587561
 21
55.500989691319248
 31
0.0
  0
LINE
  5
355
  8
DATA
  6
CONTINUOUS
 62
     7
 10
1.3935937984124389
 20
27.500989691319251
 30
0.0
 11
-29.106406201587561
 21
27.500989691319251
 31
0.0
  0
LINE
  5
356
  8
DATA
  6
CONTINUOUS
 62
     7
 10
1.3935937984124389
 20
55.500989691319248
 30
0.0
 11
1.3935937984124389
 21
27.500989691319251
 31
0.0
  0
LINE
  5
357
  8
DATA
  6
CONTINUOUS
 62
     7
 10
-14.70640620158758
 20
29.400989691319388
 30
0.0
 11
-5.5551866893927411
 21
29.400989691319388
 31
0.0
  0
LINE
  5
358
  8
DATA
  6
CONTINUOUS
 62
     7
 10
-0.5064062015875948
 20
34.400989691319353
 30
0.0
 11
-0.5064062015875948
 21
48.600989691319377
 31
0.0
  0
LINE
  5
359
  8
DATA
  6
CONTINUOUS
 62
     7
 10
-5.5551866893927411
 20
53.600989691319377
 30
0.0
 11
-14.70640620158758
 21
53.600989691319377
 31
0.0
  0
LINE
  5
35A
  8
DATA
  6
CONTINUOUS
 62
     7
 10
-16.706406201587551
 20
51.60098969131937
 30
0.0
 11
-16.706406201587551
 21
31.400989691319388
 31
0.0
  0
LINE
  5
35B
  8
DATA
  6
CONTINUOUS
 62
     7
 10
-0.5064062015875948
 20
48.600989691319377
 30
0.0
 11
-5.5551866893927411
 21
53.600989691319377
 31
0.0
  0
LINE
  5
35C
  8
DATA
  6
CONTINUOUS
 62
     7
 10
-0.5064062015875948
 20
34.400989691319353
 30
0.0
 11
-5.5551866893927411
 21
29.400989691319388
 31
0.0
  0
POLYLINE
  5
35D
  8
DATA
  6
CONTINUOUS
 62
     7
 66
     1
 10
0.0
 20
0.0
 30
0.0
 70
     1
  0
VERTEX
  5
A1E
  8
DATA
  6
CONTINUOUS
 62
     7
 10
-5.0064062015876232
 20
42.500989691319248
 30
0.0
  0
VERTEX
  5
A1F
  8
DATA
  6
CONTINUOUS
 62
     7
 10
-5.0064062015876232
 20
40.500989691319248
 30
0.0
  0
VERTEX
  5
A20
  8
DATA
  6
CONTINUOUS
 62
     7
 10
-9.0064062015876232
 20
40.500989691319248
 30
0.0
  0
VERTEX
  5
A21
  8
DATA
  6
CONTINUOUS
 62
     7
 10
-9.0064062015876232
 20
42.500989691319248
 30
0.0
  0
SEQEND
  5
A22
  8
DATA
  6
CONTINUOUS
 62
     7
  0
POLYLINE
  5
364
  8
DATA
  6
CONTINUOUS
 62
     7
 66
     1
 10
0.0
 20
0.0
 30
0.0
 70
     1
  0
VERTEX
  5
A23
  8
DATA
  6
CONTINUOUS
 62
     7
 10
-9.0064062015875912
 20
35.500989691319248
 30
0.0
  0
VERTEX
  5
A24
  8
DATA
  6
CONTINUOUS
 62
     7
 10
-9.0064062015875912
 20
33.500989691319248
 30
0.0
  0
VERTEX
  5
A25
  8
DATA
  6
CONTINUOUS
 62
     7
 10
-13.006406201587589
 20
33.500989691319248
 30
0.0
  0
VERTEX
  5
A26
  8
DATA
  6
CONTINUOUS
 62
     7
 10
-13.006406201587589
 20
35.500989691319248
 30
0.0
  0
SEQEND
  5
A27
  8
DATA
  6
CONTINUOUS
 62
     7
  0
POLYLINE
  5
36B
  8
DATA
  6
CONTINUOUS
 62
     7
 66
     1
 10
0.0
 20
0.0
 30
0.0
 70
     1
  0
VERTEX
  5
A28
  8
DATA
  6
CONTINUOUS
 62
     7
 10
-9.0064062015875912
 20
49.500989691319248
 30
0.0
  0
VERTEX
  5
A29
  8
DATA
  6
CONTINUOUS
 62
     7
 10
-9.0064062015875912
 20
47.500989691319248
 30
0.0
  0
VERTEX
  5
A2A
  8
DATA
  6
CONTINUOUS
 62
     7
 10
-13.006406201587589
 20
47.500989691319248
 30
0.0
  0
VERTEX
  5
A2B
  8
DATA
  6
CONTINUOUS
 62
     7
 10
-13.006406201587589
 20
49.500989691319248
 30
0.0
  0
SEQEND
  5
A2C
  8
DATA
  6
CONTINUOUS
 62
     7
  0
ARC
  5
372
  8
DATA
  6
CONTINUOUS
 62
     7
 10
-14.70640620158758
 20
51.60098969131937
 30
0.0
 40
2.0
 50
90.0
 51
180.0
  0
ARC
  5
373
  8
DATA
  6
CONTINUOUS
 62
     7
 10
-14.70640620158758
 20
31.400989691319388
 30
0.0
 40
1.9999999999999709
 50
180.0
 51
270.0
  0
LINE
  5
374
  8
DATA
  6
CONTINUOUS
 62
     7
 10
-18.606406201587561
 20
55.500989691319248
 30
0.0
 11
-18.606406201587561
 21
27.500989691319301
 31
0.0
  0
LINE
  5
375
  8
DATA
  6
CONTINUOUS
 62
     7
 10
-63.856406198285562
 20
56.563208482305171
 30
0.0
 11
-63.856406198285562
 21
26.563208482305232
 31
0.0
  0
LINE
  5
376
  8
DATA
  6
CONTINUOUS
 62
     7
 10
-63.856406198285534
 20
26.563208482305232
 30
0.0
 11
-31.356406198285612
 21
26.563208482305232
 31
0.0
  0
LINE
  5
377
  8
DATA
  6
CONTINUOUS
 62
     7
 10
-63.856406198285534
 20
56.563208482305171
 30
0.0
 11
-31.356406198285612
 21
56.563208482305171
 31
0.0
  0
LINE
  5
378
  8
DATA
  6
CONTINUOUS
 62
     7
 10
-56.756406198285561
 20
32.763198482305199
 30
0.0
 11
-38.456396198285553
 21
32.763198482305199
 31
0.0
  0
LINE
  5
379
  8
DATA
  6
CONTINUOUS
 62
     7
 10
-53.463596198285529
 20
49.563208482305171
 30
0.0
 11
-41.749216198285552
 21
49.563208482305171
 31
0.0
  0
LINE
  5
37A
  8
DATA
  6
CONTINUOUS
 62
     7
 10
-59.756406198285561
 20
35.763198482305171
 30
0.0
 11
-59.756406198285561
 21
42.665588482305147
 31
0.0
  0
LINE
  5
37B
  8
DATA
  6
CONTINUOUS
 62
     7
 10
-35.456396198285567
 20
35.763198482305171
 30
0.0
 11
-35.456396198285567
 21
42.665588482305147
 31
0.0
  0
LINE
  5
37C
  8
DATA
  6
CONTINUOUS
 62
     7
 10
-59.048066198285539
 20
44.601648482305137
 30
0.0
 11
-55.755256198285572
 21
48.499268482305169
 31
0.0
  0
LINE
  5
37D
  8
DATA
  6
CONTINUOUS
 62
     7
 10
-39.457556198285552
 20
48.499268482305169
 30
0.0
 11
-36.164736198285532
 21
44.601648482305137
 31
0.0
  0
LINE
  5
37E
  8
DATA
  6
CONTINUOUS
 62
     7
 10
-48.606406198285562
 20
45.563208482305171
 30
0.0
 11
-46.606406198285562
 21
45.563208482305171
 31
0.0
  0
LINE
  5
37F
  8
DATA
  6
CONTINUOUS
 62
     7
 10
-48.606406198285562
 20
41.563208482305157
 30
0.0
 11
-46.606406198285562
 21
41.563208482305157
 31
0.0
  0
LINE
  5
380
  8
DATA
  6
CONTINUOUS
 62
     7
 10
-48.606406198285562
 20
41.563208482305157
 30
0.0
 11
-48.606406198285562
 21
45.563208482305171
 31
0.0
  0
LINE
  5
381
  8
DATA
  6
CONTINUOUS
 62
     7
 10
-46.606406198285562
 20
41.563208482305157
 30
0.0
 11
-46.606406198285562
 21
45.563208482305171
 31
0.0
  0
LINE
  5
382
  8
DATA
  6
CONTINUOUS
 62
     7
 10
-55.606406198285562
 20
39.163208482305173
 30
0.0
 11
-53.606406198285562
 21
39.163208482305173
 31
0.0
  0
LINE
  5
383
  8
DATA
  6
CONTINUOUS
 62
     7
 10
-55.606406198285562
 20
35.163208482305187
 30
0.0
 11
-53.606406198285562
 21
35.163208482305187
 31
0.0
  0
LINE
  5
384
  8
DATA
  6
CONTINUOUS
 62
     7
 10
-55.606406198285562
 20
35.163208482305187
 30
0.0
 11
-55.606406198285562
 21
39.163208482305173
 31
0.0
  0
LINE
  5
385
  8
DATA
  6
CONTINUOUS
 62
     7
 10
-53.606406198285562
 20
35.163208482305187
 30
0.0
 11
-53.606406198285562
 21
39.163208482305173
 31
0.0
  0
LINE
  5
386
  8
DATA
  6
CONTINUOUS
 62
     7
 10
-41.606396198285537
 20
39.163208482305173
 30
0.0
 11
-39.606396198285552
 21
39.163208482305173
 31
0.0
  0
LINE
  5
387
  8
DATA
  6
CONTINUOUS
 62
     7
 10
-41.606396198285537
 20
35.163208482305187
 30
0.0
 11
-39.606396198285552
 21
35.163208482305187
 31
0.0
  0
LINE
  5
388
  8
DATA
  6
CONTINUOUS
 62
     7
 10
-41.606396198285537
 20
35.163208482305187
 30
0.0
 11
-41.606396198285537
 21
39.163208482305173
 31
0.0
  0
LINE
  5
389
  8
DATA
  6
CONTINUOUS
 62
     7
 10
-39.606396198285552
 20
35.163208482305187
 30
0.0
 11
-39.606396198285552
 21
39.163208482305173
 31
0.0
  0
LINE
  5
38A
  8
DATA
  6
CONTINUOUS
 62
     7
 10
-55.088536198285539
 20
53.063208482305171
 30
0.0
 11
-40.12426619828554
 21
53.063208482305171
 31
0.0
  0
LINE
  5
38B
  8
DATA
  6
CONTINUOUS
 62
     7
 10
-59.256406198285561
 20
29.263198482305221
 30
0.0
 11
-35.956396198285553
 21
29.263198482305221
 31
0.0
  0
LINE
  5
38C
  8
DATA
  6
CONTINUOUS
 62
     7
 10
-31.956396198285599
 20
33.263198482305199
 30
0.0
 11
-31.956396198285599
 21
45.043730879347997
 31
0.0
  0
LINE
  5
38D
  8
DATA
  6
CONTINUOUS
 62
     7
 10
-63.256396198285529
 20
33.263198482305199
 30
0.0
 11
-63.256396198285529
 21
45.043754552864087
 31
0.0
  0
LINE
  5
38E
  8
DATA
  6
CONTINUOUS
 62
     7
 10
-63.256396198285529
 20
45.043754552864087
 30
0.0
 11
-57.380206198285542
 21
51.999258482305173
 31
0.0
  0
LINE
  5
38F
  8
DATA
  6
CONTINUOUS
 62
     7
 10
-31.956396198285599
 20
45.043730879347997
 30
0.0
 11
-37.832606198285532
 21
51.999258482305173
 31
0.0
  0
ARC
  5
390
  8
DATA
  6
CONTINUOUS
 62
     7
 10
-59.256406198285561
 20
33.263198482305199
 30
0.0
 40
3.999989999999968
 50
180.0
 51
270.0
  0
ARC
  5
391
  8
DATA
  6
CONTINUOUS
 62
     7
 10
-35.956396198285553
 20
33.263198482305199
 30
0.0
 40
3.9999999999999849
 50
270.0
 51
0.0
  0
ARC
  5
392
  8
DATA
  6
CONTINUOUS
 62
     7
 10
-56.756406198285561
 20
35.763198482305171
 30
0.0
 40
3.0
 50
180.0
 51
270.0
  0
ARC
  5
393
  8
DATA
  6
CONTINUOUS
 62
     7
 10
-38.456396198285553
 20
35.763198482305171
 30
0.0
 40
2.9999999999999711
 50
270.0
 51
0.0
  0
ARC
  5
394
  8
DATA
  6
CONTINUOUS
 62
     7
 10
-56.756406198285561
 20
42.665598482305157
 30
0.0
 40
2.9999991930165382
 50
139.80806463930051
 51
180.0
  0
ARC
  5
395
  8
DATA
  6
CONTINUOUS
 62
     7
 10
-38.456396198285553
 20
42.665598482305157
 30
0.0
 40
3.0000000000166378
 50
359.99980901406821
 51
40.192081252070743
  0
ARC
  5
396
  8
DATA
  6
CONTINUOUS
 62
     7
 10
-41.749196198285539
 20
46.563208482305157
 30
0.0
 40
2.999990368851206
 50
40.192327759213327
 51
90.000190986568256
  0
ARC
  5
397
  8
DATA
  6
CONTINUOUS
 62
     7
 10
-53.463606198285561
 20
46.563208482305157
 30
0.0
 40
3.0000000000166658
 50
89.999809014067694
 51
139.80779549467169
  0
ARC
  5
398
  8
DATA
  6
CONTINUOUS
 62
     7
 10
-55.088536198285539
 20
50.063208482305171
 30
0.0
 40
3.0
 50
90.0
 51
139.80818789182439
  0
ARC
  5
399
  8
DATA
  6
CONTINUOUS
 62
     7
 10
-40.12426619828554
 20
50.063208482305171
 30
0.0
 40
2.9999991930165599
 50
40.191935360699112
 51
90.0
  0
LINE
  5
39A
  8
DATA
  6
CONTINUOUS
 62
     7
 10
-31.356406198285612
 20
56.563208482305171
 30
0.0
 11
3.6435937984124172
 21
56.563208482305171
 31
0.0
  0
LINE
  5
39B
  8
DATA
  6
CONTINUOUS
 62
     7
 10
-31.356406198285612
 20
26.563208482305232
 30
0.0
 11
3.6435937984124172
 21
26.563208482305232
 31
0.0
  0
LINE
  5
39C
  8
DATA
  6
CONTINUOUS
 62
     7
 10
-96.357028738644999
 20
59.53359960982835
 30
0.0
 11
-96.357028738644999
 21
24.75127052848201
 31
0.0
  0
LINE
  5
39D
  8
DATA
  6
CONTINUOUS
 62
     7
 10
-75.857028738645013
 20
59.53359960982835
 30
0.0
 11
-75.857028738645013
 21
24.75127052848201
 31
0.0
  0
LINE
  5
39E
  8
DATA
  6
CONTINUOUS
 62
     7
 10
-94.857028738644999
 20
61.03359960982835
 30
0.0
 11
-77.357028738645013
 21
61.03359960982835
 31
0.0
  0
TEXT
  5
39F
  8
DATA
 62
     7
 10
-78.754317897827946
 20
59.844878941623101
 30
0.0
 40
1.8764255592183079
  1
PoE Class 1
 50
180.0
 41
0.7
 11
-78.754317897827946
 21
58.906666162013941
 31
0.0
 73
     2
  0
LINE
  5
3A0
  8
DATA
  6
CONTINUOUS
 62
     7
 10
-85.607028738645013
 20
27.435861607625181
 30
0.0
 11
-85.607028738645013
 21
26.781337102403018
 31
0.0
  0
POLYLINE
  5
3A1
  8
DATA
  6
CONTINUOUS
 62
     7
 66
     1
 10
0.0
 20
0.0
 30
0.0
 70
     1
  0
VERTEX
  5
A2D
  8
DATA
  6
CONTINUOUS
 62
     7
 10
-87.107028738645013
 20
26.781337102403018
 30
0.0
  0
VERTEX
  5
A2E
  8
DATA
  6
CONTINUOUS
 62
     7
 10
-84.107028738645013
 20
26.781337102403018
 30
0.0
  0
VERTEX
  5
A2F
  8
DATA
  6
CONTINUOUS
 62
     7
 10
-84.107028738645013
 20
24.681337102403049
 30
0.0
  0
VERTEX
  5
A30
  8
DATA
  6
CONTINUOUS
 62
     7
 10
-87.107028738645013
 20
24.681337102403049
 30
0.0
  0
SEQEND
  5
A31
  8
DATA
  6
CONTINUOUS
 62
     7
  0
POLYLINE
  5
3A8
  8
DATA
  6
CONTINUOUS
 62
     7
 66
     1
 10
0.0
 20
0.0
 30
0.0
 70
     1
  0
VERTEX
  5
A32
  8
DATA
  6
CONTINUOUS
 62
     7
 10
-90.555786321682149
 20
30.23737621018768
 30
0.0
  0
VERTEX
  5
A33
  8
DATA
  6
CONTINUOUS
 62
     7
 10
-87.555786321682191
 20
30.23737621018768
 30
0.0
  0
VERTEX
  5
A34
  8
DATA
  6
CONTINUOUS
 62
     7
 10
-87.555786321682191
 20
28.137376210187711
 30
0.0
  0
VERTEX
  5
A35
  8
DATA
  6
CONTINUOUS
 62
     7
 10
-90.555786321682149
 20
28.137376210187711
 30
0.0
  0
SEQEND
  5
A36
  8
DATA
  6
CONTINUOUS
 62
     7
  0
LINE
  5
3AF
  8
DATA
  6
CONTINUOUS
 62
     7
 10
-89.055786321682206
 20
27.435861607625181
 30
0.0
 11
-82.158271155607835
 21
27.435861607625181
 31
0.0
  0
LINE
  5
3B0
  8
DATA
  6
CONTINUOUS
 62
     7
 10
-89.055786321682206
 20
28.137376210187711
 30
0.0
 11
-89.055786321682206
 21
27.435861607625181
 31
0.0
  0
POLYLINE
  5
3B1
  8
DATA
  6
CONTINUOUS
 62
     7
 66
     1
 10
0.0
 20
0.0
 30
0.0
 70
     1
  0
VERTEX
  5
A37
  8
DATA
  6
CONTINUOUS
 62
     7
 10
-83.658271155607807
 20
30.23737621018768
 30
0.0
  0
VERTEX
  5
A38
  8
DATA
  6
CONTINUOUS
 62
     7
 10
-80.658271155607821
 20
30.23737621018768
 30
0.0
  0
VERTEX
  5
A39
  8
DATA
  6
CONTINUOUS
 62
     7
 10
-80.658271155607821
 20
28.137376210187711
 30
0.0
  0
VERTEX
  5
A3A
  8
DATA
  6
CONTINUOUS
 62
     7
 10
-83.658271155607807
 20
28.137376210187711
 30
0.0
  0
SEQEND
  5
A3B
  8
DATA
  6
CONTINUOUS
 62
     7
  0
LINE
  5
3B8
  8
DATA
  6
CONTINUOUS
 62
     7
 10
-82.158271155607835
 20
28.137376210187711
 30
0.0
 11
-82.158271155607835
 21
27.435861607625181
 31
0.0
  0
LINE
  5
3B9
  8
DATA
  6
CONTINUOUS
 62
     7
 10
-94.857028738644999
 20
23.25127052848201
 30
0.0
 11
-77.357028738645013
 21
23.25127052848201
 31
0.0
  0
TEXT
  5
3BA
  8
DATA
 62
     7
 10
-44.42159424411917
 20
58.962284104850148
 30
0.0
 40
1.576197469743378
  1
Output:100ー240V～
 50
180.0
 41
0.7
 11
-44.42159424411917
 21
58.174185369978467
 31
0.0
 73
     2
  0
ARC
  5
3BB
  8
DATA
  6
CONTINUOUS
 62
     7
 10
-94.857028738644999
 20
59.53359960982835
 30
0.0
 40
1.5
 50
90.0
 51
180.0
  0
ARC
  5
3BC
  8
DATA
  6
CONTINUOUS
 62
     7
 10
-77.357028738645013
 20
59.53359960982835
 30
0.0
 40
1.5
 50
0.0
 51
90.0
  0
ARC
  5
3BD
  8
DATA
  6
CONTINUOUS
 62
     7
 10
-94.857028738644999
 20
24.75127052848201
 30
0.0
 40
1.5
 50
180.0
 51
270.0
  0
ARC
  5
3BE
  8
DATA
  6
CONTINUOUS
 62
     7
 10
-77.357028738645013
 20
24.75127052848201
 30
0.0
 40
1.5
 50
270.0
 51
0.0
  0
TEXT
  5
3BF
  8
DATA
 62
     7
 10
-44.42159424411917
 20
61.454189237070068
 30
0.0
 40
1.576197469743378
  1
5Amax.50/60HzUNSW
 50
180.0
 41
0.7
 11
-44.42159424411917
 21
60.666090502198379
 31
0.0
 73
     2
  0
TEXT
  5
3C0
  8
DATA
 62
     7
 10
1.8737347405814631
 20
58.962284104850148
 30
0.0
 40
1.576197469743378
  1
Input:100-240V ～50/60Hz 0.9Amax.
 50
180.0
 41
0.7
 11
1.8737347405814631
 21
58.174185369978467
 31
0.0
 73
     2
  0
TEXT
  5
3C1
  8
DATA
 62
     7
 10
1.8737347405814631
 20
61.698997738770331
 30
0.0
 40
1.576197469743378
  1
(5.9Amax outlet loadeda)
 50
180.0
 41
0.7
 11
1.8737347405814631
 21
60.910899003898642
 31
0.0
 73
     2
  0
TEXT
  5
3C2
  8
DATA
 62
     7
 10
6.0710507391148081
 20
47.662495311123649
 30
0.0
 40
2.364296204615068
  1
AC Power
 50
270.0
 41
0.7
 11
7.2531988414223418
 21
47.662495311123649
 31
0.0
 73
     2
  0
LINE
  5
3C3
  8
DATA
  6
CONTINUOUS
 62
     7
 10
12.63437099915139
 20
60.503208482305197
 30
0.0
 11
36.634370999151393
 21
60.503208482305197
 31
0.0
  0
LINE
  5
3C4
  8
DATA
  6
CONTINUOUS
 62
     7
 10
12.63437099915139
 20
28.503208482305201
 30
0.0
 11
36.634370999151393
 21
28.503208482305201
 31
0.0
  0
LINE
  5
3C5
  8
DATA
  6
CONTINUOUS
 62
     7
 10
12.63437099915139
 20
28.503208482305201
 30
0.0
 11
12.63437099915139
 21
60.503208482305197
 31
0.0
  0
LINE
  5
3C6
  8
DATA
  6
CONTINUOUS
 62
     7
 10
36.634370999151393
 20
28.503208482305201
 30
0.0
 11
36.634370999151393
 21
60.503208482305197
 31
0.0
  0
LINE
  5
3C7
  8
DATA
  6
CONTINUOUS
 62
     7
 10
13.834370999151391
 20
28.503208482305201
 30
0.0
 11
13.834370999151391
 21
60.503208482305197
 31
0.0
  0
LINE
  5
3C8
  8
DATA
  6
CONTINUOUS
 62
     7
 10
35.43437099915139
 20
28.503208482305201
 30
0.0
 11
35.43437099915139
 21
60.503208482305197
 31
0.0
  0
LINE
  5
3C9
  8
DATA
  6
CONTINUOUS
 62
     7
 10
15.63437099915139
 20
56.503208482305212
 30
0.0
 11
33.634370999151393
 21
56.503208482305212
 31
0.0
  0
LINE
  5
3CA
  8
DATA
  6
CONTINUOUS
 62
     7
 10
15.63437099915139
 20
32.503208482305212
 30
0.0
 11
33.634370999151393
 21
32.503208482305212
 31
0.0
  0
LINE
  5
3CB
  8
DATA
  6
CONTINUOUS
 62
     7
 10
15.63437099915139
 20
32.503208482305212
 30
0.0
 11
15.63437099915139
 21
56.503208482305212
 31
0.0
  0
LINE
  5
3CC
  8
DATA
  6
CONTINUOUS
 62
     7
 10
33.634370999151393
 20
32.503208482305212
 30
0.0
 11
33.634370999151393
 21
56.503208482305212
 31
0.0
  0
LINE
  5
3CD
  8
DATA
  6
CONTINUOUS
 62
     7
 10
15.63437099915139
 20
49.971241547912257
 30
0.0
 11
33.634370999151393
 21
49.971241547912257
 31
0.0
  0
LINE
  5
3CE
  8
DATA
  6
CONTINUOUS
 62
     7
 10
24.6343709991514
 20
34.023190085414811
 30
0.0
 11
24.6343709991514
 21
38.219818123403741
 31
0.0
  0
POLYLINE
  5
3CF
  8
DATA
  6
CONTINUOUS
 62
     7
 66
     1
 10
0.0
 20
0.0
 30
0.0
 70
   129
  0
VERTEX
  5
A3C
  8
DATA
  6
CONTINUOUS
 62
     7
 10
23.306621911242651
 20
48.168681058620102
 30
0.0
  0
VERTEX
  5
A3D
  8
DATA
  6
CONTINUOUS
 62
     7
 10
23.32573386111498
 20
48.17785650245866
 30
0.0
  0
VERTEX
  5
A3E
  8
DATA
  6
CONTINUOUS
 62
     7
 10
23.344891952547819
 20
48.186887451118679
 30
0.0
  0
VERTEX
  5
A3F
  8
DATA
  6
CONTINUOUS
 62
     7
 10
23.364096185541172
 20
48.195773904600131
 30
0.0
  0
VERTEX
  5
A40
  8
DATA
  6
CONTINUOUS
 62
     7
 10
23.383346560095038
 20
48.204515862903023
 30
0.0
  0
VERTEX
  5
A41
  8
DATA
  6
CONTINUOUS
 62
     7
 10
23.402643076209401
 20
48.213113326027361
 30
0.0
  0
VERTEX
  5
A42
  8
DATA
  6
CONTINUOUS
 62
     7
 10
23.421985733884281
 20
48.221566293973112
 30
0.0
  0
VERTEX
  5
A43
  8
DATA
  6
CONTINUOUS
 62
     7
 10
23.441374533119671
 20
48.22987476674033
 30
0.0
  0
VERTEX
  5
A44
  8
DATA
  6
CONTINUOUS
 62
     7
 10
23.460809473915571
 20
48.238038744328946
 30
0.0
  0
VERTEX
  5
A45
  8
DATA
  6
CONTINUOUS
 62
     7
 10
23.480290556271971
 20
48.246058226739052
 30
0.0
  0
VERTEX
  5
A46
  8
DATA
  6
CONTINUOUS
 62
     7
 10
23.499817780188881
 20
48.253933213970569
 30
0.0
  0
VERTEX
  5
A47
  8
DATA
  6
CONTINUOUS
 62
     7
 10
23.519391145666312
 20
48.261663706023533
 30
0.0
  0
VERTEX
  5
A48
  8
DATA
  6
CONTINUOUS
 62
     7
 10
23.539010652704238
 20
48.269249702897937
 30
0.0
  0
VERTEX
  5
A49
  8
DATA
  6
CONTINUOUS
 62
     7
 10
23.55867630130269
 20
48.276691204593781
 30
0.0
  0
VERTEX
  5
A4A
  8
DATA
  6
CONTINUOUS
 62
     7
 10
23.57838809146164
 20
48.283988211111058
 30
0.0
  0
VERTEX
  5
A4B
  8
DATA
  6
CONTINUOUS
 62
     7
 10
23.598146023181101
 20
48.291140722449782
 30
0.0
  0
VERTEX
  5
A4C
  8
DATA
  6
CONTINUOUS
 62
     7
 10
23.617950096461069
 20
48.29814873860996
 30
0.0
  0
VERTEX
  5
A4D
  8
DATA
  6
CONTINUOUS
 62
     7
 10
23.637800311301561
 20
48.305012259591571
 30
0.0
  0
VERTEX
  5
A4E
  8
DATA
  6
CONTINUOUS
 62
     7
 10
23.657696667702549
 20
48.311731285394622
 30
0.0
  0
VERTEX
  5
A4F
  8
DATA
  6
CONTINUOUS
 62
     7
 10
23.677639165664051
 20
48.318305816019098
 30
0.0
  0
VERTEX
  5
A50
  8
DATA
  6
CONTINUOUS
 62
     7
 10
23.697627805186048
 20
48.324735851465022
 30
0.0
  0
VERTEX
  5
A51
  8
DATA
  6
CONTINUOUS
 62
     7
 10
23.71766258626857
 20
48.331021391732378
 30
0.0
  0
VERTEX
  5
A52
  8
DATA
  6
CONTINUOUS
 62
     7
 10
23.737743508911599
 20
48.337162436821181
 30
0.0
  0
VERTEX
  5
A53
  8
DATA
  6
CONTINUOUS
 62
     7
 10
23.757870573115131
 20
48.343158986731432
 30
0.0
  0
VERTEX
  5
A54
  8
DATA
  6
CONTINUOUS
 62
     7
 10
23.77804377887918
 20
48.349011041463108
 30
0.0
  0
VERTEX
  5
A55
  8
DATA
  6
CONTINUOUS
 62
     7
 10
23.798263126203729
 20
48.354718601016238
 30
0.0
  0
VERTEX
  5
A56
  8
DATA
  6
CONTINUOUS
 62
     7
 10
23.818528615088798
 20
48.360281665390801
 30
0.0
  0
VERTEX
  5
A57
  8
DATA
  6
CONTINUOUS
 62
     7
 10
23.838840245534382
 20
48.365700234586797
 30
0.0
  0
VERTEX
  5
A58
  8
DATA
  6
CONTINUOUS
 62
     7
 10
23.859198017540471
 20
48.370974308604239
 30
0.0
  0
VERTEX
  5
A59
  8
DATA
  6
CONTINUOUS
 62
     7
 10
23.87960193110705
 20
48.376103887443122
 30
0.0
  0
VERTEX
  5
A5A
  8
DATA
  6
CONTINUOUS
 62
     7
 10
23.90005198623416
 20
48.381088971103452
 30
0.0
  0
VERTEX
  5
A5B
  8
DATA
  6
CONTINUOUS
 62
     7
 10
23.92054818292177
 20
48.385929559585222
 30
0.0
  0
VERTEX
  5
A5C
  8
DATA
  6
CONTINUOUS
 62
     7
 10
23.941090521169901
 20
48.390625652888417
 30
0.0
  0
VERTEX
  5
A5D
  8
DATA
  6
CONTINUOUS
 62
     7
 10
23.961679000978531
 20
48.395177251013052
 30
0.0
  0
VERTEX
  5
A5E
  8
DATA
  6
CONTINUOUS
 62
     7
 10
23.982313622347672
 20
48.399584353959142
 30
0.0
  0
VERTEX
  5
A5F
  8
DATA
  6
CONTINUOUS
 62
     7
 10
24.002994385277319
 20
48.403846961726657
 30
0.0
  0
VERTEX
  5
A60
  8
DATA
  6
CONTINUOUS
 62
     7
 10
24.023721289767479
 20
48.407965074315612
 30
0.0
  0
VERTEX
  5
A61
  8
DATA
  6
CONTINUOUS
 62
     7
 10
24.04449433581815
 20
48.411938691726021
 30
0.0
  0
VERTEX
  5
A62
  8
DATA
  6
CONTINUOUS
 62
     7
 10
24.065313523429321
 20
48.415767813957871
 30
0.0
  0
VERTEX
  5
A63
  8
DATA
  6
CONTINUOUS
 62
     7
 10
24.086178852601009
 20
48.419452441011153
 30
0.0
  0
VERTEX
  5
A64
  8
DATA
  6
CONTINUOUS
 62
     7
 10
24.10709032333321
 20
48.422992572885889
 30
0.0
  0
VERTEX
  5
A65
  8
DATA
  6
CONTINUOUS
 62
     7
 10
24.128047935625919
 20
48.426388209582043
 30
0.0
  0
VERTEX
  5
A66
  8
DATA
  6
CONTINUOUS
 62
     7
 10
24.14905168947913
 20
48.429639351099638
 30
0.0
  0
VERTEX
  5
A67
  8
DATA
  6
CONTINUOUS
 62
     7
 10
24.170101584892858
 20
48.43274599743868
 30
0.0
  0
VERTEX
  5
A68
  8
DATA
  6
CONTINUOUS
 62
     7
 10
24.19119762186709
 20
48.435708148599169
 30
0.0
  0
VERTEX
  5
A69
  8
DATA
  6
CONTINUOUS
 62
     7
 10
24.212339800401839
 20
48.438525804581097
 30
0.0
  0
VERTEX
  5
A6A
  8
DATA
  6
CONTINUOUS
 62
     7
 10
24.233528120497091
 20
48.441198965384473
 30
0.0
  0
VERTEX
  5
A6B
  8
DATA
  6
CONTINUOUS
 62
     7
 10
24.25476258215285
 20
48.443727631009253
 30
0.0
  0
VERTEX
  5
A6C
  8
DATA
  6
CONTINUOUS
 62
     7
 10
24.276043185369119
 20
48.446111801455501
 30
0.0
  0
VERTEX
  5
A6D
  8
DATA
  6
CONTINUOUS
 62
     7
 10
24.297369930145901
 20
48.448351476723168
 30
0.0
  0
VERTEX
  5
A6E
  8
DATA
  6
CONTINUOUS
 62
     7
 10
24.318742816483201
 20
48.450446656812289
 30
0.0
  0
VERTEX
  5
A6F
  8
DATA
  6
CONTINUOUS
 62
     7
 10
24.340161844381001
 20
48.452397341722872
 30
0.0
  0
VERTEX
  5
A70
  8
DATA
  6
CONTINUOUS
 62
     7
 10
24.361627013839311
 20
48.454203531454858
 30
0.0
  0
VERTEX
  5
A71
  8
DATA
  6
CONTINUOUS
 62
     7
 10
24.38313832485813
 20
48.455865226008306
 30
0.0
  0
VERTEX
  5
A72
  8
DATA
  6
CONTINUOUS
 62
     7
 10
24.40469577743745
 20
48.457382425383187
 30
0.0
  0
VERTEX
  5
A73
  8
DATA
  6
CONTINUOUS
 62
     7
 10
24.42629937157729
 20
48.458755129579508
 30
0.0
  0
VERTEX
  5
A74
  8
DATA
  6
CONTINUOUS
 62
     7
 10
24.44794910727764
 20
48.459983338597269
 30
0.0
  0
VERTEX
  5
A75
  8
DATA
  6
CONTINUOUS
 62
     7
 10
24.46964498453849
 20
48.461067052436469
 30
0.0
  0
VERTEX
  5
A76
  8
DATA
  6
CONTINUOUS
 62
     7
 10
24.491387003359861
 20
48.46200627109711
 30
0.0
  0
VERTEX
  5
A77
  8
DATA
  6
CONTINUOUS
 62
     7
 10
24.513175163741732
 20
48.46280099457919
 30
0.0
  0
VERTEX
  5
A78
  8
DATA
  6
CONTINUOUS
 62
     7
 10
24.535009465684119
 20
48.463451222882711
 30
0.0
  0
VERTEX
  5
A79
  8
DATA
  6
CONTINUOUS
 62
     7
 10
24.55688990918701
 20
48.463956956007671
 30
0.0
  0
VERTEX
  5
A7A
  8
DATA
  6
CONTINUOUS
 62
     7
 10
24.578816494250411
 20
48.464318193954057
 30
0.0
  0
VERTEX
  5
A7B
  8
DATA
  6
CONTINUOUS
 62
     7
 10
24.600789220874329
 20
48.464534936721897
 30
0.0
  0
VERTEX
  5
A7C
  8
DATA
  6
CONTINUOUS
 62
     7
 10
24.622808089058751
 20
48.464607184311191
 30
0.0
  0
VERTEX
  5
A7D
  8
DATA
  6
CONTINUOUS
 62
     7
 10
24.644826957243168
 20
48.464534936721897
 30
0.0
  0
VERTEX
  5
A7E
  8
DATA
  6
CONTINUOUS
 62
     7
 10
24.66679968386709
 20
48.464318193954057
 30
0.0
  0
VERTEX
  5
A7F
  8
DATA
  6
CONTINUOUS
 62
     7
 10
24.688726268930491
 20
48.463956956007671
 30
0.0
  0
VERTEX
  5
A80
  8
DATA
  6
CONTINUOUS
 62
     7
 10
24.710606712433389
 20
48.463451222882711
 30
0.0
  0
VERTEX
  5
A81
  8
DATA
  6
CONTINUOUS
 62
     7
 10
24.73244101437577
 20
48.46280099457919
 30
0.0
  0
VERTEX
  5
A82
  8
DATA
  6
CONTINUOUS
 62
     7
 10
24.754229174757651
 20
48.46200627109711
 30
0.0
  0
VERTEX
  5
A83
  8
DATA
  6
CONTINUOUS
 62
     7
 10
24.775971193579011
 20
48.461067052436469
 30
0.0
  0
VERTEX
  5
A84
  8
DATA
  6
CONTINUOUS
 62
     7
 10
24.797667070839871
 20
48.459983338597269
 30
0.0
  0
VERTEX
  5
A85
  8
DATA
  6
CONTINUOUS
 62
     7
 10
24.819316806540211
 20
48.458755129579508
 30
0.0
  0
VERTEX
  5
A86
  8
DATA
  6
CONTINUOUS
 62
     7
 10
24.840920400680051
 20
48.457382425383187
 30
0.0
  0
VERTEX
  5
A87
  8
DATA
  6
CONTINUOUS
 62
     7
 10
24.862477853259382
 20
48.455865226008306
 30
0.0
  0
VERTEX
  5
A88
  8
DATA
  6
CONTINUOUS
 62
     7
 10
24.883989164278201
 20
48.454203531454858
 30
0.0
  0
VERTEX
  5
A89
  8
DATA
  6
CONTINUOUS
 62
     7
 10
24.905454333736511
 20
48.452397341722872
 30
0.0
  0
VERTEX
  5
A8A
  8
DATA
  6
CONTINUOUS
 62
     7
 10
24.926873361634311
 20
48.450446656812289
 30
0.0
  0
VERTEX
  5
A8B
  8
DATA
  6
CONTINUOUS
 62
     7
 10
24.9482462479716
 20
48.448351476723168
 30
0.0
  0
VERTEX
  5
A8C
  8
DATA
  6
CONTINUOUS
 62
     7
 10
24.969572992748379
 20
48.446111801455501
 30
0.0
  0
VERTEX
  5
A8D
  8
DATA
  6
CONTINUOUS
 62
     7
 10
24.990853595964651
 20
48.443727631009253
 30
0.0
  0
VERTEX
  5
A8E
  8
DATA
  6
CONTINUOUS
 62
     7
 10
25.01208805762041
 20
48.441198965384473
 30
0.0
  0
VERTEX
  5
A8F
  8
DATA
  6
CONTINUOUS
 62
     7
 10
25.033276377715659
 20
48.438525804581097
 30
0.0
  0
VERTEX
  5
A90
  8
DATA
  6
CONTINUOUS
 62
     7
 10
25.054418556250411
 20
48.435708148599169
 30
0.0
  0
VERTEX
  5
A91
  8
DATA
  6
CONTINUOUS
 62
     7
 10
25.07551459322465
 20
48.43274599743868
 30
0.0
  0
VERTEX
  5
A92
  8
DATA
  6
CONTINUOUS
 62
     7
 10
25.096564488638371
 20
48.429639351099638
 30
0.0
  0
VERTEX
  5
A93
  8
DATA
  6
CONTINUOUS
 62
     7
 10
25.117568242491579
 20
48.426388209582043
 30
0.0
  0
VERTEX
  5
A94
  8
DATA
  6
CONTINUOUS
 62
     7
 10
25.138525854784291
 20
48.422992572885889
 30
0.0
  0
VERTEX
  5
A95
  8
DATA
  6
CONTINUOUS
 62
     7
 10
25.159437325516489
 20
48.419452441011153
 30
0.0
  0
VERTEX
  5
A96
  8
DATA
  6
CONTINUOUS
 62
     7
 10
25.18030265468818
 20
48.415767813957871
 30
0.0
  0
VERTEX
  5
A97
  8
DATA
  6
CONTINUOUS
 62
     7
 10
25.201121842299361
 20
48.411938691726021
 30
0.0
  0
VERTEX
  5
A98
  8
DATA
  6
CONTINUOUS
 62
     7
 10
25.221894888350029
 20
48.407965074315612
 30
0.0
  0
VERTEX
  5
A99
  8
DATA
  6
CONTINUOUS
 62
     7
 10
25.24262179284019
 20
48.403846961726657
 30
0.0
  0
VERTEX
  5
A9A
  8
DATA
  6
CONTINUOUS
 62
     7
 10
25.26330255576983
 20
48.399584353959142
 30
0.0
  0
VERTEX
  5
A9B
  8
DATA
  6
CONTINUOUS
 62
     7
 10
25.28393717713897
 20
48.395177251013052
 30
0.0
  0
VERTEX
  5
A9C
  8
DATA
  6
CONTINUOUS
 62
     7
 10
25.304525656947611
 20
48.390625652888417
 30
0.0
  0
VERTEX
  5
A9D
  8
DATA
  6
CONTINUOUS
 62
     7
 10
25.325067995195731
 20
48.385929559585222
 30
0.0
  0
VERTEX
  5
A9E
  8
DATA
  6
CONTINUOUS
 62
     7
 10
25.345564191883341
 20
48.381088971103452
 30
0.0
  0
VERTEX
  5
A9F
  8
DATA
  6
CONTINUOUS
 62
     7
 10
25.366014247010451
 20
48.376103887443122
 30
0.0
  0
VERTEX
  5
AA0
  8
DATA
  6
CONTINUOUS
 62
     7
 10
25.38641816057704
 20
48.370974308604239
 30
0.0
  0
VERTEX
  5
AA1
  8
DATA
  6
CONTINUOUS
 62
     7
 10
25.40677593258312
 20
48.365700234586797
 30
0.0
  0
VERTEX
  5
AA2
  8
DATA
  6
CONTINUOUS
 62
     7
 10
25.427087563028689
 20
48.360281665390801
 30
0.0
  0
VERTEX
  5
AA3
  8
DATA
  6
CONTINUOUS
 62
     7
 10
25.447353051913758
 20
48.354718601016238
 30
0.0
  0
VERTEX
  5
AA4
  8
DATA
  6
CONTINUOUS
 62
     7
 10
25.467572399238321
 20
48.349011041463108
 30
0.0
  0
VERTEX
  5
AA5
  8
DATA
  6
CONTINUOUS
 62
     7
 10
25.48774560500237
 20
48.343158986731432
 30
0.0
  0
VERTEX
  5
AA6
  8
DATA
  6
CONTINUOUS
 62
     7
 10
25.507872669205909
 20
48.337162436821181
 30
0.0
  0
VERTEX
  5
AA7
  8
DATA
  6
CONTINUOUS
 62
     7
 10
25.527953591848931
 20
48.331021391732378
 30
0.0
  0
VERTEX
  5
AA8
  8
DATA
  6
CONTINUOUS
 62
     7
 10
25.547988372931449
 20
48.324735851465022
 30
0.0
  0
VERTEX
  5
AA9
  8
DATA
  6
CONTINUOUS
 62
     7
 10
25.567977012453451
 20
48.318305816019098
 30
0.0
  0
VERTEX
  5
AAA
  8
DATA
  6
CONTINUOUS
 62
     7
 10
25.587919510414959
 20
48.311731285394622
 30
0.0
  0
VERTEX
  5
AAB
  8
DATA
  6
CONTINUOUS
 62
     7
 10
25.607815866815951
 20
48.305012259591571
 30
0.0
  0
VERTEX
  5
AAC
  8
DATA
  6
CONTINUOUS
 62
     7
 10
25.627666081656429
 20
48.29814873860996
 30
0.0
  0
VERTEX
  5
AAD
  8
DATA
  6
CONTINUOUS
 62
     7
 10
25.6474701549364
 20
48.291140722449782
 30
0.0
  0
VERTEX
  5
AAE
  8
DATA
  6
CONTINUOUS
 62
     7
 10
25.667228086655861
 20
48.283988211111058
 30
0.0
  0
VERTEX
  5
AAF
  8
DATA
  6
CONTINUOUS
 62
     7
 10
25.686939876814812
 20
48.276691204593781
 30
0.0
  0
VERTEX
  5
AB0
  8
DATA
  6
CONTINUOUS
 62
     7
 10
25.706605525413259
 20
48.269249702897937
 30
0.0
  0
VERTEX
  5
AB1
  8
DATA
  6
CONTINUOUS
 62
     7
 10
25.7262250324512
 20
48.261663706023533
 30
0.0
  0
VERTEX
  5
AB2
  8
DATA
  6
CONTINUOUS
 62
     7
 10
25.74579839792861
 20
48.253933213970569
 30
0.0
  0
VERTEX
  5
AB3
  8
DATA
  6
CONTINUOUS
 62
     7
 10
25.76532562184553
 20
48.246058226739052
 30
0.0
  0
VERTEX
  5
AB4
  8
DATA
  6
CONTINUOUS
 62
     7
 10
25.78480670420193
 20
48.238038744328946
 30
0.0
  0
VERTEX
  5
AB5
  8
DATA
  6
CONTINUOUS
 62
     7
 10
25.80424164499783
 20
48.22987476674033
 30
0.0
  0
VERTEX
  5
AB6
  8
DATA
  6
CONTINUOUS
 62
     7
 10
25.823630444233221
 20
48.221566293973112
 30
0.0
  0
VERTEX
  5
AB7
  8
DATA
  6
CONTINUOUS
 62
     7
 10
25.8429731019081
 20
48.213113326027361
 30
0.0
  0
VERTEX
  5
AB8
  8
DATA
  6
CONTINUOUS
 62
     7
 10
25.86226961802247
 20
48.204515862903023
 30
0.0
  0
VERTEX
  5
AB9
  8
DATA
  6
CONTINUOUS
 62
     7
 10
25.88151999257633
 20
48.195773904600131
 30
0.0
  0
VERTEX
  5
ABA
  8
DATA
  6
CONTINUOUS
 62
     7
 10
25.900724225569679
 20
48.186887451118679
 30
0.0
  0
VERTEX
  5
ABB
  8
DATA
  6
CONTINUOUS
 62
     7
 10
25.919882317002521
 20
48.17785650245866
 30
0.0
  0
VERTEX
  5
ABC
  8
DATA
  6
CONTINUOUS
 62
     7
 10
25.938994266874861
 20
48.168681058620102
 30
0.0
  0
VERTEX
  5
ABD
  8
DATA
  6
CONTINUOUS
 62
     7
 10
25.958020115423089
 20
48.159380478286181
 30
0.0
  0
VERTEX
  5
ABE
  8
DATA
  6
CONTINUOUS
 62
     7
 10
25.97691990288369
 20
48.149974120140101
 30
0.0
  0
VERTEX
  5
ABF
  8
DATA
  6
CONTINUOUS
 62
     7
 10
25.995693629256639
 20
48.140461984181883
 30
0.0
  0
VERTEX
  5
AC0
  8
DATA
  6
CONTINUOUS
 62
     7
 10
26.014341294541939
 20
48.130844070411491
 30
0.0
  0
VERTEX
  5
AC1
  8
DATA
  6
CONTINUOUS
 62
     7
 10
26.03286289873957
 20
48.121120378828948
 30
0.0
  0
VERTEX
  5
AC2
  8
DATA
  6
CONTINUOUS
 62
     7
 10
26.051258441849569
 20
48.111290909434253
 30
0.0
  0
VERTEX
  5
AC3
  8
DATA
  6
CONTINUOUS
 62
     7
 10
26.06952792387191
 20
48.101355662227398
 30
0.0
  0
VERTEX
  5
AC4
  8
DATA
  6
CONTINUOUS
 62
     7
 10
26.087671344806591
 20
48.091314637208392
 30
0.0
  0
VERTEX
  5
AC5
  8
DATA
  6
CONTINUOUS
 62
     7
 10
26.105688704653609
 20
48.081167834377212
 30
0.0
  0
VERTEX
  5
AC6
  8
DATA
  6
CONTINUOUS
 62
     7
 10
26.123580003413
 20
48.070915253733922
 30
0.0
  0
VERTEX
  5
AC7
  8
DATA
  6
CONTINUOUS
 62
     7
 10
26.141345241084728
 20
48.060556895278452
 30
0.0
  0
VERTEX
  5
AC8
  8
DATA
  6
CONTINUOUS
 62
     7
 10
26.158984417668801
 20
48.050092759010823
 30
0.0
  0
VERTEX
  5
AC9
  8
DATA
  6
CONTINUOUS
 62
     7
 10
26.176497533165229
 20
48.039522844931042
 30
0.0
  0
VERTEX
  5
ACA
  8
DATA
  6
CONTINUOUS
 62
     7
 10
26.193884587574001
 20
48.028847153039102
 30
0.0
  0
VERTEX
  5
ACB
  8
DATA
  6
CONTINUOUS
 62
     7
 10
26.211145580895121
 20
48.01806568333501
 30
0.0
  0
VERTEX
  5
ACC
  8
DATA
  6
CONTINUOUS
 62
     7
 10
26.228280513128588
 20
48.00717843581878
 30
0.0
  0
VERTEX
  5
ACD
  8
DATA
  6
CONTINUOUS
 62
     7
 10
26.2452893842744
 20
47.996185410490369
 30
0.0
  0
VERTEX
  5
ACE
  8
DATA
  6
CONTINUOUS
 62
     7
 10
26.262172194332571
 20
47.985086607349828
 30
0.0
  0
VERTEX
  5
ACF
  8
DATA
  6
CONTINUOUS
 62
     7
 10
26.278928943303079
 20
47.973882026397114
 30
0.0
  0
VERTEX
  5
AD0
  8
DATA
  6
CONTINUOUS
 62
     7
 10
26.295559631185931
 20
47.962571667632247
 30
0.0
  0
VERTEX
  5
AD1
  8
DATA
  6
CONTINUOUS
 62
     7
 10
26.312064257981142
 20
47.951155531055221
 30
0.0
  0
VERTEX
  5
AD2
  8
DATA
  6
CONTINUOUS
 62
     7
 10
26.3284428236887
 20
47.93963361666605
 30
0.0
  0
VERTEX
  5
AD3
  8
DATA
  6
CONTINUOUS
 62
     7
 10
26.34469532830861
 20
47.928005924464728
 30
0.0
  0
VERTEX
  5
AD4
  8
DATA
  6
CONTINUOUS
 62
     7
 10
26.360821771840861
 20
47.916272454451239
 30
0.0
  0
VERTEX
  5
AD5
  8
DATA
  6
CONTINUOUS
 62
     7
 10
26.376822154285449
 20
47.904433206625598
 30
0.0
  0
VERTEX
  5
AD6
  8
DATA
  6
CONTINUOUS
 62
     7
 10
26.392696475642399
 20
47.892488180987819
 30
0.0
  0
VERTEX
  5
AD7
  8
DATA
  6
CONTINUOUS
 62
     7
 10
26.40844473591169
 20
47.880437377537874
 30
0.0
  0
VERTEX
  5
AD8
  8
DATA
  6
CONTINUOUS
 62
     7
 10
26.424066935093339
 20
47.868280796275783
 30
0.0
  0
VERTEX
  5
AD9
  8
DATA
  6
CONTINUOUS
 62
     7
 10
26.439563073187319
 20
47.856018437201513
 30
0.0
  0
VERTEX
  5
ADA
  8
DATA
  6
CONTINUOUS
 62
     7
 10
26.454933150193671
 20
47.843650300315112
 30
0.0
  0
VERTEX
  5
ADB
  8
DATA
  6
CONTINUOUS
 62
     7
 10
26.47017716611235
 20
47.831176385616537
 30
0.0
  0
VERTEX
  5
ADC
  8
DATA
  6
CONTINUOUS
 62
     7
 10
26.485295120943391
 20
47.818596693105818
 30
0.0
  0
VERTEX
  5
ADD
  8
DATA
  6
CONTINUOUS
 62
     7
 10
26.500287014686759
 20
47.805911222782953
 30
0.0
  0
VERTEX
  5
ADE
  8
DATA
  6
CONTINUOUS
 62
     7
 10
26.515152847342481
 20
47.793119974647922
 30
0.0
  0
VERTEX
  5
ADF
  8
DATA
  6
CONTINUOUS
 62
     7
 10
26.529892618910569
 20
47.780222948700718
 30
0.0
  0
VERTEX
  5
AE0
  8
DATA
  6
CONTINUOUS
 62
     7
 10
26.544506329391002
 20
47.76722014494139
 30
0.0
  0
VERTEX
  5
AE1
  8
DATA
  6
CONTINUOUS
 62
     7
 10
26.558993978783771
 20
47.754111563369889
 30
0.0
  0
VERTEX
  5
AE2
  8
DATA
  6
CONTINUOUS
 62
     7
 10
26.573355567088889
 20
47.74089720398625
 30
0.0
  0
VERTEX
  5
AE3
  8
DATA
  6
CONTINUOUS
 62
     7
 10
26.587591094306362
 20
47.72757706679046
 30
0.0
  0
VERTEX
  5
AE4
  8
DATA
  6
CONTINUOUS
 62
     7
 10
26.601700560436171
 20
47.714151151782488
 30
0.0
  0
VERTEX
  5
AE5
  8
DATA
  6
CONTINUOUS
 62
     7
 10
26.61568396547834
 20
47.700619458962379
 30
0.0
  0
VERTEX
  5
AE6
  8
DATA
  6
CONTINUOUS
 62
     7
 10
26.629541309432849
 20
47.686981988330103
 30
0.0
  0
VERTEX
  5
AE7
  8
DATA
  6
CONTINUOUS
 62
     7
 10
26.643272592299709
 20
47.673238739885683
 30
0.0
  0
VERTEX
  5
AE8
  8
DATA
  6
CONTINUOUS
 62
     7
 10
26.656877814078921
 20
47.65938971362911
 30
0.0
  0
VERTEX
  5
AE9
  8
DATA
  6
CONTINUOUS
 62
     7
 10
26.670356974770471
 20
47.645434909560393
 30
0.0
  0
VERTEX
  5
AEA
  8
DATA
  6
CONTINUOUS
 62
     7
 10
26.683710074374371
 20
47.631374327679502
 30
0.0
  0
VERTEX
  5
AEB
  8
DATA
  6
CONTINUOUS
 62
     7
 10
26.69693711289063
 20
47.617207967986452
 30
0.0
  0
VERTEX
  5
AEC
  8
DATA
  6
CONTINUOUS
 62
     7
 10
26.71003809031923
 20
47.602935830481258
 30
0.0
  0
VERTEX
  5
AED
  8
DATA
  6
CONTINUOUS
 62
     7
 10
26.723013006660171
 20
47.588557915163889
 30
0.0
  0
VERTEX
  5
AEE
  8
DATA
  6
CONTINUOUS
 62
     7
 10
26.73586186191347
 20
47.574074222034398
 30
0.0
  0
VERTEX
  5
AEF
  8
DATA
  6
CONTINUOUS
 62
     7
 10
26.74858465607911
 20
47.559484751092732
 30
0.0
  0
VERTEX
  5
AF0
  8
DATA
  6
CONTINUOUS
 62
     7
 10
26.761181389157102
 20
47.544789502338929
 30
0.0
  0
VERTEX
  5
AF1
  8
DATA
  6
CONTINUOUS
 62
     7
 10
26.773652061147441
 20
47.52998847577296
 30
0.0
  0
VERTEX
  5
AF2
  8
DATA
  6
CONTINUOUS
 62
     7
 10
26.785996672050128
 20
47.515081671394817
 30
0.0
  0
VERTEX
  5
AF3
  8
DATA
  6
CONTINUOUS
 62
     7
 10
26.79821522186516
 20
47.500069089204551
 30
0.0
  0
VERTEX
  5
AF4
  8
DATA
  6
CONTINUOUS
 62
     7
 10
26.810307710592539
 20
47.484950729202119
 30
0.0
  0
VERTEX
  5
AF5
  8
DATA
  6
CONTINUOUS
 62
     7
 10
26.82227413823227
 20
47.46972659138752
 30
0.0
  0
VERTEX
  5
AF6
  8
DATA
  6
CONTINUOUS
 62
     7
 10
26.834114504784338
 20
47.45439667576079
 30
0.0
  0
VERTEX
  5
AF7
  8
DATA
  6
CONTINUOUS
 62
     7
 10
26.845828810248769
 20
47.438960982321888
 30
0.0
  0
VERTEX
  5
AF8
  8
DATA
  6
CONTINUOUS
 62
     7
 10
26.85741705462554
 20
47.423419511070819
 30
0.0
  0
VERTEX
  5
AF9
  8
DATA
  6
CONTINUOUS
 62
     7
 10
26.868879237914658
 20
47.407772262007612
 30
0.0
  0
VERTEX
  5
AFA
  8
DATA
  6
CONTINUOUS
 62
     7
 10
26.880215360116129
 20
47.392019235132253
 30
0.0
  0
VERTEX
  5
AFB
  8
DATA
  6
CONTINUOUS
 62
     7
 10
26.89142542122995
 20
47.376160430444742
 30
0.0
  0
VERTEX
  5
AFC
  8
DATA
  6
CONTINUOUS
 62
     7
 10
26.902509421256109
 20
47.360195847945072
 30
0.0
  0
VERTEX
  5
AFD
  8
DATA
  6
CONTINUOUS
 62
     7
 10
26.913444289414372
 20
47.344159017856121
 30
0.0
  0
VERTEX
  5
AFE
  8
DATA
  6
CONTINUOUS
 62
     7
 10
26.924206954924468
 20
47.32808347040077
 30
0.0
  0
VERTEX
  5
AFF
  8
DATA
  6
CONTINUOUS
 62
     7
 10
26.934797417786399
 20
47.311969205578997
 30
0.0
  0
VERTEX
  5
B00
  8
DATA
  6
CONTINUOUS
 62
     7
 10
26.945215678000181
 20
47.295816223390851
 30
0.0
  0
VERTEX
  5
B01
  8
DATA
  6
CONTINUOUS
 62
     7
 10
26.955461735565791
 20
47.279624523836262
 30
0.0
  0
VERTEX
  5
B02
  8
DATA
  6
CONTINUOUS
 62
     7
 10
26.965535590483238
 20
47.263394106915293
 30
0.0
  0
VERTEX
  5
B03
  8
DATA
  6
CONTINUOUS
 62
     7
 10
26.975437242752541
 20
47.247124972627887
 30
0.0
  0
VERTEX
  5
B04
  8
DATA
  6
CONTINUOUS
 62
     7
 10
26.98516669237365
 20
47.230817120974123
 30
0.0
  0
VERTEX
  5
B05
  8
DATA
  6
CONTINUOUS
 62
     7
 10
26.99472393934661
 20
47.214470551953923
 30
0.0
  0
VERTEX
  5
B06
  8
DATA
  6
CONTINUOUS
 62
     7
 10
27.004108983671411
 20
47.198085265567308
 30
0.0
  0
VERTEX
  5
B07
  8
DATA
  6
CONTINUOUS
 62
     7
 10
27.013321825348061
 20
47.181661261814298
 30
0.0
  0
VERTEX
  5
B08
  8
DATA
  6
CONTINUOUS
 62
     7
 10
27.022362464376549
 20
47.165198540694888
 30
0.0
  0
VERTEX
  5
B09
  8
DATA
  6
CONTINUOUS
 62
     7
 10
27.03123090075686
 20
47.148697102209077
 30
0.0
  0
VERTEX
  5
B0A
  8
DATA
  6
CONTINUOUS
 62
     7
 10
27.03992713448903
 20
47.132156946356872
 30
0.0
  0
VERTEX
  5
B0B
  8
DATA
  6
CONTINUOUS
 62
     7
 10
27.04845116557302
 20
47.115578073138238
 30
0.0
  0
VERTEX
  5
B0C
  8
DATA
  6
CONTINUOUS
 62
     7
 10
27.056802994008851
 20
47.098960482553217
 30
0.0
  0
VERTEX
  5
B0D
  8
DATA
  6
CONTINUOUS
 62
     7
 10
27.06498261979652
 20
47.082304174601767
 30
0.0
  0
VERTEX
  5
B0E
  8
DATA
  6
CONTINUOUS
 62
     7
 10
27.072990042936041
 20
47.065609149283937
 30
0.0
  0
VERTEX
  5
B0F
  8
DATA
  6
CONTINUOUS
 62
     7
 10
27.080825263427389
 20
47.048875406599677
 30
0.0
  0
VERTEX
  5
B10
  8
DATA
  6
CONTINUOUS
 62
     7
 10
27.088488281270571
 20
47.032102946549031
 30
0.0
  0
VERTEX
  5
B11
  8
DATA
  6
CONTINUOUS
 62
     7
 10
27.095979096465602
 20
47.01529176913197
 30
0.0
  0
VERTEX
  5
B12
  8
DATA
  6
CONTINUOUS
 62
     7
 10
27.10329770901247
 20
46.998441874348501
 30
0.0
  0
VERTEX
  5
B13
  8
DATA
  6
CONTINUOUS
 62
     7
 10
27.110444118911168
 20
46.981553262198638
 30
0.0
  0
VERTEX
  5
B14
  8
DATA
  6
CONTINUOUS
 62
     7
 10
27.117418326161712
 20
46.964625932682367
 30
0.0
  0
VERTEX
  5
B15
  8
DATA
  6
CONTINUOUS
 62
     7
 10
27.124220330764089
 20
46.947659885799673
 30
0.0
  0
VERTEX
  5
B16
  8
DATA
  6
CONTINUOUS
 62
     7
 10
27.130850132718319
 20
46.9306551215506
 30
0.0
  0
VERTEX
  5
B17
  8
DATA
  6
CONTINUOUS
 62
     7
 10
27.137307732024372
 20
46.913611639935112
 30
0.0
  0
VERTEX
  5
B18
  8
DATA
  6
CONTINUOUS
 62
     7
 10
27.143593128682269
 20
46.896529440953209
 30
0.0
  0
VERTEX
  5
B19
  8
DATA
  6
CONTINUOUS
 62
     7
 10
27.149706322692008
 20
46.879408524604898
 30
0.0
  0
VERTEX
  5
B1A
  8
DATA
  6
CONTINUOUS
 62
     7
 10
27.155647314053571
 20
46.862248890890207
 30
0.0
  0
VERTEX
  5
B1B
  8
DATA
  6
CONTINUOUS
 62
     7
 10
27.161416102766989
 20
46.845050539809087
 30
0.0
  0
VERTEX
  5
B1C
  8
DATA
  6
CONTINUOUS
 62
     7
 10
27.167012688832241
 20
46.827813471361573
 30
0.0
  0
VERTEX
  5
B1D
  8
DATA
  6
CONTINUOUS
 62
     7
 10
27.17243707224933
 20
46.810537685547651
 30
0.0
  0
VERTEX
  5
B1E
  8
DATA
  6
CONTINUOUS
 62
     7
 10
27.177689253018251
 20
46.793223182367313
 30
0.0
  0
VERTEX
  5
B1F
  8
DATA
  6
CONTINUOUS
 62
     7
 10
27.182769231139019
 20
46.775869961820568
 30
0.0
  0
VERTEX
  5
B20
  8
DATA
  6
CONTINUOUS
 62
     7
 10
27.187677006611629
 20
46.758478023907443
 30
0.0
  0
VERTEX
  5
B21
  8
DATA
  6
CONTINUOUS
 62
     7
 10
27.19241257943607
 20
46.741047368627903
 30
0.0
  0
VERTEX
  5
B22
  8
DATA
  6
CONTINUOUS
 62
     7
 10
27.196975949612341
 20
46.723577995981962
 30
0.0
  0
VERTEX
  5
B23
  8
DATA
  6
CONTINUOUS
 62
     7
 10
27.20136711714046
 20
46.706069905969599
 30
0.0
  0
VERTEX
  5
B24
  8
DATA
  6
CONTINUOUS
 62
     7
 10
27.205586082020421
 20
46.688523098590842
 30
0.0
  0
VERTEX
  5
B25
  8
DATA
  6
CONTINUOUS
 62
     7
 10
27.209632844252219
 20
46.670937573845663
 30
0.0
  0
VERTEX
  5
B26
  8
DATA
  6
CONTINUOUS
 62
     7
 10
27.213507403835852
 20
46.653313331734097
 30
0.0
  0
VERTEX
  5
B27
  8
DATA
  6
CONTINUOUS
 62
     7
 10
27.217209760771318
 20
46.635650372256123
 30
0.0
  0
VERTEX
  5
B28
  8
DATA
  6
CONTINUOUS
 62
     7
 10
27.22073991505864
 20
46.617948695411741
 30
0.0
  0
VERTEX
  5
B29
  8
DATA
  6
CONTINUOUS
 62
     7
 10
27.22409786669779
 20
46.600208301200951
 30
0.0
  0
VERTEX
  5
B2A
  8
DATA
  6
CONTINUOUS
 62
     7
 10
27.227283615688769
 20
46.582429189623753
 30
0.0
  0
VERTEX
  5
B2B
  8
DATA
  6
CONTINUOUS
 62
     7
 10
27.230297162031611
 20
46.564611360680161
 30
0.0
  0
VERTEX
  5
B2C
  8
DATA
  6
CONTINUOUS
 62
     7
 10
27.23313850572627
 20
46.546754814370153
 30
0.0
  0
VERTEX
  5
B2D
  8
DATA
  6
CONTINUOUS
 62
     7
 10
27.23580764677277
 20
46.528859550693753
 30
0.0
  0
VERTEX
  5
B2E
  8
DATA
  6
CONTINUOUS
 62
     7
 10
27.238304585171111
 20
46.510925569650929
 30
0.0
  0
VERTEX
  5
B2F
  8
DATA
  6
CONTINUOUS
 62
     7
 10
27.24062932092129
 20
46.492952871241712
 30
0.0
  0
VERTEX
  5
B30
  8
DATA
  6
CONTINUOUS
 62
     7
 10
27.24278185402332
 20
46.474941455466102
 30
0.0
  0
VERTEX
  5
B31
  8
DATA
  6
CONTINUOUS
 62
     7
 10
27.244762184477171
 20
46.456891322324068
 30
0.0
  0
VERTEX
  5
B32
  8
DATA
  6
CONTINUOUS
 62
     7
 10
27.246570312282859
 20
46.438802471815613
 30
0.0
  0
VERTEX
  5
B33
  8
DATA
  6
CONTINUOUS
 62
     7
 10
27.248206237440399
 20
46.420674903940792
 30
0.0
  0
VERTEX
  5
B34
  8
DATA
  6
CONTINUOUS
 62
     7
 10
27.24966995994977
 20
46.402508618699542
 30
0.0
  0
VERTEX
  5
B35
  8
DATA
  6
CONTINUOUS
 62
     7
 10
27.250961479810989
 20
46.384303616091891
 30
0.0
  0
VERTEX
  5
B36
  8
DATA
  6
CONTINUOUS
 62
     7
 10
27.252080797024039
 20
46.366059896117832
 30
0.0
  0
VERTEX
  5
B37
  8
DATA
  6
CONTINUOUS
 62
     7
 10
27.25302791158893
 20
46.347777458777358
 30
0.0
  0
VERTEX
  5
B38
  8
DATA
  6
CONTINUOUS
 62
     7
 10
27.253802823505652
 20
46.32945630407049
 30
0.0
  0
VERTEX
  5
B39
  8
DATA
  6
CONTINUOUS
 62
     7
 10
27.254405532774211
 20
46.311096431997221
 30
0.0
  0
VERTEX
  5
B3A
  8
DATA
  6
CONTINUOUS
 62
     7
 10
27.254836039394611
 20
46.29269784255753
 30
0.0
  0
VERTEX
  5
B3B
  8
DATA
  6
CONTINUOUS
 62
     7
 10
27.25509434336686
 20
46.274260535751452
 30
0.0
  0
VERTEX
  5
B3C
  8
DATA
  6
CONTINUOUS
 62
     7
 10
27.25518044469095
 20
46.255784511578973
 30
0.0
  0
VERTEX
  5
B3D
  8
DATA
  6
CONTINUOUS
 62
     7
 10
27.25509434336686
 20
46.237308487406473
 30
0.0
  0
VERTEX
  5
B3E
  8
DATA
  6
CONTINUOUS
 62
     7
 10
27.254836039394611
 20
46.218871180600402
 30
0.0
  0
VERTEX
  5
B3F
  8
DATA
  6
CONTINUOUS
 62
     7
 10
27.254405532774211
 20
46.200472591160718
 30
0.0
  0
VERTEX
  5
B40
  8
DATA
  6
CONTINUOUS
 62
     7
 10
27.253802823505652
 20
46.182112719087442
 30
0.0
  0
VERTEX
  5
B41
  8
DATA
  6
CONTINUOUS
 62
     7
 10
27.25302791158893
 20
46.163791564380581
 30
0.0
  0
VERTEX
  5
B42
  8
DATA
  6
CONTINUOUS
 62
     7
 10
27.252080797024039
 20
46.1455091270401
 30
0.0
  0
VERTEX
  5
B43
  8
DATA
  6
CONTINUOUS
 62
     7
 10
27.250961479810989
 20
46.127265407066048
 30
0.0
  0
VERTEX
  5
B44
  8
DATA
  6
CONTINUOUS
 62
     7
 10
27.24966995994977
 20
46.10906040445839
 30
0.0
  0
VERTEX
  5
B45
  8
DATA
  6
CONTINUOUS
 62
     7
 10
27.248206237440399
 20
46.09089411921714
 30
0.0
  0
VERTEX
  5
B46
  8
DATA
  6
CONTINUOUS
 62
     7
 10
27.246570312282859
 20
46.072766551342312
 30
0.0
  0
VERTEX
  5
B47
  8
DATA
  6
CONTINUOUS
 62
     7
 10
27.244762184477171
 20
46.054677700833857
 30
0.0
  0
VERTEX
  5
B48
  8
DATA
  6
CONTINUOUS
 62
     7
 10
27.24278185402332
 20
46.036627567691838
 30
0.0
  0
VERTEX
  5
B49
  8
DATA
  6
CONTINUOUS
 62
     7
 10
27.24062932092129
 20
46.01861615191622
 30
0.0
  0
VERTEX
  5
B4A
  8
DATA
  6
CONTINUOUS
 62
     7
 10
27.238304585171111
 20
46.000643453507003
 30
0.0
  0
VERTEX
  5
B4B
  8
DATA
  6
CONTINUOUS
 62
     7
 10
27.23580764677277
 20
45.98270947246418
 30
0.0
  0
VERTEX
  5
B4C
  8
DATA
  6
CONTINUOUS
 62
     7
 10
27.23313850572627
 20
45.964814208787757
 30
0.0
  0
VERTEX
  5
B4D
  8
DATA
  6
CONTINUOUS
 62
     7
 10
27.230297162031611
 20
45.946957662477757
 30
0.0
  0
VERTEX
  5
B4E
  8
DATA
  6
CONTINUOUS
 62
     7
 10
27.227283615688769
 20
45.929139833534173
 30
0.0
  0
VERTEX
  5
B4F
  8
DATA
  6
CONTINUOUS
 62
     7
 10
27.22409786669779
 20
45.911360721956967
 30
0.0
  0
VERTEX
  5
B50
  8
DATA
  6
CONTINUOUS
 62
     7
 10
27.22073991505864
 20
45.893620327746177
 30
0.0
  0
VERTEX
  5
B51
  8
DATA
  6
CONTINUOUS
 62
     7
 10
27.217209760771318
 20
45.875918650901809
 30
0.0
  0
VERTEX
  5
B52
  8
DATA
  6
CONTINUOUS
 62
     7
 10
27.213507403835852
 20
45.858255691423842
 30
0.0
  0
VERTEX
  5
B53
  8
DATA
  6
CONTINUOUS
 62
     7
 10
27.209632844252219
 20
45.840631449312248
 30
0.0
  0
VERTEX
  5
B54
  8
DATA
  6
CONTINUOUS
 62
     7
 10
27.205586082020421
 20
45.823045924567097
 30
0.0
  0
VERTEX
  5
B55
  8
DATA
  6
CONTINUOUS
 62
     7
 10
27.20136711714046
 20
45.805499117188333
 30
0.0
  0
VERTEX
  5
B56
  8
DATA
  6
CONTINUOUS
 62
     7
 10
27.196975949612341
 20
45.787991027175977
 30
0.0
  0
VERTEX
  5
B57
  8
DATA
  6
CONTINUOUS
 62
     7
 10
27.19241257943607
 20
45.770521654530022
 30
0.0
  0
VERTEX
  5
B58
  8
DATA
  6
CONTINUOUS
 62
     7
 10
27.187677006611629
 20
45.753090999250489
 30
0.0
  0
VERTEX
  5
B59
  8
DATA
  6
CONTINUOUS
 62
     7
 10
27.182769231139019
 20
45.73569906133735
 30
0.0
  0
VERTEX
  5
B5A
  8
DATA
  6
CONTINUOUS
 62
     7
 10
27.177689253018251
 20
45.718345840790612
 30
0.0
  0
VERTEX
  5
B5B
  8
DATA
  6
CONTINUOUS
 62
     7
 10
27.17243707224933
 20
45.701031337610289
 30
0.0
  0
VERTEX
  5
B5C
  8
DATA
  6
CONTINUOUS
 62
     7
 10
27.167012688832241
 20
45.683755551796359
 30
0.0
  0
VERTEX
  5
B5D
  8
DATA
  6
CONTINUOUS
 62
     7
 10
27.161416102766989
 20
45.666518483348838
 30
0.0
  0
VERTEX
  5
B5E
  8
DATA
  6
CONTINUOUS
 62
     7
 10
27.155647314053571
 20
45.649320132267718
 30
0.0
  0
VERTEX
  5
B5F
  8
DATA
  6
CONTINUOUS
 62
     7
 10
27.149706322692008
 20
45.63216049855302
 30
0.0
  0
VERTEX
  5
B60
  8
DATA
  6
CONTINUOUS
 62
     7
 10
27.143593128682269
 20
45.615039582204723
 30
0.0
  0
VERTEX
  5
B61
  8
DATA
  6
CONTINUOUS
 62
     7
 10
27.137307732024372
 20
45.597957383222813
 30
0.0
  0
VERTEX
  5
B62
  8
DATA
  6
CONTINUOUS
 62
     7
 10
27.130850132718319
 20
45.580913901607332
 30
0.0
  0
VERTEX
  5
B63
  8
DATA
  6
CONTINUOUS
 62
     7
 10
27.124220330764089
 20
45.563909137358237
 30
0.0
  0
VERTEX
  5
B64
  8
DATA
  6
CONTINUOUS
 62
     7
 10
27.117418326161712
 20
45.546943090475558
 30
0.0
  0
VERTEX
  5
B65
  8
DATA
  6
CONTINUOUS
 62
     7
 10
27.110444118911168
 20
45.530015760959287
 30
0.0
  0
VERTEX
  5
B66
  8
DATA
  6
CONTINUOUS
 62
     7
 10
27.10329770901247
 20
45.513127148809417
 30
0.0
  0
VERTEX
  5
B67
  8
DATA
  6
CONTINUOUS
 62
     7
 10
27.095979096465602
 20
45.496277254025962
 30
0.0
  0
VERTEX
  5
B68
  8
DATA
  6
CONTINUOUS
 62
     7
 10
27.088488281270571
 20
45.479466076608887
 30
0.0
  0
VERTEX
  5
B69
  8
DATA
  6
CONTINUOUS
 62
     7
 10
27.080825263427389
 20
45.462693616558241
 30
0.0
  0
VERTEX
  5
B6A
  8
DATA
  6
CONTINUOUS
 62
     7
 10
27.072990042936041
 20
45.445959873873988
 30
0.0
  0
VERTEX
  5
B6B
  8
DATA
  6
CONTINUOUS
 62
     7
 10
27.06498261979652
 20
45.429264848556151
 30
0.0
  0
VERTEX
  5
B6C
  8
DATA
  6
CONTINUOUS
 62
     7
 10
27.056802994008851
 20
45.412608540604708
 30
0.0
  0
VERTEX
  5
B6D
  8
DATA
  6
CONTINUOUS
 62
     7
 10
27.04845116557302
 20
45.395990950019701
 30
0.0
  0
VERTEX
  5
B6E
  8
DATA
  6
CONTINUOUS
 62
     7
 10
27.03992713448903
 20
45.37941207680106
 30
0.0
  0
VERTEX
  5
B6F
  8
DATA
  6
CONTINUOUS
 62
     7
 10
27.03123090075686
 20
45.362871920948841
 30
0.0
  0
VERTEX
  5
B70
  8
DATA
  6
CONTINUOUS
 62
     7
 10
27.022362464376549
 20
45.34637048246303
 30
0.0
  0
VERTEX
  5
B71
  8
DATA
  6
CONTINUOUS
 62
     7
 10
27.013321825348061
 20
45.329907761343613
 30
0.0
  0
VERTEX
  5
B72
  8
DATA
  6
CONTINUOUS
 62
     7
 10
27.004108983671411
 20
45.31348375759061
 30
0.0
  0
VERTEX
  5
B73
  8
DATA
  6
CONTINUOUS
 62
     7
 10
26.99472393934661
 20
45.297098471204002
 30
0.0
  0
VERTEX
  5
B74
  8
DATA
  6
CONTINUOUS
 62
     7
 10
26.98516669237365
 20
45.280751902183809
 30
0.0
  0
VERTEX
  5
B75
  8
DATA
  6
CONTINUOUS
 62
     7
 10
26.975437242752541
 20
45.264444050530031
 30
0.0
  0
VERTEX
  5
B76
  8
DATA
  6
CONTINUOUS
 62
     7
 10
26.965535590483238
 20
45.24817491624264
 30
0.0
  0
VERTEX
  5
B77
  8
DATA
  6
CONTINUOUS
 62
     7
 10
26.955461735565791
 20
45.231944499321663
 30
0.0
  0
VERTEX
  5
B78
  8
DATA
  6
CONTINUOUS
 62
     7
 10
26.945215678000181
 20
45.215752799767088
 30
0.0
  0
VERTEX
  5
B79
  8
DATA
  6
CONTINUOUS
 62
     7
 10
26.934797417786399
 20
45.199599817578921
 30
0.0
  0
VERTEX
  5
B7A
  8
DATA
  6
CONTINUOUS
 62
     7
 10
26.924206954924468
 20
45.183485552757148
 30
0.0
  0
VERTEX
  5
B7B
  8
DATA
  6
CONTINUOUS
 62
     7
 10
26.913444289414372
 20
45.167410005301797
 30
0.0
  0
VERTEX
  5
B7C
  8
DATA
  6
CONTINUOUS
 62
     7
 10
26.902509421256109
 20
45.151373175212854
 30
0.0
  0
VERTEX
  5
B7D
  8
DATA
  6
CONTINUOUS
 62
     7
 10
26.89142542122995
 20
45.135408592713183
 30
0.0
  0
VERTEX
  5
B7E
  8
DATA
  6
CONTINUOUS
 62
     7
 10
26.880215360116129
 20
45.119549788025672
 30
0.0
  0
VERTEX
  5
B7F
  8
DATA
  6
CONTINUOUS
 62
     7
 10
26.868879237914658
 20
45.103796761150313
 30
0.0
  0
VERTEX
  5
B80
  8
DATA
  6
CONTINUOUS
 62
     7
 10
26.85741705462554
 20
45.088149512087099
 30
0.0
  0
VERTEX
  5
B81
  8
DATA
  6
CONTINUOUS
 62
     7
 10
26.845828810248769
 20
45.072608040836052
 30
0.0
  0
VERTEX
  5
B82
  8
DATA
  6
CONTINUOUS
 62
     7
 10
26.834114504784338
 20
45.057172347397128
 30
0.0
  0
VERTEX
  5
B83
  8
DATA
  6
CONTINUOUS
 62
     7
 10
26.82227413823227
 20
45.041842431770412
 30
0.0
  0
VERTEX
  5
B84
  8
DATA
  6
CONTINUOUS
 62
     7
 10
26.810307710592539
 20
45.026618293955813
 30
0.0
  0
VERTEX
  5
B85
  8
DATA
  6
CONTINUOUS
 62
     7
 10
26.79821522186516
 20
45.011499933953367
 30
0.0
  0
VERTEX
  5
B86
  8
DATA
  6
CONTINUOUS
 62
     7
 10
26.785996672050128
 20
44.996487351763101
 30
0.0
  0
VERTEX
  5
B87
  8
DATA
  6
CONTINUOUS
 62
     7
 10
26.773652061147441
 20
44.981580547384958
 30
0.0
  0
VERTEX
  5
B88
  8
DATA
  6
CONTINUOUS
 62
     7
 10
26.761181389157102
 20
44.966779520818989
 30
0.0
  0
VERTEX
  5
B89
  8
DATA
  6
CONTINUOUS
 62
     7
 10
26.74858465607911
 20
44.952084272065193
 30
0.0
  0
VERTEX
  5
B8A
  8
DATA
  6
CONTINUOUS
 62
     7
 10
26.73586186191347
 20
44.937494801123528
 30
0.0
  0
VERTEX
  5
B8B
  8
DATA
  6
CONTINUOUS
 62
     7
 10
26.723013006660171
 20
44.923011107994007
 30
0.0
  0
VERTEX
  5
B8C
  8
DATA
  6
CONTINUOUS
 62
     7
 10
26.71003809031923
 20
44.908633192676668
 30
0.0
  0
VERTEX
  5
B8D
  8
DATA
  6
CONTINUOUS
 62
     7
 10
26.69693711289063
 20
44.89436105517148
 30
0.0
  0
VERTEX
  5
B8E
  8
DATA
  6
CONTINUOUS
 62
     7
 10
26.683710074374371
 20
44.88019469547843
 30
0.0
  0
VERTEX
  5
B8F
  8
DATA
  6
CONTINUOUS
 62
     7
 10
26.670356974770471
 20
44.866134113597539
 30
0.0
  0
VERTEX
  5
B90
  8
DATA
  6
CONTINUOUS
 62
     7
 10
26.656877814078921
 20
44.8521793095288
 30
0.0
  0
VERTEX
  5
B91
  8
DATA
  6
CONTINUOUS
 62
     7
 10
26.643272592299709
 20
44.838330283272228
 30
0.0
  0
VERTEX
  5
B92
  8
DATA
  6
CONTINUOUS
 62
     7
 10
26.629541309432849
 20
44.824587034827822
 30
0.0
  0
VERTEX
  5
B93
  8
DATA
  6
CONTINUOUS
 62
     7
 10
26.61568396547834
 20
44.810949564195539
 30
0.0
  0
VERTEX
  5
B94
  8
DATA
  6
CONTINUOUS
 62
     7
 10
26.601700560436171
 20
44.797417871375437
 30
0.0
  0
VERTEX
  5
B95
  8
DATA
  6
CONTINUOUS
 62
     7
 10
26.587591094306362
 20
44.783991956367487
 30
0.0
  0
VERTEX
  5
B96
  8
DATA
  6
CONTINUOUS
 62
     7
 10
26.573355567088889
 20
44.770671819171667
 30
0.0
  0
VERTEX
  5
B97
  8
DATA
  6
CONTINUOUS
 62
     7
 10
26.558993978783771
 20
44.757457459788029
 30
0.0
  0
VERTEX
  5
B98
  8
DATA
  6
CONTINUOUS
 62
     7
 10
26.544506329391002
 20
44.744348878216528
 30
0.0
  0
VERTEX
  5
B99
  8
DATA
  6
CONTINUOUS
 62
     7
 10
26.529892618910569
 20
44.731346074457207
 30
0.0
  0
VERTEX
  5
B9A
  8
DATA
  6
CONTINUOUS
 62
     7
 10
26.515152847342481
 20
44.718449048510017
 30
0.0
  0
VERTEX
  5
B9B
  8
DATA
  6
CONTINUOUS
 62
     7
 10
26.500287014686759
 20
44.705657800374993
 30
0.0
  0
VERTEX
  5
B9C
  8
DATA
  6
CONTINUOUS
 62
     7
 10
26.485295120943391
 20
44.692972330052122
 30
0.0
  0
VERTEX
  5
B9D
  8
DATA
  6
CONTINUOUS
 62
     7
 10
26.47017716611235
 20
44.680392637541402
 30
0.0
  0
VERTEX
  5
B9E
  8
DATA
  6
CONTINUOUS
 62
     7
 10
26.454933150193671
 20
44.667918722842821
 30
0.0
  0
VERTEX
  5
B9F
  8
DATA
  6
CONTINUOUS
 62
     7
 10
26.439563073187319
 20
44.655550585956412
 30
0.0
  0
VERTEX
  5
BA0
  8
DATA
  6
CONTINUOUS
 62
     7
 10
26.424066935093339
 20
44.643288226882149
 30
0.0
  0
VERTEX
  5
BA1
  8
DATA
  6
CONTINUOUS
 62
     7
 10
26.40844473591169
 20
44.631131645620052
 30
0.0
  0
VERTEX
  5
BA2
  8
DATA
  6
CONTINUOUS
 62
     7
 10
26.392696475642399
 20
44.619080842170099
 30
0.0
  0
VERTEX
  5
BA3
  8
DATA
  6
CONTINUOUS
 62
     7
 10
26.376822154285449
 20
44.607135816532313
 30
0.0
  0
VERTEX
  5
BA4
  8
DATA
  6
CONTINUOUS
 62
     7
 10
26.360821771840861
 20
44.595296568706679
 30
0.0
  0
VERTEX
  5
BA5
  8
DATA
  6
CONTINUOUS
 62
     7
 10
26.34469532830861
 20
44.583563098693212
 30
0.0
  0
VERTEX
  5
BA6
  8
DATA
  6
CONTINUOUS
 62
     7
 10
26.3284428236887
 20
44.571935406491882
 30
0.0
  0
VERTEX
  5
BA7
  8
DATA
  6
CONTINUOUS
 62
     7
 10
26.312064257981142
 20
44.56041349210269
 30
0.0
  0
VERTEX
  5
BA8
  8
DATA
  6
CONTINUOUS
 62
     7
 10
26.295559631185931
 20
44.548997355525678
 30
0.0
  0
VERTEX
  5
BA9
  8
DATA
  6
CONTINUOUS
 62
     7
 10
26.278928943303079
 20
44.537686996760812
 30
0.0
  0
VERTEX
  5
BAA
  8
DATA
  6
CONTINUOUS
 62
     7
 10
26.262172194332571
 20
44.526482415808097
 30
0.0
  0
VERTEX
  5
BAB
  8
DATA
  6
CONTINUOUS
 62
     7
 10
26.2452893842744
 20
44.515383612667563
 30
0.0
  0
VERTEX
  5
BAC
  8
DATA
  6
CONTINUOUS
 62
     7
 10
26.228280513128588
 20
44.504390587339152
 30
0.0
  0
VERTEX
  5
BAD
  8
DATA
  6
CONTINUOUS
 62
     7
 10
26.211145580895121
 20
44.493503339822922
 30
0.0
  0
VERTEX
  5
BAE
  8
DATA
  6
CONTINUOUS
 62
     7
 10
26.193884587574001
 20
44.48272187011883
 30
0.0
  0
VERTEX
  5
BAF
  8
DATA
  6
CONTINUOUS
 62
     7
 10
26.176497533165229
 20
44.472046178226897
 30
0.0
  0
VERTEX
  5
BB0
  8
DATA
  6
CONTINUOUS
 62
     7
 10
26.158984417668801
 20
44.461476264147123
 30
0.0
  0
VERTEX
  5
BB1
  8
DATA
  6
CONTINUOUS
 62
     7
 10
26.141345241084728
 20
44.451012127879487
 30
0.0
  0
VERTEX
  5
BB2
  8
DATA
  6
CONTINUOUS
 62
     7
 10
26.123580003413
 20
44.44065376942401
 30
0.0
  0
VERTEX
  5
BB3
  8
DATA
  6
CONTINUOUS
 62
     7
 10
26.105688704653609
 20
44.430401188780692
 30
0.0
  0
VERTEX
  5
BB4
  8
DATA
  6
CONTINUOUS
 62
     7
 10
26.087671344806591
 20
44.420254385949526
 30
0.0
  0
VERTEX
  5
BB5
  8
DATA
  6
CONTINUOUS
 62
     7
 10
26.06952792387191
 20
44.410213360930527
 30
0.0
  0
VERTEX
  5
BB6
  8
DATA
  6
CONTINUOUS
 62
     7
 10
26.051258441849569
 20
44.400278113723679
 30
0.0
  0
VERTEX
  5
BB7
  8
DATA
  6
CONTINUOUS
 62
     7
 10
26.03286289873957
 20
44.39044864432897
 30
0.0
  0
VERTEX
  5
BB8
  8
DATA
  6
CONTINUOUS
 62
     7
 10
26.014341294541939
 20
44.380724952746441
 30
0.0
  0
VERTEX
  5
BB9
  8
DATA
  6
CONTINUOUS
 62
     7
 10
25.995693629256639
 20
44.371107038976049
 30
0.0
  0
VERTEX
  5
BBA
  8
DATA
  6
CONTINUOUS
 62
     7
 10
25.97691990288369
 20
44.361594903017817
 30
0.0
  0
VERTEX
  5
BBB
  8
DATA
  6
CONTINUOUS
 62
     7
 10
25.958020115423089
 20
44.352188544871737
 30
0.0
  0
VERTEX
  5
BBC
  8
DATA
  6
CONTINUOUS
 62
     7
 10
25.938994266874861
 20
44.34288796453783
 30
0.0
  0
VERTEX
  5
BBD
  8
DATA
  6
CONTINUOUS
 62
     7
 10
25.919882317002521
 20
44.333712520699251
 30
0.0
  0
VERTEX
  5
BBE
  8
DATA
  6
CONTINUOUS
 62
     7
 10
25.900724225569679
 20
44.324681572039253
 30
0.0
  0
VERTEX
  5
BBF
  8
DATA
  6
CONTINUOUS
 62
     7
 10
25.88151999257633
 20
44.315795118557809
 30
0.0
  0
VERTEX
  5
BC0
  8
DATA
  6
CONTINUOUS
 62
     7
 10
25.86226961802247
 20
44.30705316025491
 30
0.0
  0
VERTEX
  5
BC1
  8
DATA
  6
CONTINUOUS
 62
     7
 10
25.8429731019081
 20
44.298455697130578
 30
0.0
  0
VERTEX
  5
BC2
  8
DATA
  6
CONTINUOUS
 62
     7
 10
25.823630444233221
 20
44.290002729184813
 30
0.0
  0
VERTEX
  5
BC3
  8
DATA
  6
CONTINUOUS
 62
     7
 10
25.80424164499783
 20
44.281694256417609
 30
0.0
  0
VERTEX
  5
BC4
  8
DATA
  6
CONTINUOUS
 62
     7
 10
25.78480670420193
 20
44.273530278828957
 30
0.0
  0
VERTEX
  5
BC5
  8
DATA
  6
CONTINUOUS
 62
     7
 10
25.76532562184553
 20
44.26551079641888
 30
0.0
  0
VERTEX
  5
BC6
  8
DATA
  6
CONTINUOUS
 62
     7
 10
25.74579839792861
 20
44.257635809187363
 30
0.0
  0
VERTEX
  5
BC7
  8
DATA
  6
CONTINUOUS
 62
     7
 10
25.7262250324512
 20
44.249905317134392
 30
0.0
  0
VERTEX
  5
BC8
  8
DATA
  6
CONTINUOUS
 62
     7
 10
25.706605525413259
 20
44.242319320260002
 30
0.0
  0
VERTEX
  5
BC9
  8
DATA
  6
CONTINUOUS
 62
     7
 10
25.686939876814812
 20
44.234877818564136
 30
0.0
  0
VERTEX
  5
BCA
  8
DATA
  6
CONTINUOUS
 62
     7
 10
25.667228086655861
 20
44.227580812046867
 30
0.0
  0
VERTEX
  5
BCB
  8
DATA
  6
CONTINUOUS
 62
     7
 10
25.6474701549364
 20
44.22042830070815
 30
0.0
  0
VERTEX
  5
BCC
  8
DATA
  6
CONTINUOUS
 62
     7
 10
25.627666081656429
 20
44.213420284547958
 30
0.0
  0
VERTEX
  5
BCD
  8
DATA
  6
CONTINUOUS
 62
     7
 10
25.607815866815951
 20
44.206556763566361
 30
0.0
  0
VERTEX
  5
BCE
  8
DATA
  6
CONTINUOUS
 62
     7
 10
25.587919510414959
 20
44.199837737763318
 30
0.0
  0
VERTEX
  5
BCF
  8
DATA
  6
CONTINUOUS
 62
     7
 10
25.567977012453451
 20
44.19326320713882
 30
0.0
  0
VERTEX
  5
BD0
  8
DATA
  6
CONTINUOUS
 62
     7
 10
25.547988372931449
 20
44.186833171692903
 30
0.0
  0
VERTEX
  5
BD1
  8
DATA
  6
CONTINUOUS
 62
     7
 10
25.527953591848931
 20
44.18054763142554
 30
0.0
  0
VERTEX
  5
BD2
  8
DATA
  6
CONTINUOUS
 62
     7
 10
25.507872669205909
 20
44.17440658633673
 30
0.0
  0
VERTEX
  5
BD3
  8
DATA
  6
CONTINUOUS
 62
     7
 10
25.48774560500237
 20
44.168410036426494
 30
0.0
  0
VERTEX
  5
BD4
  8
DATA
  6
CONTINUOUS
 62
     7
 10
25.467572399238321
 20
44.16255798169481
 30
0.0
  0
VERTEX
  5
BD5
  8
DATA
  6
CONTINUOUS
 62
     7
 10
25.447353051913758
 20
44.156850422141687
 30
0.0
  0
VERTEX
  5
BD6
  8
DATA
  6
CONTINUOUS
 62
     7
 10
25.427087563028689
 20
44.151287357767131
 30
0.0
  0
VERTEX
  5
BD7
  8
DATA
  6
CONTINUOUS
 62
     7
 10
25.40677593258312
 20
44.145868788571129
 30
0.0
  0
VERTEX
  5
BD8
  8
DATA
  6
CONTINUOUS
 62
     7
 10
25.38641816057704
 20
44.140594714553693
 30
0.0
  0
VERTEX
  5
BD9
  8
DATA
  6
CONTINUOUS
 62
     7
 10
25.366014247010451
 20
44.135465135714789
 30
0.0
  0
VERTEX
  5
BDA
  8
DATA
  6
CONTINUOUS
 62
     7
 10
25.345564191883341
 20
44.130480052054473
 30
0.0
  0
VERTEX
  5
BDB
  8
DATA
  6
CONTINUOUS
 62
     7
 10
25.325067995195731
 20
44.125639463572732
 30
0.0
  0
VERTEX
  5
BDC
  8
DATA
  6
CONTINUOUS
 62
     7
 10
25.304525656947611
 20
44.120943370269522
 30
0.0
  0
VERTEX
  5
BDD
  8
DATA
  6
CONTINUOUS
 62
     7
 10
25.28393717713897
 20
44.116391772144873
 30
0.0
  0
VERTEX
  5
BDE
  8
DATA
  6
CONTINUOUS
 62
     7
 10
25.26330255576983
 20
44.11198466919879
 30
0.0
  0
VERTEX
  5
BDF
  8
DATA
  6
CONTINUOUS
 62
     7
 10
25.24262179284019
 20
44.107722061431282
 30
0.0
  0
VERTEX
  5
BE0
  8
DATA
  6
CONTINUOUS
 62
     7
 10
25.221894888350029
 20
44.103603948842313
 30
0.0
  0
VERTEX
  5
BE1
  8
DATA
  6
CONTINUOUS
 62
     7
 10
25.201121842299361
 20
44.099630331431896
 30
0.0
  0
VERTEX
  5
BE2
  8
DATA
  6
CONTINUOUS
 62
     7
 10
25.18030265468818
 20
44.095801209200062
 30
0.0
  0
VERTEX
  5
BE3
  8
DATA
  6
CONTINUOUS
 62
     7
 10
25.159437325516489
 20
44.09211658214678
 30
0.0
  0
VERTEX
  5
BE4
  8
DATA
  6
CONTINUOUS
 62
     7
 10
25.138525854784291
 20
44.088576450272043
 30
0.0
  0
VERTEX
  5
BE5
  8
DATA
  6
CONTINUOUS
 62
     7
 10
25.117568242491579
 20
44.085180813575882
 30
0.0
  0
VERTEX
  5
BE6
  8
DATA
  6
CONTINUOUS
 62
     7
 10
25.096564488638371
 20
44.081929672058273
 30
0.0
  0
VERTEX
  5
BE7
  8
DATA
  6
CONTINUOUS
 62
     7
 10
25.07551459322465
 20
44.078823025719238
 30
0.0
  0
VERTEX
  5
BE8
  8
DATA
  6
CONTINUOUS
 62
     7
 10
25.054418556250411
 20
44.075860874558749
 30
0.0
  0
VERTEX
  5
BE9
  8
DATA
  6
CONTINUOUS
 62
     7
 10
25.033276377715659
 20
44.073043218576842
 30
0.0
  0
VERTEX
  5
BEA
  8
DATA
  6
CONTINUOUS
 62
     7
 10
25.01208805762041
 20
44.070370057773459
 30
0.0
  0
VERTEX
  5
BEB
  8
DATA
  6
CONTINUOUS
 62
     7
 10
24.990853595964651
 20
44.067841392148679
 30
0.0
  0
VERTEX
  5
BEC
  8
DATA
  6
CONTINUOUS
 62
     7
 10
24.969572992748379
 20
44.065457221702431
 30
0.0
  0
VERTEX
  5
BED
  8
DATA
  6
CONTINUOUS
 62
     7
 10
24.9482462479716
 20
44.063217546434743
 30
0.0
  0
VERTEX
  5
BEE
  8
DATA
  6
CONTINUOUS
 62
     7
 10
24.926873361634311
 20
44.061122366345607
 30
0.0
  0
VERTEX
  5
BEF
  8
DATA
  6
CONTINUOUS
 62
     7
 10
24.905454333736511
 20
44.059171681435053
 30
0.0
  0
VERTEX
  5
BF0
  8
DATA
  6
CONTINUOUS
 62
     7
 10
24.883989164278201
 20
44.057365491703052
 30
0.0
  0
VERTEX
  5
BF1
  8
DATA
  6
CONTINUOUS
 62
     7
 10
24.862477853259382
 20
44.055703797149633
 30
0.0
  0
VERTEX
  5
BF2
  8
DATA
  6
CONTINUOUS
 62
     7
 10
24.840920400680051
 20
44.054186597774738
 30
0.0
  0
VERTEX
  5
BF3
  8
DATA
  6
CONTINUOUS
 62
     7
 10
24.819316806540211
 20
44.05281389357841
 30
0.0
  0
VERTEX
  5
BF4
  8
DATA
  6
CONTINUOUS
 62
     7
 10
24.797667070839871
 20
44.051585684560649
 30
0.0
  0
VERTEX
  5
BF5
  8
DATA
  6
CONTINUOUS
 62
     7
 10
24.775971193579011
 20
44.050501970721449
 30
0.0
  0
VERTEX
  5
BF6
  8
DATA
  6
CONTINUOUS
 62
     7
 10
24.754229174757651
 20
44.049562752060808
 30
0.0
  0
VERTEX
  5
BF7
  8
DATA
  6
CONTINUOUS
 62
     7
 10
24.73244101437577
 20
44.048768028578728
 30
0.0
  0
VERTEX
  5
BF8
  8
DATA
  6
CONTINUOUS
 62
     7
 10
24.710606712433389
 20
44.048117800275222
 30
0.0
  0
VERTEX
  5
BF9
  8
DATA
  6
CONTINUOUS
 62
     7
 10
24.688726268930491
 20
44.047612067150261
 30
0.0
  0
VERTEX
  5
BFA
  8
DATA
  6
CONTINUOUS
 62
     7
 10
24.66679968386709
 20
44.047250829203847
 30
0.0
  0
VERTEX
  5
BFB
  8
DATA
  6
CONTINUOUS
 62
     7
 10
24.644826957243168
 20
44.047034086436007
 30
0.0
  0
VERTEX
  5
BFC
  8
DATA
  6
CONTINUOUS
 62
     7
 10
24.622808089058751
 20
44.046961838846727
 30
0.0
  0
VERTEX
  5
BFD
  8
DATA
  6
CONTINUOUS
 62
     7
 10
24.600789220874329
 20
44.047034086436007
 30
0.0
  0
VERTEX
  5
BFE
  8
DATA
  6
CONTINUOUS
 62
     7
 10
24.578816494250411
 20
44.047250829203847
 30
0.0
  0
VERTEX
  5
BFF
  8
DATA
  6
CONTINUOUS
 62
     7
 10
24.55688990918701
 20
44.047612067150261
 30
0.0
  0
VERTEX
  5
C00
  8
DATA
  6
CONTINUOUS
 62
     7
 10
24.535009465684119
 20
44.048117800275222
 30
0.0
  0
VERTEX
  5
C01
  8
DATA
  6
CONTINUOUS
 62
     7
 10
24.513175163741732
 20
44.048768028578728
 30
0.0
  0
VERTEX
  5
C02
  8
DATA
  6
CONTINUOUS
 62
     7
 10
24.491387003359861
 20
44.049562752060808
 30
0.0
  0
VERTEX
  5
C03
  8
DATA
  6
CONTINUOUS
 62
     7
 10
24.46964498453849
 20
44.050501970721449
 30
0.0
  0
VERTEX
  5
C04
  8
DATA
  6
CONTINUOUS
 62
     7
 10
24.44794910727764
 20
44.051585684560649
 30
0.0
  0
VERTEX
  5
C05
  8
DATA
  6
CONTINUOUS
 62
     7
 10
24.42629937157729
 20
44.05281389357841
 30
0.0
  0
VERTEX
  5
C06
  8
DATA
  6
CONTINUOUS
 62
     7
 10
24.40469577743745
 20
44.054186597774738
 30
0.0
  0
VERTEX
  5
C07
  8
DATA
  6
CONTINUOUS
 62
     7
 10
24.38313832485813
 20
44.055703797149633
 30
0.0
  0
VERTEX
  5
C08
  8
DATA
  6
CONTINUOUS
 62
     7
 10
24.361627013839311
 20
44.057365491703052
 30
0.0
  0
VERTEX
  5
C09
  8
DATA
  6
CONTINUOUS
 62
     7
 10
24.340161844381001
 20
44.059171681435053
 30
0.0
  0
VERTEX
  5
C0A
  8
DATA
  6
CONTINUOUS
 62
     7
 10
24.318742816483201
 20
44.061122366345607
 30
0.0
  0
VERTEX
  5
C0B
  8
DATA
  6
CONTINUOUS
 62
     7
 10
24.297369930145901
 20
44.063217546434743
 30
0.0
  0
VERTEX
  5
C0C
  8
DATA
  6
CONTINUOUS
 62
     7
 10
24.276043185369119
 20
44.065457221702431
 30
0.0
  0
VERTEX
  5
C0D
  8
DATA
  6
CONTINUOUS
 62
     7
 10
24.25476258215285
 20
44.067841392148679
 30
0.0
  0
VERTEX
  5
C0E
  8
DATA
  6
CONTINUOUS
 62
     7
 10
24.233528120497091
 20
44.070370057773459
 30
0.0
  0
VERTEX
  5
C0F
  8
DATA
  6
CONTINUOUS
 62
     7
 10
24.212339800401839
 20
44.073043218576842
 30
0.0
  0
VERTEX
  5
C10
  8
DATA
  6
CONTINUOUS
 62
     7
 10
24.19119762186709
 20
44.075860874558749
 30
0.0
  0
VERTEX
  5
C11
  8
DATA
  6
CONTINUOUS
 62
     7
 10
24.170101584892858
 20
44.078823025719238
 30
0.0
  0
VERTEX
  5
C12
  8
DATA
  6
CONTINUOUS
 62
     7
 10
24.14905168947913
 20
44.081929672058273
 30
0.0
  0
VERTEX
  5
C13
  8
DATA
  6
CONTINUOUS
 62
     7
 10
24.128047935625919
 20
44.085180813575882
 30
0.0
  0
VERTEX
  5
C14
  8
DATA
  6
CONTINUOUS
 62
     7
 10
24.10709032333321
 20
44.088576450272043
 30
0.0
  0
VERTEX
  5
C15
  8
DATA
  6
CONTINUOUS
 62
     7
 10
24.086178852601009
 20
44.09211658214678
 30
0.0
  0
VERTEX
  5
C16
  8
DATA
  6
CONTINUOUS
 62
     7
 10
24.065313523429321
 20
44.095801209200062
 30
0.0
  0
VERTEX
  5
C17
  8
DATA
  6
CONTINUOUS
 62
     7
 10
24.04449433581815
 20
44.099630331431896
 30
0.0
  0
VERTEX
  5
C18
  8
DATA
  6
CONTINUOUS
 62
     7
 10
24.023721289767479
 20
44.103603948842313
 30
0.0
  0
VERTEX
  5
C19
  8
DATA
  6
CONTINUOUS
 62
     7
 10
24.002994385277319
 20
44.107722061431282
 30
0.0
  0
VERTEX
  5
C1A
  8
DATA
  6
CONTINUOUS
 62
     7
 10
23.982313622347672
 20
44.11198466919879
 30
0.0
  0
VERTEX
  5
C1B
  8
DATA
  6
CONTINUOUS
 62
     7
 10
23.961679000978531
 20
44.116391772144873
 30
0.0
  0
VERTEX
  5
C1C
  8
DATA
  6
CONTINUOUS
 62
     7
 10
23.941090521169901
 20
44.120943370269522
 30
0.0
  0
VERTEX
  5
C1D
  8
DATA
  6
CONTINUOUS
 62
     7
 10
23.92054818292177
 20
44.125639463572732
 30
0.0
  0
VERTEX
  5
C1E
  8
DATA
  6
CONTINUOUS
 62
     7
 10
23.90005198623416
 20
44.130480052054473
 30
0.0
  0
VERTEX
  5
C1F
  8
DATA
  6
CONTINUOUS
 62
     7
 10
23.87960193110705
 20
44.135465135714789
 30
0.0
  0
VERTEX
  5
C20
  8
DATA
  6
CONTINUOUS
 62
     7
 10
23.859198017540471
 20
44.140594714553693
 30
0.0
  0
VERTEX
  5
C21
  8
DATA
  6
CONTINUOUS
 62
     7
 10
23.838840245534382
 20
44.145868788571129
 30
0.0
  0
VERTEX
  5
C22
  8
DATA
  6
CONTINUOUS
 62
     7
 10
23.818528615088798
 20
44.151287357767131
 30
0.0
  0
VERTEX
  5
C23
  8
DATA
  6
CONTINUOUS
 62
     7
 10
23.798263126203729
 20
44.156850422141687
 30
0.0
  0
VERTEX
  5
C24
  8
DATA
  6
CONTINUOUS
 62
     7
 10
23.77804377887918
 20
44.16255798169481
 30
0.0
  0
VERTEX
  5
C25
  8
DATA
  6
CONTINUOUS
 62
     7
 10
23.757870573115131
 20
44.168410036426494
 30
0.0
  0
VERTEX
  5
C26
  8
DATA
  6
CONTINUOUS
 62
     7
 10
23.737743508911599
 20
44.17440658633673
 30
0.0
  0
VERTEX
  5
C27
  8
DATA
  6
CONTINUOUS
 62
     7
 10
23.71766258626857
 20
44.18054763142554
 30
0.0
  0
VERTEX
  5
C28
  8
DATA
  6
CONTINUOUS
 62
     7
 10
23.697627805186048
 20
44.186833171692903
 30
0.0
  0
VERTEX
  5
C29
  8
DATA
  6
CONTINUOUS
 62
     7
 10
23.677639165664051
 20
44.19326320713882
 30
0.0
  0
VERTEX
  5
C2A
  8
DATA
  6
CONTINUOUS
 62
     7
 10
23.657696667702549
 20
44.199837737763318
 30
0.0
  0
VERTEX
  5
C2B
  8
DATA
  6
CONTINUOUS
 62
     7
 10
23.637800311301561
 20
44.206556763566361
 30
0.0
  0
VERTEX
  5
C2C
  8
DATA
  6
CONTINUOUS
 62
     7
 10
23.617950096461069
 20
44.213420284547958
 30
0.0
  0
VERTEX
  5
C2D
  8
DATA
  6
CONTINUOUS
 62
     7
 10
23.598146023181101
 20
44.22042830070815
 30
0.0
  0
VERTEX
  5
C2E
  8
DATA
  6
CONTINUOUS
 62
     7
 10
23.57838809146164
 20
44.227580812046867
 30
0.0
  0
VERTEX
  5
C2F
  8
DATA
  6
CONTINUOUS
 62
     7
 10
23.55867630130269
 20
44.234877818564136
 30
0.0
  0
VERTEX
  5
C30
  8
DATA
  6
CONTINUOUS
 62
     7
 10
23.539010652704238
 20
44.242319320260002
 30
0.0
  0
VERTEX
  5
C31
  8
DATA
  6
CONTINUOUS
 62
     7
 10
23.519391145666312
 20
44.249905317134392
 30
0.0
  0
VERTEX
  5
C32
  8
DATA
  6
CONTINUOUS
 62
     7
 10
23.499817780188881
 20
44.257635809187363
 30
0.0
  0
VERTEX
  5
C33
  8
DATA
  6
CONTINUOUS
 62
     7
 10
23.480290556271971
 20
44.26551079641888
 30
0.0
  0
VERTEX
  5
C34
  8
DATA
  6
CONTINUOUS
 62
     7
 10
23.460809473915571
 20
44.273530278828957
 30
0.0
  0
VERTEX
  5
C35
  8
DATA
  6
CONTINUOUS
 62
     7
 10
23.441374533119671
 20
44.281694256417609
 30
0.0
  0
VERTEX
  5
C36
  8
DATA
  6
CONTINUOUS
 62
     7
 10
23.421985733884281
 20
44.290002729184813
 30
0.0
  0
VERTEX
  5
C37
  8
DATA
  6
CONTINUOUS
 62
     7
 10
23.402643076209401
 20
44.298455697130578
 30
0.0
  0
VERTEX
  5
C38
  8
DATA
  6
CONTINUOUS
 62
     7
 10
23.383346560095038
 20
44.30705316025491
 30
0.0
  0
VERTEX
  5
C39
  8
DATA
  6
CONTINUOUS
 62
     7
 10
23.364096185541172
 20
44.315795118557809
 30
0.0
  0
VERTEX
  5
C3A
  8
DATA
  6
CONTINUOUS
 62
     7
 10
23.344891952547819
 20
44.324681572039253
 30
0.0
  0
VERTEX
  5
C3B
  8
DATA
  6
CONTINUOUS
 62
     7
 10
23.32573386111498
 20
44.333712520699251
 30
0.0
  0
VERTEX
  5
C3C
  8
DATA
  6
CONTINUOUS
 62
     7
 10
23.306621911242651
 20
44.34288796453783
 30
0.0
  0
VERTEX
  5
C3D
  8
DATA
  6
CONTINUOUS
 62
     7
 10
23.287596062694409
 20
44.352188544871737
 30
0.0
  0
VERTEX
  5
C3E
  8
DATA
  6
CONTINUOUS
 62
     7
 10
23.268696275233811
 20
44.361594903017817
 30
0.0
  0
VERTEX
  5
C3F
  8
DATA
  6
CONTINUOUS
 62
     7
 10
23.249922548860869
 20
44.371107038976049
 30
0.0
  0
VERTEX
  5
C40
  8
DATA
  6
CONTINUOUS
 62
     7
 10
23.231274883575569
 20
44.380724952746441
 30
0.0
  0
VERTEX
  5
C41
  8
DATA
  6
CONTINUOUS
 62
     7
 10
23.212753279377932
 20
44.39044864432897
 30
0.0
  0
VERTEX
  5
C42
  8
DATA
  6
CONTINUOUS
 62
     7
 10
23.194357736267939
 20
44.400278113723679
 30
0.0
  0
VERTEX
  5
C43
  8
DATA
  6
CONTINUOUS
 62
     7
 10
23.176088254245599
 20
44.410213360930527
 30
0.0
  0
VERTEX
  5
C44
  8
DATA
  6
CONTINUOUS
 62
     7
 10
23.157944833310911
 20
44.420254385949526
 30
0.0
  0
VERTEX
  5
C45
  8
DATA
  6
CONTINUOUS
 62
     7
 10
23.139927473463889
 20
44.430401188780692
 30
0.0
  0
VERTEX
  5
C46
  8
DATA
  6
CONTINUOUS
 62
     7
 10
23.122036174704501
 20
44.44065376942401
 30
0.0
  0
VERTEX
  5
C47
  8
DATA
  6
CONTINUOUS
 62
     7
 10
23.104270937032769
 20
44.451012127879487
 30
0.0
  0
VERTEX
  5
C48
  8
DATA
  6
CONTINUOUS
 62
     7
 10
23.086631760448689
 20
44.461476264147123
 30
0.0
  0
VERTEX
  5
C49
  8
DATA
  6
CONTINUOUS
 62
     7
 10
23.06911864495228
 20
44.472046178226897
 30
0.0
  0
VERTEX
  5
C4A
  8
DATA
  6
CONTINUOUS
 62
     7
 10
23.051731590543501
 20
44.48272187011883
 30
0.0
  0
VERTEX
  5
C4B
  8
DATA
  6
CONTINUOUS
 62
     7
 10
23.034470597222381
 20
44.493503339822922
 30
0.0
  0
VERTEX
  5
C4C
  8
DATA
  6
CONTINUOUS
 62
     7
 10
23.017335664988909
 20
44.504390587339152
 30
0.0
  0
VERTEX
  5
C4D
  8
DATA
  6
CONTINUOUS
 62
     7
 10
23.000326793843101
 20
44.515383612667563
 30
0.0
  0
VERTEX
  5
C4E
  8
DATA
  6
CONTINUOUS
 62
     7
 10
22.98344398378493
 20
44.526482415808097
 30
0.0
  0
VERTEX
  5
C4F
  8
DATA
  6
CONTINUOUS
 62
     7
 10
22.96668723481443
 20
44.537686996760812
 30
0.0
  0
VERTEX
  5
C50
  8
DATA
  6
CONTINUOUS
 62
     7
 10
22.95005654693157
 20
44.548997355525678
 30
0.0
  0
VERTEX
  5
C51
  8
DATA
  6
CONTINUOUS
 62
     7
 10
22.93355192013636
 20
44.56041349210269
 30
0.0
  0
VERTEX
  5
C52
  8
DATA
  6
CONTINUOUS
 62
     7
 10
22.917173354428801
 20
44.571935406491882
 30
0.0
  0
VERTEX
  5
C53
  8
DATA
  6
CONTINUOUS
 62
     7
 10
22.900920849808891
 20
44.583563098693212
 30
0.0
  0
VERTEX
  5
C54
  8
DATA
  6
CONTINUOUS
 62
     7
 10
22.884794406276651
 20
44.595296568706679
 30
0.0
  0
VERTEX
  5
C55
  8
DATA
  6
CONTINUOUS
 62
     7
 10
22.868794023832049
 20
44.607135816532313
 30
0.0
  0
VERTEX
  5
C56
  8
DATA
  6
CONTINUOUS
 62
     7
 10
22.852919702475109
 20
44.619080842170099
 30
0.0
  0
VERTEX
  5
C57
  8
DATA
  6
CONTINUOUS
 62
     7
 10
22.837171442205811
 20
44.631131645620052
 30
0.0
  0
VERTEX
  5
C58
  8
DATA
  6
CONTINUOUS
 62
     7
 10
22.821549243024162
 20
44.643288226882149
 30
0.0
  0
VERTEX
  5
C59
  8
DATA
  6
CONTINUOUS
 62
     7
 10
22.806053104930172
 20
44.655550585956412
 30
0.0
  0
VERTEX
  5
C5A
  8
DATA
  6
CONTINUOUS
 62
     7
 10
22.790683027923841
 20
44.667918722842821
 30
0.0
  0
VERTEX
  5
C5B
  8
DATA
  6
CONTINUOUS
 62
     7
 10
22.775439012005151
 20
44.680392637541402
 30
0.0
  0
VERTEX
  5
C5C
  8
DATA
  6
CONTINUOUS
 62
     7
 10
22.760321057174121
 20
44.692972330052122
 30
0.0
  0
VERTEX
  5
C5D
  8
DATA
  6
CONTINUOUS
 62
     7
 10
22.745329163430728
 20
44.705657800374993
 30
0.0
  0
VERTEX
  5
C5E
  8
DATA
  6
CONTINUOUS
 62
     7
 10
22.730463330775009
 20
44.718449048510017
 30
0.0
  0
VERTEX
  5
C5F
  8
DATA
  6
CONTINUOUS
 62
     7
 10
22.715723559206928
 20
44.731346074457207
 30
0.0
  0
VERTEX
  5
C60
  8
DATA
  6
CONTINUOUS
 62
     7
 10
22.70110984872651
 20
44.744348878216528
 30
0.0
  0
VERTEX
  5
C61
  8
DATA
  6
CONTINUOUS
 62
     7
 10
22.68662219933373
 20
44.757457459788029
 30
0.0
  0
VERTEX
  5
C62
  8
DATA
  6
CONTINUOUS
 62
     7
 10
22.672260611028609
 20
44.770671819171667
 30
0.0
  0
VERTEX
  5
C63
  8
DATA
  6
CONTINUOUS
 62
     7
 10
22.65802508381114
 20
44.783991956367487
 30
0.0
  0
VERTEX
  5
C64
  8
DATA
  6
CONTINUOUS
 62
     7
 10
22.64391561768133
 20
44.797417871375437
 30
0.0
  0
VERTEX
  5
C65
  8
DATA
  6
CONTINUOUS
 62
     7
 10
22.629932212639162
 20
44.810949564195539
 30
0.0
  0
VERTEX
  5
C66
  8
DATA
  6
CONTINUOUS
 62
     7
 10
22.616074868684649
 20
44.824587034827822
 30
0.0
  0
VERTEX
  5
C67
  8
DATA
  6
CONTINUOUS
 62
     7
 10
22.602343585817788
 20
44.838330283272228
 30
0.0
  0
VERTEX
  5
C68
  8
DATA
  6
CONTINUOUS
 62
     7
 10
22.588738364038591
 20
44.8521793095288
 30
0.0
  0
VERTEX
  5
C69
  8
DATA
  6
CONTINUOUS
 62
     7
 10
22.575259203347031
 20
44.866134113597539
 30
0.0
  0
VERTEX
  5
C6A
  8
DATA
  6
CONTINUOUS
 62
     7
 10
22.56190610374313
 20
44.88019469547843
 30
0.0
  0
VERTEX
  5
C6B
  8
DATA
  6
CONTINUOUS
 62
     7
 10
22.548679065226882
 20
44.89436105517148
 30
0.0
  0
VERTEX
  5
C6C
  8
DATA
  6
CONTINUOUS
 62
     7
 10
22.535578087798282
 20
44.908633192676668
 30
0.0
  0
VERTEX
  5
C6D
  8
DATA
  6
CONTINUOUS
 62
     7
 10
22.52260317145733
 20
44.923011107994007
 30
0.0
  0
VERTEX
  5
C6E
  8
DATA
  6
CONTINUOUS
 62
     7
 10
22.509754316204042
 20
44.937494801123528
 30
0.0
  0
VERTEX
  5
C6F
  8
DATA
  6
CONTINUOUS
 62
     7
 10
22.497031522038391
 20
44.952084272065193
 30
0.0
  0
VERTEX
  5
C70
  8
DATA
  6
CONTINUOUS
 62
     7
 10
22.48443478896041
 20
44.966779520818989
 30
0.0
  0
VERTEX
  5
C71
  8
DATA
  6
CONTINUOUS
 62
     7
 10
22.471964116970071
 20
44.981580547384958
 30
0.0
  0
VERTEX
  5
C72
  8
DATA
  6
CONTINUOUS
 62
     7
 10
22.45961950606738
 20
44.996487351763101
 30
0.0
  0
VERTEX
  5
C73
  8
DATA
  6
CONTINUOUS
 62
     7
 10
22.447400956252348
 20
45.011499933953367
 30
0.0
  0
VERTEX
  5
C74
  8
DATA
  6
CONTINUOUS
 62
     7
 10
22.435308467524958
 20
45.026618293955813
 30
0.0
  0
VERTEX
  5
C75
  8
DATA
  6
CONTINUOUS
 62
     7
 10
22.423342039885231
 20
45.041842431770412
 30
0.0
  0
VERTEX
  5
C76
  8
DATA
  6
CONTINUOUS
 62
     7
 10
22.411501673333159
 20
45.057172347397128
 30
0.0
  0
VERTEX
  5
C77
  8
DATA
  6
CONTINUOUS
 62
     7
 10
22.399787367868729
 20
45.072608040836052
 30
0.0
  0
VERTEX
  5
C78
  8
DATA
  6
CONTINUOUS
 62
     7
 10
22.388199123491962
 20
45.088149512087099
 30
0.0
  0
VERTEX
  5
C79
  8
DATA
  6
CONTINUOUS
 62
     7
 10
22.376736940202839
 20
45.103796761150313
 30
0.0
  0
VERTEX
  5
C7A
  8
DATA
  6
CONTINUOUS
 62
     7
 10
22.365400818001369
 20
45.119549788025672
 30
0.0
  0
VERTEX
  5
C7B
  8
DATA
  6
CONTINUOUS
 62
     7
 10
22.354190756887551
 20
45.135408592713183
 30
0.0
  0
VERTEX
  5
C7C
  8
DATA
  6
CONTINUOUS
 62
     7
 10
22.343106756861381
 20
45.151373175212854
 30
0.0
  0
VERTEX
  5
C7D
  8
DATA
  6
CONTINUOUS
 62
     7
 10
22.332171888703119
 20
45.167410005301797
 30
0.0
  0
VERTEX
  5
C7E
  8
DATA
  6
CONTINUOUS
 62
     7
 10
22.32140922319304
 20
45.183485552757148
 30
0.0
  0
VERTEX
  5
C7F
  8
DATA
  6
CONTINUOUS
 62
     7
 10
22.310818760331109
 20
45.199599817578921
 30
0.0
  0
VERTEX
  5
C80
  8
DATA
  6
CONTINUOUS
 62
     7
 10
22.30040050011733
 20
45.215752799767088
 30
0.0
  0
VERTEX
  5
C81
  8
DATA
  6
CONTINUOUS
 62
     7
 10
22.29015444255171
 20
45.231944499321663
 30
0.0
  0
VERTEX
  5
C82
  8
DATA
  6
CONTINUOUS
 62
     7
 10
22.28008058763427
 20
45.24817491624264
 30
0.0
  0
VERTEX
  5
C83
  8
DATA
  6
CONTINUOUS
 62
     7
 10
22.270178935364971
 20
45.264444050530031
 30
0.0
  0
VERTEX
  5
C84
  8
DATA
  6
CONTINUOUS
 62
     7
 10
22.260449485743852
 20
45.280751902183809
 30
0.0
  0
VERTEX
  5
C85
  8
DATA
  6
CONTINUOUS
 62
     7
 10
22.250892238770881
 20
45.297098471204002
 30
0.0
  0
VERTEX
  5
C86
  8
DATA
  6
CONTINUOUS
 62
     7
 10
22.24150719444609
 20
45.31348375759061
 30
0.0
  0
VERTEX
  5
C87
  8
DATA
  6
CONTINUOUS
 62
     7
 10
22.23229435276944
 20
45.329907761343613
 30
0.0
  0
VERTEX
  5
C88
  8
DATA
  6
CONTINUOUS
 62
     7
 10
22.223253713740959
 20
45.34637048246303
 30
0.0
  0
VERTEX
  5
C89
  8
DATA
  6
CONTINUOUS
 62
     7
 10
22.214385277360641
 20
45.362871920948841
 30
0.0
  0
VERTEX
  5
C8A
  8
DATA
  6
CONTINUOUS
 62
     7
 10
22.205689043628482
 20
45.37941207680106
 30
0.0
  0
VERTEX
  5
C8B
  8
DATA
  6
CONTINUOUS
 62
     7
 10
22.197165012544492
 20
45.395990950019701
 30
0.0
  0
VERTEX
  5
C8C
  8
DATA
  6
CONTINUOUS
 62
     7
 10
22.18881318410865
 20
45.412608540604708
 30
0.0
  0
VERTEX
  5
C8D
  8
DATA
  6
CONTINUOUS
 62
     7
 10
22.18063355832097
 20
45.429264848556151
 30
0.0
  0
VERTEX
  5
C8E
  8
DATA
  6
CONTINUOUS
 62
     7
 10
22.172626135181471
 20
45.445959873873988
 30
0.0
  0
VERTEX
  5
C8F
  8
DATA
  6
CONTINUOUS
 62
     7
 10
22.164790914690119
 20
45.462693616558241
 30
0.0
  0
VERTEX
  5
C90
  8
DATA
  6
CONTINUOUS
 62
     7
 10
22.157127896846919
 20
45.479466076608887
 30
0.0
  0
VERTEX
  5
C91
  8
DATA
  6
CONTINUOUS
 62
     7
 10
22.1496370816519
 20
45.496277254025962
 30
0.0
  0
VERTEX
  5
C92
  8
DATA
  6
CONTINUOUS
 62
     7
 10
22.142318469105032
 20
45.513127148809417
 30
0.0
  0
VERTEX
  5
C93
  8
DATA
  6
CONTINUOUS
 62
     7
 10
22.135172059206329
 20
45.530015760959287
 30
0.0
  0
VERTEX
  5
C94
  8
DATA
  6
CONTINUOUS
 62
     7
 10
22.12819785195579
 20
45.546943090475558
 30
0.0
  0
VERTEX
  5
C95
  8
DATA
  6
CONTINUOUS
 62
     7
 10
22.121395847353408
 20
45.563909137358237
 30
0.0
  0
VERTEX
  5
C96
  8
DATA
  6
CONTINUOUS
 62
     7
 10
22.114766045399179
 20
45.580913901607332
 30
0.0
  0
VERTEX
  5
C97
  8
DATA
  6
CONTINUOUS
 62
     7
 10
22.10830844609313
 20
45.597957383222813
 30
0.0
  0
VERTEX
  5
C98
  8
DATA
  6
CONTINUOUS
 62
     7
 10
22.102023049435228
 20
45.615039582204723
 30
0.0
  0
VERTEX
  5
C99
  8
DATA
  6
CONTINUOUS
 62
     7
 10
22.0959098554255
 20
45.63216049855302
 30
0.0
  0
VERTEX
  5
C9A
  8
DATA
  6
CONTINUOUS
 62
     7
 10
22.08996886406393
 20
45.649320132267718
 30
0.0
  0
VERTEX
  5
C9B
  8
DATA
  6
CONTINUOUS
 62
     7
 10
22.084200075350509
 20
45.666518483348838
 30
0.0
  0
VERTEX
  5
C9C
  8
DATA
  6
CONTINUOUS
 62
     7
 10
22.078603489285271
 20
45.683755551796359
 30
0.0
  0
VERTEX
  5
C9D
  8
DATA
  6
CONTINUOUS
 62
     7
 10
22.073179105868181
 20
45.701031337610289
 30
0.0
  0
VERTEX
  5
C9E
  8
DATA
  6
CONTINUOUS
 62
     7
 10
22.06792692509925
 20
45.718345840790612
 30
0.0
  0
VERTEX
  5
C9F
  8
DATA
  6
CONTINUOUS
 62
     7
 10
22.062846946978478
 20
45.73569906133735
 30
0.0
  0
VERTEX
  5
CA0
  8
DATA
  6
CONTINUOUS
 62
     7
 10
22.057939171505879
 20
45.753090999250489
 30
0.0
  0
VERTEX
  5
CA1
  8
DATA
  6
CONTINUOUS
 62
     7
 10
22.053203598681439
 20
45.770521654530022
 30
0.0
  0
VERTEX
  5
CA2
  8
DATA
  6
CONTINUOUS
 62
     7
 10
22.04864022850516
 20
45.787991027175977
 30
0.0
  0
VERTEX
  5
CA3
  8
DATA
  6
CONTINUOUS
 62
     7
 10
22.044249060977041
 20
45.805499117188333
 30
0.0
  0
VERTEX
  5
CA4
  8
DATA
  6
CONTINUOUS
 62
     7
 10
22.04003009609708
 20
45.823045924567097
 30
0.0
  0
VERTEX
  5
CA5
  8
DATA
  6
CONTINUOUS
 62
     7
 10
22.035983333865289
 20
45.840631449312248
 30
0.0
  0
VERTEX
  5
CA6
  8
DATA
  6
CONTINUOUS
 62
     7
 10
22.032108774281649
 20
45.858255691423842
 30
0.0
  0
VERTEX
  5
CA7
  8
DATA
  6
CONTINUOUS
 62
     7
 10
22.028406417346179
 20
45.875918650901809
 30
0.0
  0
VERTEX
  5
CA8
  8
DATA
  6
CONTINUOUS
 62
     7
 10
22.024876263058861
 20
45.893620327746177
 30
0.0
  0
VERTEX
  5
CA9
  8
DATA
  6
CONTINUOUS
 62
     7
 10
22.021518311419712
 20
45.911360721956967
 30
0.0
  0
VERTEX
  5
CAA
  8
DATA
  6
CONTINUOUS
 62
     7
 10
22.018332562428728
 20
45.929139833534173
 30
0.0
  0
VERTEX
  5
CAB
  8
DATA
  6
CONTINUOUS
 62
     7
 10
22.0153190160859
 20
45.946957662477757
 30
0.0
  0
VERTEX
  5
CAC
  8
DATA
  6
CONTINUOUS
 62
     7
 10
22.012477672391238
 20
45.964814208787757
 30
0.0
  0
VERTEX
  5
CAD
  8
DATA
  6
CONTINUOUS
 62
     7
 10
22.009808531344731
 20
45.98270947246418
 30
0.0
  0
VERTEX
  5
CAE
  8
DATA
  6
CONTINUOUS
 62
     7
 10
22.00731159294639
 20
46.000643453507003
 30
0.0
  0
VERTEX
  5
CAF
  8
DATA
  6
CONTINUOUS
 62
     7
 10
22.004986857196212
 20
46.01861615191622
 30
0.0
  0
VERTEX
  5
CB0
  8
DATA
  6
CONTINUOUS
 62
     7
 10
22.002834324094191
 20
46.036627567691838
 30
0.0
  0
VERTEX
  5
CB1
  8
DATA
  6
CONTINUOUS
 62
     7
 10
22.00085399364033
 20
46.054677700833857
 30
0.0
  0
VERTEX
  5
CB2
  8
DATA
  6
CONTINUOUS
 62
     7
 10
21.999045865834638
 20
46.072766551342312
 30
0.0
  0
VERTEX
  5
CB3
  8
DATA
  6
CONTINUOUS
 62
     7
 10
21.997409940677109
 20
46.09089411921714
 30
0.0
  0
VERTEX
  5
CB4
  8
DATA
  6
CONTINUOUS
 62
     7
 10
21.995946218167731
 20
46.10906040445839
 30
0.0
  0
VERTEX
  5
CB5
  8
DATA
  6
CONTINUOUS
 62
     7
 10
21.994654698306519
 20
46.127265407066048
 30
0.0
  0
VERTEX
  5
CB6
  8
DATA
  6
CONTINUOUS
 62
     7
 10
21.993535381093459
 20
46.1455091270401
 30
0.0
  0
VERTEX
  5
CB7
  8
DATA
  6
CONTINUOUS
 62
     7
 10
21.992588266528578
 20
46.163791564380581
 30
0.0
  0
VERTEX
  5
CB8
  8
DATA
  6
CONTINUOUS
 62
     7
 10
21.99181335461185
 20
46.182112719087442
 30
0.0
  0
VERTEX
  5
CB9
  8
DATA
  6
CONTINUOUS
 62
     7
 10
21.99121064534328
 20
46.200472591160718
 30
0.0
  0
VERTEX
  5
CBA
  8
DATA
  6
CONTINUOUS
 62
     7
 10
21.99078013872289
 20
46.218871180600402
 30
0.0
  0
VERTEX
  5
CBB
  8
DATA
  6
CONTINUOUS
 62
     7
 10
21.990521834750641
 20
46.237308487406473
 30
0.0
  0
VERTEX
  5
CBC
  8
DATA
  6
CONTINUOUS
 62
     7
 10
21.990435733426558
 20
46.255784511578973
 30
0.0
  0
VERTEX
  5
CBD
  8
DATA
  6
CONTINUOUS
 62
     7
 10
21.990521834750641
 20
46.274260535751452
 30
0.0
  0
VERTEX
  5
CBE
  8
DATA
  6
CONTINUOUS
 62
     7
 10
21.99078013872289
 20
46.29269784255753
 30
0.0
  0
VERTEX
  5
CBF
  8
DATA
  6
CONTINUOUS
 62
     7
 10
21.99121064534328
 20
46.311096431997221
 30
0.0
  0
VERTEX
  5
CC0
  8
DATA
  6
CONTINUOUS
 62
     7
 10
21.99181335461185
 20
46.32945630407049
 30
0.0
  0
VERTEX
  5
CC1
  8
DATA
  6
CONTINUOUS
 62
     7
 10
21.992588266528578
 20
46.347777458777358
 30
0.0
  0
VERTEX
  5
CC2
  8
DATA
  6
CONTINUOUS
 62
     7
 10
21.993535381093459
 20
46.366059896117832
 30
0.0
  0
VERTEX
  5
CC3
  8
DATA
  6
CONTINUOUS
 62
     7
 10
21.994654698306519
 20
46.384303616091891
 30
0.0
  0
VERTEX
  5
CC4
  8
DATA
  6
CONTINUOUS
 62
     7
 10
21.995946218167731
 20
46.402508618699542
 30
0.0
  0
VERTEX
  5
CC5
  8
DATA
  6
CONTINUOUS
 62
     7
 10
21.997409940677109
 20
46.420674903940792
 30
0.0
  0
VERTEX
  5
CC6
  8
DATA
  6
CONTINUOUS
 62
     7
 10
21.999045865834638
 20
46.438802471815613
 30
0.0
  0
VERTEX
  5
CC7
  8
DATA
  6
CONTINUOUS
 62
     7
 10
22.00085399364033
 20
46.456891322324068
 30
0.0
  0
VERTEX
  5
CC8
  8
DATA
  6
CONTINUOUS
 62
     7
 10
22.002834324094191
 20
46.474941455466102
 30
0.0
  0
VERTEX
  5
CC9
  8
DATA
  6
CONTINUOUS
 62
     7
 10
22.004986857196212
 20
46.492952871241712
 30
0.0
  0
VERTEX
  5
CCA
  8
DATA
  6
CONTINUOUS
 62
     7
 10
22.00731159294639
 20
46.510925569650929
 30
0.0
  0
VERTEX
  5
CCB
  8
DATA
  6
CONTINUOUS
 62
     7
 10
22.009808531344731
 20
46.528859550693753
 30
0.0
  0
VERTEX
  5
CCC
  8
DATA
  6
CONTINUOUS
 62
     7
 10
22.012477672391238
 20
46.546754814370153
 30
0.0
  0
VERTEX
  5
CCD
  8
DATA
  6
CONTINUOUS
 62
     7
 10
22.0153190160859
 20
46.564611360680161
 30
0.0
  0
VERTEX
  5
CCE
  8
DATA
  6
CONTINUOUS
 62
     7
 10
22.018332562428728
 20
46.582429189623753
 30
0.0
  0
VERTEX
  5
CCF
  8
DATA
  6
CONTINUOUS
 62
     7
 10
22.021518311419712
 20
46.600208301200951
 30
0.0
  0
VERTEX
  5
CD0
  8
DATA
  6
CONTINUOUS
 62
     7
 10
22.024876263058861
 20
46.617948695411741
 30
0.0
  0
VERTEX
  5
CD1
  8
DATA
  6
CONTINUOUS
 62
     7
 10
22.028406417346179
 20
46.635650372256123
 30
0.0
  0
VERTEX
  5
CD2
  8
DATA
  6
CONTINUOUS
 62
     7
 10
22.032108774281649
 20
46.653313331734097
 30
0.0
  0
VERTEX
  5
CD3
  8
DATA
  6
CONTINUOUS
 62
     7
 10
22.035983333865289
 20
46.670937573845663
 30
0.0
  0
VERTEX
  5
CD4
  8
DATA
  6
CONTINUOUS
 62
     7
 10
22.04003009609708
 20
46.688523098590842
 30
0.0
  0
VERTEX
  5
CD5
  8
DATA
  6
CONTINUOUS
 62
     7
 10
22.044249060977041
 20
46.706069905969599
 30
0.0
  0
VERTEX
  5
CD6
  8
DATA
  6
CONTINUOUS
 62
     7
 10
22.04864022850516
 20
46.723577995981962
 30
0.0
  0
VERTEX
  5
CD7
  8
DATA
  6
CONTINUOUS
 62
     7
 10
22.053203598681439
 20
46.741047368627903
 30
0.0
  0
VERTEX
  5
CD8
  8
DATA
  6
CONTINUOUS
 62
     7
 10
22.057939171505879
 20
46.758478023907443
 30
0.0
  0
VERTEX
  5
CD9
  8
DATA
  6
CONTINUOUS
 62
     7
 10
22.062846946978478
 20
46.775869961820568
 30
0.0
  0
VERTEX
  5
CDA
  8
DATA
  6
CONTINUOUS
 62
     7
 10
22.06792692509925
 20
46.793223182367313
 30
0.0
  0
VERTEX
  5
CDB
  8
DATA
  6
CONTINUOUS
 62
     7
 10
22.073179105868181
 20
46.810537685547651
 30
0.0
  0
VERTEX
  5
CDC
  8
DATA
  6
CONTINUOUS
 62
     7
 10
22.078603489285271
 20
46.827813471361573
 30
0.0
  0
VERTEX
  5
CDD
  8
DATA
  6
CONTINUOUS
 62
     7
 10
22.084200075350509
 20
46.845050539809087
 30
0.0
  0
VERTEX
  5
CDE
  8
DATA
  6
CONTINUOUS
 62
     7
 10
22.08996886406393
 20
46.862248890890207
 30
0.0
  0
VERTEX
  5
CDF
  8
DATA
  6
CONTINUOUS
 62
     7
 10
22.0959098554255
 20
46.879408524604898
 30
0.0
  0
VERTEX
  5
CE0
  8
DATA
  6
CONTINUOUS
 62
     7
 10
22.102023049435228
 20
46.896529440953209
 30
0.0
  0
VERTEX
  5
CE1
  8
DATA
  6
CONTINUOUS
 62
     7
 10
22.10830844609313
 20
46.913611639935112
 30
0.0
  0
VERTEX
  5
CE2
  8
DATA
  6
CONTINUOUS
 62
     7
 10
22.114766045399179
 20
46.9306551215506
 30
0.0
  0
VERTEX
  5
CE3
  8
DATA
  6
CONTINUOUS
 62
     7
 10
22.121395847353408
 20
46.947659885799673
 30
0.0
  0
VERTEX
  5
CE4
  8
DATA
  6
CONTINUOUS
 62
     7
 10
22.12819785195579
 20
46.964625932682367
 30
0.0
  0
VERTEX
  5
CE5
  8
DATA
  6
CONTINUOUS
 62
     7
 10
22.135172059206329
 20
46.981553262198638
 30
0.0
  0
VERTEX
  5
CE6
  8
DATA
  6
CONTINUOUS
 62
     7
 10
22.142318469105032
 20
46.998441874348501
 30
0.0
  0
VERTEX
  5
CE7
  8
DATA
  6
CONTINUOUS
 62
     7
 10
22.1496370816519
 20
47.01529176913197
 30
0.0
  0
VERTEX
  5
CE8
  8
DATA
  6
CONTINUOUS
 62
     7
 10
22.157127896846919
 20
47.032102946549031
 30
0.0
  0
VERTEX
  5
CE9
  8
DATA
  6
CONTINUOUS
 62
     7
 10
22.164790914690119
 20
47.048875406599677
 30
0.0
  0
VERTEX
  5
CEA
  8
DATA
  6
CONTINUOUS
 62
     7
 10
22.172626135181471
 20
47.065609149283937
 30
0.0
  0
VERTEX
  5
CEB
  8
DATA
  6
CONTINUOUS
 62
     7
 10
22.18063355832097
 20
47.082304174601767
 30
0.0
  0
VERTEX
  5
CEC
  8
DATA
  6
CONTINUOUS
 62
     7
 10
22.18881318410865
 20
47.098960482553217
 30
0.0
  0
VERTEX
  5
CED
  8
DATA
  6
CONTINUOUS
 62
     7
 10
22.197165012544492
 20
47.115578073138238
 30
0.0
  0
VERTEX
  5
CEE
  8
DATA
  6
CONTINUOUS
 62
     7
 10
22.205689043628482
 20
47.132156946356872
 30
0.0
  0
VERTEX
  5
CEF
  8
DATA
  6
CONTINUOUS
 62
     7
 10
22.214385277360641
 20
47.148697102209077
 30
0.0
  0
VERTEX
  5
CF0
  8
DATA
  6
CONTINUOUS
 62
     7
 10
22.223253713740959
 20
47.165198540694888
 30
0.0
  0
VERTEX
  5
CF1
  8
DATA
  6
CONTINUOUS
 62
     7
 10
22.23229435276944
 20
47.181661261814298
 30
0.0
  0
VERTEX
  5
CF2
  8
DATA
  6
CONTINUOUS
 62
     7
 10
22.24150719444609
 20
47.198085265567308
 30
0.0
  0
VERTEX
  5
CF3
  8
DATA
  6
CONTINUOUS
 62
     7
 10
22.250892238770881
 20
47.214470551953923
 30
0.0
  0
VERTEX
  5
CF4
  8
DATA
  6
CONTINUOUS
 62
     7
 10
22.260449485743852
 20
47.230817120974123
 30
0.0
  0
VERTEX
  5
CF5
  8
DATA
  6
CONTINUOUS
 62
     7
 10
22.270178935364971
 20
47.247124972627887
 30
0.0
  0
VERTEX
  5
CF6
  8
DATA
  6
CONTINUOUS
 62
     7
 10
22.28008058763427
 20
47.263394106915293
 30
0.0
  0
VERTEX
  5
CF7
  8
DATA
  6
CONTINUOUS
 62
     7
 10
22.29015444255171
 20
47.279624523836262
 30
0.0
  0
VERTEX
  5
CF8
  8
DATA
  6
CONTINUOUS
 62
     7
 10
22.30040050011733
 20
47.295816223390851
 30
0.0
  0
VERTEX
  5
CF9
  8
DATA
  6
CONTINUOUS
 62
     7
 10
22.310818760331109
 20
47.311969205578997
 30
0.0
  0
VERTEX
  5
CFA
  8
DATA
  6
CONTINUOUS
 62
     7
 10
22.32140922319304
 20
47.32808347040077
 30
0.0
  0
VERTEX
  5
CFB
  8
DATA
  6
CONTINUOUS
 62
     7
 10
22.332171888703119
 20
47.344159017856121
 30
0.0
  0
VERTEX
  5
CFC
  8
DATA
  6
CONTINUOUS
 62
     7
 10
22.343106756861381
 20
47.360195847945072
 30
0.0
  0
VERTEX
  5
CFD
  8
DATA
  6
CONTINUOUS
 62
     7
 10
22.354190756887551
 20
47.376160430444742
 30
0.0
  0
VERTEX
  5
CFE
  8
DATA
  6
CONTINUOUS
 62
     7
 10
22.365400818001369
 20
47.392019235132253
 30
0.0
  0
VERTEX
  5
CFF
  8
DATA
  6
CONTINUOUS
 62
     7
 10
22.376736940202839
 20
47.407772262007612
 30
0.0
  0
VERTEX
  5
D00
  8
DATA
  6
CONTINUOUS
 62
     7
 10
22.388199123491962
 20
47.423419511070819
 30
0.0
  0
VERTEX
  5
D01
  8
DATA
  6
CONTINUOUS
 62
     7
 10
22.399787367868729
 20
47.438960982321888
 30
0.0
  0
VERTEX
  5
D02
  8
DATA
  6
CONTINUOUS
 62
     7
 10
22.411501673333159
 20
47.45439667576079
 30
0.0
  0
VERTEX
  5
D03
  8
DATA
  6
CONTINUOUS
 62
     7
 10
22.423342039885231
 20
47.46972659138752
 30
0.0
  0
VERTEX
  5
D04
  8
DATA
  6
CONTINUOUS
 62
     7
 10
22.435308467524958
 20
47.484950729202119
 30
0.0
  0
VERTEX
  5
D05
  8
DATA
  6
CONTINUOUS
 62
     7
 10
22.447400956252348
 20
47.500069089204551
 30
0.0
  0
VERTEX
  5
D06
  8
DATA
  6
CONTINUOUS
 62
     7
 10
22.45961950606738
 20
47.515081671394817
 30
0.0
  0
VERTEX
  5
D07
  8
DATA
  6
CONTINUOUS
 62
     7
 10
22.471964116970071
 20
47.52998847577296
 30
0.0
  0
VERTEX
  5
D08
  8
DATA
  6
CONTINUOUS
 62
     7
 10
22.48443478896041
 20
47.544789502338929
 30
0.0
  0
VERTEX
  5
D09
  8
DATA
  6
CONTINUOUS
 62
     7
 10
22.497031522038391
 20
47.559484751092732
 30
0.0
  0
VERTEX
  5
D0A
  8
DATA
  6
CONTINUOUS
 62
     7
 10
22.509754316204042
 20
47.574074222034398
 30
0.0
  0
VERTEX
  5
D0B
  8
DATA
  6
CONTINUOUS
 62
     7
 10
22.52260317145733
 20
47.588557915163889
 30
0.0
  0
VERTEX
  5
D0C
  8
DATA
  6
CONTINUOUS
 62
     7
 10
22.535578087798282
 20
47.602935830481258
 30
0.0
  0
VERTEX
  5
D0D
  8
DATA
  6
CONTINUOUS
 62
     7
 10
22.548679065226882
 20
47.617207967986452
 30
0.0
  0
VERTEX
  5
D0E
  8
DATA
  6
CONTINUOUS
 62
     7
 10
22.56190610374313
 20
47.631374327679502
 30
0.0
  0
VERTEX
  5
D0F
  8
DATA
  6
CONTINUOUS
 62
     7
 10
22.575259203347031
 20
47.645434909560393
 30
0.0
  0
VERTEX
  5
D10
  8
DATA
  6
CONTINUOUS
 62
     7
 10
22.588738364038591
 20
47.65938971362911
 30
0.0
  0
VERTEX
  5
D11
  8
DATA
  6
CONTINUOUS
 62
     7
 10
22.602343585817788
 20
47.673238739885683
 30
0.0
  0
VERTEX
  5
D12
  8
DATA
  6
CONTINUOUS
 62
     7
 10
22.616074868684649
 20
47.686981988330103
 30
0.0
  0
VERTEX
  5
D13
  8
DATA
  6
CONTINUOUS
 62
     7
 10
22.629932212639162
 20
47.700619458962379
 30
0.0
  0
VERTEX
  5
D14
  8
DATA
  6
CONTINUOUS
 62
     7
 10
22.64391561768133
 20
47.714151151782488
 30
0.0
  0
VERTEX
  5
D15
  8
DATA
  6
CONTINUOUS
 62
     7
 10
22.65802508381114
 20
47.72757706679046
 30
0.0
  0
VERTEX
  5
D16
  8
DATA
  6
CONTINUOUS
 62
     7
 10
22.672260611028609
 20
47.74089720398625
 30
0.0
  0
VERTEX
  5
D17
  8
DATA
  6
CONTINUOUS
 62
     7
 10
22.68662219933373
 20
47.754111563369889
 30
0.0
  0
VERTEX
  5
D18
  8
DATA
  6
CONTINUOUS
 62
     7
 10
22.70110984872651
 20
47.76722014494139
 30
0.0
  0
VERTEX
  5
D19
  8
DATA
  6
CONTINUOUS
 62
     7
 10
22.715723559206928
 20
47.780222948700718
 30
0.0
  0
VERTEX
  5
D1A
  8
DATA
  6
CONTINUOUS
 62
     7
 10
22.730463330775009
 20
47.793119974647922
 30
0.0
  0
VERTEX
  5
D1B
  8
DATA
  6
CONTINUOUS
 62
     7
 10
22.745329163430728
 20
47.805911222782953
 30
0.0
  0
VERTEX
  5
D1C
  8
DATA
  6
CONTINUOUS
 62
     7
 10
22.760321057174121
 20
47.818596693105818
 30
0.0
  0
VERTEX
  5
D1D
  8
DATA
  6
CONTINUOUS
 62
     7
 10
22.775439012005151
 20
47.831176385616537
 30
0.0
  0
VERTEX
  5
D1E
  8
DATA
  6
CONTINUOUS
 62
     7
 10
22.790683027923841
 20
47.843650300315112
 30
0.0
  0
VERTEX
  5
D1F
  8
DATA
  6
CONTINUOUS
 62
     7
 10
22.806053104930172
 20
47.856018437201513
 30
0.0
  0
VERTEX
  5
D20
  8
DATA
  6
CONTINUOUS
 62
     7
 10
22.821549243024162
 20
47.868280796275783
 30
0.0
  0
VERTEX
  5
D21
  8
DATA
  6
CONTINUOUS
 62
     7
 10
22.837171442205811
 20
47.880437377537874
 30
0.0
  0
VERTEX
  5
D22
  8
DATA
  6
CONTINUOUS
 62
     7
 10
22.852919702475109
 20
47.892488180987819
 30
0.0
  0
VERTEX
  5
D23
  8
DATA
  6
CONTINUOUS
 62
     7
 10
22.868794023832049
 20
47.904433206625598
 30
0.0
  0
VERTEX
  5
D24
  8
DATA
  6
CONTINUOUS
 62
     7
 10
22.884794406276651
 20
47.916272454451239
 30
0.0
  0
VERTEX
  5
D25
  8
DATA
  6
CONTINUOUS
 62
     7
 10
22.900920849808891
 20
47.928005924464728
 30
0.0
  0
VERTEX
  5
D26
  8
DATA
  6
CONTINUOUS
 62
     7
 10
22.917173354428801
 20
47.93963361666605
 30
0.0
  0
VERTEX
  5
D27
  8
DATA
  6
CONTINUOUS
 62
     7
 10
22.93355192013636
 20
47.951155531055221
 30
0.0
  0
VERTEX
  5
D28
  8
DATA
  6
CONTINUOUS
 62
     7
 10
22.95005654693157
 20
47.962571667632247
 30
0.0
  0
VERTEX
  5
D29
  8
DATA
  6
CONTINUOUS
 62
     7
 10
22.96668723481443
 20
47.973882026397114
 30
0.0
  0
VERTEX
  5
D2A
  8
DATA
  6
CONTINUOUS
 62
     7
 10
22.98344398378493
 20
47.985086607349828
 30
0.0
  0
VERTEX
  5
D2B
  8
DATA
  6
CONTINUOUS
 62
     7
 10
23.000326793843101
 20
47.996185410490369
 30
0.0
  0
VERTEX
  5
D2C
  8
DATA
  6
CONTINUOUS
 62
     7
 10
23.017335664988909
 20
48.00717843581878
 30
0.0
  0
VERTEX
  5
D2D
  8
DATA
  6
CONTINUOUS
 62
     7
 10
23.034470597222381
 20
48.01806568333501
 30
0.0
  0
VERTEX
  5
D2E
  8
DATA
  6
CONTINUOUS
 62
     7
 10
23.051731590543501
 20
48.028847153039102
 30
0.0
  0
VERTEX
  5
D2F
  8
DATA
  6
CONTINUOUS
 62
     7
 10
23.06911864495228
 20
48.039522844931042
 30
0.0
  0
VERTEX
  5
D30
  8
DATA
  6
CONTINUOUS
 62
     7
 10
23.086631760448689
 20
48.050092759010823
 30
0.0
  0
VERTEX
  5
D31
  8
DATA
  6
CONTINUOUS
 62
     7
 10
23.104270937032769
 20
48.060556895278452
 30
0.0
  0
VERTEX
  5
D32
  8
DATA
  6
CONTINUOUS
 62
     7
 10
23.122036174704501
 20
48.070915253733922
 30
0.0
  0
VERTEX
  5
D33
  8
DATA
  6
CONTINUOUS
 62
     7
 10
23.139927473463889
 20
48.081167834377212
 30
0.0
  0
VERTEX
  5
D34
  8
DATA
  6
CONTINUOUS
 62
     7
 10
23.157944833310911
 20
48.091314637208392
 30
0.0
  0
VERTEX
  5
D35
  8
DATA
  6
CONTINUOUS
 62
     7
 10
23.176088254245599
 20
48.101355662227398
 30
0.0
  0
VERTEX
  5
D36
  8
DATA
  6
CONTINUOUS
 62
     7
 10
23.194357736267939
 20
48.111290909434253
 30
0.0
  0
VERTEX
  5
D37
  8
DATA
  6
CONTINUOUS
 62
     7
 10
23.212753279377932
 20
48.121120378828948
 30
0.0
  0
VERTEX
  5
D38
  8
DATA
  6
CONTINUOUS
 62
     7
 10
23.231274883575569
 20
48.130844070411491
 30
0.0
  0
VERTEX
  5
D39
  8
DATA
  6
CONTINUOUS
 62
     7
 10
23.249922548860869
 20
48.140461984181883
 30
0.0
  0
VERTEX
  5
D3A
  8
DATA
  6
CONTINUOUS
 62
     7
 10
23.268696275233811
 20
48.149974120140101
 30
0.0
  0
VERTEX
  5
D3B
  8
DATA
  6
CONTINUOUS
 62
     7
 10
23.287596062694409
 20
48.159380478286181
 30
0.0
  0
VERTEX
  5
D3C
  8
DATA
  6
CONTINUOUS
 62
     7
 10
23.306621911242651
 20
48.168681058620102
 30
0.0
  0
VERTEX
  5
D3D
  8
DATA
  6
CONTINUOUS
 62
     7
 10
23.306621911242651
 20
48.168681058620102
 30
0.0
  0
SEQEND
  5
D3E
  8
DATA
  6
CONTINUOUS
 62
     7
  0
TEXT
  5
6D3
  8
DATA
 62
     7
 10
-344.36332783383
 20
43.919516835102407
 30
0.0
 40
1.6679338304162741
  1
150mA
 50
180.0
 41
0.7
 11
-344.36332783383
 21
43.08554991989427
 31
0.0
 73
     2
  0
LINE
  5
6D4
  8
DATA
  6
CONTINUOUS
 62
     7
 10
-347.61412949496031
 20
26.022101591672548
 30
0.0
 11
-347.61412949496031
 21
28.228287717664092
 31
0.0
  0
LINE
  5
6D5
  8
DATA
  6
CONTINUOUS
 62
     7
 10
-349.11412949496031
 20
24.022101591672548
 30
0.0
 11
-347.61412949496031
 21
26.022101591672548
 31
0.0
  0
LINE
  5
6D6
  8
DATA
  6
CONTINUOUS
 62
     7
 10
-346.11412949496031
 20
24.022101591672548
 30
0.0
 11
-347.61412949496031
 21
26.022101591672548
 31
0.0
  0
LINE
  5
6D7
  8
DATA
  6
CONTINUOUS
 62
     7
 10
-349.11412949496031
 20
24.022101591672548
 30
0.0
 11
-346.11412949496031
 21
24.022101591672548
 31
0.0
  0
LINE
  5
6D8
  8
DATA
  6
CONTINUOUS
 62
     7
 10
-297.83618554687752
 20
30.16783443788761
 30
0.0
 11
-300.68165235199808
 21
30.16783443788761
 31
0.0
  0
LINE
  5
6D9
  8
DATA
  6
CONTINUOUS
 62
     7
 10
-341.31834764800192
 20
30.16783443788761
 30
0.0
 11
-354.83618554687752
 21
30.16783443788761
 31
0.0
  0
LINE
  5
6DA
  8
DATA
  6
CONTINUOUS
 62
     7
 10
-364.8345291471328
 20
62.566183067403969
 30
0.0
 11
-366.16898120183851
 21
63.284014946794613
 31
0.0
  0
LINE
  5
6DB
  8
DATA
  6
CONTINUOUS
 62
     7
 10
-364.8345291471328
 20
21.43381693259602
 30
0.0
 11
-366.16898120183851
 21
20.71598505320539
 31
0.0
  0
LINE
  5
6DC
  8
DATA
  6
CONTINUOUS
 62
     7
 10
-358.79140562221141
 20
62.546731939669677
 30
0.0
 11
-355.79533361504781
 21
64.0
 31
0.0
  0
LINE
  5
6DD
  8
DATA
  6
CONTINUOUS
 62
     7
 10
-358.79140562221141
 20
21.45326806033032
 30
0.0
 11
-355.79533361504781
 21
20.0
 31
0.0
  0
LINE
  5
6DE
  8
DATA
  6
CONTINUOUS
 62
     7
 10
-364.8345291471328
 20
58.566183067403969
 30
0.0
 11
-366.16898120183851
 21
59.284014946794599
 31
0.0
  0
LINE
  5
6DF
  8
DATA
  6
CONTINUOUS
 62
     7
 10
-367.5
 20
59.80652687607035
 30
0.0
 11
-367.5
 21
63.806526876070329
 31
0.0
  0
LINE
  5
6E0
  8
DATA
  6
CONTINUOUS
 62
     7
 10
-363.78199278126641
 20
26.0
 30
0.0
 11
-366.16898120183851
 21
24.71598505320539
 31
0.0
  0
LINE
  5
6E1
  8
DATA
  6
CONTINUOUS
 62
     7
 10
-367.5
 20
24.193473123929671
 30
0.0
 11
-367.5
 21
20.19347312392966
 31
0.0
  0
LINE
  5
6E2
  8
DATA
  6
CONTINUOUS
 62
     7
 10
-379.0
 20
20.0
 30
0.0
 11
-379.0
 21
24.0
 31
0.0
  0
LINE
  5
6E3
  8
DATA
  6
CONTINUOUS
 62
     7
 10
-379.0
 20
60.0
 30
0.0
 11
-379.0
 21
64.0
 31
0.0
  0
LINE
  5
6E4
  8
DATA
  6
CONTINUOUS
 62
     7
 10
-369.01137210423929
 20
60.0
 30
0.0
 11
-379.0
 21
60.0
 31
0.0
  0
LINE
  5
6E5
  8
DATA
  6
CONTINUOUS
 62
     7
 10
-369.01137210423929
 20
24.0
 30
0.0
 11
-379.0
 21
24.0
 31
0.0
  0
ARC
  5
6E6
  8
DATA
  6
CONTINUOUS
 62
     7
 10
-369.01137210423929
 20
54.0
 30
0.0
 40
6.0000000000000204
 50
61.723189162189271
 51
89.999999999999446
  0
ARC
  5
6E7
  8
DATA
  6
CONTINUOUS
 62
     7
 10
-369.01137210423929
 20
58.0
 30
0.0
 40
6.0000000000000204
 50
61.723189162189271
 51
89.999999999999446
  0
ARC
  5
6E8
  8
DATA
  6
CONTINUOUS
 62
     7
 10
-369.01137210423929
 20
30.0
 30
0.0
 40
5.9999999999999956
 50
270.0
 51
298.27681083781039
  0
ARC
  5
6E9
  8
DATA
  6
CONTINUOUS
 62
     7
 10
-369.01137210423929
 20
26.0
 30
0.0
 40
5.9999999999999956
 50
270.0
 51
298.27681083781039
  0
LINE
  5
6EA
  8
DATA
  6
CONTINUOUS
 62
     7
 10
-398.5
 20
64.0
 30
0.0
 11
81.5
 21
64.0
 31
0.0
  0
LINE
  5
6EB
  8
DATA
  6
CONTINUOUS
 62
     7
 10
-398.5
 20
20.0
 30
0.0
 11
81.499999999999929
 21
20.0
 31
0.0
  0
ARC
  5
6EC
  8
DATA
  6
CONTINUOUS
 62
     7
 10
-357.91855367189339
 20
60.747251605565921
 30
0.0
 40
1.9999999999999909
 50
115.87606565329421
 51
180.0000000000006
  0
ARC
  5
6ED
  8
DATA
  6
CONTINUOUS
 62
     7
 10
-365.78199278126641
 20
56.804844751805803
 30
0.0
 40
2.000000000000056
 50
359.99999999999892
 51
61.723189162187929
  0
ARC
  5
6EE
  8
DATA
  6
CONTINUOUS
 62
     7
 10
-365.78199278126641
 20
23.195155248194268
 30
0.0
 40
2.0000000000000302
 50
298.27681083780971
 51
359.99999999999892
  0
ARC
  5
6EF
  8
DATA
  6
CONTINUOUS
 62
     7
 10
-357.91855367189339
 20
23.252748394434089
 30
0.0
 40
2.0
 50
179.99999999999969
 51
244.12393434670591
  0
ARC
  5
6F0
  8
DATA
  6
CONTINUOUS
 62
     7
 10
-365.78199278126641
 20
60.80484475180581
 30
0.0
 40
2.000000000000056
 50
359.99999999999892
 51
61.723189162187929
  0
LINE
  5
6F1
  8
DATA
  6
CONTINUOUS
 62
     7
 10
46.78199278126629
 20
23.195155248194229
 30
0.0
 11
46.78199278126629
 21
60.804844751805781
 31
0.0
  0
LINE
  5
6F2
  8
DATA
  6
CONTINUOUS
 62
     7
 10
42.918553671893392
 20
23.2527483944341
 30
0.0
 11
42.918553671893392
 21
60.7472516055659
 31
0.0
  0
LINE
  5
6F3
  8
DATA
  6
CONTINUOUS
 62
     7
 10
38.795333615047689
 20
20.0
 30
0.0
 11
38.795333615047689
 21
64.0
 31
0.0
  0
LINE
  5
6F4
  8
DATA
  6
CONTINUOUS
 62
     7
 10
47.834529147132677
 20
62.566183067403969
 30
0.0
 11
49.168981201838449
 21
63.284014946794613
 31
0.0
  0
LINE
  5
6F5
  8
DATA
  6
CONTINUOUS
 62
     7
 10
47.834529147132677
 20
21.43381693259602
 30
0.0
 11
49.168981201838449
 21
20.71598505320539
 31
0.0
  0
LINE
  5
6F6
  8
DATA
  6
CONTINUOUS
 62
     7
 10
41.7914056222113
 20
62.546731939669677
 30
0.0
 11
38.795333615047689
 21
64.0
 31
0.0
  0
LINE
  5
6F7
  8
DATA
  6
CONTINUOUS
 62
     7
 10
41.7914056222113
 20
21.45326806033032
 30
0.0
 11
38.795333615047689
 21
20.0
 31
0.0
  0
LINE
  5
6F8
  8
DATA
  6
CONTINUOUS
 62
     7
 10
47.834529147132677
 20
58.566183067403969
 30
0.0
 11
49.168981201838449
 21
59.284014946794599
 31
0.0
  0
LINE
  5
6F9
  8
DATA
  6
CONTINUOUS
 62
     7
 10
50.499999999999929
 20
59.80652687607035
 30
0.0
 11
50.499999999999929
 21
63.806526876070329
 31
0.0
  0
LINE
  5
6FA
  8
DATA
  6
CONTINUOUS
 62
     7
 10
46.78199278126629
 20
26.0
 30
0.0
 11
49.168981201838449
 21
24.71598505320539
 31
0.0
  0
LINE
  5
6FB
  8
DATA
  6
CONTINUOUS
 62
     7
 10
50.499999999999929
 20
24.193473123929671
 30
0.0
 11
50.499999999999929
 21
20.19347312392966
 31
0.0
  0
LINE
  5
6FC
  8
DATA
  6
CONTINUOUS
 62
     7
 10
61.999999999999929
 20
20.0
 30
0.0
 11
61.999999999999929
 21
24.0
 31
0.0
  0
LINE
  5
6FD
  8
DATA
  6
CONTINUOUS
 62
     7
 10
61.999999999999929
 20
60.0
 30
0.0
 11
61.999999999999929
 21
64.0
 31
0.0
  0
LINE
  5
6FE
  8
DATA
  6
CONTINUOUS
 62
     7
 10
52.011372104239292
 20
60.0
 30
0.0
 11
61.999999999999929
 21
60.0
 31
0.0
  0
LINE
  5
6FF
  8
DATA
  6
CONTINUOUS
 62
     7
 10
52.011372104239292
 20
24.0
 30
0.0
 11
61.999999999999929
 21
24.0
 31
0.0
  0
ARC
  5
700
  8
DATA
  6
CONTINUOUS
 62
     7
 10
52.011372104239342
 20
54.0
 30
0.0
 40
6.0
 50
90.000000000000554
 51
118.2768108378107
  0
ARC
  5
701
  8
DATA
  6
CONTINUOUS
 62
     7
 10
52.011372104239342
 20
58.0
 30
0.0
 40
6.0
 50
90.000000000000554
 51
118.2768108378107
  0
ARC
  5
702
  8
DATA
  6
CONTINUOUS
 62
     7
 10
52.011372104239292
 20
30.0
 30
0.0
 40
5.9999999999999867
 50
241.72318916218961
 51
270.0
  0
ARC
  5
703
  8
DATA
  6
CONTINUOUS
 62
     7
 10
52.011372104239292
 20
26.0
 30
0.0
 40
5.9999999999999867
 50
241.72318916218961
 51
270.0
  0
ARC
  5
704
  8
DATA
  6
CONTINUOUS
 62
     7
 10
40.918553671893392
 20
60.747251605565921
 30
0.0
 40
2.0
 50
359.99999999999937
 51
64.123934346705724
  0
ARC
  5
705
  8
DATA
  6
CONTINUOUS
 62
     7
 10
48.781992781266347
 20
56.804844751805803
 30
0.0
 40
1.9999999999999969
 50
118.27681083781211
 51
180.00000000000099
  0
ARC
  5
706
  8
DATA
  6
CONTINUOUS
 62
     7
 10
48.78199278126629
 20
23.195155248194268
 30
0.0
 40
2.0
 50
180.00000000000099
 51
241.72318916219029
  0
ARC
  5
707
  8
DATA
  6
CONTINUOUS
 62
     7
 10
40.918553671893392
 20
23.252748394434089
 30
0.0
 40
2.0
 50
295.87606565329412
 51
0.0000000000002842
  0
ARC
  5
708
  8
DATA
  6
CONTINUOUS
 62
     7
 10
48.781992781266347
 20
60.80484475180581
 30
0.0
 40
1.9999999999999969
 50
118.27681083781211
 51
180.00000000000099
  0
LINE
  5
709
  8
DATA
  6
CONTINUOUS
 62
     7
 10
12.63437099915139
 20
-71.0
 30
0.0
 11
12.63437099915139
 21
-80.0
 31
0.0
  0
LINE
  5
70A
  8
DATA
  6
CONTINUOUS
 62
     7
 10
13.834370999151391
 20
-71.0
 30
0.0
 11
13.834370999151391
 21
-78.499999999999986
 31
0.0
  0
LINE
  5
70B
  8
DATA
  6
CONTINUOUS
 62
     7
 10
35.43437099915139
 20
-71.0
 30
0.0
 11
35.43437099915139
 21
-78.499999999999986
 31
0.0
  0
LINE
  5
70C
  8
DATA
  6
CONTINUOUS
 62
     7
 10
36.634370999151393
 20
-71.0
 30
0.0
 11
36.634370999151393
 21
-80.0
 31
0.0
  0
LINE
  5
70D
  8
DATA
  6
CONTINUOUS
 62
     7
 10
12.63437099915139
 20
-71.0
 30
0.0
 11
13.834370999151391
 21
-71.0
 31
0.0
  0
LINE
  5
70E
  8
DATA
  6
CONTINUOUS
 62
     7
 10
15.63437099915139
 20
-71.0
 30
0.0
 11
33.634370999151393
 21
-71.0
 31
0.0
  0
LINE
  5
70F
  8
DATA
  6
CONTINUOUS
 62
     7
 10
35.434370999151398
 20
-71.0
 30
0.0
 11
36.634370999151393
 21
-71.0
 31
0.0
  0
LINE
  5
710
  8
DATA
  6
CONTINUOUS
 62
     7
 10
13.834370999151391
 20
-78.5
 30
0.0
 11
35.43437099915139
 21
-78.5
 31
0.0
  0
LINE
  5
711
  8
DATA
  6
CONTINUOUS
 62
     7
 10
15.63437099915139
 20
-71.0
 30
0.0
 11
15.63437099915139
 21
-78.499999999999986
 31
0.0
  0
LINE
  5
712
  8
DATA
  6
CONTINUOUS
 62
     7
 10
33.634370999151393
 20
-71.0
 30
0.0
 11
33.634370999151393
 21
-78.499999999999986
 31
0.0
  0
LINE
  5
713
  8
DATA
  6
CONTINUOUS
 62
     7
 10
-63.856406198285562
 20
-77.0
 30
0.0
 11
-63.856406198285562
 21
-80.0
 31
0.0
  0
LINE
  5
714
  8
DATA
  6
CONTINUOUS
 62
     7
 10
-31.356406201587589
 20
-77.0
 30
0.0
 11
-31.356406201587589
 21
-80.0
 31
0.0
  0
LINE
  5
715
  8
DATA
  6
CONTINUOUS
 62
     7
 10
3.6435937984124172
 20
-77.000000000000014
 30
0.0
 11
3.6435937984124172
 21
-80.0
 31
0.0
  0
LINE
  5
716
  8
DATA
  6
CONTINUOUS
 62
     7
 10
-63.856406198285562
 20
-77.0
 30
0.0
 11
3.64359379841241
 21
-77.0
 31
0.0
  0
LINE
  5
717
  8
DATA
  6
CONTINUOUS
 62
     7
 10
-18.606406201587561
 20
-77.0
 30
0.0
 11
-18.606406201587561
 21
-80.0
 31
0.0
  0
LINE
  5
718
  8
DATA
  6
CONTINUOUS
 62
     7
 10
-96.357028738644999
 20
-79.5
 30
0.0
 11
-96.357028738644999
 21
-80.0
 31
0.0
  0
LINE
  5
719
  8
DATA
  6
CONTINUOUS
 62
     7
 10
-75.857028738645013
 20
-79.5
 30
0.0
 11
-75.857028738645013
 21
-80.0
 31
0.0
  0
LINE
  5
71A
  8
DATA
  6
CONTINUOUS
 62
     7
 10
-96.357028738644999
 20
-79.5
 30
0.0
 11
-75.857028738645013
 21
-79.5
 31
0.0
  0
LINE
  5
71B
  8
DATA
  6
CONTINUOUS
 62
     7
 10
-330.64999999999998
 20
-63.0
 30
0.0
 11
-340.35000000000002
 21
-63.0
 31
0.0
  0
LINE
  5
71C
  8
DATA
  6
CONTINUOUS
 62
     7
 10
-340.35000000000002
 20
-63.0
 30
0.0
 11
-340.35000000000002
 21
-73.0
 31
0.0
  0
LINE
  5
71D
  8
DATA
  6
CONTINUOUS
 62
     7
 10
-330.64999999999998
 20
-63.0
 30
0.0
 11
-330.64999999999998
 21
-73.0
 31
0.0
  0
CIRCLE
  5
71E
  8
DATA
  6
CONTINUOUS
 62
     7
 10
-335.5
 20
-67.5
 30
0.0
 40
1.0
  0
LINE
  5
71F
  8
DATA
  6
CONTINUOUS
 62
     7
 10
-343.0
 20
-80.0
 30
0.0
 11
-343.0
 21
-76.0
 31
0.0
  0
LINE
  5
720
  8
DATA
  6
CONTINUOUS
 62
     7
 10
-328.0
 20
-76.0
 30
0.0
 11
-328.0
 21
-80.0
 31
0.0
  0
LINE
  5
721
  8
DATA
  6
CONTINUOUS
 62
     7
 10
-343.0
 20
-76.0
 30
0.0
 11
-328.0
 21
-76.0
 31
0.0
  0
LINE
  5
722
  8
DATA
  6
CONTINUOUS
 62
     7
 10
-342.0
 20
-76.0
 30
0.0
 11
-342.0
 21
-73.0
 31
0.0
  0
LINE
  5
723
  8
DATA
  6
CONTINUOUS
 62
     7
 10
-329.0
 20
-73.0
 30
0.0
 11
-329.0
 21
-76.0
 31
0.0
  0
LINE
  5
724
  8
DATA
  6
CONTINUOUS
 62
     7
 10
-342.0
 20
-73.0
 30
0.0
 11
-329.0
 21
-73.0
 31
0.0
  0
LINE
  5
725
  8
DATA
  6
CONTINUOUS
 62
     7
 10
-342.0
 20
-76.0
 30
0.0
 11
-329.0
 21
-75.368653421633553
 31
0.0
  0
LINE
  5
726
  8
DATA
  6
CONTINUOUS
 62
     7
 10
-342.0
 20
-74.799999999999983
 30
0.0
 11
-329.0
 21
-74.16865342163355
 31
0.0
  0
LINE
  5
727
  8
DATA
  6
CONTINUOUS
 62
     7
 10
-342.0
 20
-73.59999999999998
 30
0.0
 11
-329.64545454545458
 21
-73.0
 31
0.0
  0
LINE
  5
728
  8
DATA
  6
CONTINUOUS
 62
     7
 10
-301.64999999999998
 20
-63.0
 30
0.0
 11
-311.35000000000002
 21
-63.0
 31
0.0
  0
LINE
  5
729
  8
DATA
  6
CONTINUOUS
 62
     7
 10
-311.35000000000002
 20
-63.0
 30
0.0
 11
-311.35000000000002
 21
-73.0
 31
0.0
  0
LINE
  5
72A
  8
DATA
  6
CONTINUOUS
 62
     7
 10
-301.64999999999998
 20
-63.0
 30
0.0
 11
-301.64999999999998
 21
-73.0
 31
0.0
  0
CIRCLE
  5
72B
  8
DATA
  6
CONTINUOUS
 62
     7
 10
-306.5
 20
-67.5
 30
0.0
 40
1.0
  0
LINE
  5
72C
  8
DATA
  6
CONTINUOUS
 62
     7
 10
-314.0
 20
-80.0
 30
0.0
 11
-314.0
 21
-76.0
 31
0.0
  0
LINE
  5
72D
  8
DATA
  6
CONTINUOUS
 62
     7
 10
-299.0
 20
-76.0
 30
0.0
 11
-299.0
 21
-80.0
 31
0.0
  0
LINE
  5
72E
  8
DATA
  6
CONTINUOUS
 62
     7
 10
-314.0
 20
-76.0
 30
0.0
 11
-299.0
 21
-76.0
 31
0.0
  0
LINE
  5
72F
  8
DATA
  6
CONTINUOUS
 62
     7
 10
-313.0
 20
-76.0
 30
0.0
 11
-313.0
 21
-73.0
 31
0.0
  0
LINE
  5
730
  8
DATA
  6
CONTINUOUS
 62
     7
 10
-300.0
 20
-73.0
 30
0.0
 11
-300.0
 21
-76.0
 31
0.0
  0
LINE
  5
731
  8
DATA
  6
CONTINUOUS
 62
     7
 10
-313.0
 20
-73.0
 30
0.0
 11
-300.0
 21
-73.0
 31
0.0
  0
LINE
  5
732
  8
DATA
  6
CONTINUOUS
 62
     7
 10
-313.0
 20
-76.0
 30
0.0
 11
-300.0
 21
-75.368653421633553
 31
0.0
  0
LINE
  5
733
  8
DATA
  6
CONTINUOUS
 62
     7
 10
-313.0
 20
-74.799999999999983
 30
0.0
 11
-300.0
 21
-74.16865342163355
 31
0.0
  0
LINE
  5
734
  8
DATA
  6
CONTINUOUS
 62
     7
 10
-313.0
 20
-73.59999999999998
 30
0.0
 11
-300.64545454545458
 21
-73.0
 31
0.0
  0
ARC
  5
735
  8
DATA
  6
CONTINUOUS
 62
     7
 10
-321.0
 20
-81.049869690836061
 30
0.0
 40
2.5000000000000062
 50
24.831296749162931
 51
155.1687032508394
  0
LINE
  5
736
  8
DATA
  6
CONTINUOUS
 62
     7
 10
140.0
 20
-456.0
 30
0.0
 11
461.0
 21
-456.0
 31
0.0
  0
LINE
  5
737
  8
DATA
  6
CONTINUOUS
 62
     7
 10
140.0
 20
-500.0
 30
0.0
 11
461.0
 21
-500.0
 31
0.0
  0
LINE
  5
738
  8
DATA
  6
CONTINUOUS
 62
     7
 10
140.0
 20
-500.0
 30
0.0
 11
140.0
 21
-456.0
 31
0.0
  0
LINE
  5
739
  8
DATA
  6
CONTINUOUS
 62
     7
 10
118.0
 20
-463.22523647785601
 30
0.0
 11
118.0
 21
-492.77476352214393
 31
0.0
  0
LINE
  5
73A
  8
DATA
  6
CONTINUOUS
 62
     7
 10
144.0
 20
-456.0
 30
0.0
 11
144.0
 21
-500.0
 31
0.0
  0
LINE
  5
73B
  8
DATA
  6
CONTINUOUS
 62
     7
 10
123.4999999999999
 20
-487.11740410152908
 30
0.0
 11
123.4999999999999
 21
-468.88259589847081
 31
0.0
  0
LINE
  5
73C
  8
DATA
  6
CONTINUOUS
 62
     7
 10
123.5482277457531
 20
-457.2422688337607
 30
0.0
 11
140.0
 21
-456.0
 31
0.0
  0
LINE
  5
73D
  8
DATA
  6
CONTINUOUS
 62
     7
 10
128.12352312146081
 20
-463.8967895283912
 30
0.0
 11
140.0
 21
-463.0
 31
0.0
  0
LINE
  5
73E
  8
DATA
  6
CONTINUOUS
 62
     7
 10
123.5482277457531
 20
-498.75773116623941
 30
0.0
 11
140.0
 21
-500.0
 31
0.0
  0
LINE
  5
73F
  8
DATA
  6
CONTINUOUS
 62
     7
 10
128.12352312146081
 20
-492.10321047160869
 30
0.0
 11
140.0
 21
-493.0
 31
0.0
  0
ARC
  5
740
  8
DATA
  6
CONTINUOUS
 62
     7
 10
124.0
 20
-463.22523647785601
 30
0.0
 40
6.0000000000000071
 50
94.318194075287991
 51
180.0
  0
ARC
  5
741
  8
DATA
  6
CONTINUOUS
 62
     7
 10
124.0
 20
-492.77476352214393
 30
0.0
 40
6.0
 50
180.0
 51
265.68180592471202
  0
ARC
  5
742
  8
DATA
  6
CONTINUOUS
 62
     7
 10
128.49999999999989
 20
-468.88259589847081
 30
0.0
 40
4.9999999999999289
 50
94.318194075287835
 51
180.0000000000006
  0
ARC
  5
743
  8
DATA
  6
CONTINUOUS
 62
     7
 10
128.49999999999989
 20
-487.11740410152908
 30
0.0
 40
5.0
 50
180.0
 51
265.68180592471208
  0
LINE
  5
744
  8
DATA
  6
CONTINUOUS
 62
     7
 10
144.0
 20
-460.0
 30
0.0
 11
464.5
 21
-460.0
 31
0.0
  0
LINE
  5
745
  8
DATA
  6
CONTINUOUS
 62
     7
 10
144.0
 20
-496.0
 30
0.0
 11
464.5
 21
-496.0
 31
0.0
  0
LINE
  5
746
  8
DATA
  6
CONTINUOUS
 62
     7
 10
157.0
 20
-456.0
 30
0.0
 11
157.0
 21
-460.0
 31
0.0
  0
LINE
  5
747
  8
DATA
  6
CONTINUOUS
 62
     7
 10
157.0
 20
-496.0
 30
0.0
 11
157.0
 21
-500.0
 31
0.0
  0
LINE
  5
748
  8
DATA
  6
CONTINUOUS
 62
     7
 10
139.0
 20
-492.92449027286762
 30
0.0
 11
139.0
 21
-463.07550972713221
 31
0.0
  0
ARC
  5
749
  8
DATA
  6
CONTINUOUS
 62
     7
 10
125.52777542260711
 20
-473.4253143560565
 30
0.0
 40
13.62091946857106
 50
311.20150101819593
 51
351.52619781700588
  0
ARC
  5
74A
  8
DATA
  6
CONTINUOUS
 62
     7
 10
147.90564963558811
 20
-474.23338597489197
 30
0.0
 40
16.396043948103721
 50
215.1532572961417
 51
237.10109258714749
  0
LINE
  5
74B
  8
DATA
  6
CONTINUOUS
 62
     7
 10
132.0009424879693
 20
-476.96422154223461
 30
0.0
 11
137.00094248796921
 21
-476.96422154223461
 31
0.0
  0
LINE
  5
74C
  8
DATA
  6
CONTINUOUS
 62
     7
 10
137.00094248796921
 20
-463.22645801438739
 30
0.0
 11
137.00094248796921
 21
-476.96422154223461
 31
0.0
  0
LINE
  5
74D
  8
DATA
  6
CONTINUOUS
 62
     7
 10
138.0009424879693
 20
-468.46422154223461
 30
0.0
 11
139.0
 21
-468.46422154223461
 31
0.0
  0
LINE
  5
74E
  8
DATA
  6
CONTINUOUS
 62
     7
 10
139.0
 20
-471.46422154223472
 30
0.0
 11
138.0009424879693
 21
-471.46422154223472
 31
0.0
  0
LINE
  5
74F
  8
DATA
  6
CONTINUOUS
 62
     7
 10
137.00094248796921
 20
-467.46422154223472
 30
0.0
 11
138.00094248796921
 21
-467.46422154223472
 31
0.0
  0
LINE
  5
750
  8
DATA
  6
CONTINUOUS
 62
     7
 10
138.00094248796921
 20
-472.46422154223461
 30
0.0
 11
137.00094248796921
 21
-472.46422154223461
 31
0.0
  0
LINE
  5
751
  8
DATA
  6
CONTINUOUS
 62
     7
 10
138.00094248796921
 20
-467.46422154223472
 30
0.0
 11
138.00094248796921
 21
-472.46422154223461
 31
0.0
  0
LINE
  5
752
  8
DATA
  6
CONTINUOUS
 62
     7
 10
129.00094248796921
 20
-463.96422154223461
 30
0.0
 11
129.00094248796921
 21
-475.96422154223472
 31
0.0
  0
LINE
  5
753
  8
DATA
  6
CONTINUOUS
 62
     7
 10
129.00094248796921
 20
-463.96422154223461
 30
0.0
 11
129.5194586655947
 21
-463.79138281635937
 31
0.0
  0
LINE
  5
754
  8
DATA
  6
CONTINUOUS
 62
     7
 10
129.00094248796921
 20
-475.96422154223472
 30
0.0
 11
132.00094248796921
 21
-476.96422154223461
 31
0.0
  0
LINE
  5
755
  8
DATA
  6
CONTINUOUS
 62
     7
 10
132.0009424879693
 20
-463.60400665004892
 30
0.0
 11
132.0009424879693
 21
-476.96422154223461
 31
0.0
  0
LINE
  5
756
  8
DATA
  6
CONTINUOUS
 62
     7
 10
132.0009424879693
 20
-463.96422154223461
 30
0.0
 11
137.00094248796921
 21
-463.96422154223461
 31
0.0
  0
LINE
  5
757
  8
DATA
  6
CONTINUOUS
 62
     7
 10
132.0009424879693
 20
-464.96422154223461
 30
0.0
 11
137.00094248796921
 21
-464.96422154223461
 31
0.0
  0
LINE
  5
758
  8
DATA
  6
CONTINUOUS
 62
     7
 10
132.0009424879693
 20
-465.96422154223461
 30
0.0
 11
137.00094248796921
 21
-465.96422154223461
 31
0.0
  0
LINE
  5
759
  8
DATA
  6
CONTINUOUS
 62
     7
 10
132.0009424879693
 20
-466.96422154223472
 30
0.0
 11
137.00094248796921
 21
-466.96422154223472
 31
0.0
  0
LINE
  5
75A
  8
DATA
  6
CONTINUOUS
 62
     7
 10
132.0009424879693
 20
-467.96422154223461
 30
0.0
 11
137.00094248796921
 21
-467.96422154223461
 31
0.0
  0
LINE
  5
75B
  8
DATA
  6
CONTINUOUS
 62
     7
 10
132.0009424879693
 20
-468.96422154223461
 30
0.0
 11
137.00094248796921
 21
-468.96422154223461
 31
0.0
  0
LINE
  5
75C
  8
DATA
  6
CONTINUOUS
 62
     7
 10
132.0009424879693
 20
-469.96422154223461
 30
0.0
 11
137.00094248796921
 21
-469.96422154223461
 31
0.0
  0
LINE
  5
75D
  8
DATA
  6
CONTINUOUS
 62
     7
 10
132.0009424879693
 20
-470.96422154223472
 30
0.0
 11
137.00094248796921
 21
-470.96422154223472
 31
0.0
  0
LINE
  5
75E
  8
DATA
  6
CONTINUOUS
 62
     7
 10
132.0009424879693
 20
-471.96422154223461
 30
0.0
 11
137.00094248796921
 21
-471.96422154223461
 31
0.0
  0
LINE
  5
75F
  8
DATA
  6
CONTINUOUS
 62
     7
 10
132.0009424879693
 20
-472.96422154223461
 30
0.0
 11
137.00094248796921
 21
-472.96422154223461
 31
0.0
  0
LINE
  5
760
  8
DATA
  6
CONTINUOUS
 62
     7
 10
132.0009424879693
 20
-473.96422154223461
 30
0.0
 11
137.00094248796921
 21
-473.96422154223461
 31
0.0
  0
LINE
  5
761
  8
DATA
  6
CONTINUOUS
 62
     7
 10
132.0009424879693
 20
-474.96422154223472
 30
0.0
 11
137.00094248796921
 21
-474.96422154223472
 31
0.0
  0
LINE
  5
762
  8
DATA
  6
CONTINUOUS
 62
     7
 10
132.0009424879693
 20
-475.96422154223472
 30
0.0
 11
137.00094248796921
 21
-475.96422154223472
 31
0.0
  0
LINE
  5
763
  8
DATA
  6
CONTINUOUS
 62
     7
 10
137.00094248796921
 20
-466.75
 30
0.0
 11
138.5
 21
-466.75
 31
0.0
  0
LINE
  5
764
  8
DATA
  6
CONTINUOUS
 62
     7
 10
131.5
 20
-488.75
 30
0.0
 11
138.5
 21
-488.75
 31
0.0
  0
LINE
  5
765
  8
DATA
  6
CONTINUOUS
 62
     7
 10
138.5
 20
-466.75
 30
0.0
 11
138.5
 21
-468.46422154223461
 31
0.0
  0
LINE
  5
766
  8
DATA
  6
CONTINUOUS
 62
     7
 10
138.5
 20
-471.46422154223472
 30
0.0
 11
138.5
 21
-477.57872701108857
 31
0.0
  0
LINE
  5
767
  8
DATA
  6
CONTINUOUS
 62
     7
 10
138.5
 20
-487.66335291754342
 30
0.0
 11
138.5
 21
-488.75
 31
0.0
  0
LINE
  5
768
  8
DATA
  6
CONTINUOUS
 62
     7
 10
138.5
 20
-472.75
 30
0.0
 11
140.0
 21
-472.75
 31
0.0
  0
LINE
  5
769
  8
DATA
  6
CONTINUOUS
 62
     7
 10
128.5
 20
-487.75
 30
0.0
 11
128.5
 21
-467.75
 31
0.0
  0
LINE
  5
76A
  8
DATA
  6
CONTINUOUS
 62
     7
 10
131.5
 20
-488.75
 30
0.0
 11
131.5
 21
-476.79724071291162
 31
0.0
  0
LINE
  5
76B
  8
DATA
  6
CONTINUOUS
 62
     7
 10
128.5
 20
-467.75
 30
0.0
 11
129.00094248796921
 21
-467.58301917067689
 31
0.0
  0
LINE
  5
76C
  8
DATA
  6
CONTINUOUS
 62
     7
 10
128.5
 20
-487.75
 30
0.0
 11
131.5
 21
-488.75
 31
0.0
  0
LINE
  5
76D
  8
DATA
  6
CONTINUOUS
 62
     7
 10
138.00094248796921
 20
-467.75
 30
0.0
 11
138.5
 21
-467.75
 31
0.0
  0
LINE
  5
76E
  8
DATA
  6
CONTINUOUS
 62
     7
 10
138.00094248796921
 20
-471.75
 30
0.0
 11
138.5
 21
-471.75
 31
0.0
  0
LINE
  5
76F
  8
DATA
  6
CONTINUOUS
 62
     7
 10
137.00094248796921
 20
-472.75
 30
0.0
 11
138.5
 21
-472.75
 31
0.0
  0
LINE
  5
770
  8
DATA
  6
CONTINUOUS
 62
     7
 10
137.00094248796921
 20
-473.74999999999989
 30
0.0
 11
138.5
 21
-473.74999999999989
 31
0.0
  0
LINE
  5
771
  8
DATA
  6
CONTINUOUS
 62
     7
 10
137.00094248796921
 20
-474.75
 30
0.0
 11
138.5
 21
-474.75
 31
0.0
  0
LINE
  5
772
  8
DATA
  6
CONTINUOUS
 62
     7
 10
137.00094248796921
 20
-475.75
 30
0.0
 11
138.5
 21
-475.75
 31
0.0
  0
LINE
  5
773
  8
DATA
  6
CONTINUOUS
 62
     7
 10
131.5
 20
-477.74999999999989
 30
0.0
 11
138.44391034178341
 21
-477.74999999999989
 31
0.0
  0
LINE
  5
774
  8
DATA
  6
CONTINUOUS
 62
     7
 10
131.5
 20
-478.75
 30
0.0
 11
138.0648073665115
 21
-478.75
 31
0.0
  0
LINE
  5
775
  8
DATA
  6
CONTINUOUS
 62
     7
 10
131.5
 20
-479.75
 30
0.0
 11
137.59126574152361
 21
-479.75
 31
0.0
  0
LINE
  5
776
  8
DATA
  6
CONTINUOUS
 62
     7
 10
131.5
 20
-480.75
 30
0.0
 11
137.01160872802851
 21
-480.75
 31
0.0
  0
LINE
  5
777
  8
DATA
  6
CONTINUOUS
 62
     7
 10
131.5
 20
-481.74999999999989
 30
0.0
 11
136.3087334551206
 21
-481.74999999999989
 31
0.0
  0
LINE
  5
778
  8
DATA
  6
CONTINUOUS
 62
     7
 10
131.5
 20
-482.74999999999989
 30
0.0
 11
135.45650569444609
 21
-482.74999999999989
 31
0.0
  0
LINE
  5
779
  8
DATA
  6
CONTINUOUS
 62
     7
 10
131.5
 20
-483.75
 30
0.0
 11
134.55408363585349
 21
-483.75
 31
0.0
  0
LINE
  5
77A
  8
DATA
  6
CONTINUOUS
 62
     7
 10
131.5
 20
-484.75
 30
0.0
 11
135.32665577299909
 21
-484.75
 31
0.0
  0
LINE
  5
77B
  8
DATA
  6
CONTINUOUS
 62
     7
 10
131.5
 20
-485.74999999999989
 30
0.0
 11
136.23526581392929
 21
-485.74999999999989
 31
0.0
  0
LINE
  5
77C
  8
DATA
  6
CONTINUOUS
 62
     7
 10
131.5
 20
-486.74999999999989
 30
0.0
 11
137.3148691877353
 21
-486.74999999999989
 31
0.0
  0
LINE
  5
77D
  8
DATA
  6
CONTINUOUS
 62
     7
 10
131.5
 20
-487.75
 30
0.0
 11
138.5
 21
-487.75
 31
0.0
  0
CIRCLE
  5
77E
  8
DATA
  6
CONTINUOUS
 62
     7
 10
156.0
 20
-478.0
 30
0.0
 40
3.0
  0
LINE
  5
77F
  8
DATA
  6
CONTINUOUS
 62
     7
 10
154.33792298614051
 20
-478.0
 30
0.0
 11
157.6620770138594
 21
-478.0
 31
0.0
  0
LINE
  5
780
  8
DATA
  6
CONTINUOUS
 62
     7
 10
156.0
 20
-479.6620770138594
 30
0.0
 11
156.0
 21
-476.33792298614048
 31
0.0
  0
CIRCLE
  5
781
  8
DATA
  6
CONTINUOUS
 62
     7
 10
168.0
 20
-467.49999999999989
 30
0.0
 40
3.0
  0
LINE
  5
782
  8
DATA
  6
CONTINUOUS
 62
     7
 10
166.33792298614051
 20
-467.49999999999989
 30
0.0
 11
169.6620770138594
 21
-467.49999999999989
 31
0.0
  0
LINE
  5
783
  8
DATA
  6
CONTINUOUS
 62
     7
 10
168.0
 20
-469.1620770138594
 30
0.0
 11
168.0
 21
-465.83792298614048
 31
0.0
  0
CIRCLE
  5
784
  8
DATA
  6
CONTINUOUS
 62
     7
 10
168.0
 20
-488.49999999999989
 30
0.0
 40
3.0
  0
LINE
  5
785
  8
DATA
  6
CONTINUOUS
 62
     7
 10
166.33792298614051
 20
-488.49999999999989
 30
0.0
 11
169.6620770138594
 21
-488.49999999999989
 31
0.0
  0
LINE
  5
786
  8
DATA
  6
CONTINUOUS
 62
     7
 10
168.0
 20
-490.1620770138594
 30
0.0
 11
168.0
 21
-486.83792298614048
 31
0.0
  0
LINE
  5
787
  8
DATA
  6
CONTINUOUS
 62
     7
 10
184.69999999999999
 20
-489.2000000000001
 30
0.0
 11
184.69999999999999
 21
-466.79999999999978
 31
0.0
  0
LINE
  5
788
  8
DATA
  6
CONTINUOUS
 62
     7
 10
187.30000000000001
 20
-466.79999999999978
 30
0.0
 11
187.30000000000001
 21
-489.2000000000001
 31
0.0
  0
ARC
  5
789
  8
DATA
  6
CONTINUOUS
 62
     7
 10
186.0
 20
-466.80000000000001
 30
0.0
 40
1.3000000000000109
 50
359.9999999999975
 51
180.00000000000239
  0
ARC
  5
78A
  8
DATA
  6
CONTINUOUS
 62
     7
 10
186.0
 20
-489.2000000000001
 30
0.0
 40
1.2999999999999821
 50
179.99999999999741
 51
0.0000000000025011
  0
LINE
  5
78B
  8
DATA
  6
CONTINUOUS
 62
     7
 10
192.5
 20
-489.2000000000001
 30
0.0
 11
192.5
 21
-466.79999999999978
 31
0.0
  0
LINE
  5
78C
  8
DATA
  6
CONTINUOUS
 62
     7
 10
195.09999999999999
 20
-466.79999999999978
 30
0.0
 11
195.09999999999999
 21
-489.2000000000001
 31
0.0
  0
ARC
  5
78D
  8
DATA
  6
CONTINUOUS
 62
     7
 10
193.80000000000001
 20
-466.80000000000001
 30
0.0
 40
1.3000000000000109
 50
359.9999999999975
 51
180.00000000000239
  0
ARC
  5
78E
  8
DATA
  6
CONTINUOUS
 62
     7
 10
193.80000000000001
 20
-489.2000000000001
 30
0.0
 40
1.2999999999999821
 50
179.99999999999741
 51
0.0000000000025011
  0
LINE
  5
78F
  8
DATA
  6
CONTINUOUS
 62
     7
 10
200.30000000000001
 20
-489.2000000000001
 30
0.0
 11
200.30000000000001
 21
-466.79999999999978
 31
0.0
  0
LINE
  5
790
  8
DATA
  6
CONTINUOUS
 62
     7
 10
202.90000000000001
 20
-466.79999999999978
 30
0.0
 11
202.90000000000001
 21
-489.2000000000001
 31
0.0
  0
ARC
  5
791
  8
DATA
  6
CONTINUOUS
 62
     7
 10
201.59999999999999
 20
-466.80000000000001
 30
0.0
 40
1.3000000000000109
 50
359.9999999999975
 51
180.00000000000239
  0
ARC
  5
792
  8
DATA
  6
CONTINUOUS
 62
     7
 10
201.59999999999999
 20
-489.2000000000001
 30
0.0
 40
1.2999999999999821
 50
179.99999999999741
 51
0.0000000000025011
  0
LINE
  5
793
  8
DATA
  6
CONTINUOUS
 62
     7
 10
208.09999999999999
 20
-489.2000000000001
 30
0.0
 11
208.09999999999999
 21
-466.79999999999978
 31
0.0
  0
LINE
  5
794
  8
DATA
  6
CONTINUOUS
 62
     7
 10
210.69999999999999
 20
-466.79999999999978
 30
0.0
 11
210.69999999999999
 21
-489.2000000000001
 31
0.0
  0
ARC
  5
795
  8
DATA
  6
CONTINUOUS
 62
     7
 10
209.40000000000001
 20
-466.80000000000001
 30
0.0
 40
1.3000000000000109
 50
359.9999999999975
 51
180.00000000000239
  0
ARC
  5
796
  8
DATA
  6
CONTINUOUS
 62
     7
 10
209.40000000000001
 20
-489.2000000000001
 30
0.0
 40
1.2999999999999821
 50
179.99999999999741
 51
0.0000000000025011
  0
ARC
  5
797
  8
DATA
  6
CONTINUOUS
 62
     7
 10
217.39999999999819
 20
-467.7999999999999
 30
0.0
 40
2.3000000000000109
 50
359.99999999999011
 51
180.00000000000281
  0
ARC
  5
798
  8
DATA
  6
CONTINUOUS
 62
     7
 10
217.39999999999819
 20
-488.2000000000001
 30
0.0
 40
2.2999999999999821
 50
180.00000000000281
 51
359.99999999999011
  0
LINE
  5
799
  8
DATA
  6
CONTINUOUS
 62
     7
 10
215.0999999999982
 20
-488.2000000000001
 30
0.0
 11
215.0999999999982
 21
-467.80000000000001
 31
0.0
  0
LINE
  5
79A
  8
DATA
  6
CONTINUOUS
 62
     7
 10
219.6999999999982
 20
-467.80000000000041
 30
0.0
 11
219.6999999999982
 21
-488.2000000000005
 31
0.0
  0
ARC
  5
79B
  8
DATA
  6
CONTINUOUS
 62
     7
 10
224.8999999999981
 20
-467.7999999999999
 30
0.0
 40
2.3000000000000109
 50
359.99999999999011
 51
180.00000000000281
  0
ARC
  5
79C
  8
DATA
  6
CONTINUOUS
 62
     7
 10
224.8999999999981
 20
-488.2000000000001
 30
0.0
 40
2.2999999999999821
 50
180.00000000000281
 51
359.99999999999011
  0
LINE
  5
79D
  8
DATA
  6
CONTINUOUS
 62
     7
 10
222.5999999999982
 20
-488.2000000000001
 30
0.0
 11
222.5999999999982
 21
-467.80000000000001
 31
0.0
  0
LINE
  5
79E
  8
DATA
  6
CONTINUOUS
 62
     7
 10
227.1999999999982
 20
-467.80000000000041
 30
0.0
 11
227.1999999999982
 21
-488.2000000000005
 31
0.0
  0
ARC
  5
79F
  8
DATA
  6
CONTINUOUS
 62
     7
 10
232.39999999999819
 20
-467.7999999999999
 30
0.0
 40
2.3000000000000109
 50
359.99999999999011
 51
180.00000000000281
  0
ARC
  5
7A0
  8
DATA
  6
CONTINUOUS
 62
     7
 10
232.39999999999819
 20
-488.2000000000001
 30
0.0
 40
2.2999999999999821
 50
180.00000000000281
 51
359.99999999999011
  0
LINE
  5
7A1
  8
DATA
  6
CONTINUOUS
 62
     7
 10
230.0999999999982
 20
-488.2000000000001
 30
0.0
 11
230.0999999999982
 21
-467.80000000000001
 31
0.0
  0
LINE
  5
7A2
  8
DATA
  6
CONTINUOUS
 62
     7
 10
234.6999999999982
 20
-467.80000000000041
 30
0.0
 11
234.6999999999982
 21
-488.2000000000005
 31
0.0
  0
ARC
  5
7A3
  8
DATA
  6
CONTINUOUS
 62
     7
 10
239.89999999999819
 20
-467.7999999999999
 30
0.0
 40
2.3000000000000109
 50
359.99999999999011
 51
180.00000000000281
  0
ARC
  5
7A4
  8
DATA
  6
CONTINUOUS
 62
     7
 10
239.89999999999819
 20
-488.2000000000001
 30
0.0
 40
2.2999999999999821
 50
180.00000000000281
 51
359.99999999999011
  0
LINE
  5
7A5
  8
DATA
  6
CONTINUOUS
 62
     7
 10
237.5999999999982
 20
-488.2000000000001
 30
0.0
 11
237.5999999999982
 21
-467.80000000000001
 31
0.0
  0
LINE
  5
7A6
  8
DATA
  6
CONTINUOUS
 62
     7
 10
242.1999999999982
 20
-467.80000000000041
 30
0.0
 11
242.1999999999982
 21
-488.2000000000005
 31
0.0
  0
ARC
  5
7A7
  8
DATA
  6
CONTINUOUS
 62
     7
 10
247.3999999999981
 20
-467.7999999999999
 30
0.0
 40
2.3000000000000109
 50
359.99999999999011
 51
180.00000000000281
  0
ARC
  5
7A8
  8
DATA
  6
CONTINUOUS
 62
     7
 10
247.3999999999981
 20
-488.2000000000001
 30
0.0
 40
2.2999999999999821
 50
180.00000000000281
 51
359.99999999999011
  0
LINE
  5
7A9
  8
DATA
  6
CONTINUOUS
 62
     7
 10
245.0999999999982
 20
-488.2000000000001
 30
0.0
 11
245.0999999999982
 21
-467.80000000000001
 31
0.0
  0
LINE
  5
7AA
  8
DATA
  6
CONTINUOUS
 62
     7
 10
249.6999999999982
 20
-467.80000000000041
 30
0.0
 11
249.6999999999982
 21
-488.2000000000005
 31
0.0
  0
ARC
  5
7AB
  8
DATA
  6
CONTINUOUS
 62
     7
 10
254.89999999999819
 20
-467.7999999999999
 30
0.0
 40
2.3000000000000109
 50
359.99999999999011
 51
180.00000000000281
  0
ARC
  5
7AC
  8
DATA
  6
CONTINUOUS
 62
     7
 10
254.89999999999819
 20
-488.2000000000001
 30
0.0
 40
2.2999999999999821
 50
180.00000000000281
 51
359.99999999999011
  0
LINE
  5
7AD
  8
DATA
  6
CONTINUOUS
 62
     7
 10
252.5999999999982
 20
-488.2000000000001
 30
0.0
 11
252.5999999999982
 21
-467.80000000000001
 31
0.0
  0
LINE
  5
7AE
  8
DATA
  6
CONTINUOUS
 62
     7
 10
257.19999999999823
 20
-467.80000000000041
 30
0.0
 11
257.19999999999823
 21
-488.2000000000005
 31
0.0
  0
ARC
  5
7AF
  8
DATA
  6
CONTINUOUS
 62
     7
 10
262.3999999999981
 20
-467.7999999999999
 30
0.0
 40
2.3000000000000109
 50
359.99999999999011
 51
180.00000000000281
  0
ARC
  5
7B0
  8
DATA
  6
CONTINUOUS
 62
     7
 10
262.3999999999981
 20
-488.2000000000001
 30
0.0
 40
2.2999999999999541
 50
180.00000000000281
 51
359.99999999999011
  0
LINE
  5
7B1
  8
DATA
  6
CONTINUOUS
 62
     7
 10
260.09999999999809
 20
-488.2000000000001
 30
0.0
 11
260.09999999999809
 21
-467.80000000000001
 31
0.0
  0
LINE
  5
7B2
  8
DATA
  6
CONTINUOUS
 62
     7
 10
264.69999999999823
 20
-467.80000000000041
 30
0.0
 11
264.69999999999823
 21
-488.2000000000005
 31
0.0
  0
LINE
  5
7B3
  8
DATA
  6
CONTINUOUS
 62
     7
 10
268.89999999999998
 20
-489.2000000000001
 30
0.0
 11
268.89999999999998
 21
-466.79999999999978
 31
0.0
  0
LINE
  5
7B4
  8
DATA
  6
CONTINUOUS
 62
     7
 10
271.5
 20
-466.79999999999978
 30
0.0
 11
271.5
 21
-489.2000000000001
 31
0.0
  0
ARC
  5
7B5
  8
DATA
  6
CONTINUOUS
 62
     7
 10
270.19999999999999
 20
-466.80000000000001
 30
0.0
 40
1.3000000000000109
 50
359.9999999999975
 51
180.00000000000239
  0
ARC
  5
7B6
  8
DATA
  6
CONTINUOUS
 62
     7
 10
270.19999999999999
 20
-489.2000000000001
 30
0.0
 40
1.3000000000000109
 50
179.99999999999741
 51
0.0000000000025011
  0
LINE
  5
7B7
  8
DATA
  6
CONTINUOUS
 62
     7
 10
276.69999999999999
 20
-489.2000000000001
 30
0.0
 11
276.69999999999999
 21
-466.79999999999978
 31
0.0
  0
LINE
  5
7B8
  8
DATA
  6
CONTINUOUS
 62
     7
 10
279.30000000000001
 20
-466.79999999999978
 30
0.0
 11
279.30000000000001
 21
-489.2000000000001
 31
0.0
  0
ARC
  5
7B9
  8
DATA
  6
CONTINUOUS
 62
     7
 10
278.0
 20
-466.80000000000001
 30
0.0
 40
1.3000000000000109
 50
359.9999999999975
 51
180.00000000000239
  0
ARC
  5
7BA
  8
DATA
  6
CONTINUOUS
 62
     7
 10
278.0
 20
-489.2000000000001
 30
0.0
 40
1.3000000000000109
 50
179.99999999999741
 51
0.0000000000025011
  0
LINE
  5
7BB
  8
DATA
  6
CONTINUOUS
 62
     7
 10
284.5
 20
-489.2000000000001
 30
0.0
 11
284.5
 21
-466.79999999999978
 31
0.0
  0
LINE
  5
7BC
  8
DATA
  6
CONTINUOUS
 62
     7
 10
287.10000000000002
 20
-466.79999999999978
 30
0.0
 11
287.10000000000002
 21
-489.2000000000001
 31
0.0
  0
ARC
  5
7BD
  8
DATA
  6
CONTINUOUS
 62
     7
 10
285.80000000000001
 20
-466.80000000000001
 30
0.0
 40
1.3000000000000109
 50
359.9999999999975
 51
180.00000000000239
  0
ARC
  5
7BE
  8
DATA
  6
CONTINUOUS
 62
     7
 10
285.80000000000001
 20
-489.2000000000001
 30
0.0
 40
1.3000000000000109
 50
179.99999999999741
 51
0.0000000000025011
  0
LINE
  5
7BF
  8
DATA
  6
CONTINUOUS
 62
     7
 10
292.2999999999999
 20
-489.2000000000001
 30
0.0
 11
292.2999999999999
 21
-466.79999999999978
 31
0.0
  0
LINE
  5
7C0
  8
DATA
  6
CONTINUOUS
 62
     7
 10
294.89999999999998
 20
-466.79999999999978
 30
0.0
 11
294.89999999999998
 21
-489.2000000000001
 31
0.0
  0
ARC
  5
7C1
  8
DATA
  6
CONTINUOUS
 62
     7
 10
293.60000000000002
 20
-466.80000000000001
 30
0.0
 40
1.3000000000000109
 50
359.9999999999975
 51
180.00000000000239
  0
ARC
  5
7C2
  8
DATA
  6
CONTINUOUS
 62
     7
 10
293.60000000000002
 20
-489.2000000000001
 30
0.0
 40
1.3000000000000109
 50
179.99999999999741
 51
0.0000000000025011
  0
LINE
  5
7C3
  8
DATA
  6
CONTINUOUS
 62
     7
 10
300.10000000000002
 20
-489.2000000000001
 30
0.0
 11
300.10000000000002
 21
-466.79999999999978
 31
0.0
  0
LINE
  5
7C4
  8
DATA
  6
CONTINUOUS
 62
     7
 10
302.69999999999999
 20
-466.79999999999978
 30
0.0
 11
302.69999999999999
 21
-489.2000000000001
 31
0.0
  0
ARC
  5
7C5
  8
DATA
  6
CONTINUOUS
 62
     7
 10
301.39999999999998
 20
-466.80000000000001
 30
0.0
 40
1.3000000000000109
 50
359.9999999999975
 51
180.00000000000239
  0
ARC
  5
7C6
  8
DATA
  6
CONTINUOUS
 62
     7
 10
301.39999999999998
 20
-489.2000000000001
 30
0.0
 40
1.3000000000000109
 50
179.99999999999741
 51
0.0000000000025011
  0
LINE
  5
7C7
  8
DATA
  6
CONTINUOUS
 62
     7
 10
307.89999999999998
 20
-489.2000000000001
 30
0.0
 11
307.89999999999998
 21
-466.79999999999978
 31
0.0
  0
LINE
  5
7C8
  8
DATA
  6
CONTINUOUS
 62
     7
 10
310.5
 20
-466.79999999999978
 30
0.0
 11
310.5
 21
-489.2000000000001
 31
0.0
  0
ARC
  5
7C9
  8
DATA
  6
CONTINUOUS
 62
     7
 10
309.19999999999999
 20
-466.80000000000001
 30
0.0
 40
1.3000000000000109
 50
359.9999999999975
 51
180.00000000000239
  0
ARC
  5
7CA
  8
DATA
  6
CONTINUOUS
 62
     7
 10
309.19999999999999
 20
-489.2000000000001
 30
0.0
 40
1.3000000000000109
 50
179.99999999999741
 51
0.0000000000025011
  0
LINE
  5
7CB
  8
DATA
  6
CONTINUOUS
 62
     7
 10
315.69999999999999
 20
-489.2000000000001
 30
0.0
 11
315.69999999999999
 21
-466.79999999999978
 31
0.0
  0
LINE
  5
7CC
  8
DATA
  6
CONTINUOUS
 62
     7
 10
318.30000000000001
 20
-466.79999999999978
 30
0.0
 11
318.30000000000001
 21
-489.2000000000001
 31
0.0
  0
ARC
  5
7CD
  8
DATA
  6
CONTINUOUS
 62
     7
 10
317.0
 20
-466.80000000000001
 30
0.0
 40
1.3000000000000109
 50
359.9999999999975
 51
180.00000000000239
  0
ARC
  5
7CE
  8
DATA
  6
CONTINUOUS
 62
     7
 10
317.0
 20
-489.2000000000001
 30
0.0
 40
1.3000000000000109
 50
179.99999999999741
 51
0.0000000000025011
  0
LINE
  5
7CF
  8
DATA
  6
CONTINUOUS
 62
     7
 10
323.5
 20
-489.2000000000001
 30
0.0
 11
323.5
 21
-466.79999999999978
 31
0.0
  0
LINE
  5
7D0
  8
DATA
  6
CONTINUOUS
 62
     7
 10
326.10000000000002
 20
-466.79999999999978
 30
0.0
 11
326.10000000000002
 21
-489.2000000000001
 31
0.0
  0
ARC
  5
7D1
  8
DATA
  6
CONTINUOUS
 62
     7
 10
324.7999999999999
 20
-466.80000000000001
 30
0.0
 40
1.300000000000068
 50
359.9999999999975
 51
180.00000000000239
  0
ARC
  5
7D2
  8
DATA
  6
CONTINUOUS
 62
     7
 10
324.7999999999999
 20
-489.2000000000001
 30
0.0
 40
1.2999999999999541
 50
179.99999999999741
 51
0.0000000000025011
  0
LINE
  5
7D3
  8
DATA
  6
CONTINUOUS
 62
     7
 10
331.2999999999999
 20
-489.2000000000001
 30
0.0
 11
331.2999999999999
 21
-466.79999999999978
 31
0.0
  0
LINE
  5
7D4
  8
DATA
  6
CONTINUOUS
 62
     7
 10
333.89999999999998
 20
-466.79999999999978
 30
0.0
 11
333.89999999999998
 21
-489.2000000000001
 31
0.0
  0
ARC
  5
7D5
  8
DATA
  6
CONTINUOUS
 62
     7
 10
332.60000000000002
 20
-466.80000000000001
 30
0.0
 40
1.3000000000000109
 50
359.9999999999975
 51
180.00000000000239
  0
ARC
  5
7D6
  8
DATA
  6
CONTINUOUS
 62
     7
 10
332.60000000000002
 20
-489.2000000000001
 30
0.0
 40
1.3000000000000109
 50
179.99999999999741
 51
0.0000000000025011
  0
LINE
  5
7D7
  8
DATA
  6
CONTINUOUS
 62
     7
 10
339.10000000000002
 20
-489.2000000000001
 30
0.0
 11
339.10000000000002
 21
-466.79999999999978
 31
0.0
  0
LINE
  5
7D8
  8
DATA
  6
CONTINUOUS
 62
     7
 10
341.69999999999999
 20
-466.79999999999978
 30
0.0
 11
341.69999999999999
 21
-489.2000000000001
 31
0.0
  0
ARC
  5
7D9
  8
DATA
  6
CONTINUOUS
 62
     7
 10
340.39999999999998
 20
-466.80000000000001
 30
0.0
 40
1.3000000000000109
 50
359.9999999999975
 51
180.00000000000239
  0
ARC
  5
7DA
  8
DATA
  6
CONTINUOUS
 62
     7
 10
340.39999999999998
 20
-489.2000000000001
 30
0.0
 40
1.3000000000000109
 50
179.99999999999741
 51
0.0000000000025011
  0
LINE
  5
7DB
  8
DATA
  6
CONTINUOUS
 62
     7
 10
346.89999999999998
 20
-489.2000000000001
 30
0.0
 11
346.89999999999998
 21
-466.79999999999978
 31
0.0
  0
LINE
  5
7DC
  8
DATA
  6
CONTINUOUS
 62
     7
 10
349.5
 20
-466.79999999999978
 30
0.0
 11
349.5
 21
-489.2000000000001
 31
0.0
  0
ARC
  5
7DD
  8
DATA
  6
CONTINUOUS
 62
     7
 10
348.19999999999999
 20
-466.80000000000001
 30
0.0
 40
1.3000000000000109
 50
359.9999999999975
 51
180.00000000000239
  0
ARC
  5
7DE
  8
DATA
  6
CONTINUOUS
 62
     7
 10
348.19999999999999
 20
-489.2000000000001
 30
0.0
 40
1.3000000000000109
 50
179.99999999999741
 51
0.0000000000025011
  0
LINE
  5
7DF
  8
DATA
  6
CONTINUOUS
 62
     7
 10
354.69999999999987
 20
-489.2000000000001
 30
0.0
 11
354.69999999999987
 21
-466.79999999999978
 31
0.0
  0
LINE
  5
7E0
  8
DATA
  6
CONTINUOUS
 62
     7
 10
357.2999999999999
 20
-466.79999999999978
 30
0.0
 11
357.2999999999999
 21
-489.2000000000001
 31
0.0
  0
ARC
  5
7E1
  8
DATA
  6
CONTINUOUS
 62
     7
 10
356.0
 20
-466.80000000000001
 30
0.0
 40
1.2999999999999541
 50
359.9999999999975
 51
180.00000000000239
  0
ARC
  5
7E2
  8
DATA
  6
CONTINUOUS
 62
     7
 10
356.0
 20
-489.2000000000001
 30
0.0
 40
1.300000000000068
 50
179.99999999999741
 51
0.0000000000025011
  0
LINE
  5
7E3
  8
DATA
  6
CONTINUOUS
 62
     7
 10
362.5
 20
-489.2000000000001
 30
0.0
 11
362.5
 21
-466.79999999999978
 31
0.0
  0
LINE
  5
7E4
  8
DATA
  6
CONTINUOUS
 62
     7
 10
365.10000000000002
 20
-466.79999999999978
 30
0.0
 11
365.10000000000002
 21
-489.2000000000001
 31
0.0
  0
ARC
  5
7E5
  8
DATA
  6
CONTINUOUS
 62
     7
 10
363.80000000000001
 20
-466.80000000000001
 30
0.0
 40
1.3000000000000109
 50
359.9999999999975
 51
180.00000000000239
  0
ARC
  5
7E6
  8
DATA
  6
CONTINUOUS
 62
     7
 10
363.80000000000001
 20
-489.2000000000001
 30
0.0
 40
1.3000000000000109
 50
179.99999999999741
 51
0.0000000000025011
  0
LINE
  5
7E7
  8
DATA
  6
CONTINUOUS
 62
     7
 10
370.30000000000001
 20
-489.2000000000001
 30
0.0
 11
370.30000000000001
 21
-466.79999999999978
 31
0.0
  0
LINE
  5
7E8
  8
DATA
  6
CONTINUOUS
 62
     7
 10
372.89999999999998
 20
-466.79999999999978
 30
0.0
 11
372.89999999999998
 21
-489.2000000000001
 31
0.0
  0
ARC
  5
7E9
  8
DATA
  6
CONTINUOUS
 62
     7
 10
371.60000000000002
 20
-466.80000000000001
 30
0.0
 40
1.3000000000000109
 50
359.9999999999975
 51
180.00000000000239
  0
ARC
  5
7EA
  8
DATA
  6
CONTINUOUS
 62
     7
 10
371.60000000000002
 20
-489.2000000000001
 30
0.0
 40
1.3000000000000109
 50
179.99999999999741
 51
0.0000000000025011
  0
LINE
  5
7EB
  8
DATA
  6
CONTINUOUS
 62
     7
 10
378.10000000000002
 20
-489.2000000000001
 30
0.0
 11
378.10000000000002
 21
-466.79999999999978
 31
0.0
  0
LINE
  5
7EC
  8
DATA
  6
CONTINUOUS
 62
     7
 10
380.69999999999999
 20
-466.79999999999978
 30
0.0
 11
380.69999999999999
 21
-489.2000000000001
 31
0.0
  0
ARC
  5
7ED
  8
DATA
  6
CONTINUOUS
 62
     7
 10
379.39999999999998
 20
-466.80000000000001
 30
0.0
 40
1.3000000000000109
 50
359.9999999999975
 51
180.00000000000239
  0
ARC
  5
7EE
  8
DATA
  6
CONTINUOUS
 62
     7
 10
379.39999999999998
 20
-489.2000000000001
 30
0.0
 40
1.3000000000000109
 50
179.99999999999741
 51
0.0000000000025011
  0
LINE
  5
7EF
  8
DATA
  6
CONTINUOUS
 62
     7
 10
385.89999999999998
 20
-489.2000000000001
 30
0.0
 11
385.89999999999998
 21
-466.79999999999978
 31
0.0
  0
LINE
  5
7F0
  8
DATA
  6
CONTINUOUS
 62
     7
 10
388.5
 20
-466.79999999999978
 30
0.0
 11
388.5
 21
-489.2000000000001
 31
0.0
  0
ARC
  5
7F1
  8
DATA
  6
CONTINUOUS
 62
     7
 10
387.19999999999987
 20
-466.80000000000001
 30
0.0
 40
1.300000000000068
 50
359.9999999999975
 51
180.00000000000239
  0
ARC
  5
7F2
  8
DATA
  6
CONTINUOUS
 62
     7
 10
387.19999999999987
 20
-489.2000000000001
 30
0.0
 40
1.2999999999999541
 50
179.99999999999741
 51
0.0000000000025011
  0
LINE
  5
7F3
  8
DATA
  6
CONTINUOUS
 62
     7
 10
393.69999999999987
 20
-489.2000000000001
 30
0.0
 11
393.69999999999987
 21
-466.79999999999978
 31
0.0
  0
LINE
  5
7F4
  8
DATA
  6
CONTINUOUS
 62
     7
 10
396.30000000000001
 20
-466.79999999999978
 30
0.0
 11
396.30000000000001
 21
-489.2000000000001
 31
0.0
  0
ARC
  5
7F5
  8
DATA
  6
CONTINUOUS
 62
     7
 10
395.0
 20
-466.80000000000001
 30
0.0
 40
1.3000000000000109
 50
359.9999999999975
 51
180.00000000000239
  0
ARC
  5
7F6
  8
DATA
  6
CONTINUOUS
 62
     7
 10
395.0
 20
-489.2000000000001
 30
0.0
 40
1.3000000000000109
 50
179.99999999999741
 51
0.0000000000025011
  0
LINE
  5
7F7
  8
DATA
  6
CONTINUOUS
 62
     7
 10
401.49999999999989
 20
-489.2000000000001
 30
0.0
 11
401.49999999999989
 21
-466.79999999999978
 31
0.0
  0
LINE
  5
7F8
  8
DATA
  6
CONTINUOUS
 62
     7
 10
404.10000000000002
 20
-466.79999999999978
 30
0.0
 11
404.10000000000002
 21
-489.2000000000001
 31
0.0
  0
ARC
  5
7F9
  8
DATA
  6
CONTINUOUS
 62
     7
 10
402.80000000000001
 20
-466.80000000000001
 30
0.0
 40
1.3000000000000109
 50
359.9999999999975
 51
180.00000000000239
  0
ARC
  5
7FA
  8
DATA
  6
CONTINUOUS
 62
     7
 10
402.80000000000001
 20
-489.2000000000001
 30
0.0
 40
1.3000000000000109
 50
179.99999999999741
 51
0.0000000000025011
  0
LINE
  5
7FB
  8
DATA
  6
CONTINUOUS
 62
     7
 10
409.2999999999999
 20
-489.2000000000001
 30
0.0
 11
409.2999999999999
 21
-466.79999999999978
 31
0.0
  0
LINE
  5
7FC
  8
DATA
  6
CONTINUOUS
 62
     7
 10
411.89999999999992
 20
-466.79999999999978
 30
0.0
 11
411.89999999999992
 21
-489.2000000000001
 31
0.0
  0
ARC
  5
7FD
  8
DATA
  6
CONTINUOUS
 62
     7
 10
410.59999999999991
 20
-466.80000000000001
 30
0.0
 40
1.3000000000000109
 50
359.9999999999975
 51
180.00000000000239
  0
ARC
  5
7FE
  8
DATA
  6
CONTINUOUS
 62
     7
 10
410.59999999999991
 20
-489.2000000000001
 30
0.0
 40
1.3000000000000109
 50
179.99999999999741
 51
0.0000000000025011
  0
LINE
  5
7FF
  8
DATA
  6
CONTINUOUS
 62
     7
 10
417.10000000000002
 20
-489.2000000000001
 30
0.0
 11
417.10000000000002
 21
-466.79999999999978
 31
0.0
  0
LINE
  5
800
  8
DATA
  6
CONTINUOUS
 62
     7
 10
419.69999999999999
 20
-466.79999999999978
 30
0.0
 11
419.69999999999999
 21
-489.2000000000001
 31
0.0
  0
ARC
  5
801
  8
DATA
  6
CONTINUOUS
 62
     7
 10
418.39999999999998
 20
-466.80000000000001
 30
0.0
 40
1.3000000000000109
 50
359.9999999999975
 51
180.00000000000239
  0
ARC
  5
802
  8
DATA
  6
CONTINUOUS
 62
     7
 10
418.39999999999998
 20
-489.2000000000001
 30
0.0
 40
1.3000000000000109
 50
179.99999999999741
 51
0.0000000000025011
  0
CIRCLE
  5
803
  8
DATA
  6
CONTINUOUS
 62
     7
 10
427.5
 20
-467.49999999999989
 30
0.0
 40
3.0
  0
LINE
  5
804
  8
DATA
  6
CONTINUOUS
 62
     7
 10
425.83792298614048
 20
-467.49999999999989
 30
0.0
 11
429.1620770138594
 21
-467.49999999999989
 31
0.0
  0
LINE
  5
805
  8
DATA
  6
CONTINUOUS
 62
     7
 10
427.5
 20
-469.1620770138594
 30
0.0
 11
427.5
 21
-465.83792298614048
 31
0.0
  0
CIRCLE
  5
806
  8
DATA
  6
CONTINUOUS
 62
     7
 10
427.5
 20
-488.49999999999989
 30
0.0
 40
3.0
  0
LINE
  5
807
  8
DATA
  6
CONTINUOUS
 62
     7
 10
425.83792298614048
 20
-488.49999999999989
 30
0.0
 11
429.1620770138594
 21
-488.49999999999989
 31
0.0
  0
LINE
  5
808
  8
DATA
  6
CONTINUOUS
 62
     7
 10
427.5
 20
-490.1620770138594
 30
0.0
 11
427.5
 21
-486.83792298614048
 31
0.0
  0
LINE
  5
809
  8
DATA
  6
CONTINUOUS
 62
     7
 10
483.0
 20
-463.22523647785601
 30
0.0
 11
483.0
 21
-492.77476352214393
 31
0.0
  0
LINE
  5
80A
  8
DATA
  6
CONTINUOUS
 62
     7
 10
477.45177225424681
 20
-457.2422688337607
 30
0.0
 11
461.0
 21
-456.0
 31
0.0
  0
LINE
  5
80B
  8
DATA
  6
CONTINUOUS
 62
     7
 10
477.45177225424681
 20
-498.75773116623941
 30
0.0
 11
461.0
 21
-500.0
 31
0.0
  0
ARC
  5
80C
  8
DATA
  6
CONTINUOUS
 62
     7
 10
477.0
 20
-463.22523647785601
 30
0.0
 40
6.0
 50
0.0
 51
85.681805924711952
  0
ARC
  5
80D
  8
DATA
  6
CONTINUOUS
 62
     7
 10
477.0
 20
-492.77476352214393
 30
0.0
 40
6.0000000000000071
 50
274.31819407528798
 51
0.0
  0
LINE
  5
80E
  8
DATA
  6
CONTINUOUS
 62
     7
 10
464.5
 20
-496.0
 30
0.0
 11
464.5
 21
-460.0
 31
0.0
  0
LINE
  5
80F
  8
DATA
  6
CONTINUOUS
 62
     7
 10
477.5
 20
-465.61831185350769
 30
0.0
 11
477.5
 21
-490.36849231329501
 31
0.0
  0
LINE
  5
810
  8
DATA
  6
CONTINUOUS
 62
     7
 10
464.5
 20
-460.0
 30
0.0
 11
472.87647687853899
 21
-460.63250548342819
 31
0.0
  0
LINE
  5
811
  8
DATA
  6
CONTINUOUS
 62
     7
 10
464.49950000000001
 20
-495.99900000000002
 30
0.0
 11
472.88366782504079
 21
-495.35375048113627
 31
0.0
  0
ARC
  5
812
  8
DATA
  6
CONTINUOUS
 62
     7
 10
472.5
 20
-465.61831185350769
 30
0.0
 40
5.0
 50
0.0
 51
85.681805924712535
  0
ARC
  5
813
  8
DATA
  6
CONTINUOUS
 62
     7
 10
472.5
 20
-490.36849231329512
 30
0.0
 40
4.9999999999999618
 50
274.40083536444189
 51
0.0000000000006821
  0
LINE
  5
814
  8
DATA
  6
CONTINUOUS
 62
     7
 10
470.0
 20
-492.76902326651998
 30
0.0
 11
470.0
 21
-464.76902326651992
 31
0.0
  0
LINE
  5
815
  8
DATA
  6
CONTINUOUS
 62
     7
 10
464.5
 20
-494.76902326651992
 30
0.0
 11
468.0
 21
-494.76902326651992
 31
0.0
  0
LINE
  5
816
  8
DATA
  6
CONTINUOUS
 62
     7
 10
464.5
 20
-462.76902326651998
 30
0.0
 11
468.0
 21
-462.76902326651998
 31
0.0
  0
CIRCLE
  5
817
  8
DATA
  6
CONTINUOUS
 62
     7
 10
467.3003974671368
 20
-492.60039746713682
 30
0.0
 40
1.5
  0
ARC
  5
818
  8
DATA
  6
CONTINUOUS
 62
     7
 10
468.0
 20
-464.76902326651992
 30
0.0
 40
2.0
 50
0.0
 51
90.0
  0
ARC
  5
819
  8
DATA
  6
CONTINUOUS
 62
     7
 10
468.0
 20
-492.76902326651998
 30
0.0
 40
2.0
 50
270.0
 51
0.0
  0
ARC
  5
81A
  8
DATA
  6
CONTINUOUS
 62
     7
 10
-367.25
 20
-465.30000000000001
 30
0.0
 40
3.0
 50
0.0
 51
90.0
  0
ARC
  5
81B
  8
DATA
  6
CONTINUOUS
 62
     7
 10
-367.25
 20
-459.81779069321851
 30
0.0
 40
3.0
 50
0.0
 51
75.379126011367944
  0
ARC
  5
81C
  8
DATA
  6
CONTINUOUS
 62
     7
 10
-367.25
 20
-490.69999999999999
 30
0.0
 40
3.0
 50
269.99999999999892
 51
0.0
  0
ARC
  5
81D
  8
DATA
  6
CONTINUOUS
 62
     7
 10
-367.25
 20
-496.18220930678149
 30
0.0
 40
2.9999999999999569
 50
284.62087398863241
 51
0.00000000000108
  0
ARC
  5
81E
  8
DATA
  6
CONTINUOUS
 62
     7
 10
50.25
 20
-465.30000000000001
 30
0.0
 40
3.0
 50
90.0
 51
180.0
  0
ARC
  5
81F
  8
DATA
  6
CONTINUOUS
 62
     7
 10
50.25
 20
-490.69999999999999
 30
0.0
 40
3.0
 50
180.0
 51
270.00000000000051
  0
ARC
  5
820
  8
DATA
  6
CONTINUOUS
 62
     7
 10
50.25
 20
-459.81779069321851
 30
0.0
 40
2.9999999999999498
 50
104.6208739886318
 51
180.00000000000111
  0
ARC
  5
821
  8
DATA
  6
CONTINUOUS
 62
     7
 10
50.25
 20
-496.18220930678132
 30
0.0
 40
3.0
 50
180.0
 51
255.37912601136841
  0
LINE
  5
822
  8
DATA
  6
CONTINUOUS
 62
     7
 10
-333.16952355403657
 20
-461.51059126799191
 30
0.0
 11
-337.43956941406282
 21
-461.54635654796851
 31
0.0
  0
LINE
  5
823
  8
DATA
  6
CONTINUOUS
 62
     7
 10
-355.8445786628738
 20
-457.73163743974078
 30
0.0
 11
-356.06371034857972
 21
-457.76027651227861
 31
0.0
  0
LINE
  5
824
  8
DATA
  6
CONTINUOUS
 62
     7
 10
-356.06371034857972
 20
-457.76027651227861
 30
0.0
 11
-356.25970527161508
 21
-457.81666227245211
 31
0.0
  0
LINE
  5
825
  8
DATA
  6
CONTINUOUS
 62
     7
 10
-356.25970527161508
 20
-457.81666227245211
 30
0.0
 11
-356.43256343197982
 21
-457.90079472026127
 31
0.0
  0
LINE
  5
826
  8
DATA
  6
CONTINUOUS
 62
     7
 10
-356.43256343197982
 20
-457.90079472026127
 30
0.0
 11
-356.58228482967399
 21
-458.0126738557064
 31
0.0
  0
LINE
  5
827
  8
DATA
  6
CONTINUOUS
 62
     7
 10
-356.58228482967399
 20
-458.0126738557064
 30
0.0
 11
-356.71002513646999
 21
-458.14988022170633
 31
0.0
  0
LINE
  5
828
  8
DATA
  6
CONTINUOUS
 62
     7
 10
-356.71002513646999
 20
-458.14988022170633
 30
0.0
 11
-356.8169400241394
 21
-458.30999436117997
 31
0.0
  0
LINE
  5
829
  8
DATA
  6
CONTINUOUS
 62
     7
 10
-356.8169400241394
 20
-458.30999436117997
 30
0.0
 11
-356.8996643890323
 21
-458.48452061764311
 31
0.0
  0
LINE
  5
82A
  8
DATA
  6
CONTINUOUS
 62
     7
 10
-356.8996643890323
 20
-458.48452061764311
 30
0.0
 11
-356.95483312749718
 21
-458.66496333461191
 31
0.0
  0
LINE
  5
82B
  8
DATA
  6
CONTINUOUS
 62
     7
 10
-356.95483312749718
 20
-458.66496333461191
 30
0.0
 11
-356.9816799061141
 21
-458.84727621093072
 31
0.0
  0
LINE
  5
82C
  8
DATA
  6
CONTINUOUS
 62
     7
 10
-356.9816799061141
 20
-458.84727621093072
 30
0.0
 11
-356.97943839146239
 21
-459.0274129454433
 31
0.0
  0
LINE
  5
82D
  8
DATA
  6
CONTINUOUS
 62
     7
 10
-356.97943839146239
 20
-459.0274129454433
 30
0.0
 11
-356.9487815142266
 21
-459.2006975898928
 31
0.0
  0
LINE
  5
82E
  8
DATA
  6
CONTINUOUS
 62
     7
 10
-356.9487815142266
 20
-459.2006975898928
 30
0.0
 11
-356.89038220509178
 21
-459.36245419602119
 31
0.0
  0
LINE
  5
82F
  8
DATA
  6
CONTINUOUS
 62
     7
 10
-356.89038220509178
 20
-459.36245419602119
 30
0.0
 11
-356.80469901115299
 21
-459.50869235798342
 31
0.0
  0
LINE
  5
830
  8
DATA
  6
CONTINUOUS
 62
     7
 10
-356.69219047950543
 20
-459.63542166993358
 30
0.0
 11
-356.80469901115299
 21
-459.50869235798342
 31
0.0
  0
LINE
  5
831
  8
DATA
  6
CONTINUOUS
 62
     7
 10
-356.55285661014869
 20
-459.74264213187189
 30
0.0
 11
-356.69219047950543
 21
-459.63542166993358
 31
0.0
  0
LINE
  5
832
  8
DATA
  6
CONTINUOUS
 62
     7
 10
-356.38669740308319
 20
-459.83035374379853
 30
0.0
 11
-356.55285661014869
 21
-459.74264213187189
 31
0.0
  0
LINE
  5
833
  8
DATA
  6
CONTINUOUS
 62
     7
 10
-342.18730624531611
 20
-459.013129358659
 30
0.0
 11
-342.4723241820958
 21
-461.58851069467761
 31
0.0
  0
LINE
  5
834
  8
DATA
  6
CONTINUOUS
 62
     7
 10
-345.04303854256329
 20
-457.66288878736572
 30
0.0
 11
-346.96567970740472
 21
-457.67899373177681
 31
0.0
  0
LINE
  5
835
  8
DATA
  6
CONTINUOUS
 62
     7
 10
-351.94903721851142
 20
-457.72073399346249
 30
0.0
 11
-352.39842574430571
 21
-461.67165125682442
 31
0.0
  0
LINE
  5
836
  8
DATA
  6
CONTINUOUS
 62
     7
 10
-338.51920309656828
 20
-459.70520103241631
 30
0.0
 11
-338.78785838334932
 21
-459.81456098715171
 31
0.0
  0
LINE
  5
837
  8
DATA
  6
CONTINUOUS
 62
     7
 10
-338.29025714381851
 20
-459.58820428596869
 30
0.0
 11
-338.51920309656828
 21
-459.70520103241631
 31
0.0
  0
LINE
  5
838
  8
DATA
  6
CONTINUOUS
 62
     7
 10
-338.10102052509978
 20
-459.46357074780872
 30
0.0
 11
-338.29025714381851
 21
-459.58820428596869
 31
0.0
  0
LINE
  5
839
  8
DATA
  6
CONTINUOUS
 62
     7
 10
-337.95149324041228
 20
-459.3313004179364
 30
0.0
 11
-338.10102052509978
 21
-459.46357074780872
 31
0.0
  0
LINE
  5
83A
  8
DATA
  6
CONTINUOUS
 62
     7
 10
-337.83150090304838
 20
-459.18215227592941
 30
0.0
 11
-337.95149324041228
 21
-459.3313004179364
 31
0.0
  0
LINE
  5
83B
  8
DATA
  6
CONTINUOUS
 62
     7
 10
-337.73086912630072
 20
-459.00688530136478
 30
0.0
 11
-337.83150090304838
 21
-459.18215227592941
 31
0.0
  0
LINE
  5
83C
  8
DATA
  6
CONTINUOUS
 62
     7
 10
-337.6614775505434
 20
-458.8140539657366
 30
0.0
 11
-337.73086912630072
 21
-459.00688530136478
 31
0.0
  0
LINE
  5
83D
  8
DATA
  6
CONTINUOUS
 62
     7
 10
-337.63520581615069
 20
-458.61221274053833
 30
0.0
 11
-337.6614775505434
 21
-458.8140539657366
 31
0.0
  0
LINE
  5
83E
  8
DATA
  6
CONTINUOUS
 62
     7
 10
-337.64763675814038
 20
-458.41275559176512
 30
0.0
 11
-337.63520581615069
 21
-458.61221274053833
 31
0.0
  0
LINE
  5
83F
  8
DATA
  6
CONTINUOUS
 62
     7
 10
-337.69435321153031
 20
-458.22707648541262
 30
0.0
 11
-337.64763675814038
 21
-458.41275559176512
 31
0.0
  0
LINE
  5
840
  8
DATA
  6
CONTINUOUS
 62
     7
 10
-337.77476338804468
 20
-458.05684134417208
 30
0.0
 11
-337.69435321153031
 21
-458.22707648541262
 31
0.0
  0
LINE
  5
841
  8
DATA
  6
CONTINUOUS
 62
     7
 10
-337.888275499408
 20
-457.9037160907348
 30
0.0
 11
-337.77476338804468
 21
-458.05684134417208
 31
0.0
  0
LINE
  5
842
  8
DATA
  6
CONTINUOUS
 62
     7
 10
-337.888275499408
 20
-457.9037160907348
 30
0.0
 11
-338.02604417826001
 21
-457.77688051344819
 31
0.0
  0
LINE
  5
843
  8
DATA
  6
CONTINUOUS
 62
     7
 10
-338.02604417826001
 20
-457.77688051344819
 30
0.0
 11
-338.1792240572405
 21
-457.68551440065892
 31
0.0
  0
LINE
  5
844
  8
DATA
  6
CONTINUOUS
 62
     7
 10
-338.1792240572405
 20
-457.68551440065892
 30
0.0
 11
-338.34992834442733
 21
-457.62940184640871
 31
0.0
  0
LINE
  5
845
  8
DATA
  6
CONTINUOUS
 62
     7
 10
-338.34992834442733
 20
-457.62940184640871
 30
0.0
 11
-338.54027024789798
 21
-457.60832694473879
 31
0.0
  0
LINE
  5
846
  8
DATA
  6
CONTINUOUS
 62
     7
 10
-347.51888237073331
 20
-457.68362640322073
 30
0.0
 11
-349.43314903103948
 21
-457.69966108951911
 31
0.0
  0
LINE
  5
847
  8
DATA
  6
CONTINUOUS
 62
     7
 10
-332.86052657588152
 20
-458.466441968195
 30
0.0
 11
-335.13473918118552
 21
-458.48549001349738
 31
0.0
  0
LINE
  5
848
  8
DATA
  6
CONTINUOUS
 62
     7
 10
-352.43259412422287
 20
-457.7030597499317
 30
0.0
 11
-352.54352930416712
 21
-458.5978018730242
 31
0.0
  0
LINE
  5
849
  8
DATA
  6
CONTINUOUS
 62
     7
 10
-335.3251057930346
 20
-459.9659434798225
 30
0.0
 11
-335.39260041826009
 21
-460.490830965226
 31
0.0
  0
LINE
  5
84A
  8
DATA
  6
CONTINUOUS
 62
     7
 10
-357.1500729380781
 20
-460.6379476350952
 30
0.0
 11
-357.31494236682471
 21
-461.71448909274233
 31
0.0
  0
LINE
  5
84B
  8
DATA
  6
CONTINUOUS
 62
     7
 10
-332.90862097532181
 20
-458.94024724703172
 30
0.0
 11
-333.0107669142015
 21
-459.94655718774891
 31
0.0
  0
LINE
  5
84C
  8
DATA
  6
CONTINUOUS
 62
     7
 10
-342.56017114596261
 20
-457.64209272500119
 30
0.0
 11
-342.77493251549748
 21
-459.60579834918627
 31
0.0
  0
LINE
  5
84D
  8
DATA
  6
CONTINUOUS
 62
     7
 10
-349.72644588616038
 20
-460.26647398699311
 30
0.0
 11
-350.32570638404928
 21
-460.27149340502967
 31
0.0
  0
LINE
  5
84E
  8
DATA
  6
CONTINUOUS
 62
     7
 10
-344.8512080000404
 20
-460.38861897014601
 30
0.0
 11
-345.35983019004669
 21
-460.39287855029198
 31
0.0
  0
LINE
  5
84F
  8
DATA
  6
CONTINUOUS
 62
     7
 10
-339.38092060115349
 20
-458.50814348267971
 30
0.0
 11
-342.13288575178638
 21
-458.53119331307192
 31
0.0
  0
LINE
  5
850
  8
DATA
  6
CONTINUOUS
 62
     7
 10
-350.03411902870261
 20
-457.70469335844172
 30
0.0
 11
-350.19011377501357
 21
-459.0747938015661
 31
0.0
  0
LINE
  5
851
  8
DATA
  6
CONTINUOUS
 62
     7
 10
-336.99076265028413
 20
-457.59579382718351
 30
0.0
 11
-337.32762405734428
 21
-460.5423675906905
 31
0.0
  0
LINE
  5
852
  8
DATA
  6
CONTINUOUS
 62
     7
 10
-347.97001663110052
 20
-461.6345583934704
 30
0.0
 11
-349.8841089891738
 21
-461.65059132191828
 31
0.0
  0
LINE
  5
853
  8
DATA
  6
CONTINUOUS
 62
     7
 10
-332.90862097532181
 20
-458.94024724703172
 30
0.0
 11
-335.19567794739572
 21
-458.95940334304498
 31
0.0
  0
LINE
  5
854
  8
DATA
  6
CONTINUOUS
 62
     7
 10
-353.11092281800768
 20
-459.59543987800248
 30
0.0
 11
-355.41030518794128
 21
-458.6218149630501
 31
0.0
  0
LINE
  5
855
  8
DATA
  6
CONTINUOUS
 62
     7
 10
-354.43745442324189
 20
-460.61522774448542
 30
0.0
 11
-356.38669677161488
 21
-459.83035354302569
 31
0.0
  0
LINE
  5
856
  8
DATA
  6
CONTINUOUS
 62
     7
 10
-340.81768993240888
 20
-461.5746517692765
 30
0.0
 11
-342.4723241820958
 21
-461.58851069467761
 31
0.0
  0
LINE
  5
857
  8
DATA
  6
CONTINUOUS
 62
     7
 10
-346.96567970740472
 20
-457.67899373177681
 30
0.0
 11
-347.22377698150848
 21
-459.64306186832249
 31
0.0
  0
LINE
  5
858
  8
DATA
  6
CONTINUOUS
 62
     7
 10
-350.48441025117029
 20
-461.65561974333639
 30
0.0
 11
-352.39842574430571
 21
-461.67165125682442
 31
0.0
  0
LINE
  5
859
  8
DATA
  6
CONTINUOUS
 62
     7
 10
-338.54027095515448
 20
-457.60832663589571
 30
0.0
 11
-342.02816949382708
 21
-457.63763658283142
 31
0.0
  0
LINE
  5
85A
  8
DATA
  6
CONTINUOUS
 62
     7
 10
-349.43314903103948
 20
-457.69966108951911
 30
0.0
 11
-349.58997984608499
 21
-459.06919999914112
 31
0.0
  0
LINE
  5
85B
  8
DATA
  6
CONTINUOUS
 62
     7
 10
-332.7683098933033
 20
-457.55794000449367
 30
0.0
 11
-332.86052657588152
 21
-458.466441968195
 31
0.0
  0
LINE
  5
85C
  8
DATA
  6
CONTINUOUS
 62
     7
 10
-352.43259412422287
 20
-457.7030597499317
 30
0.0
 11
-355.84457847133967
 21
-457.73163741817319
 31
0.0
  0
LINE
  5
85D
  8
DATA
  6
CONTINUOUS
 62
     7
 10
-333.06403233879848
 20
-460.47132733017793
 30
0.0
 11
-333.16952355403657
 21
-461.51059126799191
 31
0.0
  0
LINE
  5
85E
  8
DATA
  6
CONTINUOUS
 62
     7
 10
-333.0107669142015
 20
-459.94655718774891
 30
0.0
 11
-335.3251057930346
 21
-459.9659434798225
 31
0.0
  0
LINE
  5
85F
  8
DATA
  6
CONTINUOUS
 62
     7
 10
-353.94050431144677
 20
-461.68622466493957
 30
0.0
 11
-357.31494236682471
 21
-461.71448909274233
 31
0.0
  0
LINE
  5
860
  8
DATA
  6
CONTINUOUS
 62
     7
 10
-337.83303266424252
 20
-461.64787807716249
 30
0.0
 11
-339.74708916380229
 21
-461.65805671702731
 31
0.0
  0
LINE
  5
861
  8
DATA
  6
CONTINUOUS
 62
     7
 10
-342.56017114596261
 20
-457.64209272500119
 30
0.0
 11
-344.52455892292062
 21
-457.65854543318602
 31
0.0
  0
LINE
  5
862
  8
DATA
  6
CONTINUOUS
 62
     7
 10
-339.44232066678182
 20
-458.99013740667073
 30
0.0
 11
-342.18730624531611
 21
-459.013129358659
 31
0.0
  0
LINE
  5
863
  8
DATA
  6
CONTINUOUS
 62
     7
 10
-345.04303854256329
 20
-457.66288878736572
 30
0.0
 11
-345.35983019004669
 21
-460.39287855029198
 31
0.0
  0
LINE
  5
864
  8
DATA
  6
CONTINUOUS
 62
     7
 10
-339.38092060115349
 20
-458.50814348267971
 30
0.0
 11
-339.44232066678182
 21
-458.99013740667073
 31
0.0
  0
LINE
  5
865
  8
DATA
  6
CONTINUOUS
 62
     7
 10
-350.03411902870261
 20
-457.70469335844172
 30
0.0
 11
-351.94903721851142
 21
-457.72073399346249
 31
0.0
  0
LINE
  5
866
  8
DATA
  6
CONTINUOUS
 62
     7
 10
-347.51888237073331
 20
-457.68362640322073
 30
0.0
 11
-347.97001663110052
 21
-461.6345583934704
 31
0.0
  0
LINE
  5
867
  8
DATA
  6
CONTINUOUS
 62
     7
 10
-335.13473918118552
 20
-458.48549001349738
 30
0.0
 11
-335.19567794739572
 21
-458.95940334304498
 31
0.0
  0
LINE
  5
868
  8
DATA
  6
CONTINUOUS
 62
     7
 10
-352.54352930416712
 20
-458.5978018730242
 30
0.0
 11
-355.41030518794128
 21
-458.6218149630501
 31
0.0
  0
LINE
  5
869
  8
DATA
  6
CONTINUOUS
 62
     7
 10
-339.92473178632451
 20
-460.27623269557182
 30
0.0
 11
-339.74708916380229
 21
-461.65805671702731
 31
0.0
  0
LINE
  5
86A
  8
DATA
  6
CONTINUOUS
 62
     7
 10
-333.06403233879848
 20
-460.47132733017793
 30
0.0
 11
-335.39260041826009
 21
-460.490830965226
 31
0.0
  0
LINE
  5
86B
  8
DATA
  6
CONTINUOUS
 62
     7
 10
-354.43745442324189
 20
-460.61522774448542
 30
0.0
 11
-357.1500729380781
 21
-460.6379476350952
 31
0.0
  0
LINE
  5
86C
  8
DATA
  6
CONTINUOUS
 62
     7
 10
-340.66124152076321
 20
-460.2801487337702
 30
0.0
 11
-340.81768993240888
 21
-461.5746517692765
 31
0.0
  0
LINE
  5
86D
  8
DATA
  6
CONTINUOUS
 62
     7
 10
-347.22377779730277
 20
-459.64306207934868
 30
0.0
 11
-347.2483478781615
 21
-460.1095192533848
 31
0.0
  0
LINE
  5
86E
  8
DATA
  6
CONTINUOUS
 62
     7
 10
-347.2483478781615
 20
-460.1095192533848
 30
0.0
 11
-347.21398495948353
 21
-460.49274293099148
 31
0.0
  0
LINE
  5
86F
  8
DATA
  6
CONTINUOUS
 62
     7
 10
-347.21398495948353
 20
-460.49274293099148
 30
0.0
 11
-347.11025545281097
 21
-460.82383281421738
 31
0.0
  0
LINE
  5
870
  8
DATA
  6
CONTINUOUS
 62
     7
 10
-347.11025545281097
 20
-460.82383281421738
 30
0.0
 11
-346.92672576968641
 21
-461.13388860511111
 31
0.0
  0
LINE
  5
871
  8
DATA
  6
CONTINUOUS
 62
     7
 10
-346.6750914507569
 20
-461.39729501142023
 30
0.0
 11
-346.92672576968641
 21
-461.13388860511111
 31
0.0
  0
LINE
  5
872
  8
DATA
  6
CONTINUOUS
 62
     7
 10
-346.36704803666993
 20
-461.58843674089258
 30
0.0
 11
-346.6750914507569
 21
-461.39729501142023
 31
0.0
  0
LINE
  5
873
  8
DATA
  6
CONTINUOUS
 62
     7
 10
-346.00033686407511
 20
-461.71474584910311
 30
0.0
 11
-346.36704803666993
 21
-461.58843674089258
 31
0.0
  0
LINE
  5
874
  8
DATA
  6
CONTINUOUS
 62
     7
 10
-345.57269926962232
 20
-461.78365439162661
 30
0.0
 11
-346.00033686407511
 21
-461.71474584910311
 31
0.0
  0
LINE
  5
875
  8
DATA
  6
CONTINUOUS
 62
     7
 10
-345.11314004402908
 20
-461.78378919404111
 30
0.0
 11
-345.57269926962232
 21
-461.78365439162661
 31
0.0
  0
LINE
  5
876
  8
DATA
  6
CONTINUOUS
 62
     7
 10
-344.6506639780136
 20
-461.70377708192501
 30
0.0
 11
-345.11314004402908
 21
-461.78378919404111
 31
0.0
  0
LINE
  5
877
  8
DATA
  6
CONTINUOUS
 62
     7
 10
-344.15814862140081
 20
-461.53228841817321
 30
0.0
 11
-344.6506639780136
 21
-461.70377708192501
 31
0.0
  0
LINE
  5
878
  8
DATA
  6
CONTINUOUS
 62
     7
 10
-343.74795206195648
 20
-461.29409693870792
 30
0.0
 11
-344.15814862140081
 21
-461.53228841817321
 31
0.0
  0
LINE
  5
879
  8
DATA
  6
CONTINUOUS
 62
     7
 10
-343.5668804235894
 20
-461.14317815380639
 30
0.0
 11
-343.74795206195648
 21
-461.29409693870792
 31
0.0
  0
LINE
  5
87A
  8
DATA
  6
CONTINUOUS
 62
     7
 10
-343.23067026989781
 20
-460.7570844821617
 30
0.0
 11
-343.5668804235894
 21
-461.14317815380639
 31
0.0
  0
LINE
  5
87B
  8
DATA
  6
CONTINUOUS
 62
     7
 10
-342.96536674286079
 20
-460.30573522359191
 30
0.0
 11
-343.23067026989781
 21
-460.7570844821617
 31
0.0
  0
LINE
  5
87C
  8
DATA
  6
CONTINUOUS
 62
     7
 10
-342.87523720627479
 20
-460.0783212168368
 30
0.0
 11
-342.96536674286079
 21
-460.30573522359191
 31
0.0
  0
LINE
  5
87D
  8
DATA
  6
CONTINUOUS
 62
     7
 10
-342.81273064209768
 20
-459.8469876770971
 30
0.0
 11
-342.87523720627479
 21
-460.0783212168368
 31
0.0
  0
LINE
  5
87E
  8
DATA
  6
CONTINUOUS
 62
     7
 10
-342.77493160628399
 20
-459.60579881511052
 30
0.0
 11
-342.81273064209768
 21
-459.8469876770971
 31
0.0
  0
LINE
  5
87F
  8
DATA
  6
CONTINUOUS
 62
     7
 10
-350.32570638404928
 20
-460.27149340502967
 30
0.0
 11
-350.48441025117029
 21
-461.65561974333639
 31
0.0
  0
LINE
  5
880
  8
DATA
  6
CONTINUOUS
 62
     7
 10
-344.52455892292062
 20
-457.65854543318602
 30
0.0
 11
-344.8512080000404
 21
-460.38861897014601
 31
0.0
  0
LINE
  5
881
  8
DATA
  6
CONTINUOUS
 62
     7
 10
-342.02816949382708
 20
-457.63763658283142
 30
0.0
 11
-342.13288575178638
 21
-458.53119331307192
 31
0.0
  0
LINE
  5
882
  8
DATA
  6
CONTINUOUS
 62
     7
 10
-349.58997984608499
 20
-459.06919999914112
 30
0.0
 11
-350.19011377501357
 21
-459.0747938015661
 31
0.0
  0
LINE
  5
883
  8
DATA
  6
CONTINUOUS
 62
     7
 10
-332.7683098933033
 20
-457.55794000449367
 30
0.0
 11
-336.99076265028413
 21
-457.59579382718351
 31
0.0
  0
LINE
  5
884
  8
DATA
  6
CONTINUOUS
 62
     7
 10
-349.72644588616038
 20
-460.26647398699311
 30
0.0
 11
-349.8841089891738
 21
-461.65059132191828
 31
0.0
  0
LINE
  5
885
  8
DATA
  6
CONTINUOUS
 62
     7
 10
-339.92473178632451
 20
-460.27623269557182
 30
0.0
 11
-340.66124152076321
 21
-460.2801487337702
 31
0.0
  0
LINE
  5
886
  8
DATA
  6
CONTINUOUS
 62
     7
 10
-353.67546326550928
 20
-461.65387908064042
 30
0.0
 11
-353.94050440652671
 21
-461.68622494077391
 31
0.0
  0
LINE
  5
887
  8
DATA
  6
CONTINUOUS
 62
     7
 10
-353.44388748286087
 20
-461.59320812733159
 30
0.0
 11
-353.67546326550928
 21
-461.65387908064042
 31
0.0
  0
LINE
  5
888
  8
DATA
  6
CONTINUOUS
 62
     7
 10
-353.24234752034903
 20
-461.50323887285418
 30
0.0
 11
-353.44388748286087
 21
-461.59320812733159
 31
0.0
  0
LINE
  5
889
  8
DATA
  6
CONTINUOUS
 62
     7
 10
-353.06741383974122
 20
-461.38299810921541
 30
0.0
 11
-353.24234752034903
 21
-461.50323887285418
 31
0.0
  0
LINE
  5
88A
  8
DATA
  6
CONTINUOUS
 62
     7
 10
-352.91828941019293
 20
-461.23632567714202
 30
0.0
 11
-353.06741383974122
 21
-461.38299810921541
 31
0.0
  0
LINE
  5
88B
  8
DATA
  6
CONTINUOUS
 62
     7
 10
-352.79417720085962
 20
-461.06706141736117
 30
0.0
 11
-352.91828941019293
 21
-461.23632567714202
 31
0.0
  0
LINE
  5
88C
  8
DATA
  6
CONTINUOUS
 62
     7
 10
-352.69834177472501
 20
-460.88583510342261
 30
0.0
 11
-352.79417720085962
 21
-461.06706141736117
 31
0.0
  0
LINE
  5
88D
  8
DATA
  6
CONTINUOUS
 62
     7
 10
-352.63404769477228
 20
-460.70327650887577
 30
0.0
 11
-352.69834177472501
 21
-460.88583510342261
 31
0.0
  0
LINE
  5
88E
  8
DATA
  6
CONTINUOUS
 62
     7
 10
-352.60032365524529
 20
-460.52274654331842
 30
0.0
 11
-352.63404769477228
 21
-460.70327650887577
 31
0.0
  0
LINE
  5
88F
  8
DATA
  6
CONTINUOUS
 62
     7
 10
-352.59619835038728
 20
-460.34760611634761
 30
0.0
 11
-352.60032365524529
 21
-460.52274654331842
 31
0.0
  0
LINE
  5
890
  8
DATA
  6
CONTINUOUS
 62
     7
 10
-352.61917957078782
 20
-460.1826192070157
 30
0.0
 11
-352.59619835038728
 21
-460.34760611634761
 31
0.0
  0
LINE
  5
891
  8
DATA
  6
CONTINUOUS
 62
     7
 10
-352.66677510703681
 20
-460.03254979437492
 30
0.0
 11
-352.61917957078782
 21
-460.1826192070157
 31
0.0
  0
LINE
  5
892
  8
DATA
  6
CONTINUOUS
 62
     7
 10
-352.73946139756413
 20
-459.8982724147416
 30
0.0
 11
-352.66677510703681
 21
-460.03254979437492
 31
0.0
  0
LINE
  5
893
  8
DATA
  6
CONTINUOUS
 62
     7
 10
-352.73946139756413
 20
-459.8982724147416
 30
0.0
 11
-352.83771488079969
 21
-459.78066160443308
 31
0.0
  0
LINE
  5
894
  8
DATA
  6
CONTINUOUS
 62
     7
 10
-352.83771488079969
 20
-459.78066160443308
 30
0.0
 11
-352.96153555674368
 21
-459.6797173634493
 31
0.0
  0
LINE
  5
895
  8
DATA
  6
CONTINUOUS
 62
     7
 10
-352.96153555674368
 20
-459.6797173634493
 30
0.0
 11
-353.11092342539598
 21
-459.59543969179032
 31
0.0
  0
LINE
  5
896
  8
DATA
  6
CONTINUOUS
 62
     7
 10
-337.32762405734428
 20
-460.5423675906905
 30
0.0
 11
-337.4331418905229
 21
-461.54630271197112
 31
0.0
  0
LINE
  5
897
  8
DATA
  6
CONTINUOUS
 62
     7
 10
-337.83303266424252
 20
-461.64787807716249
 30
0.0
 11
-338.78785838334932
 21
-459.81456098715171
 31
0.0
  0
TEXT
  5
898
  8
DATA
 62
     7
 10
-524.99999999999977
 20
-715.07409385900382
 30
0.0
 40
11.401888020833329
  1
※仕様及び外観は予告なく変更されることがあります。
 41
0.7
 11
-524.99999999999977
 21
-703.67220583817038
 31
0.0
 73
     3
  0
TEXT
  5
899
  8
DATA
 62
     7
 10
-524.99999999999977
 20
-729.89076052567054
 30
0.0
 40
11.401888020833329
  1
　また、同一製品でも若干の個体差があることがあります。ご了承ください。
 41
0.7
 11
-524.99999999999977
 21
-718.48887250483722
 31
0.0
 73
     3
  0
ENDSEC
  0
EOF
