  0
SECTION
  2
HEADER
  9
$ACADVER
  1
AC1009
  9
$INSBASE
 10
0.0
 20
0.0
 30
0.0
  9
$EXTMIN
 10
9.9966434319517816
 20
2.3813599291728451
 30
-0.0000000349181948
  9
$EXTMAX
 10
190.01159774143571
 20
270.01648100098771
 30
0.0000000814935747
  9
$LIMMIN
 10
0.0
 20
0.0
  9
$LIMMAX
 10
0.0
 20
0.0
  9
$ORTHOMODE
 70
     0
  9
$REGENMODE
 70
     1
  9
$FILLMODE
 70
     1
  9
$QTEXTMODE
 70
     0
  9
$MIRRTEXT
 70
     1
  9
$DRAGMODE
 70
     2
  9
$LTSCALE
 40
5.0800000000000001
  9
$OSMODE
 70
   231
  9
$ATTMODE
 70
     1
  9
$TEXTSIZE
 40
0.0
  9
$TRACEWID
 40
1.0
  9
$TEXTSTYLE
  7
STANDARD
  9
$CLAYER
  8
DATA
  9
$CELTYPE
  6
BYLAYER
  9
$CECOLOR
 62
   256
  9
$DIMSCALE
 40
1.0
  9
$DIMASZ
 40
0.18
  9
$DIMEXO
 40
0.0625
  9
$DIMDLI
 40
0.38
  9
$DIMRND
 40
0.0
  9
$DIMDLE
 40
0.0
  9
$DIMEXE
 40
0.18
  9
$DIMTP
 40
0.0
  9
$DIMTM
 40
0.0
  9
$DIMTXT
 40
0.18
  9
$DIMCEN
 40
0.09
  9
$DIMTSZ
 40
0.0
  9
$DIMTOL
 70
     0
  9
$DIMLIM
 70
     0
  9
$DIMTIH
 70
     1
  9
$DIMTOH
 70
     1
  9
$DIMSE1
 70
     0
  9
$DIMSE2
 70
     0
  9
$DIMTAD
 70
     0
  9
$DIMZIN
 70
     0
  9
$DIMBLK
  1

  9
$DIMASO
 70
     1
  9
$DIMSHO
 70
     1
  9
$DIMPOST
  1

  9
$DIMAPOST
  1

  9
$DIMALT
 70
     0
  9
$DIMALTD
 70
     2
  9
$DIMALTF
 40
25.399999999999999
  9
$DIMLFAC
 40
1.0
  9
$DIMTOFL
 70
     0
  9
$DIMTVP
 40
0.0
  9
$DIMTIX
 70
     0
  9
$DIMSOXD
 70
     0
  9
$DIMSAH
 70
     0
  9
$DIMBLK1
  1

  9
$DIMBLK2
  1

  9
$DIMSTYLE
  2
STANDARD
  9
$DIMCLRD
 70
     0
  9
$DIMCLRE
 70
     0
  9
$DIMCLRT
 70
     0
  9
$DIMTFAC
 40
1.0
  9
$DIMGAP
 40
0.09
  9
$LUNITS
 70
     2
  9
$LUPREC
 70
     4
  9
$SKETCHINC
 40
0.1
  9
$FILLETRAD
 40
0.0
  9
$AUNITS
 70
     0
  9
$AUPREC
 70
     0
  9
$MENU
  1
acad
  9
$ELEVATION
 40
0.0
  9
$PELEVATION
 40
0.0
  9
$THICKNESS
 40
0.0
  9
$LIMCHECK
 70
     0
  9
$BLIPMODE
 70
     0
  9
$CHAMFERA
 40
0.0
  9
$CHAMFERB
 40
0.0
  9
$SKPOLY
 70
     0
  9
$TDCREATE
 40
2456059.7381018521
  9
$TDUPDATE
 40
2456059.7498595952
  9
$TDINDWG
 40
0.0006297338
  9
$TDUSRTIMER
 40
0.0006295486
  9
$USRTIMER
 70
     1
  9
$ANGBASE
 50
0.0
  9
$ANGDIR
 70
     0
  9
$PDMODE
 70
     1
  9
$PDSIZE
 40
-2.0
  9
$PLINEWID
 40
0.0
  9
$COORDS
 70
     2
  9
$SPLFRAME
 70
     0
  9
$SPLINETYPE
 70
     6
  9
$SPLINESEGS
 70
     8
  9
$ATTDIA
 70
     0
  9
$ATTREQ
 70
     1
  9
$HANDLING
 70
     1
  9
$HANDSEED
  5
2C7
  9
$SURFTAB1
 70
     6
  9
$SURFTAB2
 70
     6
  9
$SURFTYPE
 70
     6
  9
$SURFU
 70
     6
  9
$SURFV
 70
     6
  9
$UCSNAME
  2

  9
$UCSORG
 10
0.0
 20
0.0
 30
0.0
  9
$UCSXDIR
 10
1.0
 20
0.0
 30
0.0
  9
$UCSYDIR
 10
0.0
 20
1.0
 30
0.0
  9
$PUCSNAME
  2

  9
$PUCSORG
 10
0.0
 20
0.0
 30
0.0
  9
$PUCSXDIR
 10
1.0
 20
0.0
 30
0.0
  9
$PUCSYDIR
 10
0.0
 20
1.0
 30
0.0
  9
$USERI1
 70
     0
  9
$USERI2
 70
     0
  9
$USERI3
 70
     0
  9
$USERI4
 70
     0
  9
$USERI5
 70
     0
  9
$USERR1
 40
0.0
  9
$USERR2
 40
0.0
  9
$USERR3
 40
0.0
  9
$USERR4
 40
0.0
  9
$USERR5
 40
0.0
  9
$WORLDVIEW
 70
     1
  9
$SHADEDGE
 70
     3
  9
$SHADEDIF
 70
    70
  9
$TILEMODE
 70
     1
  9
$MAXACTVP
 70
    64
  9
$PLIMCHECK
 70
     0
  9
$PEXTMIN
 10
1.0000000000000000E+020
 20
1.0000000000000000E+020
 30
1.0000000000000000E+020
  9
$PEXTMAX
 10
-1.0000000000000000E+020
 20
-1.0000000000000000E+020
 30
-1.0000000000000000E+020
  9
$PLIMMIN
 10
0.0
 20
0.0
  9
$PLIMMAX
 10
12.0
 20
9.0
  9
$UNITMODE
 70
     0
  9
$VISRETAIN
 70
     0
  9
$PLINEGEN
 70
     1
  9
$PSLTSCALE
 70
     0
  0
ENDSEC
  0
SECTION
  2
TABLES
  0
TABLE
  2
VPORT
 70
     1
  0
VPORT
  2
*ACTIVE
 70
     0
 10
0.0
 20
0.0
 11
1.0
 21
1.0
 12
100.0041205866938
 22
136.19892046508019
 13
0.0
 23
0.0
 14
1.0
 24
1.0
 15
0.0
 25
0.0
 16
0.0
 26
0.0
 36
1.0
 17
0.0
 27
0.0
 37
0.0
 40
269.72874653000372
 41
2.1540469973890342
 42
50.0
 43
0.0
 44
0.0
 50
0.0
 51
0.0
 71
     0
 72
  2000
 73
     1
 74
     1
 75
     0
 76
     0
 77
     0
 78
     0
  0
ENDTAB
  0
TABLE
  2
LTYPE
 70
     1
  0
LTYPE
  2
CONTINUOUS
 70
     0
  3
Solid line
 72
    65
 73
     0
 40
0.0
  0
ENDTAB
  0
TABLE
  2
LAYER
 70
     6
  0
LAYER
  2
0
 70
     0
 62
     7
  6
CONTINUOUS
  0
LAYER
  2
DATA
 70
     0
 62
     7
  6
CONTINUOUS
  0
LAYER
  2
HIBINO-BASE
 70
     0
 62
     7
  6
CONTINUOUS
  0
LAYER
  2
PATTERN_FILL
 70
     0
 62
     7
  6
CONTINUOUS
  0
LAYER
  2
SPEC
 70
     0
 62
     7
  6
CONTINUOUS
  0
LAYER
  2
DIMNSIONS
 70
     0
 62
     7
  6
CONTINUOUS
  0
ENDTAB
  0
TABLE
  2
STYLE
 70
     3
  0
STYLE
  2
STANDARD
 70
     0
 40
0.0
 41
1.0
 50
0.0
 71
     0
 42
0.0
  3
txt
  4
BIGFONT.SHX
  0
ENDTAB
  0
TABLE
  2
VIEW
 70
     0
  0
ENDTAB
  0
TABLE
  2
UCS
 70
     0
  0
ENDTAB
  0
TABLE
  2
APPID
 70
     4
  0
APPID
  2
ACAD
 70
     0
  0
APPID
  2
ACADANNOTATIVE
 70
     0
  0
APPID
  2
ACAD_NAV_VCDISPLAY
 70
     0
  0
APPID
  2
ACAD_MLEADERVER
 70
     0
  0
ENDTAB
  0
TABLE
  2
DIMSTYLE
 70
     2
  0
DIMSTYLE
  2
STANDARD
 70
     0
  3

  4

  5

  6

  7

 40
1.0
 41
0.18
 42
0.0625
 43
0.38
 44
0.18
 45
0.0
 46
0.0
 47
0.0
 48
0.0
140
0.18
141
0.09
142
0.0
143
25.399999999999999
144
1.0
145
0.0
146
1.0
147
0.09
 71
     0
 72
     0
 73
     1
 74
     1
 75
     0
 76
     0
 77
     0
 78
     0
170
     0
171
     2
172
     0
173
     0
174
     0
175
     0
176
     0
177
     0
178
     0
  0
ENDTAB
  0
ENDSEC
  0
SECTION
  2
BLOCKS
  0
BLOCK
  8
0
  2
$MODEL_SPACE
 70
     0
 10
0.0
 20
0.0
 30
0.0
  3
$MODEL_SPACE
  1

  0
ENDBLK
  5
25C
  8
0
  0
BLOCK
 67
     1
  8
0
  2
$PAPER_SPACE
 70
     0
 10
0.0
 20
0.0
 30
0.0
  3
$PAPER_SPACE
  1

  0
ENDBLK
  5
258
 67
     1
  8
0
  0
ENDSEC
  0
SECTION
  2
ENTITIES
  0
LINE
  5
2D
  8
HIBINO-BASE
  6
CONTINUOUS
 62
     7
 10
10.0
 20
270.0
 30
0.0
 11
190.0
 21
270.0
 31
0.0
  0
LINE
  5
2E
  8
HIBINO-BASE
  6
CONTINUOUS
 62
     7
 10
190.0
 20
10.0
 30
0.0
 11
10.0
 21
10.0
 31
0.0
  0
LINE
  5
2F
  8
HIBINO-BASE
  6
CONTINUOUS
 62
     7
 10
10.0
 20
10.0
 30
0.0
 11
10.0
 21
270.0
 31
0.0
  0
TEXT
  5
30
  8
HIBINO-BASE
 62
     7
 10
17.18399999999999
 20
3.5913222000000351
 30
0.0
 40
3.6000441796875
  1
Hibino Corporation
 41
0.7
 11
17.18399999999999
 21
7.191366379687536
 31
0.0
 73
     3
  0
LINE
  5
31
  8
HIBINO-BASE
  6
CONTINUOUS
 62
     7
 10
190.0
 20
270.0
 30
0.0
 11
190.0
 21
10.0
 31
0.0
  0
LINE
  5
32
  8
HIBINO-BASE
  6
CONTINUOUS
 62
     7
 10
100.0
 20
32.500000000000007
 30
0.0
 11
190.0
 21
32.500000000000007
 31
0.0
  0
LINE
  5
33
  8
HIBINO-BASE
  6
CONTINUOUS
 62
     7
 10
100.0
 20
10.0
 30
0.0
 11
100.0
 21
32.500000000000007
 31
0.0
  0
TEXT
  5
34
  8
HIBINO-BASE
 62
     7
 10
100.90000000000001
 20
29.991306666666681
 30
0.0
 40
1.6288411458333321
  1
NOTE
 41
0.7
 11
100.90000000000001
 21
31.620147812500011
 31
0.0
 73
     3
  0
LINE
  5
35
  8
HIBINO-BASE
  6
CONTINUOUS
 62
     7
 10
135.0
 20
10.0
 30
0.0
 11
135.0
 21
32.500000000000007
 31
0.0
  0
TEXT
  5
36
  8
HIBINO-BASE
 62
     7
 10
135.89999999999981
 20
29.991306666666681
 30
0.0
 40
1.6288411458333321
  1
TITLE
 41
0.7
 11
135.89999999999981
 21
31.620147812500011
 31
0.0
 73
     3
  0
TEXT
  5
37
  8
HIBINO-BASE
 62
     7
 10
150.06838999999991
 20
3.5913222000000351
 30
0.0
 40
3.6000441796875
  1
ヒビノ株式会社
 41
0.7
 11
150.06838999999991
 21
7.191366379687536
 31
0.0
 73
     3
  0
LINE
  5
38
  8
HIBINO-BASE
  6
CONTINUOUS
 62
     7
 10
100.0
 20
20.000000000000011
 30
0.0
 11
190.0
 21
20.000000000000011
 31
0.0
  0
TEXT
  5
39
  8
HIBINO-BASE
 62
     7
 10
148.39999999999981
 20
17.54762666666667
 30
0.0
 40
1.6288411458333321
  1
DRAWN
 41
0.7
 11
148.39999999999981
 21
19.176467812500011
 31
0.0
 73
     3
  0
TEXT
  5
3A
  8
HIBINO-BASE
 62
     7
 10
123.39999999999991
 20
17.54762666666667
 30
0.0
 40
1.6288411458333321
  1
DATE
 41
0.7
 11
123.39999999999991
 21
19.176467812500011
 31
0.0
 73
     3
  0
TEXT
  5
3B
  8
HIBINO-BASE
 62
     7
 10
113.40000000000001
 20
17.54762666666667
 30
0.0
 40
1.6288411458333321
  1
SCALE
 41
0.7
 11
113.40000000000001
 21
19.176467812500011
 31
0.0
 73
     3
  0
TEXT
  5
3C
  8
HIBINO-BASE
 62
     7
 10
135.89999999999981
 20
17.54762666666667
 30
0.0
 40
1.6288411458333321
  1
DESIGN
 41
0.7
 11
135.89999999999981
 21
19.176467812500011
 31
0.0
 73
     3
  0
TEXT
  5
3D
  8
HIBINO-BASE
 62
     7
 10
173.39999999999989
 20
17.54762666666667
 30
0.0
 40
1.6288411458333321
  1
DRAWING NO.
 41
0.7
 11
173.39999999999989
 21
19.176467812500011
 31
0.0
 73
     3
  0
TEXT
  5
3E
  8
HIBINO-BASE
 62
     7
 10
160.89999999999981
 20
17.54762666666667
 30
0.0
 40
1.6288411458333321
  1
CHECK
 41
0.7
 11
160.89999999999981
 21
19.176467812500011
 31
0.0
 73
     3
  0
LINE
  5
3F
  8
HIBINO-BASE
  6
CONTINUOUS
 62
     7
 10
114.375
 20
11.25
 30
0.0
 11
118.125
 21
15.000000000000011
 31
0.0
  0
TEXT
  5
40
  8
HIBINO-BASE
 62
     7
 10
114.3388892058678
 20
13.891056666666669
 30
0.0
 40
1.6288411458333321
  1
1
 41
0.7
 11
114.3388892058678
 21
15.5198978125
 31
0.0
 73
     3
  0
LINE
  5
41
  8
HIBINO-BASE
  6
CONTINUOUS
 62
     7
 10
112.5
 20
10.0
 30
0.0
 11
112.5
 21
20.000000000000011
 31
0.0
  0
LINE
  5
42
  8
HIBINO-BASE
  6
CONTINUOUS
 62
     7
 10
122.5
 20
10.0
 30
0.0
 11
122.5
 21
20.000000000000011
 31
0.0
  0
LINE
  5
43
  8
HIBINO-BASE
  6
CONTINUOUS
 62
     7
 10
147.4999999999998
 20
20.000000000000011
 30
0.0
 11
147.4999999999998
 21
10.0
 31
0.0
  0
LINE
  5
44
  8
HIBINO-BASE
  6
CONTINUOUS
 62
     7
 10
172.5
 20
20.000000000000011
 30
0.0
 11
172.5
 21
10.0
 31
0.0
  0
LINE
  5
45
  8
HIBINO-BASE
  6
CONTINUOUS
 62
     7
 10
159.9999999999998
 20
10.0
 30
0.0
 11
159.9999999999998
 21
20.000000000000011
 31
0.0
  0
TEXT
  5
46
  8
HIBINO-BASE
 62
     7
 10
123.4635264570145
 20
12.86364666666667
 30
0.0
 40
1.6288411458333321
  1
'12.05.
 41
0.7
 11
123.4635264570145
 21
14.4924878125
 31
0.0
 73
     3
  0
TEXT
  5
47
  8
HIBINO-BASE
 62
     7
 10
117.2858584705935
 20
11.21302593139249
 30
0.0
 40
1.6288411458333321
  1
1
 41
0.7
 11
117.2858584705935
 21
12.84186707722583
 31
0.0
 73
     3
  0
TEXT
  5
48
  8
HIBINO-BASE
 62
     7
 10
149.00581001103461
 20
12.86364666666667
 30
0.0
 40
1.6288411458333321
  1
Ootake
 41
0.7
 11
149.00581001103461
 21
14.4924878125
 31
0.0
 73
     3
  0
TEXT
  5
49
  8
HIBINO-BASE
 62
     7
 10
103.8833333333333
 20
11.97600000000001
 30
0.0
 40
3.257682291666665
  1
A4
 41
0.7
 11
103.8833333333333
 21
15.23368229166668
 31
0.0
 73
     3
  0
TEXT
  5
4A
  8
HIBINO-BASE
 62
     7
 10
100.9583333333333
 20
17.380545000000001
 30
0.0
 40
1.6288411458333321
  1
PAPER SIZE
 41
0.7
 11
100.9583333333333
 21
19.009386145833329
 31
0.0
 73
     3
  0
CIRCLE
  5
4B
  8
PATTERN_FILL
  6
CONTINUOUS
 62
     7
 10
36.160214650760089
 20
119.56999999999999
 30
0.0
 40
0.1499999999999986
  0
CIRCLE
  5
4C
  8
PATTERN_FILL
  6
CONTINUOUS
 62
     7
 10
36.160214650760089
 20
120.56999999999999
 30
0.0
 40
0.1499999999999986
  0
CIRCLE
  5
4D
  8
PATTERN_FILL
  6
CONTINUOUS
 62
     7
 10
36.160214650760089
 20
121.56999999999999
 30
0.0
 40
0.1499999999999986
  0
CIRCLE
  5
4E
  8
PATTERN_FILL
  6
CONTINUOUS
 62
     7
 10
36.160214650760089
 20
122.56999999999999
 30
0.0
 40
0.1499999999999986
  0
CIRCLE
  5
4F
  8
PATTERN_FILL
  6
CONTINUOUS
 62
     7
 10
36.160214650760089
 20
123.56999999999999
 30
0.0
 40
0.1499999999999986
  0
CIRCLE
  5
50
  8
PATTERN_FILL
  6
CONTINUOUS
 62
     7
 10
36.701632154556997
 20
120.065984452405
 30
0.0
 40
0.1499999999999986
  0
CIRCLE
  5
51
  8
PATTERN_FILL
  6
CONTINUOUS
 62
     7
 10
36.701632154556997
 20
121.065984452405
 30
0.0
 40
0.1499999999999986
  0
CIRCLE
  5
52
  8
PATTERN_FILL
  6
CONTINUOUS
 62
     7
 10
36.701632154556997
 20
122.065984452405
 30
0.0
 40
0.1499999999999986
  0
CIRCLE
  5
53
  8
PATTERN_FILL
  6
CONTINUOUS
 62
     7
 10
36.701632154556997
 20
123.065984452405
 30
0.0
 40
0.1499999999999986
  0
LINE
  5
54
  8
PATTERN_FILL
  6
CONTINUOUS
 62
     7
 10
24.735092899827109
 20
120.0214042156697
 30
0.0
 11
23.371404215521
 21
121.3850928999758
 31
0.0
  0
LINE
  5
55
  8
PATTERN_FILL
  6
CONTINUOUS
 62
     7
 10
25.411474069765219
 20
120.0521298269181
 30
0.0
 11
23.402129826768451
 21
122.06147406991479
 31
0.0
  0
LINE
  5
56
  8
PATTERN_FILL
  6
CONTINUOUS
 62
     7
 10
25.902204907107659
 20
120.2685057707622
 30
0.0
 11
23.618505770614
 21
122.5522049072559
 31
0.0
  0
LINE
  5
57
  8
PATTERN_FILL
  6
CONTINUOUS
 62
     7
 10
26.275061088664231
 20
120.6027563703922
 30
0.0
 11
23.952756370245211
 21
122.9250610888112
 31
0.0
  0
LINE
  5
58
  8
PATTERN_FILL
  6
CONTINUOUS
 62
     7
 10
26.536447230368491
 20
121.0484770098745
 30
0.0
 11
24.398477009726271
 21
123.18644723051671
 31
0.0
  0
LINE
  5
59
  8
PATTERN_FILL
  6
CONTINUOUS
 62
     7
 10
24.96196090346201
 20
120.00043853479571
 30
0.0
 11
26.649561464853772
 21
121.6880390961875
 31
0.0
  0
LINE
  5
5A
  8
PATTERN_FILL
  6
CONTINUOUS
 62
     7
 10
24.376680894220829
 20
120.1222653067411
 30
0.0
 11
26.527734692909689
 21
122.27331910543001
 31
0.0
  0
LINE
  5
5B
  8
PATTERN_FILL
  6
CONTINUOUS
 62
     7
 10
23.936106636760439
 20
120.3887978304673
 30
0.0
 11
26.261202169184401
 21
122.7138933628912
 31
0.0
  0
LINE
  5
5C
  8
PATTERN_FILL
  6
CONTINUOUS
 62
     7
 10
23.606559618209658
 20
120.76635759310309
 30
0.0
 11
25.883642406548219
 21
123.0434403814416
 31
0.0
  0
LINE
  5
5D
  8
PATTERN_FILL
  6
CONTINUOUS
 62
     7
 10
23.396039860014358
 20
121.2629446160943
 30
0.0
 11
25.387055383556952
 21
123.2539601396369
 31
0.0
  0
LINE
  5
5E
  8
PATTERN_FILL
  6
CONTINUOUS
 62
     7
 10
23.37784659523523
 20
121.9518581325017
 30
0.0
 11
24.698141867149548
 21
123.272153404416
 31
0.0
  0
LINE
  5
5F
  8
PATTERN_FILL
  6
CONTINUOUS
 62
     7
 10
26.64998084820202
 20
121.6420501732275
 30
0.0
 11
24.992050173078841
 21
123.2999808483507
 31
0.0
  0
TEXT
  5
60
  8
SPEC
 62
     7
 10
18.75
 20
261.39326999999997
 30
0.0
 40
2.4432617187500001
  1
仕様
 41
0.7
 11
18.75
 21
263.83653171875
 31
0.0
 73
     3
  0
LINE
  5
61
  8
SPEC
  6
CONTINUOUS
 62
     7
 10
17.499999999999979
 20
260.0
 30
0.0
 11
164.9999999999998
 21
260.0
 31
0.0
  0
LINE
  5
62
  8
SPEC
  6
CONTINUOUS
 62
     7
 10
17.499999999999979
 20
256.25
 30
0.0
 11
164.9999999999998
 21
256.25
 31
0.0
  0
LINE
  5
63
  8
SPEC
  6
CONTINUOUS
 62
     7
 10
17.499999999999979
 20
241.25
 30
0.0
 11
164.9999999999998
 21
241.25
 31
0.0
  0
LINE
  5
64
  8
SPEC
  6
CONTINUOUS
 62
     7
 10
17.499999999999979
 20
245.0
 30
0.0
 11
164.9999999999998
 21
245.0
 31
0.0
  0
LINE
  5
65
  8
SPEC
  6
CONTINUOUS
 62
     7
 10
17.499999999999979
 20
248.75
 30
0.0
 11
164.9999999999998
 21
248.75
 31
0.0
  0
LINE
  5
66
  8
SPEC
  6
CONTINUOUS
 62
     7
 10
17.499999999999979
 20
237.5
 30
0.0
 11
164.9999999999998
 21
237.5
 31
0.0
  0
LINE
  5
67
  8
SPEC
  6
CONTINUOUS
 62
     7
 10
17.499999999999979
 20
230.0
 30
0.0
 11
164.9999999999998
 21
230.0
 31
0.0
  0
LINE
  5
68
  8
SPEC
  6
CONTINUOUS
 62
     7
 10
17.499999999999979
 20
233.75
 30
0.0
 11
164.9999999999998
 21
233.75
 31
0.0
  0
LINE
  5
69
  8
SPEC
  6
CONTINUOUS
 62
     7
 10
17.499999999999979
 20
226.25
 30
0.0
 11
164.9999999999998
 21
226.25
 31
0.0
  0
LINE
  5
6A
  8
SPEC
  6
CONTINUOUS
 62
     7
 10
17.499999999999979
 20
252.5
 30
0.0
 11
164.9999999999998
 21
252.5
 31
0.0
  0
TEXT
  5
6B
  8
SPEC
 62
     7
 10
55.731560059247222
 20
257.03990717968202
 30
0.0
 40
1.900314670138888
  1
エレクトレットコンデンサ型 
 41
0.7
 11
55.731560059247222
 21
258.94022184982077
 31
0.0
 73
     3
  0
LINE
  5
6C
  8
SPEC
  6
CONTINUOUS
 62
     7
 10
17.499999999999979
 20
260.0
 30
0.0
 11
17.499999999999979
 21
215.0
 31
0.0
  0
LINE
  5
6D
  8
SPEC
  6
CONTINUOUS
 62
     7
 10
54.999999999999972
 20
260.0
 30
0.0
 11
54.999999999999972
 21
215.0
 31
0.0
  0
LINE
  5
6E
  8
SPEC
  6
CONTINUOUS
 62
     7
 10
164.9999999999998
 20
260.0
 30
0.0
 11
164.9999999999998
 21
215.0
 31
0.0
  0
TEXT
  5
6F
  8
SPEC
 62
     7
 10
18.28717268866383
 20
245.87126352922581
 30
0.0
 40
1.900314670138888
  1
開回路感度
 41
0.7
 11
18.28717268866383
 21
247.77157819936471
 31
0.0
 73
     3
  0
TEXT
  5
70
  8
SPEC
 62
     7
 10
18.348688297654391
 20
257.14722376392439
 30
0.0
 40
1.900314670138888
  1
形式
 41
0.7
 11
18.348688297654391
 21
259.04753843406331
 31
0.0
 73
     3
  0
TEXT
  5
71
  8
SPEC
 62
     7
 10
18.392257437391049
 20
238.5036427625987
 30
0.0
 40
1.900314670138888
  1
最大音圧レベル
 41
0.7
 11
18.392257437391049
 21
240.4039574327376
 31
0.0
 73
     3
  0
TEXT
  5
72
  8
SPEC
 62
     7
 10
18.376755850424971
 20
242.09467093967049
 30
0.0
 40
1.900314670138888
  1
等価雑音レベル(Aウェイト)
 41
0.7
 11
18.376755850424971
 21
243.99498560980939
 31
0.0
 73
     3
  0
TEXT
  5
73
  8
SPEC
 62
     7
 10
18.405723418229559
 20
249.70611951032799
 30
0.0
 40
1.900314670138888
  1
周波数特性
 41
0.7
 11
18.405723418229559
 21
251.60643418046689
 31
0.0
 73
     3
  0
TEXT
  5
74
  8
SPEC
 62
     7
 10
18.36802881275382
 20
253.47666140858439
 30
0.0
 40
1.900314670138888
  1
指向特性
 41
0.7
 11
18.36802881275382
 21
255.37697607872329
 31
0.0
 73
     3
  0
TEXT
  5
75
  8
SPEC
 62
     7
 10
55.963999667955243
 20
245.89782666708831
 30
0.0
 40
1.900314670138888
  1
-51.0dBV/Pa(3.0mW)
 41
0.7
 11
55.963999667955243
 21
247.79814133722721
 31
0.0
 73
     3
  0
TEXT
  5
76
  8
SPEC
 62
     7
 10
55.77526515411212
 20
238.53494259550649
 30
0.0
 40
1.900314670138888
  1
147.5dB SPL
 41
0.7
 11
55.77526515411212
 21
240.43525726564539
 31
0.0
 73
     3
  0
TEXT
  5
77
  8
SPEC
 62
     7
 10
55.910842196017491
 20
242.15208202718861
 30
0.0
 40
1.900314670138888
  1
36.5dB
 41
0.7
 11
55.910842196017491
 21
244.05239669732759
 31
0.0
 73
     3
  0
TEXT
  5
78
  8
SPEC
 62
     7
 10
55.712018841364149
 20
253.3965912244683
 30
0.0
 40
1.900314670138888
  1
カーディオイド
 41
0.7
 11
55.712018841364149
 21
255.29690589460719
 31
0.0
 73
     3
  0
TEXT
  5
79
  8
SPEC
 62
     7
 10
55.897278042665242
 20
249.60047675117551
 30
0.0
 40
1.900314670138888
  1
20Hz～20kHz
 41
0.7
 11
55.897278042665242
 21
251.5007914213144
 31
0.0
 73
     3
  0
TEXT
  5
7A
  8
SPEC
 62
     7
 10
18.399999999999959
 20
219.8336528272267
 30
0.0
 40
1.900314670138888
  1
付属品
 41
0.7
 11
18.399999999999959
 21
221.7339674973656
 31
0.0
 73
     3
  0
TEXT
  5
7B
  8
SPEC
 62
     7
 10
18.32766754645926
 20
234.68872329948891
 30
0.0
 40
1.900314670138888
  1
電源
 41
0.7
 11
18.32766754645926
 21
236.58903796962781
 31
0.0
 73
     3
  0
TEXT
  5
7C
  8
SPEC
 62
     7
 10
18.362872657626848
 20
223.45937397731751
 30
0.0
 40
1.900314670138888
  1
重量
 41
0.7
 11
18.362872657626848
 21
225.35968864745641
 31
0.0
 73
     3
  0
TEXT
  5
7D
  8
SPEC
 62
     7
 10
55.910330939025272
 20
234.69929058895809
 30
0.0
 40
1.900314670138888
  1
DC5V(0.04～0.18mA)
 41
0.7
 11
55.910330939025272
 21
236.59960525909699
 31
0.0
 73
     3
  0
LINE
  5
7E
  8
SPEC
  6
CONTINUOUS
 62
     7
 10
17.499999999999979
 20
222.5
 30
0.0
 11
164.9999999999998
 21
222.5
 31
0.0
  0
LINE
  5
7F
  8
SPEC
  6
CONTINUOUS
 62
     7
 10
54.999999999999957
 20
218.75
 30
0.0
 11
164.9999999999998
 21
218.75
 31
0.0
  0
TEXT
  5
80
  8
SPEC
 62
     7
 10
18.133511754687991
 20
231.01246265700399
 30
0.0
 40
1.900314670138888
  1
コネクター
 41
0.7
 11
18.133511754687991
 21
232.91277732714289
 31
0.0
 73
     3
  0
TEXT
  5
81
  8
SPEC
 62
     7
 10
55.911402207773371
 20
230.89927316003951
 30
0.0
 40
1.900314670138888
  1
Switchcraft TA4F
 41
0.7
 11
55.911402207773371
 21
232.79958783017841
 31
0.0
 73
     3
  0
TEXT
  5
82
  8
SPEC
 62
     7
 10
55.837324495523362
 20
223.44929058895809
 30
0.0
 40
1.900314670138888
  1
約28g(ケーブル、コネクター含む)
 41
0.7
 11
55.837324495523362
 21
225.34960525909699
 31
0.0
 73
     3
  0
TEXT
  5
83
  8
SPEC
 62
     7
 10
55.884111960528912
 20
219.66610359103589
 30
0.0
 40
1.900314670138888
  1
保管用ポーチ、マルチポジションタイクリップ\U+00D71、スナップフィットウインドスクリーン\U+00D71、
 41
0.7
 11
55.884111960528912
 21
221.56641826117479
 31
0.0
 73
     3
  0
TEXT
  5
84
  8
SPEC
 62
     7
 10
55.81007971599017
 20
215.94929058895809
 30
0.0
 40
1.900314670138888
  1
マイルドブーストEQキャップ\U+00D71
 41
0.7
 11
55.81007971599017
 21
217.84960525909699
 31
0.0
 73
     3
  0
LINE
  5
85
  8
SPEC
  6
CONTINUOUS
 62
     7
 10
17.499999999999979
 20
215.0
 30
0.0
 11
164.9999999999998
 21
215.0
 31
0.0
  0
TEXT
  5
86
  8
SPEC
 62
     7
 10
18.308559070105701
 20
227.1870294907398
 30
0.0
 40
1.900314670138888
  1
ケーブル長さ
 41
0.7
 11
18.308559070105701
 21
229.0873441608787
 31
0.0
 73
     3
  0
TEXT
  5
87
  8
SPEC
 62
     7
 10
55.911402207773371
 20
227.14927316003951
 30
0.0
 40
1.900314670138888
  1
1.5m
 41
0.7
 11
55.911402207773371
 21
229.04958783017841
 31
0.0
 73
     3
  0
TEXT
  5
88
  8
DIMNSIONS
 62
     7
 10
79.999999999999986
 20
22.269490000000012
 30
0.0
 40
2.4432617187500001
  1
(単位：mm)
 41
0.7
 11
79.999999999999986
 21
24.71275171875001
 31
0.0
 73
     3
  0
LINE
  5
89
  8
DIMNSIONS
  6
CONTINUOUS
 62
     7
 10
26.636805660416648
 20
124.16413349460809
 30
0.0
 11
31.249999999999989
 21
131.25
 31
0.0
  0
LINE
  5
8A
  8
DIMNSIONS
  6
CONTINUOUS
 62
     7
 10
26.636805660416648
 20
124.16413349460809
 30
0.0
 11
27.47964788415451
 21
126.6119250489521
 31
0.0
  0
LINE
  5
8B
  8
DIMNSIONS
  6
CONTINUOUS
 62
     7
 10
26.636805660416648
 20
124.16413349460809
 30
0.0
 11
28.590624214727779
 21
125.8625620519701
 31
0.0
  0
LINE
  5
8C
  8
DIMNSIONS
  6
CONTINUOUS
 62
     7
 10
31.249999999999989
 20
131.25
 30
0.0
 11
38.54166666666665
 21
131.25
 31
0.0
  0
TEXT
  5
8D
  8
DIMNSIONS
 62
     7
 10
33.249999999999993
 20
132.24388888888879
 30
0.0
 40
2.714735243055554
  1
\U+03C66
 41
0.7
 11
33.249999999999993
 21
134.95862413194439
 31
0.0
 73
     3
  0
LINE
  5
8E
  8
DIMNSIONS
  6
CONTINUOUS
 62
     7
 10
113.2499999999543
 20
125.5249999995703
 30
0.0
 11
113.2499999999543
 21
144.39969412959999
 31
0.0
  0
LINE
  5
8F
  8
DIMNSIONS
  6
CONTINUOUS
 62
     7
 10
166.24999999995379
 20
127.6499449995702
 30
0.0
 11
166.24999999995379
 21
144.39969412959999
 31
0.0
  0
LINE
  5
90
  8
DIMNSIONS
  6
CONTINUOUS
 62
     7
 10
113.2499999999543
 20
142.39969412959999
 30
0.0
 11
166.24999999995379
 21
142.39969412959999
 31
0.0
  0
LINE
  5
91
  8
DIMNSIONS
  6
CONTINUOUS
 62
     7
 10
113.2499999999543
 20
142.39969412959999
 30
0.0
 11
115.750622558548
 21
143.0697339247501
 31
0.0
  0
LINE
  5
92
  8
DIMNSIONS
  6
CONTINUOUS
 62
     7
 10
113.2499999999543
 20
142.39969412959999
 30
0.0
 11
115.750622558548
 21
141.72965433444969
 31
0.0
  0
LINE
  5
93
  8
DIMNSIONS
  6
CONTINUOUS
 62
     7
 10
166.24999999995379
 20
142.39969412959999
 30
0.0
 11
163.74937744136011
 21
141.72965433444969
 31
0.0
  0
LINE
  5
94
  8
DIMNSIONS
  6
CONTINUOUS
 62
     7
 10
166.24999999995379
 20
142.39969412959999
 30
0.0
 11
163.74937744136011
 21
143.0697339247501
 31
0.0
  0
TEXT
  5
95
  8
DIMNSIONS
 62
     7
 10
137.98611111106521
 20
143.39358301848881
 30
0.0
 40
2.714735243055554
  1
53
 41
0.7
 11
137.98611111106521
 21
146.10831826154441
 31
0.0
 73
     3
  0
LINE
  5
96
  8
DIMNSIONS
  6
CONTINUOUS
 62
     7
 10
31.249999999999989
 20
116.6499999999
 30
0.0
 11
31.249999999999989
 21
98.0
 31
0.0
  0
LINE
  5
97
  8
DIMNSIONS
  6
CONTINUOUS
 62
     7
 10
128.24999999995441
 20
117.42439890623061
 30
0.0
 11
128.24999999995441
 21
98.0
 31
0.0
  0
LINE
  5
98
  8
DIMNSIONS
  6
CONTINUOUS
 62
     7
 10
31.249999999999989
 20
100.0
 30
0.0
 11
128.24999999995441
 21
100.0
 31
0.0
  0
LINE
  5
99
  8
DIMNSIONS
  6
CONTINUOUS
 62
     7
 10
31.249999999999989
 20
100.0
 30
0.0
 11
33.750622558593733
 21
100.6700397951502
 31
0.0
  0
LINE
  5
9A
  8
DIMNSIONS
  6
CONTINUOUS
 62
     7
 10
31.249999999999989
 20
100.0
 30
0.0
 11
33.750622558593733
 21
99.329960204849755
 31
0.0
  0
LINE
  5
9B
  8
DIMNSIONS
  6
CONTINUOUS
 62
     7
 10
128.24999999995441
 20
100.0
 30
0.0
 11
125.74937744136059
 21
99.329960204849755
 31
0.0
  0
LINE
  5
9C
  8
DIMNSIONS
  6
CONTINUOUS
 62
     7
 10
128.24999999995441
 20
100.0
 30
0.0
 11
125.74937744136059
 21
100.6700397951502
 31
0.0
  0
TEXT
  5
9D
  8
DIMNSIONS
 62
     7
 10
76.22222222219942
 20
100.9938888888888
 30
0.0
 40
2.714735243055554
  1
1500
 41
0.7
 11
76.22222222219942
 21
103.7086241319444
 31
0.0
 73
     3
  0
LINE
  5
9E
  8
DIMNSIONS
  6
CONTINUOUS
 62
     7
 10
31.249999999999989
 20
116.6499999999
 30
0.0
 11
31.249999999999989
 21
104.25
 31
0.0
  0
LINE
  5
9F
  8
DIMNSIONS
  6
CONTINUOUS
 62
     7
 10
45.249999999999993
 20
118.0499999999
 30
0.0
 11
45.249999999999993
 21
104.25
 31
0.0
  0
LINE
  5
A0
  8
DIMNSIONS
  6
CONTINUOUS
 62
     7
 10
31.249999999999989
 20
106.25
 30
0.0
 11
45.249999999999993
 21
106.25
 31
0.0
  0
LINE
  5
A1
  8
DIMNSIONS
  6
CONTINUOUS
 62
     7
 10
31.249999999999989
 20
106.25
 30
0.0
 11
33.750622558593733
 21
106.9200397951502
 31
0.0
  0
LINE
  5
A2
  8
DIMNSIONS
  6
CONTINUOUS
 62
     7
 10
31.249999999999989
 20
106.25
 30
0.0
 11
33.750622558593733
 21
105.5799602048497
 31
0.0
  0
LINE
  5
A3
  8
DIMNSIONS
  6
CONTINUOUS
 62
     7
 10
45.249999999999993
 20
106.25
 30
0.0
 11
42.749377441406239
 21
105.5799602048497
 31
0.0
  0
LINE
  5
A4
  8
DIMNSIONS
  6
CONTINUOUS
 62
     7
 10
45.249999999999993
 20
106.25
 30
0.0
 11
42.749377441406239
 21
106.9200397951502
 31
0.0
  0
TEXT
  5
A5
  8
DIMNSIONS
 62
     7
 10
36.4861111111111
 20
107.2438888888888
 30
0.0
 40
2.714735243055554
  1
14
 41
0.7
 11
36.4861111111111
 21
109.9586241319444
 31
0.0
 73
     3
  0
TEXT
  5
A6
  8
DATA
 62
     7
 10
150.0
 20
21.220657472908758
 30
0.0
 40
2.4432617187500001
  1
MX150B/C-TQG
 41
0.7
 11
150.0
 21
23.66391919165876
 31
0.0
 73
     3
  0
TEXT
  5
A7
  8
DATA
 62
     7
 10
150.0
 20
28.380890000000011
 30
0.0
 40
2.4432617187500001
  1
SHURE
 41
0.7
 11
150.0
 21
30.824151718750009
 31
0.0
 73
     3
  0
TEXT
  5
A8
  8
DATA
 62
     7
 10
147.4999999999998
 20
24.99370413957541
 30
0.0
 40
1.6288411458333321
  1
ラベリアマイクロホン
 41
0.7
 11
147.4999999999998
 21
26.622545285408751
 31
0.0
 73
     3
  0
TEXT
  5
A9
  8
DATA
 62
     7
 10
20.0
 20
14.238
 30
0.0
 40
1.6288411458333321
  1
仕様および外観は予告なく変更されることがありますので、ご了承ください。
 41
0.7
 11
20.0
 21
15.86684114583333
 31
0.0
 73
     3
  0
CIRCLE
  5
AA
  8
DATA
  6
CONTINUOUS
 62
     7
 10
176.26226484427011
 20
122.04629499986819
 30
0.0
 40
0.5999000000000409
  0
CIRCLE
  5
AB
  8
DATA
  6
CONTINUOUS
 62
     7
 10
174.26226484427011
 20
122.58682209684611
 30
0.0
 40
0.6000200000000682
  0
CIRCLE
  5
AC
  8
DATA
  6
CONTINUOUS
 62
     7
 10
178.26226484427011
 20
122.58682209684611
 30
0.0
 40
0.5999300000000681
  0
CIRCLE
  5
AD
  8
DATA
  6
CONTINUOUS
 62
     7
 10
176.26226484427011
 20
120.04629499986819
 30
0.0
 40
0.5999000000000409
  0
LINE
  5
AE
  8
DATA
  6
CONTINUOUS
 62
     7
 10
175.26226484427011
 20
126.1761849998683
 30
0.0
 11
175.26226484427011
 21
125.4003049998683
 31
0.0
  0
LINE
  5
AF
  8
DATA
  6
CONTINUOUS
 62
     7
 10
177.26226484427011
 20
126.1761849998683
 30
0.0
 11
177.26226484427011
 21
125.4003049998683
 31
0.0
  0
LINE
  5
B0
  8
DATA
  6
CONTINUOUS
 62
     7
 10
174.09625484427011
 20
124.79629499986829
 30
0.0
 11
178.4271448442702
 21
124.79629499986829
 31
0.0
  0
ARC
  5
B1
  8
DATA
  6
CONTINUOUS
 62
     7
 10
176.26226484427011
 20
122.04629499986819
 30
0.0
 40
3.49991186747613
 50
106.6019797549916
 51
73.398020245008311
  0
ARC
  5
B2
  8
DATA
  6
CONTINUOUS
 62
     7
 10
176.26226484427011
 20
122.04629499986819
 30
0.0
 40
4.2492342147850692
 50
103.61146039991699
 51
76.40132609757886
  0
LINE
  5
B3
  8
DATA
  6
CONTINUOUS
 62
     7
 10
174.59126484427031
 20
125.12128499986839
 30
0.0
 11
177.93216484427009
 21
125.12128499986839
 31
0.0
  0
LINE
  5
B4
  8
DATA
  6
CONTINUOUS
 62
     7
 10
175.3621648442703
 20
126.79629499986829
 30
0.0
 11
177.1621348442703
 21
126.79629499986829
 31
0.0
  0
LINE
  5
B5
  8
DATA
  6
CONTINUOUS
 62
     7
 10
177.1621348442703
 20
126.79629499986829
 30
0.0
 11
177.1621348442703
 21
125.23518499986839
 31
0.0
  0
LINE
  5
B6
  8
DATA
  6
CONTINUOUS
 62
     7
 10
177.1621348442703
 20
125.23518499986839
 30
0.0
 11
175.3621648442703
 21
125.23518499986839
 31
0.0
  0
LINE
  5
B7
  8
DATA
  6
CONTINUOUS
 62
     7
 10
175.3621648442703
 20
125.23518499986839
 30
0.0
 11
175.3621648442703
 21
126.79629499986829
 31
0.0
  0
CIRCLE
  5
B8
  8
DATA
  6
CONTINUOUS
 62
     7
 10
176.26226484427011
 20
122.04629499986819
 30
0.0
 40
5.2499100000000212
  0
LINE
  5
B9
  8
DATA
  6
CONTINUOUS
 62
     7
 10
174.76226484427011
 20
127.07718499986829
 30
0.0
 11
174.76226484427011
 21
127.8673049998683
 31
0.0
  0
LINE
  5
BA
  8
DATA
  6
CONTINUOUS
 62
     7
 10
177.76226484427011
 20
127.8673049998683
 30
0.0
 11
177.76226484427011
 21
127.07718499986829
 31
0.0
  0
ARC
  5
BB
  8
DATA
  6
CONTINUOUS
 62
     7
 10
176.26226484427011
 20
127.1203049998683
 30
0.0
 40
1.6757114906809041
 50
26.47330461095763
 51
153.5266953890424
  0
CIRCLE
  5
BC
  8
DATA
  6
CONTINUOUS
 62
     7
 10
176.26226484427011
 20
122.04629499986819
 30
0.0
 40
5.2499100000000212
  0
ARC
  5
BD
  8
DATA
  6
CONTINUOUS
 62
     7
 10
85.551411144471544
 20
124.0290386771934
 30
0.0
 40
4.4194173824158787
 50
315.00000000000051
 51
44.99999999999995
  0
ARC
  5
BE
  8
DATA
  6
CONTINUOUS
 62
     7
 10
91.801411144471444
 20
117.7790386771935
 30
0.0
 40
4.4194173824158787
 50
135.0000000000004
 51
225.00027502018131
  0
ARC
  5
BF
  8
DATA
  6
CONTINUOUS
 62
     7
 10
82.894257767523342
 20
124.0290386771934
 30
0.0
 40
4.4194173824158911
 50
315.00000000000068
 51
44.999999999999893
  0
ARC
  5
C0
  8
DATA
  6
CONTINUOUS
 62
     7
 10
89.144267767523388
 20
117.7790386771935
 30
0.0
 40
4.4194244534893441
 50
135.000091673101
 51
225.00009167310009
  0
CIRCLE
  5
C1
  8
DATA
  6
CONTINUOUS
 62
     7
 10
24.999999999751282
 20
121.6499999999
 30
0.0
 40
3.0
  0
LINE
  5
C2
  8
DATA
  6
CONTINUOUS
 62
     7
 10
31.249999999999989
 20
118.6499999999
 30
0.0
 11
31.249999999999989
 21
124.6499999999
 31
0.0
  0
LINE
  5
C3
  8
DATA
  6
CONTINUOUS
 62
     7
 10
39.549999999999997
 20
118.7499999999
 30
0.0
 11
38.54999999999999
 21
118.7499999999
 31
0.0
  0
LINE
  5
C4
  8
DATA
  6
CONTINUOUS
 62
     7
 10
37.849999999999987
 20
118.7499999999
 30
0.0
 11
36.949999999999989
 21
118.7499999999
 31
0.0
  0
LINE
  5
C5
  8
DATA
  6
CONTINUOUS
 62
     7
 10
45.249999999999993
 20
123.2499999999
 30
0.0
 11
45.249999999999993
 21
120.0499999999
 31
0.0
  0
LINE
  5
C6
  8
DATA
  6
CONTINUOUS
 62
     7
 10
36.949999999999989
 20
124.5499999999
 30
0.0
 11
37.849999999999987
 21
124.5499999999
 31
0.0
  0
LINE
  5
C7
  8
DATA
  6
CONTINUOUS
 62
     7
 10
38.54999999999999
 20
124.5499999999
 30
0.0
 11
39.549999999999997
 21
124.5499999999
 31
0.0
  0
CIRCLE
  5
C8
  8
DATA
  6
CONTINUOUS
 62
     7
 10
24.999999999751282
 20
121.6499999999
 30
0.0
 40
1.6500000000000039
  0
LINE
  5
C9
  8
DATA
  6
CONTINUOUS
 62
     7
 10
35.949999999999989
 20
118.6499999999
 30
0.0
 11
35.949999999999989
 21
124.6499999999
 31
0.0
  0
LINE
  5
CA
  8
DATA
  6
CONTINUOUS
 62
     7
 10
36.949999999999989
 20
118.7499999999
 30
0.0
 11
36.949999999999989
 21
124.5499999999
 31
0.0
  0
LINE
  5
CB
  8
DATA
  6
CONTINUOUS
 62
     7
 10
36.949999999999989
 20
119.2999999998684
 30
0.0
 11
35.949999999999989
 21
119.2999999998684
 31
0.0
  0
LINE
  5
CC
  8
DATA
  6
CONTINUOUS
 62
     7
 10
35.949999999999989
 20
123.99999999986839
 30
0.0
 11
36.949999999999989
 21
123.99999999986839
 31
0.0
  0
LINE
  5
CD
  8
DATA
  6
CONTINUOUS
 62
     7
 10
37.849999999999987
 20
118.6499999999
 30
0.0
 11
37.849999999999987
 21
124.6499999999
 31
0.0
  0
LINE
  5
CE
  8
DATA
  6
CONTINUOUS
 62
     7
 10
38.54999999999999
 20
118.6499999999
 30
0.0
 11
38.54999999999999
 21
124.6499999999
 31
0.0
  0
LINE
  5
CF
  8
DATA
  6
CONTINUOUS
 62
     7
 10
37.849999999999987
 20
124.6499999999
 30
0.0
 11
38.54999999999999
 21
124.6499999999
 31
0.0
  0
LINE
  5
D0
  8
DATA
  6
CONTINUOUS
 62
     7
 10
37.849999999999987
 20
118.6499999999
 30
0.0
 11
38.54999999999999
 21
118.6499999999
 31
0.0
  0
LINE
  5
D1
  8
DATA
  6
CONTINUOUS
 62
     7
 10
45.249999999999993
 20
123.2499999999
 30
0.0
 11
39.54999999999999
 21
124.5499999999
 31
0.0
  0
LINE
  5
D2
  8
DATA
  6
CONTINUOUS
 62
     7
 10
45.249999999999993
 20
120.0499999999
 30
0.0
 11
39.54999999999999
 21
118.7499999999
 31
0.0
  0
LINE
  5
D3
  8
DATA
  6
CONTINUOUS
 62
     7
 10
45.249999999999993
 20
122.6499999998684
 30
0.0
 11
87.150000000000006
 21
122.6499999998684
 31
0.0
  0
LINE
  5
D4
  8
DATA
  6
CONTINUOUS
 62
     7
 10
45.249999999999993
 20
120.6499999998684
 30
0.0
 11
85.784372890625534
 21
120.6499999998684
 31
0.0
  0
LINE
  5
D5
  8
DATA
  6
CONTINUOUS
 62
     7
 10
89.750161235444054
 20
122.6499999998684
 30
0.0
 11
113.2499999999543
 21
122.6499999998684
 31
0.0
  0
LINE
  5
D6
  8
DATA
  6
CONTINUOUS
 62
     7
 10
88.441525568487535
 20
120.6499999998684
 30
0.0
 11
113.2499999999543
 21
120.6499999998684
 31
0.0
  0
LINE
  5
D7
  8
DATA
  6
CONTINUOUS
 62
     7
 10
31.249999999999989
 20
124.6499999999
 30
0.0
 11
35.949999999999989
 21
124.6499999999
 31
0.0
  0
LINE
  5
D8
  8
DATA
  6
CONTINUOUS
 62
     7
 10
31.249999999999989
 20
118.6499999999
 30
0.0
 11
35.949999999999989
 21
118.6499999999
 31
0.0
  0
LINE
  5
D9
  8
DATA
  6
CONTINUOUS
 62
     7
 10
135.2499999999545
 20
126.4095464048097
 30
0.0
 11
143.7501899999547
 21
126.89994499957029
 31
0.0
  0
LINE
  5
DA
  8
DATA
  6
CONTINUOUS
 62
     7
 10
135.2499999999545
 20
116.89045359433101
 30
0.0
 11
143.7501899999547
 21
116.4000549995704
 31
0.0
  0
LINE
  5
DB
  8
DATA
  6
CONTINUOUS
 62
     7
 10
143.7501899999547
 20
126.89994499957029
 30
0.0
 11
150.2502399999544
 21
126.89994499957029
 31
0.0
  0
LINE
  5
DC
  8
DATA
  6
CONTINUOUS
 62
     7
 10
143.7501899999547
 20
116.4000549995704
 30
0.0
 11
150.2502399999544
 21
116.4000549995704
 31
0.0
  0
LINE
  5
DD
  8
DATA
  6
CONTINUOUS
 62
     7
 10
150.2502399999544
 20
126.89994499957029
 30
0.0
 11
157.75001999995439
 21
126.89994499957029
 31
0.0
  0
LINE
  5
DE
  8
DATA
  6
CONTINUOUS
 62
     7
 10
157.75001999995439
 20
116.4000549995704
 30
0.0
 11
150.2502399999544
 21
116.4000549995704
 31
0.0
  0
LINE
  5
DF
  8
DATA
  6
CONTINUOUS
 62
     7
 10
157.75001999995439
 20
126.89994499957029
 30
0.0
 11
157.75001999995439
 21
116.4000549995704
 31
0.0
  0
LINE
  5
E0
  8
DATA
  6
CONTINUOUS
 62
     7
 10
157.75001999995439
 20
117.6500549995704
 30
0.0
 11
166.24999999995379
 21
117.6500549995704
 31
0.0
  0
LINE
  5
E1
  8
DATA
  6
CONTINUOUS
 62
     7
 10
166.24999999995379
 20
117.6500549995704
 30
0.0
 11
166.24999999995379
 21
125.6499449995702
 31
0.0
  0
LINE
  5
E2
  8
DATA
  6
CONTINUOUS
 62
     7
 10
150.3501599999546
 20
126.89994499957029
 30
0.0
 11
150.3501599999546
 21
116.4000549995704
 31
0.0
  0
LINE
  5
E3
  8
DATA
  6
CONTINUOUS
 62
     7
 10
165.74999999995401
 20
126.6900649995702
 30
0.0
 11
165.74999999995401
 21
125.6499449995702
 31
0.0
  0
LINE
  5
E4
  8
DATA
  6
CONTINUOUS
 62
     7
 10
165.55011999995401
 20
125.6499449995702
 30
0.0
 11
165.55011999995401
 21
126.4501349995703
 31
0.0
  0
POLYLINE
  5
E5
  8
DATA
  6
CONTINUOUS
 62
     7
 66
     1
 10
0.0
 20
0.0
 30
0.0
 70
   129
  0
VERTEX
  5
27C
  8
DATA
  6
CONTINUOUS
 62
     7
 10
161.2250299999541
 20
125.86103499957029
 30
0.0
  0
VERTEX
  5
27D
  8
DATA
  6
CONTINUOUS
 62
     7
 10
161.22639274674799
 20
125.8606174682201
 30
0.0
  0
VERTEX
  5
27E
  8
DATA
  6
CONTINUOUS
 62
     7
 10
161.22639274674819
 20
125.86061746822
 30
0.0
 42
0.0515215183438041
  0
VERTEX
  5
27F
  8
DATA
  6
CONTINUOUS
 62
     7
 10
161.25012999995411
 20
125.8559449995702
 30
0.0
  0
SEQEND
  5
280
  8
DATA
  6
CONTINUOUS
 62
     7
  0
LINE
  5
EB
  8
DATA
  6
CONTINUOUS
 62
     7
 10
165.55011999995401
 20
126.4501349995703
 30
0.0
 11
161.27410999995419
 21
125.6539749995702
 31
0.0
  0
POLYLINE
  5
EC
  8
DATA
  6
CONTINUOUS
 62
     7
 66
     1
 10
0.0
 20
0.0
 30
0.0
 70
   129
  0
VERTEX
  5
281
  8
DATA
  6
CONTINUOUS
 62
     7
 10
161.2250299999541
 20
125.86103499957029
 30
0.0
  0
VERTEX
  5
282
  8
DATA
  6
CONTINUOUS
 62
     7
 10
161.22639274674799
 20
125.8606174682201
 30
0.0
  0
VERTEX
  5
283
  8
DATA
  6
CONTINUOUS
 62
     7
 10
161.22639274674819
 20
125.86061746822
 30
0.0
 42
0.0515215183438041
  0
VERTEX
  5
284
  8
DATA
  6
CONTINUOUS
 62
     7
 10
161.25012999995411
 20
125.8559449995702
 30
0.0
  0
SEQEND
  5
285
  8
DATA
  6
CONTINUOUS
 62
     7
  0
LINE
  5
F2
  8
DATA
  6
CONTINUOUS
 62
     7
 10
158.49811999995421
 20
126.2270449995703
 30
0.0
 11
158.35101999995419
 21
126.3670449995703
 31
0.0
  0
LINE
  5
F3
  8
DATA
  6
CONTINUOUS
 62
     7
 10
158.74872999995409
 20
126.6598449995703
 30
0.0
 11
158.35101999995419
 21
126.3670449995703
 31
0.0
  0
LINE
  5
F4
  8
DATA
  6
CONTINUOUS
 62
     7
 10
158.78630999995431
 20
126.4383349995703
 30
0.0
 11
158.49811999995421
 21
126.2270449995703
 31
0.0
  0
LINE
  5
F5
  8
DATA
  6
CONTINUOUS
 62
     7
 10
158.78630999995431
 20
126.4383349995703
 30
0.0
 11
161.22610999995419
 21
125.65697499957029
 31
0.0
  0
LINE
  5
F6
  8
DATA
  6
CONTINUOUS
 62
     7
 10
161.2250299999541
 20
125.86103499957029
 30
0.0
 11
158.74872999995409
 21
126.6598449995703
 31
0.0
  0
LINE
  5
F7
  8
DATA
  6
CONTINUOUS
 62
     7
 10
161.27410999995419
 20
125.8580449995703
 30
0.0
 11
165.74999999995401
 21
126.6900649995702
 31
0.0
  0
POLYLINE
  5
F8
  8
DATA
  6
CONTINUOUS
 62
     7
 66
     1
 10
0.0
 20
0.0
 30
0.0
 70
   129
  0
VERTEX
  5
286
  8
DATA
  6
CONTINUOUS
 62
     7
 10
161.2250299999541
 20
125.86103499957029
 30
0.0
  0
VERTEX
  5
287
  8
DATA
  6
CONTINUOUS
 62
     7
 10
161.22639274674799
 20
125.8606174682201
 30
0.0
  0
VERTEX
  5
288
  8
DATA
  6
CONTINUOUS
 62
     7
 10
161.22639274674819
 20
125.86061746822
 30
0.0
 42
0.0515215183438041
  0
VERTEX
  5
289
  8
DATA
  6
CONTINUOUS
 62
     7
 10
161.25012999995411
 20
125.8559449995702
 30
0.0
  0
SEQEND
  5
28A
  8
DATA
  6
CONTINUOUS
 62
     7
  0
LINE
  5
FE
  8
DATA
  6
CONTINUOUS
 62
     7
 10
158.25003999995431
 20
124.14994499957029
 30
0.0
 11
160.7500899999541
 21
124.14994499957029
 31
0.0
  0
LINE
  5
FF
  8
DATA
  6
CONTINUOUS
 62
     7
 10
158.25003999995431
 20
124.14994499957029
 30
0.0
 11
158.25003999995431
 21
125.6499449995702
 31
0.0
  0
LINE
  5
100
  8
DATA
  6
CONTINUOUS
 62
     7
 10
160.7500899999541
 20
124.14994499957029
 30
0.0
 11
160.7500899999541
 21
125.6499449995702
 31
0.0
  0
LINE
  5
101
  8
DATA
  6
CONTINUOUS
 62
     7
 10
158.25003999995431
 20
125.6499449995702
 30
0.0
 11
157.75001999995439
 21
125.6499449995702
 31
0.0
  0
LINE
  5
102
  8
DATA
  6
CONTINUOUS
 62
     7
 10
160.7500899999541
 20
125.6499449995702
 30
0.0
 11
166.24999999995379
 21
125.6499449995702
 31
0.0
  0
LINE
  5
103
  8
DATA
  6
CONTINUOUS
 62
     7
 10
160.73501999995409
 20
125.6409549995703
 30
0.0
 11
159.08212999995439
 21
125.6409549995703
 31
0.0
  0
LINE
  5
104
  8
DATA
  6
CONTINUOUS
 62
     7
 10
159.08212999995439
 20
125.6409549995703
 30
0.0
 11
159.08212999995439
 21
125.9929549995703
 31
0.0
  0
LINE
  5
105
  8
DATA
  6
CONTINUOUS
 62
     7
 10
159.08212999995439
 20
125.9929549995703
 30
0.0
 11
160.7500899999541
 21
125.6499449995702
 31
0.0
  0
ARC
  5
106
  8
DATA
  6
CONTINUOUS
 62
     7
 10
154.21810999995429
 20
126.7240049995703
 30
0.0
 40
1.6756891300298209
 50
26.473303386676971
 51
153.52700145607179
  0
LINE
  5
107
  8
DATA
  6
CONTINUOUS
 62
     7
 10
152.7180999999544
 20
127.47099499957029
 30
0.0
 11
152.7180999999544
 21
126.89994499957029
 31
0.0
  0
LINE
  5
108
  8
DATA
  6
CONTINUOUS
 62
     7
 10
155.71808999995429
 20
127.47099499957029
 30
0.0
 11
155.71808999995429
 21
126.89994499957029
 31
0.0
  0
LINE
  5
109
  8
DATA
  6
CONTINUOUS
 62
     7
 10
128.24999999995441
 20
119.42439890623061
 30
0.0
 11
128.24999999995441
 21
123.87560109291
 31
0.0
  0
ARC
  5
10A
  8
DATA
  6
CONTINUOUS
 62
     7
 10
135.4334546549353
 20
114.96706504163561
 30
0.0
 40
11.44395191168771
 50
90.918531272734128
 51
128.88118919175301
  0
LINE
  5
10B
  8
DATA
  6
CONTINUOUS
 62
     7
 10
135.2499999999545
 20
116.89045359433101
 30
0.0
 11
143.7501899999547
 21
116.4000549995704
 31
0.0
  0
LINE
  5
10C
  8
DATA
  6
CONTINUOUS
 62
     7
 10
143.7501899999547
 20
116.4000549995704
 30
0.0
 11
150.2502399999544
 21
116.4000549995704
 31
0.0
  0
ARC
  5
10D
  8
DATA
  6
CONTINUOUS
 62
     7
 10
135.4334546549353
 20
128.3329349575051
 30
0.0
 40
11.443951911687771
 50
231.11881080824699
 51
269.08146872726599
  0
LINE
  5
10E
  8
DATA
  6
CONTINUOUS
 62
     7
 10
113.2499999999543
 20
123.5249999995703
 30
0.0
 11
128.24999999995441
 21
123.87560109291
 31
0.0
  0
LINE
  5
10F
  8
DATA
  6
CONTINUOUS
 62
     7
 10
113.2499999999543
 20
119.7749999995703
 30
0.0
 11
128.24999999995441
 21
119.42439890623071
 31
0.0
  0
LINE
  5
110
  8
DATA
  6
CONTINUOUS
 62
     7
 10
113.2499999999543
 20
119.7749999995703
 30
0.0
 11
113.2499999999543
 21
123.5249999995703
 31
0.0
  0
ENDSEC
  0
EOF
