  0
SECTION
  2
HEADER
  9
$ACADVER
  1
AC1015
  9
$ACADMAINTVER
 70
    20
  9
$DWGCODEPAGE
  3
ANSI_932
  9
$INSBASE
 10
0.0
 20
0.0
 30
0.0
  9
$EXTMIN
 10
-270.0164782349211
 20
-405.6485877027885
 30
-0.0006609809499345
  9
$EXTMAX
 10
270.0164807494923
 20
397.0420186093907
 30
0.0000000151292312
  9
$LIMMIN
 10
0.0
 20
0.0
  9
$LIMMAX
 10
0.0
 20
0.0
  9
$ORTHOMODE
 70
     0
  9
$REGENMODE
 70
     1
  9
$FILLMODE
 70
     1
  9
$QTEXTMODE
 70
     0
  9
$MIRRTEXT
 70
     1
  9
$LTSCALE
 40
15.24
  9
$ATTMODE
 70
     1
  9
$TEXTSIZE
 40
0.0
  9
$TRACEWID
 40
1.0
  9
$TEXTSTYLE
  7
STANDARD
  9
$CLAYER
  8
DATA
  9
$CELTYPE
  6
ByLayer
  9
$CECOLOR
 62
   256
  9
$CELTSCALE
 40
1.0
  9
$DISPSILH
 70
     0
  9
$DIMSCALE
 40
1.0
  9
$DIMASZ
 40
0.18
  9
$DIMEXO
 40
0.0625
  9
$DIMDLI
 40
0.38
  9
$DIMRND
 40
0.0
  9
$DIMDLE
 40
0.0
  9
$DIMEXE
 40
0.18
  9
$DIMTP
 40
0.0
  9
$DIMTM
 40
0.0
  9
$DIMTXT
 40
0.18
  9
$DIMCEN
 40
0.09
  9
$DIMTSZ
 40
0.0
  9
$DIMTOL
 70
     0
  9
$DIMLIM
 70
     0
  9
$DIMTIH
 70
     1
  9
$DIMTOH
 70
     1
  9
$DIMSE1
 70
     0
  9
$DIMSE2
 70
     0
  9
$DIMTAD
 70
     0
  9
$DIMZIN
 70
     0
  9
$DIMBLK
  1

  9
$DIMASO
 70
     1
  9
$DIMSHO
 70
     1
  9
$DIMPOST
  1

  9
$DIMAPOST
  1

  9
$DIMALT
 70
     0
  9
$DIMALTD
 70
     2
  9
$DIMALTF
 40
25.4
  9
$DIMLFAC
 40
1.0
  9
$DIMTOFL
 70
     0
  9
$DIMTVP
 40
0.0
  9
$DIMTIX
 70
     0
  9
$DIMSOXD
 70
     0
  9
$DIMSAH
 70
     0
  9
$DIMBLK1
  1

  9
$DIMBLK2
  1

  9
$DIMSTYLE
  2
STANDARD
  9
$DIMCLRD
 70
     0
  9
$DIMCLRE
 70
     0
  9
$DIMCLRT
 70
     0
  9
$DIMTFAC
 40
1.0
  9
$DIMGAP
 40
0.09
  9
$DIMJUST
 70
     0
  9
$DIMSD1
 70
     0
  9
$DIMSD2
 70
     0
  9
$DIMTOLJ
 70
     1
  9
$DIMTZIN
 70
     0
  9
$DIMALTZ
 70
     0
  9
$DIMALTTZ
 70
     0
  9
$DIMUPT
 70
     0
  9
$DIMDEC
 70
     4
  9
$DIMTDEC
 70
     4
  9
$DIMALTU
 70
     2
  9
$DIMALTTD
 70
     2
  9
$DIMTXSTY
  7
STANDARD
  9
$DIMAUNIT
 70
     0
  9
$DIMADEC
 70
     0
  9
$DIMALTRND
 40
0.0
  9
$DIMAZIN
 70
     0
  9
$DIMDSEP
 70
    46
  9
$DIMATFIT
 70
     3
  9
$DIMFRAC
 70
     0
  9
$DIMLDRBLK
  1

  9
$DIMLUNIT
 70
     2
  9
$DIMLWD
 70
    -2
  9
$DIMLWE
 70
    -2
  9
$DIMTMOVE
 70
     0
  9
$LUNITS
 70
     2
  9
$LUPREC
 70
     4
  9
$SKETCHINC
 40
0.1
  9
$FILLETRAD
 40
0.0
  9
$AUNITS
 70
     0
  9
$AUPREC
 70
     0
  9
$MENU
  1
acad
  9
$ELEVATION
 40
0.0
  9
$PELEVATION
 40
0.0
  9
$THICKNESS
 40
0.0
  9
$LIMCHECK
 70
     0
  9
$CHAMFERA
 40
0.0
  9
$CHAMFERB
 40
0.0
  9
$CHAMFERC
 40
0.0
  9
$CHAMFERD
 40
0.0
  9
$SKPOLY
 70
     0
  9
$TDCREATE
 40
2457865.505046296
  9
$TDUCREATE
 40
2457865.130046297
  9
$TDUPDATE
 40
2457865.508715278
  9
$TDUUPDATE
 40
2457865.133715278
  9
$TDINDWG
 40
0.0002893519
  9
$TDUSRTIMER
 40
0.0002893519
  9
$USRTIMER
 70
     1
  9
$ANGBASE
 50
0.0
  9
$ANGDIR
 70
     0
  9
$PDMODE
 70
     1
  9
$PDSIZE
 40
-2.0
  9
$PLINEWID
 40
0.0
  9
$SPLFRAME
 70
     0
  9
$SPLINETYPE
 70
     6
  9
$SPLINESEGS
 70
     8
  9
$HANDSEED
  5
327
  9
$SURFTAB1
 70
     6
  9
$SURFTAB2
 70
     6
  9
$SURFTYPE
 70
     6
  9
$SURFU
 70
     6
  9
$SURFV
 70
     6
  9
$UCSBASE
  2

  9
$UCSNAME
  2

  9
$UCSORG
 10
0.0
 20
0.0
 30
0.0
  9
$UCSXDIR
 10
1.0
 20
0.0
 30
0.0
  9
$UCSYDIR
 10
0.0
 20
1.0
 30
0.0
  9
$UCSORTHOREF
  2

  9
$UCSORTHOVIEW
 70
     0
  9
$UCSORGTOP
 10
0.0
 20
0.0
 30
0.0
  9
$UCSORGBOTTOM
 10
0.0
 20
0.0
 30
0.0
  9
$UCSORGLEFT
 10
0.0
 20
0.0
 30
0.0
  9
$UCSORGRIGHT
 10
0.0
 20
0.0
 30
0.0
  9
$UCSORGFRONT
 10
0.0
 20
0.0
 30
0.0
  9
$UCSORGBACK
 10
0.0
 20
0.0
 30
0.0
  9
$PUCSBASE
  2

  9
$PUCSNAME
  2

  9
$PUCSORG
 10
0.0
 20
0.0
 30
0.0
  9
$PUCSXDIR
 10
1.0
 20
0.0
 30
0.0
  9
$PUCSYDIR
 10
0.0
 20
1.0
 30
0.0
  9
$PUCSORTHOREF
  2

  9
$PUCSORTHOVIEW
 70
     0
  9
$PUCSORGTOP
 10
0.0
 20
0.0
 30
0.0
  9
$PUCSORGBOTTOM
 10
0.0
 20
0.0
 30
0.0
  9
$PUCSORGLEFT
 10
0.0
 20
0.0
 30
0.0
  9
$PUCSORGRIGHT
 10
0.0
 20
0.0
 30
0.0
  9
$PUCSORGFRONT
 10
0.0
 20
0.0
 30
0.0
  9
$PUCSORGBACK
 10
0.0
 20
0.0
 30
0.0
  9
$USERI1
 70
     0
  9
$USERI2
 70
     0
  9
$USERI3
 70
     0
  9
$USERI4
 70
     0
  9
$USERI5
 70
     0
  9
$USERR1
 40
0.0
  9
$USERR2
 40
0.0
  9
$USERR3
 40
0.0
  9
$USERR4
 40
0.0
  9
$USERR5
 40
0.0
  9
$WORLDVIEW
 70
     1
  9
$SHADEDGE
 70
     3
  9
$SHADEDIF
 70
    70
  9
$TILEMODE
 70
     1
  9
$MAXACTVP
 70
    64
  9
$PINSBASE
 10
0.0
 20
0.0
 30
0.0
  9
$PLIMCHECK
 70
     0
  9
$PEXTMIN
 10
1.000000000000000E+20
 20
1.000000000000000E+20
 30
1.000000000000000E+20
  9
$PEXTMAX
 10
-1.000000000000000E+20
 20
-1.000000000000000E+20
 30
-1.000000000000000E+20
  9
$PLIMMIN
 10
0.0
 20
0.0
  9
$PLIMMAX
 10
12.0
 20
9.0
  9
$UNITMODE
 70
     0
  9
$VISRETAIN
 70
     0
  9
$PLINEGEN
 70
     1
  9
$PSLTSCALE
 70
     0
  9
$TREEDEPTH
 70
  3020
  9
$CMLSTYLE
  2
Standard
  9
$CMLJUST
 70
     0
  9
$CMLSCALE
 40
1.0
  9
$PROXYGRAPHICS
 70
     1
  9
$MEASUREMENT
 70
     0
  9
$CELWEIGHT
370
    -1
  9
$ENDCAPS
280
     0
  9
$JOINSTYLE
280
     0
  9
$LWDISPLAY
290
     0
  9
$INSUNITS
 70
     0
  9
$HYPERLINKBASE
  1

  9
$STYLESHEET
  1

  9
$XEDIT
290
     1
  9
$CEPSNTYPE
380
     0
  9
$PSTYLEMODE
290
     1
  9
$FINGERPRINTGUID
  2
{21D46FF5-6FCB-514B-A780-CB335504B9A8}
  9
$VERSIONGUID
  2
{D0C1DEE5-98C8-284A-A60B-DF9D5FEFB742}
  9
$EXTNAMES
290
     1
  9
$PSVPSCALE
 40
0.0
  9
$OLESTARTUP
290
     0
  0
ENDSEC
  0
SECTION
  2
CLASSES
  0
CLASS
  1
ACDBDICTIONARYWDFLT
  2
AcDbDictionaryWithDefault
  3
ObjectDBX Classes
 90
        0
280
     0
281
     0
  0
CLASS
  1
MATERIAL
  2
AcDbMaterial
  3
ObjectDBX Classes
 90
     1153
280
     0
281
     0
  0
CLASS
  1
VISUALSTYLE
  2
AcDbVisualStyle
  3
ObjectDBX Classes
 90
     4095
280
     0
281
     0
  0
CLASS
  1
SCALE
  2
AcDbScale
  3
ObjectDBX Classes
 90
     1153
280
     0
281
     0
  0
CLASS
  1
TABLESTYLE
  2
AcDbTableStyle
  3
ObjectDBX Classes
 90
     4095
280
     0
281
     0
  0
CLASS
  1
MLEADERSTYLE
  2
AcDbMLeaderStyle
  3
ACDB_MLEADERSTYLE_CLASS
 90
     4095
280
     0
281
     0
  0
CLASS
  1
ACDBSECTIONVIEWSTYLE
  2
AcDbSectionViewStyle
  3
ObjectDBX Classes
 90
     1025
280
     0
281
     0
  0
CLASS
  1
ACDBDETAILVIEWSTYLE
  2
AcDbDetailViewStyle
  3
ObjectDBX Classes
 90
     1025
280
     0
281
     0
  0
CLASS
  1
DICTIONARYVAR
  2
AcDbDictionaryVar
  3
ObjectDBX Classes
 90
        0
280
     0
281
     0
  0
CLASS
  1
CELLSTYLEMAP
  2
AcDbCellStyleMap
  3
ObjectDBX Classes
 90
     1152
280
     0
281
     0
  0
CLASS
  1
ACDBPLACEHOLDER
  2
AcDbPlaceHolder
  3
ObjectDBX Classes
 90
        0
280
     0
281
     0
  0
CLASS
  1
LAYOUT
  2
AcDbLayout
  3
ObjectDBX Classes
 90
        0
280
     0
281
     0
  0
ENDSEC
  0
SECTION
  2
TABLES
  0
TABLE
  2
VPORT
  5
24B
330
0
100
AcDbSymbolTable
 70
     1
  0
VPORT
  5
2B7
330
24B
100
AcDbSymbolTableRecord
100
AcDbViewportTableRecord
  2
*ACTIVE
 70
     0
 10
0.0
 20
0.0
 11
1.0
 21
1.0
 12
0.0000012572855894
 22
-4.303284546698932
 13
0.0
 23
0.0
 14
1.0
 24
1.0
 15
0.0
 25
0.0
 16
0.0
 26
0.0
 36
1.0
 17
0.0
 27
0.0
 37
0.0
 40
807.0649420414008
 41
2.309090909090909
 42
50.0
 43
0.0
 44
0.0
 50
0.0
 51
0.0
 71
     0
 72
  2000
 73
     1
 74
     1
 75
     0
 76
     0
 77
     0
 78
     0
281
     0
 65
     1
110
0.0
120
0.0
130
0.0
111
1.0
121
0.0
131
0.0
112
0.0
122
1.0
132
0.0
 79
     0
146
0.0
1001
ACAD_NAV_VCDISPLAY
1070
     3
  0
ENDTAB
  0
TABLE
  2
LTYPE
  5
248
330
0
100
AcDbSymbolTable
 70
    12
  0
LTYPE
  5
29D
330
248
100
AcDbSymbolTableRecord
100
AcDbLinetypeTableRecord
  2
ByBlock
 70
     0
  3

 72
    65
 73
     0
 40
0.0
  0
LTYPE
  5
29E
330
248
100
AcDbSymbolTableRecord
100
AcDbLinetypeTableRecord
  2
ByLayer
 70
     0
  3

 72
    65
 73
     0
 40
0.0
  0
LTYPE
  5
29F
330
248
100
AcDbSymbolTableRecord
100
AcDbLinetypeTableRecord
  2
CONTINUOUS
 70
     0
  3
Solid line
 72
    65
 73
     0
 40
0.0
  0
LTYPE
  5
2C2
330
248
100
AcDbSymbolTableRecord
100
AcDbLinetypeTableRecord
  2
STYLE_11
 70
     0
  3

 72
    65
 73
     2
 40
0.4165600000000001
 49
0.20828
 74
     0
 49
-0.20828
 74
     0
  0
ENDTAB
  0
TABLE
  2
LAYER
  5
245
330
0
100
AcDbSymbolTable
 70
     6
  0
LAYER
  5
297
102
{ACAD_XDICTIONARY
360
2CF
102
}
330
245
100
AcDbSymbolTableRecord
100
AcDbLayerTableRecord
  2
0
 70
     0
 62
     7
  6
CONTINUOUS
370
    -3
390
252
  0
LAYER
  5
2B6
102
{ACAD_XDICTIONARY
360
2D1
102
}
330
245
100
AcDbSymbolTableRecord
100
AcDbLayerTableRecord
  2
DATA
 70
     0
 62
     7
  6
CONTINUOUS
370
    -3
390
252
  0
LAYER
  5
2C3
102
{ACAD_XDICTIONARY
360
2D3
102
}
330
245
100
AcDbSymbolTableRecord
100
AcDbLayerTableRecord
  2
HIBINO-BASE
 70
     0
 62
     7
  6
CONTINUOUS
370
    -3
390
252
  0
LAYER
  5
2C4
102
{ACAD_XDICTIONARY
360
2D5
102
}
330
245
100
AcDbSymbolTableRecord
100
AcDbLayerTableRecord
  2
PATTERN_FILL
 70
     0
 62
     7
  6
CONTINUOUS
370
    -3
390
252
  0
LAYER
  5
2C5
102
{ACAD_XDICTIONARY
360
2D7
102
}
330
245
100
AcDbSymbolTableRecord
100
AcDbLayerTableRecord
  2
SPEC
 70
     0
 62
     7
  6
CONTINUOUS
370
    -3
390
252
  0
LAYER
  5
2C6
102
{ACAD_XDICTIONARY
360
2D9
102
}
330
245
100
AcDbSymbolTableRecord
100
AcDbLayerTableRecord
  2
DIMNSIONS
 70
     0
 62
     7
  6
CONTINUOUS
370
    -3
390
252
  0
ENDTAB
  0
TABLE
  2
STYLE
  5
246
330
0
100
AcDbSymbolTable
 70
     3
  0
STYLE
  5
298
330
246
100
AcDbSymbolTableRecord
100
AcDbTextStyleTableRecord
  2
STANDARD
 70
     0
 40
0.0
 41
1.0
 50
0.0
 71
     0
 42
0.0
  3
txt
  4
BIGFONT.SHX
  0
ENDTAB
  0
TABLE
  2
VIEW
  5
249
330
0
100
AcDbSymbolTable
 70
     0
  0
ENDTAB
  0
TABLE
  2
UCS
  5
24A
330
0
100
AcDbSymbolTable
 70
     0
  0
ENDTAB
  0
TABLE
  2
APPID
  5
24C
330
0
100
AcDbSymbolTable
 70
     4
  0
APPID
  5
299
330
24C
100
AcDbSymbolTableRecord
100
AcDbRegAppTableRecord
  2
ACAD
 70
     0
  0
APPID
  5
2A0
330
24C
100
AcDbSymbolTableRecord
100
AcDbRegAppTableRecord
  2
AcadAnnotative
 70
     0
  0
APPID
  5
2E5
330
24C
100
AcDbSymbolTableRecord
100
AcDbRegAppTableRecord
  2
ACAD_NAV_VCDISPLAY
 70
     0
  0
APPID
  5
31E
330
24C
100
AcDbSymbolTableRecord
100
AcDbRegAppTableRecord
  2
ACAD_MLEADERVER
 70
     0
  0
ENDTAB
  0
TABLE
  2
DIMSTYLE
  5
24D
330
0
100
AcDbSymbolTable
 70
     2
100
AcDbDimStyleTable
 71
     0
  0
DIMSTYLE
105
29A
330
24D
100
AcDbSymbolTableRecord
100
AcDbDimStyleTableRecord
  2
STANDARD
 70
     0
279
     2
340
298
  0
ENDTAB
  0
TABLE
  2
BLOCK_RECORD
  5
244
330
0
100
AcDbSymbolTable
 70
     2
  0
BLOCK_RECORD
  5
2B2
330
244
100
AcDbSymbolTableRecord
100
AcDbBlockTableRecord
  2
*Model_Space
340
2B5
  0
BLOCK_RECORD
  5
2AE
330
244
100
AcDbSymbolTableRecord
100
AcDbBlockTableRecord
  2
*Paper_Space
340
2B1
  0
BLOCK_RECORD
  5
2CB
330
244
100
AcDbSymbolTableRecord
100
AcDbBlockTableRecord
  2
____
340
0
102
{BLKREFS
331
235
102
}
  0
BLOCK_RECORD
  5
2CC
330
244
100
AcDbSymbolTableRecord
100
AcDbBlockTableRecord
  2
____-1
340
0
102
{BLKREFS
331
236
102
}
  0
ENDTAB
  0
ENDSEC
  0
SECTION
  2
BLOCKS
  0
BLOCK
  5
2B3
330
2B2
100
AcDbEntity
  8
0
100
AcDbBlockBegin
  2
*Model_Space
 70
     0
 10
0.0
 20
0.0
 30
0.0
  3
*Model_Space
  1

  0
ENDBLK
  5
2B4
330
2B2
100
AcDbEntity
  8
0
100
AcDbBlockEnd
  0
BLOCK
  5
2AF
330
2AE
100
AcDbEntity
 67
     1
  8
0
100
AcDbBlockBegin
  2
*Paper_Space
 70
     0
 10
0.0
 20
0.0
 30
0.0
  3
*Paper_Space
  1

  0
ENDBLK
  5
2B0
330
2AE
100
AcDbEntity
 67
     1
  8
0
100
AcDbBlockEnd
  0
BLOCK
  5
30
330
2CB
100
AcDbEntity
  8
DATA
100
AcDbBlockBegin
  2
____
 70
     0
 10
0.0
 20
0.0
 30
0.0
  3
____
  1

  0
LINE
  5
31
330
2CB
100
AcDbEntity
  8
0
  6
Continuous
 62
     7
100
AcDbLine
 10
-74.88099648208765
 20
-250.5999999999993
 30
0.0
 11
-75.1118454165251
 21
-250.5999999999993
 31
0.0
  0
LINE
  5
32
330
2CB
100
AcDbEntity
  8
0
  6
Continuous
 62
     7
100
AcDbLine
 10
-75.3964209493064
 20
-250.1219931324244
 30
0.0
 11
-75.3964209493064
 21
-249.9999999999992
 31
0.0
  0
LINE
  5
33
330
2CB
100
AcDbEntity
  8
0
  6
Continuous
 62
     7
100
AcDbLine
 10
-74.59642094930638
 20
-249.9999999999992
 30
0.0
 11
-74.59642094930638
 21
-250.1219931324244
 31
0.0
  0
LINE
  5
34
330
2CB
100
AcDbEntity
  8
0
  6
Continuous
 62
     7
100
AcDbLine
 10
-75.3964209493064
 20
-250.1219931324244
 30
0.0
 11
-75.1118454165251
 21
-250.5999999999993
 31
0.0
  0
LINE
  5
35
330
2CB
100
AcDbEntity
  8
0
  6
Continuous
 62
     7
100
AcDbLine
 10
-74.59642094930638
 20
-250.1219931324244
 30
0.0
 11
-74.88099648208765
 21
-250.5999999999993
 31
0.0
  0
ENDBLK
  5
36
330
2CB
100
AcDbEntity
  8
DATA
100
AcDbBlockEnd
  0
BLOCK
  5
37
330
2CC
100
AcDbEntity
  8
DATA
100
AcDbBlockBegin
  2
____-1
 70
     0
 10
0.0
 20
0.0
 30
0.0
  3
____-1
  1

  0
LINE
  5
38
330
2CC
100
AcDbEntity
  8
0
  6
Continuous
 62
     7
100
AcDbLine
 10
25.11900351791235
 20
-250.5999999999993
 30
0.0
 11
24.88815458347489
 21
-250.5999999999993
 31
0.0
  0
LINE
  5
39
330
2CC
100
AcDbEntity
  8
0
  6
Continuous
 62
     7
100
AcDbLine
 10
24.60357905069361
 20
-250.1219931324244
 30
0.0
 11
24.60357905069361
 21
-249.9999999999992
 31
0.0
  0
LINE
  5
3A
330
2CC
100
AcDbEntity
  8
0
  6
Continuous
 62
     7
100
AcDbLine
 10
25.40357905069363
 20
-249.9999999999992
 30
0.0
 11
25.40357905069363
 21
-250.1219931324244
 31
0.0
  0
LINE
  5
3B
330
2CC
100
AcDbEntity
  8
0
  6
Continuous
 62
     7
100
AcDbLine
 10
24.60357905069361
 20
-250.1219931324244
 30
0.0
 11
24.88815458347489
 21
-250.5999999999993
 31
0.0
  0
LINE
  5
3C
330
2CC
100
AcDbEntity
  8
0
  6
Continuous
 62
     7
100
AcDbLine
 10
25.40357905069363
 20
-250.1219931324244
 30
0.0
 11
25.11900351791235
 21
-250.5999999999993
 31
0.0
  0
ENDBLK
  5
3D
330
2CC
100
AcDbEntity
  8
DATA
100
AcDbBlockEnd
  0
ENDSEC
  0
SECTION
  2
ENTITIES
  0
LINE
  5
3E
330
2B2
100
AcDbEntity
  8
HIBINO-BASE
  6
Continuous
 62
     7
100
AcDbLine
 10
-269.9999999999999
 20
397.0175705555557
 30
0.0
 11
269.9999999999999
 21
397.0175705555557
 31
0.0
  0
LINE
  5
3F
330
2B2
100
AcDbEntity
  8
HIBINO-BASE
  6
Continuous
 62
     7
100
AcDbLine
 10
269.9999999999999
 20
-382.9824294444443
 30
0.0
 11
-269.9999999999999
 21
-382.9824294444443
 31
0.0
  0
LINE
  5
40
330
2B2
100
AcDbEntity
  8
HIBINO-BASE
  6
Continuous
 62
     7
100
AcDbLine
 10
-269.9999999999999
 20
-382.9824294444443
 30
0.0
 11
-269.9999999999999
 21
397.0175705555557
 31
0.0
  0
LINE
  5
41
330
2B2
100
AcDbEntity
  8
HIBINO-BASE
  6
Continuous
 62
     7
100
AcDbLine
 10
269.9999999999999
 20
397.0175705555557
 30
0.0
 11
269.9999999999999
 21
-382.9824294444443
 31
0.0
  0
LINE
  5
42
330
2B2
100
AcDbEntity
  8
HIBINO-BASE
  6
Continuous
 62
     7
100
AcDbLine
 10
0.0000000000000213
 20
-315.4824294444444
 30
0.0
 11
269.9999999999999
 21
-315.4824294444444
 31
0.0
  0
LINE
  5
43
330
2B2
100
AcDbEntity
  8
HIBINO-BASE
  6
Continuous
 62
     7
100
AcDbLine
 10
0.0000000000000213
 20
-382.9824294444443
 30
0.0
 11
0.0000000000000213
 21
-315.4824294444444
 31
0.0
  0
TEXT
  5
44
330
2B2
100
AcDbEntity
  8
HIBINO-BASE
 62
     7
100
AcDbText
 10
2.700000000000037
 20
-323.0085094444444
 30
0.0
 40
4.886523437499999
  1
NOTE
 41
0.7
 11
2.700000000000038
 21
-318.1219860069444
 31
0.0
100
AcDbText
 73
     3
  0
LINE
  5
45
330
2B2
100
AcDbEntity
  8
HIBINO-BASE
  6
Continuous
 62
     7
100
AcDbLine
 10
105.0
 20
-382.9824294444443
 30
0.0
 11
105.0
 21
-315.4824294444444
 31
0.0
  0
TEXT
  5
46
330
2B2
100
AcDbEntity
  8
HIBINO-BASE
 62
     7
100
AcDbText
 10
107.7
 20
-323.0085094444444
 30
0.0
 40
4.886523437499999
  1
TITLE
 41
0.7
 11
107.7
 21
-318.1219860069444
 31
0.0
100
AcDbText
 73
     3
  0
LINE
  5
47
330
2B2
100
AcDbEntity
  8
HIBINO-BASE
  6
Continuous
 62
     7
100
AcDbLine
 10
0.0000000000000213
 20
-352.9824294444444
 30
0.0
 11
269.9999999999999
 21
-352.9824294444444
 31
0.0
  0
TEXT
  5
48
330
2B2
100
AcDbEntity
  8
HIBINO-BASE
 62
     7
100
AcDbText
 10
145.2
 20
-360.3395494444443
 30
0.0
 40
4.886523437499999
  1
DRAWN
 41
0.7
 11
145.2
 21
-355.4530260069443
 31
0.0
100
AcDbText
 73
     3
  0
TEXT
  5
49
330
2B2
100
AcDbEntity
  8
HIBINO-BASE
 62
     7
100
AcDbText
 10
70.19999999999999
 20
-360.3395494444443
 30
0.0
 40
4.886523437499999
  1
DATE
 41
0.7
 11
70.19999999999999
 21
-355.4530260069443
 31
0.0
100
AcDbText
 73
     3
  0
TEXT
  5
4A
330
2B2
100
AcDbEntity
  8
HIBINO-BASE
 62
     7
100
AcDbText
 10
40.2
 20
-360.3395494444443
 30
0.0
 40
4.886523437499999
  1
SCALE
 41
0.7
 11
40.2
 21
-355.4530260069443
 31
0.0
100
AcDbText
 73
     3
  0
TEXT
  5
4B
330
2B2
100
AcDbEntity
  8
HIBINO-BASE
 62
     7
100
AcDbText
 10
107.7
 20
-360.3395494444443
 30
0.0
 40
4.886523437499999
  1
DESIGN
 41
0.7
 11
107.7
 21
-355.4530260069443
 31
0.0
100
AcDbText
 73
     3
  0
TEXT
  5
4C
330
2B2
100
AcDbEntity
  8
HIBINO-BASE
 62
     7
100
AcDbText
 10
220.2
 20
-360.3395494444443
 30
0.0
 40
4.886523437499999
  1
DRAWING NO.
 41
0.7
 11
220.2
 21
-355.4530260069443
 31
0.0
100
AcDbText
 73
     3
  0
TEXT
  5
4D
330
2B2
100
AcDbEntity
  8
HIBINO-BASE
 62
     7
100
AcDbText
 10
182.7
 20
-360.3395494444443
 30
0.0
 40
4.886523437499999
  1
CHECK
 41
0.7
 11
182.7
 21
-355.4530260069443
 31
0.0
100
AcDbText
 73
     3
  0
LINE
  5
4E
330
2B2
100
AcDbEntity
  8
HIBINO-BASE
  6
Continuous
 62
     7
100
AcDbLine
 10
43.12500000000002
 20
-379.2324294444443
 30
0.0
 11
54.37500000000007
 21
-367.9824294444443
 31
0.0
  0
TEXT
  5
4F
330
2B2
100
AcDbEntity
  8
HIBINO-BASE
 62
     7
100
AcDbText
 10
41.25000000000001
 20
-371.3092594444445
 30
0.0
 40
4.886523437499999
  1
1
 41
0.7
 11
41.25000000000001
 21
-366.4227360069445
 31
0.0
100
AcDbText
 73
     3
  0
LINE
  5
50
330
2B2
100
AcDbEntity
  8
HIBINO-BASE
  6
Continuous
 62
     7
100
AcDbLine
 10
37.50000000000002
 20
-382.9824294444443
 30
0.0
 11
37.50000000000002
 21
-352.9824294444444
 31
0.0
  0
LINE
  5
51
330
2B2
100
AcDbEntity
  8
HIBINO-BASE
  6
Continuous
 62
     7
100
AcDbLine
 10
67.49999999999997
 20
-382.9824294444443
 30
0.0
 11
67.49999999999997
 21
-352.9824294444444
 31
0.0
  0
LINE
  5
52
330
2B2
100
AcDbEntity
  8
HIBINO-BASE
  6
Continuous
 62
     7
100
AcDbLine
 10
142.4999999999999
 20
-352.9824294444444
 30
0.0
 11
142.4999999999999
 21
-382.9824294444443
 31
0.0
  0
LINE
  5
53
330
2B2
100
AcDbEntity
  8
HIBINO-BASE
  6
Continuous
 62
     7
100
AcDbLine
 10
217.5000000000001
 20
-352.9824294444444
 30
0.0
 11
217.5000000000001
 21
-382.9824294444443
 31
0.0
  0
LINE
  5
54
330
2B2
100
AcDbEntity
  8
HIBINO-BASE
  6
Continuous
 62
     7
100
AcDbLine
 10
179.9999999999999
 20
-382.9824294444443
 30
0.0
 11
179.9999999999999
 21
-352.9824294444444
 31
0.0
  0
TEXT
  5
55
330
2B2
100
AcDbEntity
  8
HIBINO-BASE
 62
     7
100
AcDbText
 10
70.06962000000005
 20
-374.3914894444444
 30
0.0
 40
4.886523437499999
  1
'17.03.
 41
0.7
 11
70.06962000000005
 21
-369.5049660069444
 31
0.0
100
AcDbText
 73
     3
  0
TEXT
  5
56
330
2B2
100
AcDbEntity
  8
HIBINO-BASE
 62
     7
100
AcDbText
 10
52.50000000000002
 20
-376.9342594444445
 30
0.0
 40
4.886523437499999
  1
3
 41
0.7
 11
52.50000000000002
 21
-372.0477360069445
 31
0.0
100
AcDbText
 73
     3
  0
TEXT
  5
57
330
2B2
100
AcDbEntity
  8
HIBINO-BASE
 62
     7
100
AcDbText
 10
147.0174300331038
 20
-374.3914894444444
 30
0.0
 40
4.886523437499999
  1
N.Sasaki
 41
0.7
 11
147.0174300331038
 21
-369.5049660069444
 31
0.0
100
AcDbText
 73
     3
  0
TEXT
  5
58
330
2B2
100
AcDbEntity
  8
HIBINO-BASE
 62
     7
100
AcDbText
 10
11.65000000000008
 20
-377.0544294444444
 30
0.0
 40
9.773046874999998
  1
A4
 41
0.7
 11
11.65000000000008
 21
-367.2813825694444
 31
0.0
100
AcDbText
 73
     3
  0
TEXT
  5
59
330
2B2
100
AcDbEntity
  8
HIBINO-BASE
 62
     7
100
AcDbText
 10
2.875000000000006
 20
-360.8407944444443
 30
0.0
 40
4.886523437499999
  1
PAPER SIZE
 41
0.7
 11
2.875000000000007
 21
-355.9542710069444
 31
0.0
100
AcDbText
 73
     3
  0
TEXT
  5
5A
330
2B2
100
AcDbEntity
  8
HIBINO-BASE
 62
     7
100
AcDbText
 10
-248.448
 20
-402.1089744444443
 30
0.0
 40
10.58746744791666
  1
Hibino-Intersound Corporation
 41
0.7
 11
-248.448
 21
-391.5215069965278
 31
0.0
100
AcDbText
 73
     3
  0
TEXT
  5
5B
330
2B2
100
AcDbEntity
  8
HIBINO-BASE
 62
     7
100
AcDbText
 10
42.0730025017294
 20
-402.1089744444443
 30
0.0
 40
10.58746744791666
  1
ヒビノインターサウンド株式会社
 41
0.7
 11
42.0730025017294
 21
-391.5215069965278
 31
0.0
100
AcDbText
 73
     3
  0
LINE
  5
5C
330
2B2
100
AcDbEntity
  8
PATTERN_FILL
  6
Continuous
 62
     7
100
AcDbLine
 10
-72.80186041493618
 20
-22.20000000000001
 30
0.0
 11
-72.5
 21
-21.8981395850638
 31
0.0
  0
LINE
  5
5D
330
2B2
100
AcDbEntity
  8
PATTERN_FILL
  6
Continuous
 62
     7
100
AcDbLine
 10
-74.10186041493618
 20
-22.2
 30
0.0
 11
-72.5
 21
-20.59813958506381
 31
0.0
  0
LINE
  5
5E
330
2B2
100
AcDbEntity
  8
PATTERN_FILL
  6
Continuous
 62
     7
100
AcDbLine
 10
-75.40186041493619
 20
-22.2
 30
0.0
 11
-72.5
 21
-19.2981395850638
 31
0.0
  0
LINE
  5
5F
330
2B2
100
AcDbEntity
  8
PATTERN_FILL
  6
Continuous
 62
     7
100
AcDbLine
 10
-76.70186041493619
 20
-22.2
 30
0.0
 11
-72.5
 21
-17.99813958506381
 31
0.0
  0
LINE
  5
60
330
2B2
100
AcDbEntity
  8
PATTERN_FILL
  6
Continuous
 62
     7
100
AcDbLine
 10
-77.50000000000001
 20
-21.69813958506381
 30
0.0
 11
-72.5
 21
-16.6981395850638
 31
0.0
  0
LINE
  5
61
330
2B2
100
AcDbEntity
  8
PATTERN_FILL
  6
Continuous
 62
     7
100
AcDbLine
 10
-77.50000000000001
 20
-20.39813958506381
 30
0.0
 11
-72.5
 21
-15.3981395850638
 31
0.0
  0
LINE
  5
62
330
2B2
100
AcDbEntity
  8
PATTERN_FILL
  6
Continuous
 62
     7
100
AcDbLine
 10
-77.50000000000001
 20
-19.0981395850638
 30
0.0
 11
-72.50000000000001
 21
-14.0981395850638
 31
0.0
  0
LINE
  5
63
330
2B2
100
AcDbEntity
  8
PATTERN_FILL
  6
Continuous
 62
     7
100
AcDbLine
 10
-77.50000000000001
 20
-17.79813958506382
 30
0.0
 11
-72.5
 21
-12.79813958506381
 31
0.0
  0
LINE
  5
64
330
2B2
100
AcDbEntity
  8
PATTERN_FILL
  6
Continuous
 62
     7
100
AcDbLine
 10
-77.50000000000001
 20
-16.49813958506381
 30
0.0
 11
-72.5
 21
-11.4981395850638
 31
0.0
  0
LINE
  5
65
330
2B2
100
AcDbEntity
  8
PATTERN_FILL
  6
Continuous
 62
     7
100
AcDbLine
 10
-77.50000000000001
 20
-15.19813958506381
 30
0.0
 11
-72.5
 21
-10.19813958506381
 31
0.0
  0
LINE
  5
66
330
2B2
100
AcDbEntity
  8
PATTERN_FILL
  6
Continuous
 62
     7
100
AcDbLine
 10
-77.50000000000001
 20
-13.8981395850638
 30
0.0
 11
-72.5
 21
-8.898139585063802
 31
0.0
  0
LINE
  5
67
330
2B2
100
AcDbEntity
  8
PATTERN_FILL
  6
Continuous
 62
     7
100
AcDbLine
 10
-77.5
 20
-12.59813958506379
 30
0.0
 11
-72.50000000000001
 21
-7.598139585063805
 31
0.0
  0
LINE
  5
68
330
2B2
100
AcDbEntity
  8
PATTERN_FILL
  6
Continuous
 62
     7
100
AcDbLine
 10
-77.50000000000001
 20
-11.2981395850638
 30
0.0
 11
-72.5
 21
-6.298139585063793
 31
0.0
  0
LINE
  5
69
330
2B2
100
AcDbEntity
  8
PATTERN_FILL
  6
Continuous
 62
     7
100
AcDbLine
 10
-77.50000000000001
 20
-9.99813958506381
 30
0.0
 11
-72.5
 21
-4.998139585063803
 31
0.0
  0
LINE
  5
6A
330
2B2
100
AcDbEntity
  8
PATTERN_FILL
  6
Continuous
 62
     7
100
AcDbLine
 10
-77.50000000000001
 20
-8.698139585063813
 30
0.0
 11
-72.5
 21
-3.698139585063807
 31
0.0
  0
LINE
  5
6B
330
2B2
100
AcDbEntity
  8
PATTERN_FILL
  6
Continuous
 62
     7
100
AcDbLine
 10
-77.50000000000001
 20
-7.398139585063801
 30
0.0
 11
-72.50000000000001
 21
-2.398139585063802
 31
0.0
  0
LINE
  5
6C
330
2B2
100
AcDbEntity
  8
PATTERN_FILL
  6
Continuous
 62
     7
100
AcDbLine
 10
-77.50000000000001
 20
-6.098139585063798
 30
0.0
 11
-72.5
 21
-1.09813958506379
 31
0.0
  0
LINE
  5
6D
330
2B2
100
AcDbEntity
  8
PATTERN_FILL
  6
Continuous
 62
     7
100
AcDbLine
 10
-77.50000000000001
 20
-4.7981395850638
 30
0.0
 11
-72.50000000000001
 21
0.2018604149361991
 31
0.0
  0
LINE
  5
6E
330
2B2
100
AcDbEntity
  8
PATTERN_FILL
  6
Continuous
 62
     7
100
AcDbLine
 10
-77.50000000000001
 20
-3.498139585063804
 30
0.0
 11
-72.50000000000001
 21
1.501860414936196
 31
0.0
  0
LINE
  5
6F
330
2B2
100
AcDbEntity
  8
PATTERN_FILL
  6
Continuous
 62
     7
100
AcDbLine
 10
-77.50000000000001
 20
-2.198139585063806
 30
0.0
 11
-72.5
 21
2.8018604149362
 31
0.0
  0
LINE
  5
70
330
2B2
100
AcDbEntity
  8
PATTERN_FILL
  6
Continuous
 62
     7
100
AcDbLine
 10
-77.50000000000001
 20
-0.8981395850637952
 30
0.0
 11
-72.50000000000001
 21
4.101860414936204
 31
0.0
  0
LINE
  5
71
330
2B2
100
AcDbEntity
  8
PATTERN_FILL
  6
Continuous
 62
     7
100
AcDbLine
 10
-77.50000000000001
 20
0.4018604149362021
 30
0.0
 11
-72.50000000000001
 21
5.401860414936201
 31
0.0
  0
LINE
  5
72
330
2B2
100
AcDbEntity
  8
PATTERN_FILL
  6
Continuous
 62
     7
100
AcDbLine
 10
-77.50000000000001
 20
1.701860414936192
 30
0.0
 11
-72.5
 21
6.701860414936206
 31
0.0
  0
LINE
  5
73
330
2B2
100
AcDbEntity
  8
PATTERN_FILL
  6
Continuous
 62
     7
100
AcDbLine
 10
-77.50000000000001
 20
3.001860414936188
 30
0.0
 11
-73.49197670741597
 21
7.009883707520244
 31
0.0
  0
LINE
  5
74
330
2B2
100
AcDbEntity
  8
PATTERN_FILL
  6
Continuous
 62
     7
100
AcDbLine
 10
-77.50000000000001
 20
4.3018604149362
 30
0.0
 11
-74.79197670741598
 21
7.009883707520238
 31
0.0
  0
LINE
  5
75
330
2B2
100
AcDbEntity
  8
PATTERN_FILL
  6
Continuous
 62
     7
100
AcDbLine
 10
-77.50000000000001
 20
5.601860414936191
 30
0.0
 11
-76.09197670741595
 21
7.009883707520252
 31
0.0
  0
LINE
  5
76
330
2B2
100
AcDbEntity
  8
PATTERN_FILL
  6
Continuous
 62
     7
100
AcDbLine
 10
-76.35199315900937
 20
-22.19999999999999
 30
0.0
 11
-77.5
 21
-21.05199315900937
 31
0.0
  0
LINE
  5
77
330
2B2
100
AcDbEntity
  8
PATTERN_FILL
  6
Continuous
 62
     7
100
AcDbLine
 10
-75.00000000000001
 20
-22.25199315900936
 30
0.0
 11
-77.5
 21
-19.75199315900937
 31
0.0
  0
LINE
  5
78
330
2B2
100
AcDbEntity
  8
PATTERN_FILL
  6
Continuous
 62
     7
100
AcDbLine
 10
-73.75199315900937
 20
-22.20000000000001
 30
0.0
 11
-77.5
 21
-18.45199315900936
 31
0.0
  0
LINE
  5
79
330
2B2
100
AcDbEntity
  8
PATTERN_FILL
  6
Continuous
 62
     7
100
AcDbLine
 10
-72.5
 20
-22.15199315900936
 30
0.0
 11
-77.5
 21
-17.15199315900936
 31
0.0
  0
LINE
  5
7A
330
2B2
100
AcDbEntity
  8
PATTERN_FILL
  6
Continuous
 62
     7
100
AcDbLine
 10
-72.5
 20
-20.85199315900936
 30
0.0
 11
-77.5
 21
-15.85199315900936
 31
0.0
  0
LINE
  5
7B
330
2B2
100
AcDbEntity
  8
PATTERN_FILL
  6
Continuous
 62
     7
100
AcDbLine
 10
-72.5
 20
-19.55199315900937
 30
0.0
 11
-77.5
 21
-14.55199315900937
 31
0.0
  0
LINE
  5
7C
330
2B2
100
AcDbEntity
  8
PATTERN_FILL
  6
Continuous
 62
     7
100
AcDbLine
 10
-72.5
 20
-18.25199315900936
 30
0.0
 11
-77.5
 21
-13.25199315900936
 31
0.0
  0
LINE
  5
7D
330
2B2
100
AcDbEntity
  8
PATTERN_FILL
  6
Continuous
 62
     7
100
AcDbLine
 10
-72.5
 20
-16.95199315900936
 30
0.0
 11
-77.5
 21
-11.95199315900936
 31
0.0
  0
LINE
  5
7E
330
2B2
100
AcDbEntity
  8
PATTERN_FILL
  6
Continuous
 62
     7
100
AcDbLine
 10
-72.5
 20
-15.65199315900937
 30
0.0
 11
-77.5
 21
-10.65199315900936
 31
0.0
  0
LINE
  5
7F
330
2B2
100
AcDbEntity
  8
PATTERN_FILL
  6
Continuous
 62
     7
100
AcDbLine
 10
-72.5
 20
-14.35199315900936
 30
0.0
 11
-77.5
 21
-9.351993159009367
 31
0.0
  0
LINE
  5
80
330
2B2
100
AcDbEntity
  8
PATTERN_FILL
  6
Continuous
 62
     7
100
AcDbLine
 10
-72.5
 20
-13.05199315900936
 30
0.0
 11
-77.5
 21
-8.051993159009363
 31
0.0
  0
LINE
  5
81
330
2B2
100
AcDbEntity
  8
PATTERN_FILL
  6
Continuous
 62
     7
100
AcDbLine
 10
-72.5
 20
-11.75199315900936
 30
0.0
 11
-77.5
 21
-6.751993159009359
 31
0.0
  0
LINE
  5
82
330
2B2
100
AcDbEntity
  8
PATTERN_FILL
  6
Continuous
 62
     7
100
AcDbLine
 10
-72.5
 20
-10.45199315900936
 30
0.0
 11
-77.5
 21
-5.451993159009353
 31
0.0
  0
LINE
  5
83
330
2B2
100
AcDbEntity
  8
PATTERN_FILL
  6
Continuous
 62
     7
100
AcDbLine
 10
-72.5
 20
-9.151993159009363
 30
0.0
 11
-77.5
 21
-4.151993159009357
 31
0.0
  0
LINE
  5
84
330
2B2
100
AcDbEntity
  8
PATTERN_FILL
  6
Continuous
 62
     7
100
AcDbLine
 10
-72.5
 20
-7.851993159009366
 30
0.0
 11
-77.5
 21
-2.851993159009368
 31
0.0
  0
LINE
  5
85
330
2B2
100
AcDbEntity
  8
PATTERN_FILL
  6
Continuous
 62
     7
100
AcDbLine
 10
-72.5
 20
-6.551993159009363
 30
0.0
 11
-77.5
 21
-1.551993159009363
 31
0.0
  0
LINE
  5
86
330
2B2
100
AcDbEntity
  8
PATTERN_FILL
  6
Continuous
 62
     7
100
AcDbLine
 10
-72.5
 20
-5.251993159009359
 30
0.0
 11
-77.5
 21
-0.251993159009352
 31
0.0
  0
LINE
  5
87
330
2B2
100
AcDbEntity
  8
PATTERN_FILL
  6
Continuous
 62
     7
100
AcDbLine
 10
-72.5
 20
-3.951993159009361
 30
0.0
 11
-77.5
 21
1.048006840990638
 31
0.0
  0
LINE
  5
88
330
2B2
100
AcDbEntity
  8
PATTERN_FILL
  6
Continuous
 62
     7
100
AcDbLine
 10
-72.5
 20
-2.651993159009364
 30
0.0
 11
-77.5
 21
2.348006840990635
 31
0.0
  0
LINE
  5
89
330
2B2
100
AcDbEntity
  8
PATTERN_FILL
  6
Continuous
 62
     7
100
AcDbLine
 10
-72.5
 20
-1.35199315900936
 30
0.0
 11
-77.50000000000001
 21
3.648006840990646
 31
0.0
  0
LINE
  5
8A
330
2B2
100
AcDbEntity
  8
PATTERN_FILL
  6
Continuous
 62
     7
100
AcDbLine
 10
-72.5
 20
1.24800684099064
 30
0.0
 11
-77.5
 21
6.24800684099064
 31
0.0
  0
LINE
  5
8B
330
2B2
100
AcDbEntity
  8
PATTERN_FILL
  6
Continuous
 62
     7
100
AcDbLine
 10
-72.5
 20
2.548006840990638
 30
0.0
 11
-76.96187686652962
 21
7.009883707520259
 31
0.0
  0
LINE
  5
8C
330
2B2
100
AcDbEntity
  8
PATTERN_FILL
  6
Continuous
 62
     7
100
AcDbLine
 10
-72.5
 20
3.848006840990641
 30
0.0
 11
-75.66187686652961
 21
7.009883707520252
 31
0.0
  0
LINE
  5
8D
330
2B2
100
AcDbEntity
  8
PATTERN_FILL
  6
Continuous
 62
     7
100
AcDbLine
 10
-72.5
 20
5.148006840990632
 30
0.0
 11
-74.36187686652963
 21
7.009883707520252
 31
0.0
  0
LINE
  5
8E
330
2B2
100
AcDbEntity
  8
PATTERN_FILL
  6
Continuous
 62
     7
100
AcDbLine
 10
-72.5
 20
-0.0519931590093634
 30
0.0
 11
-77.5
 21
4.948006840990643
 31
0.0
  0
LINE
  5
8F
330
2B2
100
AcDbEntity
  8
PATTERN_FILL
  6
Continuous
 62
     7
100
AcDbLine
 10
27.1981395850638
 20
-22.20000000000001
 30
0.0
 11
27.5
 21
-21.8981395850638
 31
0.0
  0
LINE
  5
90
330
2B2
100
AcDbEntity
  8
PATTERN_FILL
  6
Continuous
 62
     7
100
AcDbLine
 10
25.8981395850638
 20
-22.2
 30
0.0
 11
27.5
 21
-20.59813958506381
 31
0.0
  0
LINE
  5
91
330
2B2
100
AcDbEntity
  8
PATTERN_FILL
  6
Continuous
 62
     7
100
AcDbLine
 10
24.5981395850638
 20
-22.2
 30
0.0
 11
27.5
 21
-19.2981395850638
 31
0.0
  0
LINE
  5
92
330
2B2
100
AcDbEntity
  8
PATTERN_FILL
  6
Continuous
 62
     7
100
AcDbLine
 10
23.29813958506381
 20
-22.2
 30
0.0
 11
27.5
 21
-17.99813958506381
 31
0.0
  0
LINE
  5
93
330
2B2
100
AcDbEntity
  8
PATTERN_FILL
  6
Continuous
 62
     7
100
AcDbLine
 10
22.49999999999999
 20
-21.69813958506381
 30
0.0
 11
27.5
 21
-16.6981395850638
 31
0.0
  0
LINE
  5
94
330
2B2
100
AcDbEntity
  8
PATTERN_FILL
  6
Continuous
 62
     7
100
AcDbLine
 10
22.49999999999999
 20
-20.39813958506381
 30
0.0
 11
27.5
 21
-15.3981395850638
 31
0.0
  0
LINE
  5
95
330
2B2
100
AcDbEntity
  8
PATTERN_FILL
  6
Continuous
 62
     7
100
AcDbLine
 10
22.49999999999999
 20
-19.0981395850638
 30
0.0
 11
27.49999999999999
 21
-14.0981395850638
 31
0.0
  0
LINE
  5
96
330
2B2
100
AcDbEntity
  8
PATTERN_FILL
  6
Continuous
 62
     7
100
AcDbLine
 10
22.49999999999999
 20
-17.79813958506382
 30
0.0
 11
27.5
 21
-12.79813958506381
 31
0.0
  0
LINE
  5
97
330
2B2
100
AcDbEntity
  8
PATTERN_FILL
  6
Continuous
 62
     7
100
AcDbLine
 10
22.49999999999999
 20
-16.49813958506381
 30
0.0
 11
27.5
 21
-11.4981395850638
 31
0.0
  0
LINE
  5
98
330
2B2
100
AcDbEntity
  8
PATTERN_FILL
  6
Continuous
 62
     7
100
AcDbLine
 10
22.49999999999999
 20
-15.19813958506381
 30
0.0
 11
27.5
 21
-10.19813958506381
 31
0.0
  0
LINE
  5
99
330
2B2
100
AcDbEntity
  8
PATTERN_FILL
  6
Continuous
 62
     7
100
AcDbLine
 10
22.49999999999999
 20
-13.8981395850638
 30
0.0
 11
27.5
 21
-8.898139585063802
 31
0.0
  0
LINE
  5
9A
330
2B2
100
AcDbEntity
  8
PATTERN_FILL
  6
Continuous
 62
     7
100
AcDbLine
 10
22.5
 20
-12.59813958506379
 30
0.0
 11
27.49999999999999
 21
-7.598139585063805
 31
0.0
  0
LINE
  5
9B
330
2B2
100
AcDbEntity
  8
PATTERN_FILL
  6
Continuous
 62
     7
100
AcDbLine
 10
22.49999999999999
 20
-11.2981395850638
 30
0.0
 11
27.5
 21
-6.298139585063793
 31
0.0
  0
LINE
  5
9C
330
2B2
100
AcDbEntity
  8
PATTERN_FILL
  6
Continuous
 62
     7
100
AcDbLine
 10
22.49999999999999
 20
-9.99813958506381
 30
0.0
 11
27.5
 21
-4.998139585063803
 31
0.0
  0
LINE
  5
9D
330
2B2
100
AcDbEntity
  8
PATTERN_FILL
  6
Continuous
 62
     7
100
AcDbLine
 10
22.49999999999999
 20
-8.698139585063813
 30
0.0
 11
27.5
 21
-3.698139585063807
 31
0.0
  0
LINE
  5
9E
330
2B2
100
AcDbEntity
  8
PATTERN_FILL
  6
Continuous
 62
     7
100
AcDbLine
 10
22.49999999999999
 20
-7.398139585063801
 30
0.0
 11
27.49999999999999
 21
-2.398139585063802
 31
0.0
  0
LINE
  5
9F
330
2B2
100
AcDbEntity
  8
PATTERN_FILL
  6
Continuous
 62
     7
100
AcDbLine
 10
22.49999999999999
 20
-6.098139585063798
 30
0.0
 11
27.5
 21
-1.09813958506379
 31
0.0
  0
LINE
  5
A0
330
2B2
100
AcDbEntity
  8
PATTERN_FILL
  6
Continuous
 62
     7
100
AcDbLine
 10
22.49999999999999
 20
-4.7981395850638
 30
0.0
 11
27.49999999999999
 21
0.2018604149361991
 31
0.0
  0
LINE
  5
A1
330
2B2
100
AcDbEntity
  8
PATTERN_FILL
  6
Continuous
 62
     7
100
AcDbLine
 10
22.49999999999999
 20
-3.498139585063804
 30
0.0
 11
27.49999999999999
 21
1.501860414936196
 31
0.0
  0
LINE
  5
A2
330
2B2
100
AcDbEntity
  8
PATTERN_FILL
  6
Continuous
 62
     7
100
AcDbLine
 10
22.49999999999999
 20
-2.198139585063806
 30
0.0
 11
27.5
 21
2.8018604149362
 31
0.0
  0
LINE
  5
A3
330
2B2
100
AcDbEntity
  8
PATTERN_FILL
  6
Continuous
 62
     7
100
AcDbLine
 10
22.49999999999999
 20
-0.8981395850637952
 30
0.0
 11
27.49999999999999
 21
4.101860414936204
 31
0.0
  0
LINE
  5
A4
330
2B2
100
AcDbEntity
  8
PATTERN_FILL
  6
Continuous
 62
     7
100
AcDbLine
 10
22.49999999999999
 20
0.4018604149362021
 30
0.0
 11
27.49999999999999
 21
5.401860414936201
 31
0.0
  0
LINE
  5
A5
330
2B2
100
AcDbEntity
  8
PATTERN_FILL
  6
Continuous
 62
     7
100
AcDbLine
 10
22.49999999999999
 20
1.701860414936192
 30
0.0
 11
27.5
 21
6.701860414936206
 31
0.0
  0
LINE
  5
A6
330
2B2
100
AcDbEntity
  8
PATTERN_FILL
  6
Continuous
 62
     7
100
AcDbLine
 10
22.49999999999999
 20
3.001860414936188
 30
0.0
 11
26.50802329258404
 21
7.009883707520244
 31
0.0
  0
LINE
  5
A7
330
2B2
100
AcDbEntity
  8
PATTERN_FILL
  6
Continuous
 62
     7
100
AcDbLine
 10
22.49999999999999
 20
4.3018604149362
 30
0.0
 11
25.20802329258403
 21
7.009883707520238
 31
0.0
  0
LINE
  5
A8
330
2B2
100
AcDbEntity
  8
PATTERN_FILL
  6
Continuous
 62
     7
100
AcDbLine
 10
22.49999999999999
 20
5.601860414936191
 30
0.0
 11
23.90802329258405
 21
7.009883707520252
 31
0.0
  0
LINE
  5
A9
330
2B2
100
AcDbEntity
  8
PATTERN_FILL
  6
Continuous
 62
     7
100
AcDbLine
 10
23.64800684099062
 20
-22.19999999999999
 30
0.0
 11
22.5
 21
-21.05199315900937
 31
0.0
  0
LINE
  5
AA
330
2B2
100
AcDbEntity
  8
PATTERN_FILL
  6
Continuous
 62
     7
100
AcDbLine
 10
24.99999999999999
 20
-22.25199315900936
 30
0.0
 11
22.5
 21
-19.75199315900937
 31
0.0
  0
LINE
  5
AB
330
2B2
100
AcDbEntity
  8
PATTERN_FILL
  6
Continuous
 62
     7
100
AcDbLine
 10
26.24800684099063
 20
-22.20000000000001
 30
0.0
 11
22.5
 21
-18.45199315900936
 31
0.0
  0
LINE
  5
AC
330
2B2
100
AcDbEntity
  8
PATTERN_FILL
  6
Continuous
 62
     7
100
AcDbLine
 10
27.5
 20
-22.15199315900936
 30
0.0
 11
22.5
 21
-17.15199315900936
 31
0.0
  0
LINE
  5
AD
330
2B2
100
AcDbEntity
  8
PATTERN_FILL
  6
Continuous
 62
     7
100
AcDbLine
 10
27.5
 20
-20.85199315900936
 30
0.0
 11
22.5
 21
-15.85199315900936
 31
0.0
  0
LINE
  5
AE
330
2B2
100
AcDbEntity
  8
PATTERN_FILL
  6
Continuous
 62
     7
100
AcDbLine
 10
27.5
 20
-19.55199315900937
 30
0.0
 11
22.5
 21
-14.55199315900937
 31
0.0
  0
LINE
  5
AF
330
2B2
100
AcDbEntity
  8
PATTERN_FILL
  6
Continuous
 62
     7
100
AcDbLine
 10
27.5
 20
-18.25199315900936
 30
0.0
 11
22.5
 21
-13.25199315900936
 31
0.0
  0
LINE
  5
B0
330
2B2
100
AcDbEntity
  8
PATTERN_FILL
  6
Continuous
 62
     7
100
AcDbLine
 10
27.5
 20
-16.95199315900936
 30
0.0
 11
22.5
 21
-11.95199315900936
 31
0.0
  0
LINE
  5
B1
330
2B2
100
AcDbEntity
  8
PATTERN_FILL
  6
Continuous
 62
     7
100
AcDbLine
 10
27.5
 20
-15.65199315900937
 30
0.0
 11
22.5
 21
-10.65199315900936
 31
0.0
  0
LINE
  5
B2
330
2B2
100
AcDbEntity
  8
PATTERN_FILL
  6
Continuous
 62
     7
100
AcDbLine
 10
27.5
 20
-14.35199315900936
 30
0.0
 11
22.5
 21
-9.351993159009367
 31
0.0
  0
LINE
  5
B3
330
2B2
100
AcDbEntity
  8
PATTERN_FILL
  6
Continuous
 62
     7
100
AcDbLine
 10
27.5
 20
-13.05199315900936
 30
0.0
 11
22.5
 21
-8.051993159009363
 31
0.0
  0
LINE
  5
B4
330
2B2
100
AcDbEntity
  8
PATTERN_FILL
  6
Continuous
 62
     7
100
AcDbLine
 10
27.5
 20
-11.75199315900936
 30
0.0
 11
22.5
 21
-6.751993159009359
 31
0.0
  0
LINE
  5
B5
330
2B2
100
AcDbEntity
  8
PATTERN_FILL
  6
Continuous
 62
     7
100
AcDbLine
 10
27.5
 20
-10.45199315900936
 30
0.0
 11
22.5
 21
-5.451993159009353
 31
0.0
  0
LINE
  5
B6
330
2B2
100
AcDbEntity
  8
PATTERN_FILL
  6
Continuous
 62
     7
100
AcDbLine
 10
27.5
 20
-9.151993159009363
 30
0.0
 11
22.5
 21
-4.151993159009357
 31
0.0
  0
LINE
  5
B7
330
2B2
100
AcDbEntity
  8
PATTERN_FILL
  6
Continuous
 62
     7
100
AcDbLine
 10
27.5
 20
-7.851993159009366
 30
0.0
 11
22.5
 21
-2.851993159009368
 31
0.0
  0
LINE
  5
B8
330
2B2
100
AcDbEntity
  8
PATTERN_FILL
  6
Continuous
 62
     7
100
AcDbLine
 10
27.5
 20
-6.551993159009363
 30
0.0
 11
22.5
 21
-1.551993159009363
 31
0.0
  0
LINE
  5
B9
330
2B2
100
AcDbEntity
  8
PATTERN_FILL
  6
Continuous
 62
     7
100
AcDbLine
 10
27.5
 20
-5.251993159009359
 30
0.0
 11
22.5
 21
-0.251993159009352
 31
0.0
  0
LINE
  5
BA
330
2B2
100
AcDbEntity
  8
PATTERN_FILL
  6
Continuous
 62
     7
100
AcDbLine
 10
27.5
 20
-3.951993159009361
 30
0.0
 11
22.5
 21
1.048006840990638
 31
0.0
  0
LINE
  5
BB
330
2B2
100
AcDbEntity
  8
PATTERN_FILL
  6
Continuous
 62
     7
100
AcDbLine
 10
27.5
 20
-2.651993159009364
 30
0.0
 11
22.5
 21
2.348006840990635
 31
0.0
  0
LINE
  5
BC
330
2B2
100
AcDbEntity
  8
PATTERN_FILL
  6
Continuous
 62
     7
100
AcDbLine
 10
27.5
 20
-1.35199315900936
 30
0.0
 11
22.49999999999999
 21
3.648006840990646
 31
0.0
  0
LINE
  5
BD
330
2B2
100
AcDbEntity
  8
PATTERN_FILL
  6
Continuous
 62
     7
100
AcDbLine
 10
27.5
 20
1.24800684099064
 30
0.0
 11
22.5
 21
6.24800684099064
 31
0.0
  0
LINE
  5
BE
330
2B2
100
AcDbEntity
  8
PATTERN_FILL
  6
Continuous
 62
     7
100
AcDbLine
 10
27.5
 20
2.548006840990638
 30
0.0
 11
23.03812313347037
 21
7.009883707520259
 31
0.0
  0
LINE
  5
BF
330
2B2
100
AcDbEntity
  8
PATTERN_FILL
  6
Continuous
 62
     7
100
AcDbLine
 10
27.5
 20
3.848006840990641
 30
0.0
 11
24.33812313347039
 21
7.009883707520252
 31
0.0
  0
LINE
  5
C0
330
2B2
100
AcDbEntity
  8
PATTERN_FILL
  6
Continuous
 62
     7
100
AcDbLine
 10
27.5
 20
5.148006840990632
 30
0.0
 11
25.63812313347038
 21
7.009883707520252
 31
0.0
  0
LINE
  5
C1
330
2B2
100
AcDbEntity
  8
PATTERN_FILL
  6
Continuous
 62
     7
100
AcDbLine
 10
27.5
 20
-0.0519931590093634
 30
0.0
 11
22.5
 21
4.948006840990643
 31
0.0
  0
LINE
  5
C2
330
2B2
100
AcDbEntity
  8
PATTERN_FILL
  6
Continuous
 62
     7
100
AcDbLine
 10
-77.5
 20
-238.2
 30
0.0
 11
-72.49999999999997
 21
-237.1197530864197
 31
0.0
  0
LINE
  5
C3
330
2B2
100
AcDbEntity
  8
PATTERN_FILL
  6
Continuous
 62
     7
100
AcDbLine
 10
-77.5
 20
-237.6
 30
0.0
 11
-72.49999999999999
 21
-236.5197530864197
 31
0.0
  0
LINE
  5
C4
330
2B2
100
AcDbEntity
  8
PATTERN_FILL
  6
Continuous
 62
     7
100
AcDbLine
 10
-77.5
 20
-236.4
 30
0.0
 11
-72.49999999999997
 21
-235.3197530864197
 31
0.0
  0
LINE
  5
C5
330
2B2
100
AcDbEntity
  8
PATTERN_FILL
  6
Continuous
 62
     7
100
AcDbLine
 10
-77.5
 20
-235.8
 30
0.0
 11
-72.49999999999997
 21
-234.7197530864197
 31
0.0
  0
LINE
  5
C6
330
2B2
100
AcDbEntity
  8
PATTERN_FILL
  6
Continuous
 62
     7
100
AcDbLine
 10
-77.5
 20
-234.6
 30
0.0
 11
-72.5
 21
-233.5197530864197
 31
0.0
  0
LINE
  5
C7
330
2B2
100
AcDbEntity
  8
PATTERN_FILL
  6
Continuous
 62
     7
100
AcDbLine
 10
-77.5
 20
-234.0
 30
0.0
 11
-72.5
 21
-232.9197530864198
 31
0.0
  0
LINE
  5
C8
330
2B2
100
AcDbEntity
  8
PATTERN_FILL
  6
Continuous
 62
     7
100
AcDbLine
 10
-77.5
 20
-232.8
 30
0.0
 11
-72.5
 21
-231.7197530864198
 31
0.0
  0
LINE
  5
C9
330
2B2
100
AcDbEntity
  8
PATTERN_FILL
  6
Continuous
 62
     7
100
AcDbLine
 10
-77.5
 20
-232.2
 30
0.0
 11
-72.5
 21
-231.1197530864198
 31
0.0
  0
LINE
  5
CA
330
2B2
100
AcDbEntity
  8
PATTERN_FILL
  6
Continuous
 62
     7
100
AcDbLine
 10
-77.5
 20
-231.0
 30
0.0
 11
-72.49999999999997
 21
-229.9197530864197
 31
0.0
  0
LINE
  5
CB
330
2B2
100
AcDbEntity
  8
PATTERN_FILL
  6
Continuous
 62
     7
100
AcDbLine
 10
-77.5
 20
-230.4
 30
0.0
 11
-72.49999999999999
 21
-229.3197530864197
 31
0.0
  0
LINE
  5
CC
330
2B2
100
AcDbEntity
  8
PATTERN_FILL
  6
Continuous
 62
     7
100
AcDbLine
 10
-77.5
 20
-229.2
 30
0.0
 11
-72.5
 21
-228.1197530864198
 31
0.0
  0
LINE
  5
CD
330
2B2
100
AcDbEntity
  8
PATTERN_FILL
  6
Continuous
 62
     7
100
AcDbLine
 10
-77.5
 20
-228.6
 30
0.0
 11
-72.5
 21
-227.5197530864197
 31
0.0
  0
LINE
  5
CE
330
2B2
100
AcDbEntity
  8
PATTERN_FILL
  6
Continuous
 62
     7
100
AcDbLine
 10
-77.5
 20
-227.4
 30
0.0
 11
-72.49999999999997
 21
-226.3197530864197
 31
0.0
  0
LINE
  5
CF
330
2B2
100
AcDbEntity
  8
PATTERN_FILL
  6
Continuous
 62
     7
100
AcDbLine
 10
-77.5
 20
-226.8
 30
0.0
 11
-72.5
 21
-225.7197530864198
 31
0.0
  0
LINE
  5
D0
330
2B2
100
AcDbEntity
  8
PATTERN_FILL
  6
Continuous
 62
     7
100
AcDbLine
 10
-77.5
 20
-225.6
 30
0.0
 11
-72.5
 21
-224.5197530864198
 31
0.0
  0
LINE
  5
D1
330
2B2
100
AcDbEntity
  8
PATTERN_FILL
  6
Continuous
 62
     7
100
AcDbLine
 10
-77.5
 20
-225.0
 30
0.0
 11
-72.49999999999997
 21
-223.9197530864197
 31
0.0
  0
LINE
  5
D2
330
2B2
100
AcDbEntity
  8
PATTERN_FILL
  6
Continuous
 62
     7
100
AcDbLine
 10
-77.5
 20
-223.8
 30
0.0
 11
-72.49999999999999
 21
-222.7197530864198
 31
0.0
  0
LINE
  5
D3
330
2B2
100
AcDbEntity
  8
PATTERN_FILL
  6
Continuous
 62
     7
100
AcDbLine
 10
-77.5
 20
-223.2
 30
0.0
 11
-72.5
 21
-222.1197530864198
 31
0.0
  0
LINE
  5
D4
330
2B2
100
AcDbEntity
  8
PATTERN_FILL
  6
Continuous
 62
     7
100
AcDbLine
 10
-77.5
 20
-222.0
 30
0.0
 11
-72.5
 21
-220.9197530864197
 31
0.0
  0
LINE
  5
D5
330
2B2
100
AcDbEntity
  8
PATTERN_FILL
  6
Continuous
 62
     7
100
AcDbLine
 10
-77.5
 20
-221.4
 30
0.0
 11
-72.49999999999997
 21
-220.3197530864197
 31
0.0
  0
LINE
  5
D6
330
2B2
100
AcDbEntity
  8
PATTERN_FILL
  6
Continuous
 62
     7
100
AcDbLine
 10
-77.5
 20
-220.2
 30
0.0
 11
-72.49999999999997
 21
-219.1197530864198
 31
0.0
  0
LINE
  5
D7
330
2B2
100
AcDbEntity
  8
PATTERN_FILL
  6
Continuous
 62
     7
100
AcDbLine
 10
-77.5
 20
-219.6
 30
0.0
 11
-72.5
 21
-218.5197530864197
 31
0.0
  0
LINE
  5
D8
330
2B2
100
AcDbEntity
  8
PATTERN_FILL
  6
Continuous
 62
     7
100
AcDbLine
 10
-77.5
 20
-218.4
 30
0.0
 11
-72.5
 21
-217.3197530864197
 31
0.0
  0
LINE
  5
D9
330
2B2
100
AcDbEntity
  8
PATTERN_FILL
  6
Continuous
 62
     7
100
AcDbLine
 10
-77.5
 20
-217.8
 30
0.0
 11
-72.5
 21
-216.7197530864198
 31
0.0
  0
LINE
  5
DA
330
2B2
100
AcDbEntity
  8
PATTERN_FILL
  6
Continuous
 62
     7
100
AcDbLine
 10
-77.5
 20
-216.6
 30
0.0
 11
-72.5
 21
-215.5197530864197
 31
0.0
  0
LINE
  5
DB
330
2B2
100
AcDbEntity
  8
PATTERN_FILL
  6
Continuous
 62
     7
100
AcDbLine
 10
-77.5
 20
-216.0
 30
0.0
 11
-72.5
 21
-214.9197530864197
 31
0.0
  0
LINE
  5
DC
330
2B2
100
AcDbEntity
  8
PATTERN_FILL
  6
Continuous
 62
     7
100
AcDbLine
 10
-77.5
 20
-214.8
 30
0.0
 11
-72.5
 21
-213.7197530864197
 31
0.0
  0
LINE
  5
DD
330
2B2
100
AcDbEntity
  8
PATTERN_FILL
  6
Continuous
 62
     7
100
AcDbLine
 10
-77.5
 20
-214.2
 30
0.0
 11
-72.5
 21
-213.1197530864198
 31
0.0
  0
LINE
  5
DE
330
2B2
100
AcDbEntity
  8
PATTERN_FILL
  6
Continuous
 62
     7
100
AcDbLine
 10
-77.5
 20
-213.0
 30
0.0
 11
-72.5
 21
-211.9197530864197
 31
0.0
  0
LINE
  5
DF
330
2B2
100
AcDbEntity
  8
PATTERN_FILL
  6
Continuous
 62
     7
100
AcDbLine
 10
-77.5
 20
-212.4
 30
0.0
 11
-72.5
 21
-211.3197530864197
 31
0.0
  0
LINE
  5
E0
330
2B2
100
AcDbEntity
  8
PATTERN_FILL
  6
Continuous
 62
     7
100
AcDbLine
 10
-77.5
 20
-211.2
 30
0.0
 11
-72.5
 21
-210.1197530864197
 31
0.0
  0
LINE
  5
E1
330
2B2
100
AcDbEntity
  8
PATTERN_FILL
  6
Continuous
 62
     7
100
AcDbLine
 10
-77.5
 20
-210.6
 30
0.0
 11
-72.5
 21
-209.5197530864197
 31
0.0
  0
LINE
  5
E2
330
2B2
100
AcDbEntity
  8
PATTERN_FILL
  6
Continuous
 62
     7
100
AcDbLine
 10
-77.5
 20
-209.4
 30
0.0
 11
-72.5
 21
-208.3197530864198
 31
0.0
  0
LINE
  5
E3
330
2B2
100
AcDbEntity
  8
PATTERN_FILL
  6
Continuous
 62
     7
100
AcDbLine
 10
-77.5
 20
-208.8
 30
0.0
 11
-72.5
 21
-207.7197530864197
 31
0.0
  0
LINE
  5
E4
330
2B2
100
AcDbEntity
  8
PATTERN_FILL
  6
Continuous
 62
     7
100
AcDbLine
 10
-77.5
 20
-207.6
 30
0.0
 11
-72.5
 21
-206.5197530864197
 31
0.0
  0
LINE
  5
E5
330
2B2
100
AcDbEntity
  8
PATTERN_FILL
  6
Continuous
 62
     7
100
AcDbLine
 10
-77.5
 20
-207.0
 30
0.0
 11
-72.5
 21
-205.9197530864197
 31
0.0
  0
LINE
  5
E6
330
2B2
100
AcDbEntity
  8
PATTERN_FILL
  6
Continuous
 62
     7
100
AcDbLine
 10
-77.5
 20
-205.8
 30
0.0
 11
-72.5
 21
-204.7197530864198
 31
0.0
  0
LINE
  5
E7
330
2B2
100
AcDbEntity
  8
PATTERN_FILL
  6
Continuous
 62
     7
100
AcDbLine
 10
-77.5
 20
-205.2
 30
0.0
 11
-72.5
 21
-204.1014084507042
 31
0.0
  0
LINE
  5
E8
330
2B2
100
AcDbEntity
  8
PATTERN_FILL
  6
Continuous
 62
     7
100
AcDbLine
 10
-76.57428571428574
 20
-70.99999999999998
 30
0.0
 11
-72.49999999999997
 21
-70.11975308641975
 31
0.0
  0
LINE
  5
E9
330
2B2
100
AcDbEntity
  8
PATTERN_FILL
  6
Continuous
 62
     7
100
AcDbLine
 10
-77.5
 20
-70.59999999999999
 30
0.0
 11
-72.49999999999999
 21
-69.51975308641974
 31
0.0
  0
LINE
  5
EA
330
2B2
100
AcDbEntity
  8
PATTERN_FILL
  6
Continuous
 62
     7
100
AcDbLine
 10
-77.5
 20
-69.40000000000001
 30
0.0
 11
-72.49999999999997
 21
-68.31975308641975
 31
0.0
  0
LINE
  5
EB
330
2B2
100
AcDbEntity
  8
PATTERN_FILL
  6
Continuous
 62
     7
100
AcDbLine
 10
-77.5
 20
-68.80000000000001
 30
0.0
 11
-72.49999999999997
 21
-67.71975308641976
 31
0.0
  0
LINE
  5
EC
330
2B2
100
AcDbEntity
  8
PATTERN_FILL
  6
Continuous
 62
     7
100
AcDbLine
 10
-77.5
 20
-67.59999999999999
 30
0.0
 11
-72.5
 21
-66.51975308641977
 31
0.0
  0
LINE
  5
ED
330
2B2
100
AcDbEntity
  8
PATTERN_FILL
  6
Continuous
 62
     7
100
AcDbLine
 10
-77.5
 20
-67.0
 30
0.0
 11
-72.5
 21
-65.91975308641979
 31
0.0
  0
LINE
  5
EE
330
2B2
100
AcDbEntity
  8
PATTERN_FILL
  6
Continuous
 62
     7
100
AcDbLine
 10
-77.5
 20
-65.80000000000001
 30
0.0
 11
-72.5
 21
-64.71975308641976
 31
0.0
  0
LINE
  5
EF
330
2B2
100
AcDbEntity
  8
PATTERN_FILL
  6
Continuous
 62
     7
100
AcDbLine
 10
-77.5
 20
-65.20000000000002
 30
0.0
 11
-72.5
 21
-64.11975308641979
 31
0.0
  0
LINE
  5
F0
330
2B2
100
AcDbEntity
  8
PATTERN_FILL
  6
Continuous
 62
     7
100
AcDbLine
 10
-77.5
 20
-64.0
 30
0.0
 11
-72.49999999999997
 21
-62.91975308641975
 31
0.0
  0
LINE
  5
F1
330
2B2
100
AcDbEntity
  8
PATTERN_FILL
  6
Continuous
 62
     7
100
AcDbLine
 10
-77.5
 20
-63.40000000000001
 30
0.0
 11
-72.49999999999999
 21
-62.31975308641975
 31
0.0
  0
LINE
  5
F2
330
2B2
100
AcDbEntity
  8
PATTERN_FILL
  6
Continuous
 62
     7
100
AcDbLine
 10
-77.5
 20
-62.20000000000002
 30
0.0
 11
-72.5
 21
-61.11975308641979
 31
0.0
  0
LINE
  5
F3
330
2B2
100
AcDbEntity
  8
PATTERN_FILL
  6
Continuous
 62
     7
100
AcDbLine
 10
-77.5
 20
-61.60000000000001
 30
0.0
 11
-72.5
 21
-60.51975308641978
 31
0.0
  0
LINE
  5
F4
330
2B2
100
AcDbEntity
  8
PATTERN_FILL
  6
Continuous
 62
     7
100
AcDbLine
 10
-77.5
 20
-60.40000000000001
 30
0.0
 11
-72.49999999999997
 21
-59.31975308641975
 31
0.0
  0
LINE
  5
F5
330
2B2
100
AcDbEntity
  8
PATTERN_FILL
  6
Continuous
 62
     7
100
AcDbLine
 10
-77.5
 20
-59.80000000000001
 30
0.0
 11
-72.5
 21
-58.71975308641978
 31
0.0
  0
LINE
  5
F6
330
2B2
100
AcDbEntity
  8
PATTERN_FILL
  6
Continuous
 62
     7
100
AcDbLine
 10
-77.5
 20
-58.6
 30
0.0
 11
-72.5
 21
-57.51975308641977
 31
0.0
  0
LINE
  5
F7
330
2B2
100
AcDbEntity
  8
PATTERN_FILL
  6
Continuous
 62
     7
100
AcDbLine
 10
-77.5
 20
-58.0
 30
0.0
 11
-72.49999999999997
 21
-56.91975308641975
 31
0.0
  0
LINE
  5
F8
330
2B2
100
AcDbEntity
  8
PATTERN_FILL
  6
Continuous
 62
     7
100
AcDbLine
 10
-77.5
 20
-56.80000000000001
 30
0.0
 11
-72.49999999999999
 21
-55.71975308641976
 31
0.0
  0
LINE
  5
F9
330
2B2
100
AcDbEntity
  8
PATTERN_FILL
  6
Continuous
 62
     7
100
AcDbLine
 10
-77.5
 20
-56.20000000000001
 30
0.0
 11
-72.5
 21
-55.11975308641979
 31
0.0
  0
LINE
  5
FA
330
2B2
100
AcDbEntity
  8
PATTERN_FILL
  6
Continuous
 62
     7
100
AcDbLine
 10
-77.5
 20
-55.0
 30
0.0
 11
-72.5
 21
-53.91975308641975
 31
0.0
  0
LINE
  5
FB
330
2B2
100
AcDbEntity
  8
PATTERN_FILL
  6
Continuous
 62
     7
100
AcDbLine
 10
-77.5
 20
-54.40000000000001
 30
0.0
 11
-72.49999999999997
 21
-53.31975308641975
 31
0.0
  0
LINE
  5
FC
330
2B2
100
AcDbEntity
  8
PATTERN_FILL
  6
Continuous
 62
     7
100
AcDbLine
 10
-77.5
 20
-53.19999999999999
 30
0.0
 11
-72.49999999999997
 21
-52.11975308641975
 31
0.0
  0
LINE
  5
FD
330
2B2
100
AcDbEntity
  8
PATTERN_FILL
  6
Continuous
 62
     7
100
AcDbLine
 10
-77.5
 20
-52.60000000000001
 30
0.0
 11
-72.5
 21
-51.51975308641977
 31
0.0
  0
LINE
  5
FE
330
2B2
100
AcDbEntity
  8
PATTERN_FILL
  6
Continuous
 62
     7
100
AcDbLine
 10
-77.5
 20
-51.40000000000001
 30
0.0
 11
-72.5
 21
-50.31975308641978
 31
0.0
  0
LINE
  5
FF
330
2B2
100
AcDbEntity
  8
PATTERN_FILL
  6
Continuous
 62
     7
100
AcDbLine
 10
-77.5
 20
-50.80000000000001
 30
0.0
 11
-72.5
 21
-49.71975308641976
 31
0.0
  0
LINE
  5
100
330
2B2
100
AcDbEntity
  8
PATTERN_FILL
  6
Continuous
 62
     7
100
AcDbLine
 10
-77.5
 20
-49.6
 30
0.0
 11
-72.5
 21
-48.51975308641978
 31
0.0
  0
LINE
  5
101
330
2B2
100
AcDbEntity
  8
PATTERN_FILL
  6
Continuous
 62
     7
100
AcDbLine
 10
-77.5
 20
-49.0
 30
0.0
 11
-72.5
 21
-47.91975308641975
 31
0.0
  0
LINE
  5
102
330
2B2
100
AcDbEntity
  8
PATTERN_FILL
  6
Continuous
 62
     7
100
AcDbLine
 10
-77.5
 20
-47.80000000000001
 30
0.0
 11
-72.5
 21
-46.71975308641975
 31
0.0
  0
LINE
  5
103
330
2B2
100
AcDbEntity
  8
PATTERN_FILL
  6
Continuous
 62
     7
100
AcDbLine
 10
-77.5
 20
-47.20000000000001
 30
0.0
 11
-72.5
 21
-46.11975308641979
 31
0.0
  0
LINE
  5
104
330
2B2
100
AcDbEntity
  8
PATTERN_FILL
  6
Continuous
 62
     7
100
AcDbLine
 10
-77.5
 20
-46.0
 30
0.0
 11
-72.5
 21
-44.91975308641975
 31
0.0
  0
LINE
  5
105
330
2B2
100
AcDbEntity
  8
PATTERN_FILL
  6
Continuous
 62
     7
100
AcDbLine
 10
-77.5
 20
-45.40000000000001
 30
0.0
 11
-72.5
 21
-44.31975308641978
 31
0.0
  0
LINE
  5
106
330
2B2
100
AcDbEntity
  8
PATTERN_FILL
  6
Continuous
 62
     7
100
AcDbLine
 10
-77.5
 20
-44.19999999999999
 30
0.0
 11
-72.5
 21
-43.11975308641975
 31
0.0
  0
LINE
  5
107
330
2B2
100
AcDbEntity
  8
PATTERN_FILL
  6
Continuous
 62
     7
100
AcDbLine
 10
-77.5
 20
-43.6
 30
0.0
 11
-72.5
 21
-42.51975308641977
 31
0.0
  0
LINE
  5
108
330
2B2
100
AcDbEntity
  8
PATTERN_FILL
  6
Continuous
 62
     7
100
AcDbLine
 10
-77.5
 20
-42.40000000000001
 30
0.0
 11
-72.5
 21
-41.31975308641978
 31
0.0
  0
LINE
  5
109
330
2B2
100
AcDbEntity
  8
PATTERN_FILL
  6
Continuous
 62
     7
100
AcDbLine
 10
-77.5
 20
-39.26322666720002
 30
0.0
 11
-72.5
 21
-38.18297975361975
 31
0.0
  0
LINE
  5
10A
330
2B2
100
AcDbEntity
  8
PATTERN_FILL
  6
Continuous
 62
     7
100
AcDbLine
 10
-77.5
 20
-40.6
 30
0.0
 11
-72.5
 21
-39.51975308641978
 31
0.0
  0
LINE
  5
10B
330
2B2
100
AcDbEntity
  8
PATTERN_FILL
  6
Continuous
 62
     7
100
AcDbLine
 10
-77.5
 20
-40.0
 30
0.0
 11
-72.5
 21
-38.91975308641974
 31
0.0
  0
LINE
  5
10C
330
2B2
100
AcDbEntity
  8
PATTERN_FILL
  6
Continuous
 62
     7
100
AcDbLine
 10
-77.5
 20
-38.80000000000001
 30
0.0
 11
-74.72285714285702
 21
-38.19999999999999
 31
0.0
  0
LINE
  5
10D
330
2B2
100
AcDbEntity
  8
PATTERN_FILL
  6
Continuous
 62
     7
100
AcDbLine
 10
22.5
 20
-238.2
 30
0.0
 11
27.50000000000003
 21
-237.1197530864197
 31
0.0
  0
LINE
  5
10E
330
2B2
100
AcDbEntity
  8
PATTERN_FILL
  6
Continuous
 62
     7
100
AcDbLine
 10
22.5
 20
-237.6
 30
0.0
 11
27.50000000000001
 21
-236.5197530864197
 31
0.0
  0
LINE
  5
10F
330
2B2
100
AcDbEntity
  8
PATTERN_FILL
  6
Continuous
 62
     7
100
AcDbLine
 10
22.5
 20
-236.4
 30
0.0
 11
27.50000000000003
 21
-235.3197530864197
 31
0.0
  0
LINE
  5
110
330
2B2
100
AcDbEntity
  8
PATTERN_FILL
  6
Continuous
 62
     7
100
AcDbLine
 10
22.5
 20
-235.8
 30
0.0
 11
27.50000000000003
 21
-234.7197530864197
 31
0.0
  0
LINE
  5
111
330
2B2
100
AcDbEntity
  8
PATTERN_FILL
  6
Continuous
 62
     7
100
AcDbLine
 10
22.5
 20
-234.6
 30
0.0
 11
27.5
 21
-233.5197530864197
 31
0.0
  0
LINE
  5
112
330
2B2
100
AcDbEntity
  8
PATTERN_FILL
  6
Continuous
 62
     7
100
AcDbLine
 10
22.5
 20
-234.0
 30
0.0
 11
27.5
 21
-232.9197530864198
 31
0.0
  0
LINE
  5
113
330
2B2
100
AcDbEntity
  8
PATTERN_FILL
  6
Continuous
 62
     7
100
AcDbLine
 10
22.5
 20
-232.8
 30
0.0
 11
27.5
 21
-231.7197530864198
 31
0.0
  0
LINE
  5
114
330
2B2
100
AcDbEntity
  8
PATTERN_FILL
  6
Continuous
 62
     7
100
AcDbLine
 10
22.5
 20
-232.2
 30
0.0
 11
27.5
 21
-231.1197530864198
 31
0.0
  0
LINE
  5
115
330
2B2
100
AcDbEntity
  8
PATTERN_FILL
  6
Continuous
 62
     7
100
AcDbLine
 10
22.5
 20
-231.0
 30
0.0
 11
27.50000000000003
 21
-229.9197530864197
 31
0.0
  0
LINE
  5
116
330
2B2
100
AcDbEntity
  8
PATTERN_FILL
  6
Continuous
 62
     7
100
AcDbLine
 10
22.5
 20
-230.4
 30
0.0
 11
27.50000000000001
 21
-229.3197530864197
 31
0.0
  0
LINE
  5
117
330
2B2
100
AcDbEntity
  8
PATTERN_FILL
  6
Continuous
 62
     7
100
AcDbLine
 10
22.5
 20
-229.2
 30
0.0
 11
27.5
 21
-228.1197530864198
 31
0.0
  0
LINE
  5
118
330
2B2
100
AcDbEntity
  8
PATTERN_FILL
  6
Continuous
 62
     7
100
AcDbLine
 10
22.5
 20
-228.6
 30
0.0
 11
27.5
 21
-227.5197530864197
 31
0.0
  0
LINE
  5
119
330
2B2
100
AcDbEntity
  8
PATTERN_FILL
  6
Continuous
 62
     7
100
AcDbLine
 10
22.5
 20
-227.4
 30
0.0
 11
27.50000000000003
 21
-226.3197530864197
 31
0.0
  0
LINE
  5
11A
330
2B2
100
AcDbEntity
  8
PATTERN_FILL
  6
Continuous
 62
     7
100
AcDbLine
 10
22.5
 20
-226.8
 30
0.0
 11
27.5
 21
-225.7197530864198
 31
0.0
  0
LINE
  5
11B
330
2B2
100
AcDbEntity
  8
PATTERN_FILL
  6
Continuous
 62
     7
100
AcDbLine
 10
22.5
 20
-225.6
 30
0.0
 11
27.5
 21
-224.5197530864198
 31
0.0
  0
LINE
  5
11C
330
2B2
100
AcDbEntity
  8
PATTERN_FILL
  6
Continuous
 62
     7
100
AcDbLine
 10
22.5
 20
-225.0
 30
0.0
 11
27.50000000000003
 21
-223.9197530864197
 31
0.0
  0
LINE
  5
11D
330
2B2
100
AcDbEntity
  8
PATTERN_FILL
  6
Continuous
 62
     7
100
AcDbLine
 10
22.5
 20
-223.8
 30
0.0
 11
27.50000000000001
 21
-222.7197530864198
 31
0.0
  0
LINE
  5
11E
330
2B2
100
AcDbEntity
  8
PATTERN_FILL
  6
Continuous
 62
     7
100
AcDbLine
 10
22.5
 20
-223.2
 30
0.0
 11
27.5
 21
-222.1197530864198
 31
0.0
  0
LINE
  5
11F
330
2B2
100
AcDbEntity
  8
PATTERN_FILL
  6
Continuous
 62
     7
100
AcDbLine
 10
22.5
 20
-222.0
 30
0.0
 11
27.5
 21
-220.9197530864197
 31
0.0
  0
LINE
  5
120
330
2B2
100
AcDbEntity
  8
PATTERN_FILL
  6
Continuous
 62
     7
100
AcDbLine
 10
22.5
 20
-221.4
 30
0.0
 11
27.50000000000003
 21
-220.3197530864197
 31
0.0
  0
LINE
  5
121
330
2B2
100
AcDbEntity
  8
PATTERN_FILL
  6
Continuous
 62
     7
100
AcDbLine
 10
22.5
 20
-220.2
 30
0.0
 11
27.50000000000003
 21
-219.1197530864198
 31
0.0
  0
LINE
  5
122
330
2B2
100
AcDbEntity
  8
PATTERN_FILL
  6
Continuous
 62
     7
100
AcDbLine
 10
22.5
 20
-219.6
 30
0.0
 11
27.5
 21
-218.5197530864197
 31
0.0
  0
LINE
  5
123
330
2B2
100
AcDbEntity
  8
PATTERN_FILL
  6
Continuous
 62
     7
100
AcDbLine
 10
22.5
 20
-218.4
 30
0.0
 11
27.5
 21
-217.3197530864197
 31
0.0
  0
LINE
  5
124
330
2B2
100
AcDbEntity
  8
PATTERN_FILL
  6
Continuous
 62
     7
100
AcDbLine
 10
22.5
 20
-217.8
 30
0.0
 11
27.5
 21
-216.7197530864198
 31
0.0
  0
LINE
  5
125
330
2B2
100
AcDbEntity
  8
PATTERN_FILL
  6
Continuous
 62
     7
100
AcDbLine
 10
22.5
 20
-216.6
 30
0.0
 11
27.5
 21
-215.5197530864197
 31
0.0
  0
LINE
  5
126
330
2B2
100
AcDbEntity
  8
PATTERN_FILL
  6
Continuous
 62
     7
100
AcDbLine
 10
22.5
 20
-216.0
 30
0.0
 11
27.5
 21
-214.9197530864197
 31
0.0
  0
LINE
  5
127
330
2B2
100
AcDbEntity
  8
PATTERN_FILL
  6
Continuous
 62
     7
100
AcDbLine
 10
22.5
 20
-214.8
 30
0.0
 11
27.5
 21
-213.7197530864197
 31
0.0
  0
LINE
  5
128
330
2B2
100
AcDbEntity
  8
PATTERN_FILL
  6
Continuous
 62
     7
100
AcDbLine
 10
22.5
 20
-214.2
 30
0.0
 11
27.5
 21
-213.1197530864198
 31
0.0
  0
LINE
  5
129
330
2B2
100
AcDbEntity
  8
PATTERN_FILL
  6
Continuous
 62
     7
100
AcDbLine
 10
22.5
 20
-213.0
 30
0.0
 11
27.5
 21
-211.9197530864197
 31
0.0
  0
LINE
  5
12A
330
2B2
100
AcDbEntity
  8
PATTERN_FILL
  6
Continuous
 62
     7
100
AcDbLine
 10
22.5
 20
-212.4
 30
0.0
 11
27.5
 21
-211.3197530864197
 31
0.0
  0
LINE
  5
12B
330
2B2
100
AcDbEntity
  8
PATTERN_FILL
  6
Continuous
 62
     7
100
AcDbLine
 10
22.5
 20
-211.2
 30
0.0
 11
27.5
 21
-210.1197530864197
 31
0.0
  0
LINE
  5
12C
330
2B2
100
AcDbEntity
  8
PATTERN_FILL
  6
Continuous
 62
     7
100
AcDbLine
 10
22.5
 20
-210.6
 30
0.0
 11
27.5
 21
-209.5197530864197
 31
0.0
  0
LINE
  5
12D
330
2B2
100
AcDbEntity
  8
PATTERN_FILL
  6
Continuous
 62
     7
100
AcDbLine
 10
22.5
 20
-209.4
 30
0.0
 11
27.5
 21
-208.3197530864198
 31
0.0
  0
LINE
  5
12E
330
2B2
100
AcDbEntity
  8
PATTERN_FILL
  6
Continuous
 62
     7
100
AcDbLine
 10
22.5
 20
-208.8
 30
0.0
 11
27.5
 21
-207.7197530864197
 31
0.0
  0
LINE
  5
12F
330
2B2
100
AcDbEntity
  8
PATTERN_FILL
  6
Continuous
 62
     7
100
AcDbLine
 10
22.5
 20
-207.6
 30
0.0
 11
27.5
 21
-206.5197530864197
 31
0.0
  0
LINE
  5
130
330
2B2
100
AcDbEntity
  8
PATTERN_FILL
  6
Continuous
 62
     7
100
AcDbLine
 10
22.5
 20
-207.0
 30
0.0
 11
27.5
 21
-205.9197530864197
 31
0.0
  0
LINE
  5
131
330
2B2
100
AcDbEntity
  8
PATTERN_FILL
  6
Continuous
 62
     7
100
AcDbLine
 10
22.5
 20
-205.8
 30
0.0
 11
27.5
 21
-204.7197530864198
 31
0.0
  0
LINE
  5
132
330
2B2
100
AcDbEntity
  8
PATTERN_FILL
  6
Continuous
 62
     7
100
AcDbLine
 10
22.5
 20
-205.2
 30
0.0
 11
27.50000000000001
 21
-204.1301310043668
 31
0.0
  0
LINE
  5
133
330
2B2
100
AcDbEntity
  8
PATTERN_FILL
  6
Continuous
 62
     7
100
AcDbLine
 10
23.42571428571428
 20
-70.99999999999998
 30
0.0
 11
27.50000000000003
 21
-70.11975308641975
 31
0.0
  0
LINE
  5
134
330
2B2
100
AcDbEntity
  8
PATTERN_FILL
  6
Continuous
 62
     7
100
AcDbLine
 10
22.5
 20
-70.59999999999999
 30
0.0
 11
27.50000000000001
 21
-69.51975308641974
 31
0.0
  0
LINE
  5
135
330
2B2
100
AcDbEntity
  8
PATTERN_FILL
  6
Continuous
 62
     7
100
AcDbLine
 10
22.5
 20
-69.40000000000001
 30
0.0
 11
27.50000000000003
 21
-68.31975308641975
 31
0.0
  0
LINE
  5
136
330
2B2
100
AcDbEntity
  8
PATTERN_FILL
  6
Continuous
 62
     7
100
AcDbLine
 10
22.5
 20
-68.80000000000001
 30
0.0
 11
27.50000000000003
 21
-67.71975308641976
 31
0.0
  0
LINE
  5
137
330
2B2
100
AcDbEntity
  8
PATTERN_FILL
  6
Continuous
 62
     7
100
AcDbLine
 10
22.5
 20
-67.59999999999999
 30
0.0
 11
27.5
 21
-66.51975308641977
 31
0.0
  0
LINE
  5
138
330
2B2
100
AcDbEntity
  8
PATTERN_FILL
  6
Continuous
 62
     7
100
AcDbLine
 10
22.5
 20
-67.0
 30
0.0
 11
27.5
 21
-65.91975308641979
 31
0.0
  0
LINE
  5
139
330
2B2
100
AcDbEntity
  8
PATTERN_FILL
  6
Continuous
 62
     7
100
AcDbLine
 10
22.5
 20
-65.80000000000001
 30
0.0
 11
27.5
 21
-64.71975308641976
 31
0.0
  0
LINE
  5
13A
330
2B2
100
AcDbEntity
  8
PATTERN_FILL
  6
Continuous
 62
     7
100
AcDbLine
 10
22.5
 20
-65.20000000000002
 30
0.0
 11
27.5
 21
-64.11975308641979
 31
0.0
  0
LINE
  5
13B
330
2B2
100
AcDbEntity
  8
PATTERN_FILL
  6
Continuous
 62
     7
100
AcDbLine
 10
22.5
 20
-64.0
 30
0.0
 11
27.50000000000003
 21
-62.91975308641975
 31
0.0
  0
LINE
  5
13C
330
2B2
100
AcDbEntity
  8
PATTERN_FILL
  6
Continuous
 62
     7
100
AcDbLine
 10
22.5
 20
-63.40000000000001
 30
0.0
 11
27.50000000000001
 21
-62.31975308641975
 31
0.0
  0
LINE
  5
13D
330
2B2
100
AcDbEntity
  8
PATTERN_FILL
  6
Continuous
 62
     7
100
AcDbLine
 10
22.5
 20
-62.20000000000002
 30
0.0
 11
27.5
 21
-61.11975308641979
 31
0.0
  0
LINE
  5
13E
330
2B2
100
AcDbEntity
  8
PATTERN_FILL
  6
Continuous
 62
     7
100
AcDbLine
 10
22.5
 20
-61.60000000000001
 30
0.0
 11
27.5
 21
-60.51975308641978
 31
0.0
  0
LINE
  5
13F
330
2B2
100
AcDbEntity
  8
PATTERN_FILL
  6
Continuous
 62
     7
100
AcDbLine
 10
22.5
 20
-60.40000000000001
 30
0.0
 11
27.50000000000003
 21
-59.31975308641975
 31
0.0
  0
LINE
  5
140
330
2B2
100
AcDbEntity
  8
PATTERN_FILL
  6
Continuous
 62
     7
100
AcDbLine
 10
22.5
 20
-59.80000000000001
 30
0.0
 11
27.5
 21
-58.71975308641978
 31
0.0
  0
LINE
  5
141
330
2B2
100
AcDbEntity
  8
PATTERN_FILL
  6
Continuous
 62
     7
100
AcDbLine
 10
22.5
 20
-58.6
 30
0.0
 11
27.5
 21
-57.51975308641977
 31
0.0
  0
LINE
  5
142
330
2B2
100
AcDbEntity
  8
PATTERN_FILL
  6
Continuous
 62
     7
100
AcDbLine
 10
22.5
 20
-58.0
 30
0.0
 11
27.50000000000003
 21
-56.91975308641975
 31
0.0
  0
LINE
  5
143
330
2B2
100
AcDbEntity
  8
PATTERN_FILL
  6
Continuous
 62
     7
100
AcDbLine
 10
22.5
 20
-56.80000000000001
 30
0.0
 11
27.50000000000001
 21
-55.71975308641976
 31
0.0
  0
LINE
  5
144
330
2B2
100
AcDbEntity
  8
PATTERN_FILL
  6
Continuous
 62
     7
100
AcDbLine
 10
22.5
 20
-56.20000000000001
 30
0.0
 11
27.5
 21
-55.11975308641979
 31
0.0
  0
LINE
  5
145
330
2B2
100
AcDbEntity
  8
PATTERN_FILL
  6
Continuous
 62
     7
100
AcDbLine
 10
22.5
 20
-55.0
 30
0.0
 11
27.5
 21
-53.91975308641975
 31
0.0
  0
LINE
  5
146
330
2B2
100
AcDbEntity
  8
PATTERN_FILL
  6
Continuous
 62
     7
100
AcDbLine
 10
22.5
 20
-54.40000000000001
 30
0.0
 11
27.50000000000003
 21
-53.31975308641975
 31
0.0
  0
LINE
  5
147
330
2B2
100
AcDbEntity
  8
PATTERN_FILL
  6
Continuous
 62
     7
100
AcDbLine
 10
22.5
 20
-53.19999999999999
 30
0.0
 11
27.50000000000003
 21
-52.11975308641975
 31
0.0
  0
LINE
  5
148
330
2B2
100
AcDbEntity
  8
PATTERN_FILL
  6
Continuous
 62
     7
100
AcDbLine
 10
22.5
 20
-52.60000000000001
 30
0.0
 11
27.5
 21
-51.51975308641977
 31
0.0
  0
LINE
  5
149
330
2B2
100
AcDbEntity
  8
PATTERN_FILL
  6
Continuous
 62
     7
100
AcDbLine
 10
22.5
 20
-51.40000000000001
 30
0.0
 11
27.5
 21
-50.31975308641978
 31
0.0
  0
LINE
  5
14A
330
2B2
100
AcDbEntity
  8
PATTERN_FILL
  6
Continuous
 62
     7
100
AcDbLine
 10
22.5
 20
-50.80000000000001
 30
0.0
 11
27.5
 21
-49.71975308641976
 31
0.0
  0
LINE
  5
14B
330
2B2
100
AcDbEntity
  8
PATTERN_FILL
  6
Continuous
 62
     7
100
AcDbLine
 10
22.5
 20
-49.6
 30
0.0
 11
27.5
 21
-48.51975308641978
 31
0.0
  0
LINE
  5
14C
330
2B2
100
AcDbEntity
  8
PATTERN_FILL
  6
Continuous
 62
     7
100
AcDbLine
 10
22.5
 20
-49.0
 30
0.0
 11
27.5
 21
-47.91975308641975
 31
0.0
  0
LINE
  5
14D
330
2B2
100
AcDbEntity
  8
PATTERN_FILL
  6
Continuous
 62
     7
100
AcDbLine
 10
22.5
 20
-47.80000000000001
 30
0.0
 11
27.5
 21
-46.71975308641975
 31
0.0
  0
LINE
  5
14E
330
2B2
100
AcDbEntity
  8
PATTERN_FILL
  6
Continuous
 62
     7
100
AcDbLine
 10
22.5
 20
-47.20000000000001
 30
0.0
 11
27.5
 21
-46.11975308641979
 31
0.0
  0
LINE
  5
14F
330
2B2
100
AcDbEntity
  8
PATTERN_FILL
  6
Continuous
 62
     7
100
AcDbLine
 10
22.5
 20
-46.0
 30
0.0
 11
27.5
 21
-44.91975308641975
 31
0.0
  0
LINE
  5
150
330
2B2
100
AcDbEntity
  8
PATTERN_FILL
  6
Continuous
 62
     7
100
AcDbLine
 10
22.5
 20
-45.40000000000001
 30
0.0
 11
27.5
 21
-44.31975308641978
 31
0.0
  0
LINE
  5
151
330
2B2
100
AcDbEntity
  8
PATTERN_FILL
  6
Continuous
 62
     7
100
AcDbLine
 10
22.5
 20
-44.19999999999999
 30
0.0
 11
27.5
 21
-43.11975308641975
 31
0.0
  0
LINE
  5
152
330
2B2
100
AcDbEntity
  8
PATTERN_FILL
  6
Continuous
 62
     7
100
AcDbLine
 10
22.5
 20
-43.6
 30
0.0
 11
27.5
 21
-42.51975308641977
 31
0.0
  0
LINE
  5
153
330
2B2
100
AcDbEntity
  8
PATTERN_FILL
  6
Continuous
 62
     7
100
AcDbLine
 10
22.5
 20
-42.40000000000001
 30
0.0
 11
27.5
 21
-41.31975308641978
 31
0.0
  0
LINE
  5
154
330
2B2
100
AcDbEntity
  8
PATTERN_FILL
  6
Continuous
 62
     7
100
AcDbLine
 10
22.5
 20
-39.26322666720002
 30
0.0
 11
27.5
 21
-38.18297975361975
 31
0.0
  0
LINE
  5
155
330
2B2
100
AcDbEntity
  8
PATTERN_FILL
  6
Continuous
 62
     7
100
AcDbLine
 10
22.5
 20
-40.6
 30
0.0
 11
27.5
 21
-39.51975308641978
 31
0.0
  0
LINE
  5
156
330
2B2
100
AcDbEntity
  8
PATTERN_FILL
  6
Continuous
 62
     7
100
AcDbLine
 10
22.5
 20
-40.0
 30
0.0
 11
27.5
 21
-38.91975308641974
 31
0.0
  0
LINE
  5
157
330
2B2
100
AcDbEntity
  8
PATTERN_FILL
  6
Continuous
 62
     7
100
AcDbLine
 10
22.5
 20
-38.80000000000001
 30
0.0
 11
26.16792452830197
 21
-37.99999999999999
 31
0.0
  0
LINE
  5
158
330
2B2
100
AcDbEntity
  8
PATTERN_FILL
  6
Continuous
 62
     7
100
AcDbLine
 10
22.5
 20
-41.79999999999999
 30
0.0
 11
27.5
 21
-40.71975308641976
 31
0.0
  0
LINE
  5
159
330
2B2
100
AcDbEntity
  8
PATTERN_FILL
  6
Continuous
 62
     7
100
AcDbLine
 10
-77.5
 20
-41.79999999999999
 30
0.0
 11
-72.5
 21
-40.71975308641976
 31
0.0
  0
LINE
  5
15A
330
2B2
100
AcDbEntity
  8
SPEC
  6
Continuous
 62
     7
100
AcDbLine
 10
-247.4999999999999
 20
367.0175705555557
 30
0.0
 11
195.0000000000001
 21
367.0175705555557
 31
0.0
  0
LINE
  5
15B
330
2B2
100
AcDbEntity
  8
SPEC
  6
Continuous
 62
     7
100
AcDbLine
 10
-247.4999999999999
 20
355.7675705555557
 30
0.0
 11
195.0000000000001
 21
355.7675705555557
 31
0.0
  0
LINE
  5
15C
330
2B2
100
AcDbEntity
  8
SPEC
  6
Continuous
 62
     7
100
AcDbLine
 10
-247.4999999999999
 20
367.0175705555557
 30
0.0
 11
-247.4999999999999
 21
175.7675705555556
 31
0.0
  0
TEXT
  5
15D
330
2B2
100
AcDbEntity
  8
SPEC
 62
     7
100
AcDbText
 10
-243.7499999999999
 20
371.1973805555554
 30
0.0
 40
7.329785156249999
  1
仕様
 41
0.7
 11
-243.7499999999999
 21
378.5271657118054
 31
0.0
100
AcDbText
 73
     3
  0
LINE
  5
15E
330
2B2
100
AcDbEntity
  8
SPEC
  6
Continuous
 62
     7
100
AcDbLine
 10
-134.9999999999999
 20
367.0175705555557
 30
0.0
 11
-134.9999999999999
 21
175.7675705555556
 31
0.0
  0
LINE
  5
15F
330
2B2
100
AcDbEntity
  8
SPEC
  6
Continuous
 62
     7
100
AcDbLine
 10
195.0000000000001
 20
367.0175705555557
 30
0.0
 11
195.0000000000001
 21
175.7675705555556
 31
0.0
  0
LINE
  5
160
330
2B2
100
AcDbEntity
  8
SPEC
  6
Continuous
 62
     7
100
AcDbLine
 10
-247.4999999999999
 20
344.5175705555556
 30
0.0
 11
195.0000000000001
 21
344.5175705555556
 31
0.0
  0
LINE
  5
161
330
2B2
100
AcDbEntity
  8
SPEC
  6
Continuous
 62
     7
100
AcDbLine
 10
-247.4999999999999
 20
333.2675705555556
 30
0.0
 11
195.0000000000001
 21
333.2675705555556
 31
0.0
  0
LINE
  5
162
330
2B2
100
AcDbEntity
  8
SPEC
  6
Continuous
 62
     7
100
AcDbLine
 10
-247.4999999999999
 20
322.0175705555556
 30
0.0
 11
195.0000000000001
 21
322.0175705555556
 31
0.0
  0
LINE
  5
163
330
2B2
100
AcDbEntity
  8
SPEC
  6
Continuous
 62
     7
100
AcDbLine
 10
-247.4999999999999
 20
310.7675705555556
 30
0.0
 11
195.0000000000001
 21
310.7675705555556
 31
0.0
  0
LINE
  5
164
330
2B2
100
AcDbEntity
  8
SPEC
  6
Continuous
 62
     7
100
AcDbLine
 10
-247.4999999999999
 20
299.5175705555556
 30
0.0
 11
195.0000000000001
 21
299.5175705555556
 31
0.0
  0
LINE
  5
165
330
2B2
100
AcDbEntity
  8
SPEC
  6
Continuous
 62
     7
100
AcDbLine
 10
-247.4999999999999
 20
288.2675705555556
 30
0.0
 11
195.0000000000001
 21
288.2675705555556
 31
0.0
  0
LINE
  5
166
330
2B2
100
AcDbEntity
  8
SPEC
  6
Continuous
 62
     7
100
AcDbLine
 10
-247.4999999999999
 20
277.0175705555556
 30
0.0
 11
195.0000000000001
 21
277.0175705555556
 31
0.0
  0
LINE
  5
167
330
2B2
100
AcDbEntity
  8
SPEC
  6
Continuous
 62
     7
100
AcDbLine
 10
-247.4999999999999
 20
265.7675705555556
 30
0.0
 11
195.0000000000001
 21
265.7675705555556
 31
0.0
  0
LINE
  5
168
330
2B2
100
AcDbEntity
  8
SPEC
  6
Continuous
 62
     7
100
AcDbLine
 10
-247.4999999999999
 20
254.5175705555556
 30
0.0
 11
195.0000000000001
 21
254.5175705555556
 31
0.0
  0
LINE
  5
169
330
2B2
100
AcDbEntity
  8
SPEC
  6
Continuous
 62
     7
100
AcDbLine
 10
-247.4999999999999
 20
243.2675705555557
 30
0.0
 11
195.0000000000001
 21
243.2675705555557
 31
0.0
  0
LINE
  5
16A
330
2B2
100
AcDbEntity
  8
SPEC
  6
Continuous
 62
     7
100
AcDbLine
 10
-247.4999999999999
 20
232.0175705555557
 30
0.0
 11
195.0000000000001
 21
232.0175705555557
 31
0.0
  0
LINE
  5
16B
330
2B2
100
AcDbEntity
  8
SPEC
  6
Continuous
 62
     7
100
AcDbLine
 10
-247.4999999999999
 20
220.7675705555557
 30
0.0
 11
195.0000000000001
 21
220.7675705555557
 31
0.0
  0
LINE
  5
16C
330
2B2
100
AcDbEntity
  8
SPEC
  6
Continuous
 62
     7
100
AcDbLine
 10
-247.4999999999999
 20
209.5175705555557
 30
0.0
 11
195.0000000000001
 21
209.5175705555557
 31
0.0
  0
LINE
  5
16D
330
2B2
100
AcDbEntity
  8
SPEC
  6
Continuous
 62
     7
100
AcDbLine
 10
-247.4999999999999
 20
198.2675705555557
 30
0.0
 11
195.0000000000001
 21
198.2675705555557
 31
0.0
  0
LINE
  5
16E
330
2B2
100
AcDbEntity
  8
SPEC
  6
Continuous
 62
     7
100
AcDbLine
 10
-247.4999999999999
 20
187.0175705555557
 30
0.0
 11
195.0000000000001
 21
187.0175705555557
 31
0.0
  0
LINE
  5
16F
330
2B2
100
AcDbEntity
  8
SPEC
  6
Continuous
 62
     7
100
AcDbLine
 10
-247.4999999999999
 20
175.7675705555556
 30
0.0
 11
195.0000000000001
 21
175.7675705555556
 31
0.0
  0
TEXT
  5
170
330
2B2
100
AcDbEntity
  8
SPEC
 62
     7
100
AcDbText
 10
-244.8
 20
234.3813238888888
 30
0.0
 40
5.700944010416665
  1
電源
 41
0.7
 11
-244.8
 21
240.0822678993054
 31
0.0
100
AcDbText
 73
     3
  0
TEXT
  5
171
330
2B2
100
AcDbEntity
  8
SPEC
 62
     7
100
AcDbText
 10
-244.8
 20
223.1313238888887
 30
0.0
 40
5.700944010416665
  1
色
 41
0.7
 11
-244.8
 21
228.8322678993054
 31
0.0
100
AcDbText
 73
     3
  0
TEXT
  5
172
330
2B2
100
AcDbEntity
  8
SPEC
 62
     7
100
AcDbText
 10
-244.8
 20
211.8813238888888
 30
0.0
 40
5.700944010416665
  1
コネクター
 41
0.7
 11
-244.8
 21
217.5822678993054
 31
0.0
100
AcDbText
 73
     3
  0
TEXT
  5
173
330
2B2
100
AcDbEntity
  8
SPEC
 62
     7
100
AcDbText
 10
-244.8
 20
358.1313238888889
 30
0.0
 40
5.700944010416665
  1
指向特性
 41
0.7
 11
-244.8
 21
363.8322678993055
 31
0.0
100
AcDbText
 73
     3
  0
TEXT
  5
174
330
2B2
100
AcDbEntity
  8
SPEC
 62
     7
100
AcDbText
 10
-244.8
 20
346.8813238888888
 30
0.0
 40
5.700944010416665
  1
カートリッジ
 41
0.7
 11
-244.8
 21
352.5822678993054
 31
0.0
100
AcDbText
 73
     3
  0
TEXT
  5
175
330
2B2
100
AcDbEntity
  8
SPEC
 62
     7
100
AcDbText
 10
-244.8
 20
335.6313238888887
 30
0.0
 40
5.700944010416665
  1
周波数特性
 41
0.7
 11
-244.8
 21
341.3322678993054
 31
0.0
100
AcDbText
 73
     3
  0
TEXT
  5
176
330
2B2
100
AcDbEntity
  8
SPEC
 62
     7
100
AcDbText
 10
-244.8
 20
324.3813238888888
 30
0.0
 40
5.700944010416665
  1
周波数特性(±2dB、20cm)
 41
0.7
 11
-244.8
 21
330.0822678993054
 31
0.0
100
AcDbText
 73
     3
  0
TEXT
  5
177
330
2B2
100
AcDbEntity
  8
SPEC
 62
     7
100
AcDbText
 10
-244.8
 20
313.1313238888887
 30
0.0
 40
5.700944010416665
  1
感度(±3dB@1kHz)
 41
0.7
 11
-244.8
 21
318.8322678993054
 31
0.0
100
AcDbText
 73
     3
  0
TEXT
  5
178
330
2B2
100
AcDbEntity
  8
SPEC
 62
     7
100
AcDbText
 10
-244.8
 20
301.8813238888887
 30
0.0
 40
5.700944010416665
  1
等価雑音レベル(Aウェイト)
 41
0.7
 11
-244.8
 21
307.5822678993054
 31
0.0
100
AcDbText
 73
     3
  0
TEXT
  5
179
330
2B2
100
AcDbEntity
  8
SPEC
 62
     7
100
AcDbText
 10
-244.8
 20
290.6313238888888
 30
0.0
 40
5.700944010416665
  1
全高調波歪(THD)
 41
0.7
 11
-244.8
 21
296.3322678993054
 31
0.0
100
AcDbText
 73
     3
  0
TEXT
  5
17A
330
2B2
100
AcDbEntity
  8
SPEC
 62
     7
100
AcDbText
 10
-244.8
 20
279.3813238888887
 30
0.0
 40
5.700944010416665
  1
ダイナミックレンジ
 41
0.7
 11
-244.8
 21
285.0822678993054
 31
0.0
100
AcDbText
 73
     3
  0
TEXT
  5
17B
330
2B2
100
AcDbEntity
  8
SPEC
 62
     7
100
AcDbText
 10
-244.8
 20
268.1313238888888
 30
0.0
 40
5.700944010416665
  1
最大音圧レベル
 41
0.7
 11
-244.8
 21
273.8322678993054
 31
0.0
100
AcDbText
 73
     3
  0
TEXT
  5
17C
330
2B2
100
AcDbEntity
  8
SPEC
 62
     7
100
AcDbText
 10
-244.8
 20
256.8813238888887
 30
0.0
 40
5.700944010416665
  1
出力インピーダンス
 41
0.7
 11
-244.8
 21
262.5822678993054
 31
0.0
100
AcDbText
 73
     3
  0
TEXT
  5
17D
330
2B2
100
AcDbEntity
  8
SPEC
 62
     7
100
AcDbText
 10
-244.8
 20
245.6313238888888
 30
0.0
 40
5.700944010416665
  1
最小負荷インピーダンス
 41
0.7
 11
-244.8
 21
251.3322678993055
 31
0.0
100
AcDbText
 73
     3
  0
TEXT
  5
17E
330
2B2
100
AcDbEntity
  8
SPEC
 62
     7
100
AcDbText
 10
-244.8
 20
178.1313238888887
 30
0.0
 40
5.700944010416665
  1
付属品
 41
0.7
 11
-244.8
 21
183.8322678993054
 31
0.0
100
AcDbText
 73
     3
  0
TEXT
  5
17F
330
2B2
100
AcDbEntity
  8
SPEC
 62
     7
100
AcDbText
 10
-244.8
 20
200.6313238888887
 30
0.0
 40
5.700944010416665
  1
寸法(φ×H)
 41
0.7
 11
-244.8
 21
206.3322678993054
 31
0.0
100
AcDbText
 73
     3
  0
TEXT
  5
180
330
2B2
100
AcDbEntity
  8
SPEC
 62
     7
100
AcDbText
 10
-244.8
 20
189.3813238888887
 30
0.0
 40
5.700944010416665
  1
質量
 41
0.7
 11
-244.8
 21
195.0822678993054
 31
0.0
100
AcDbText
 73
     3
  0
TEXT
  5
181
330
2B2
100
AcDbEntity
  8
SPEC
 62
     7
100
AcDbText
 10
-132.3
 20
223.1313238888887
 30
0.0
 40
5.700944010416665
  1
黒(SC4098-BM30)または白(SC4098-WM30)
 41
0.7
 11
-132.3
 21
228.8322678993054
 31
0.0
100
AcDbText
 73
     3
  0
TEXT
  5
182
330
2B2
100
AcDbEntity
  8
SPEC
 62
     7
100
AcDbText
 10
-132.3
 20
346.8813238888888
 30
0.0
 40
5.700944010416665
  1
プリポラライズド・コンデンサー型 
 41
0.7
 11
-132.3
 21
352.5822678993054
 31
0.0
100
AcDbText
 73
     3
  0
TEXT
  5
183
330
2B2
100
AcDbEntity
  8
SPEC
 62
     7
100
AcDbText
 10
-132.3
 20
358.1313238888889
 30
0.0
 40
5.700944010416665
  1
超単一指向性
 41
0.7
 11
-132.3
 21
363.8322678993055
 31
0.0
100
AcDbText
 73
     3
  0
TEXT
  5
184
330
2B2
100
AcDbEntity
  8
SPEC
 62
     7
100
AcDbText
 10
-132.3
 20
335.6313238888887
 30
0.0
 40
5.700944010416665
  1
20Hz～20kHz
 41
0.7
 11
-132.3
 21
341.3322678993054
 31
0.0
100
AcDbText
 73
     3
  0
TEXT
  5
185
330
2B2
100
AcDbEntity
  8
SPEC
 62
     7
100
AcDbText
 10
-132.3
 20
324.3813238888888
 30
0.0
 40
5.700944010416665
  1
80Hz～15kHz、3dBソフトブースト@8～15kHz
 41
0.7
 11
-132.3
 21
330.0822678993054
 31
0.0
100
AcDbText
 73
     3
  0
TEXT
  5
186
330
2B2
100
AcDbEntity
  8
SPEC
 62
     7
100
AcDbText
 10
-132.3
 20
313.1313238888887
 30
0.0
 40
5.700944010416665
  1
-36dB re. 1V/Pa
 41
0.7
 11
-132.3
 21
318.8322678993054
 31
0.0
100
AcDbText
 73
     3
  0
TEXT
  5
187
330
2B2
100
AcDbEntity
  8
SPEC
 62
     7
100
AcDbText
 10
-132.3
 20
301.8813238888887
 30
0.0
 40
5.700944010416665
  1
23dB(A)
 41
0.7
 11
-132.3
 21
307.5822678993054
 31
0.0
100
AcDbText
 73
     3
  0
TEXT
  5
188
330
2B2
100
AcDbEntity
  8
SPEC
 62
     7
100
AcDbText
 10
-132.3
 20
256.8813238888887
 30
0.0
 40
5.700944010416665
  1
30～40Ω(DAD6001使用時:100Ω)
 41
0.7
 11
-132.3
 21
262.5822678993054
 31
0.0
100
AcDbText
 73
     3
  0
TEXT
  5
189
330
2B2
100
AcDbEntity
  8
SPEC
 62
     7
100
AcDbText
 10
-132.3
 20
290.6313238888888
 30
0.0
 40
5.700944010416665
  1
1%%%以下(125dB SPL)
 41
0.7
 11
-132.3
 21
296.3322678993054
 31
0.0
100
AcDbText
 73
     3
  0
TEXT
  5
18A
330
2B2
100
AcDbEntity
  8
SPEC
 62
     7
100
AcDbText
 10
-132.3
 20
279.3813238888887
 30
0.0
 40
5.700944010416665
  1
102dB
 41
0.7
 11
-132.3
 21
285.0822678993054
 31
0.0
100
AcDbText
 73
     3
  0
TEXT
  5
18B
330
2B2
100
AcDbEntity
  8
SPEC
 62
     7
100
AcDbText
 10
-132.3
 20
268.1313238888888
 30
0.0
 40
5.700944010416665
  1
135dB
 41
0.7
 11
-132.3
 21
273.8322678993054
 31
0.0
100
AcDbText
 73
     3
  0
TEXT
  5
18C
330
2B2
100
AcDbEntity
  8
SPEC
 62
     7
100
AcDbText
 10
-132.3
 20
245.6313238888888
 30
0.0
 40
5.700944010416665
  1
2kΩ
 41
0.7
 11
-132.3
 21
251.3322678993055
 31
0.0
100
AcDbText
 73
     3
  0
TEXT
  5
18D
330
2B2
100
AcDbEntity
  8
SPEC
 62
     7
100
AcDbText
 10
-132.3
 20
234.3813238888888
 30
0.0
 40
5.700944010416665
  1
5V～50V(ワイヤレス用変換アダプター使用時)またはファンタ ム48V±4V(DAD6001使用時)
 41
0.7
 11
-132.3
 21
240.0822678993054
 31
0.0
100
AcDbText
 73
     3
  0
TEXT
  5
18E
330
2B2
100
AcDbEntity
  8
SPEC
 62
     7
100
AcDbText
 10
-132.3
 20
200.6313238888887
 30
0.0
 40
5.700944010416665
  1
φ6×258mm(除ウインドスクリーン)
 41
0.7
 11
-132.3
 21
206.3322678993054
 31
0.0
100
AcDbText
 73
     3
  0
TEXT
  5
18F
330
2B2
100
AcDbEntity
  8
SPEC
 62
     7
100
AcDbText
 10
-132.3
 20
211.8813238888888
 30
0.0
 40
5.700944010416665
  1
MicroDot
 41
0.7
 11
-132.3
 21
217.5822678993054
 31
0.0
100
AcDbText
 73
     3
  0
TEXT
  5
190
330
2B2
100
AcDbEntity
  8
SPEC
 62
     7
100
AcDbText
 10
-132.3
 20
189.3813238888887
 30
0.0
 40
5.700944010416665
  1
約18g
 41
0.7
 11
-132.3
 21
195.0822678993054
 31
0.0
100
AcDbText
 73
     3
  0
TEXT
  5
191
330
2B2
100
AcDbEntity
  8
SPEC
 62
     7
100
AcDbText
 10
-132.3
 20
178.1313238888887
 30
0.0
 40
5.700944010416665
  1
ウインドスクリーン×1
 41
0.7
 11
-132.3
 21
183.8322678993054
 31
0.0
100
AcDbText
 73
     3
  0
TEXT
  5
192
330
2B2
100
AcDbEntity
  8
DIMNSIONS
 62
     7
100
AcDbText
 10
-59.99999999999998
 20
-346.1739594444444
 30
0.0
 40
7.329785156249999
  1
(単位：mm)
 41
0.7
 11
-59.99999999999998
 21
-338.8441742881943
 31
0.0
100
AcDbText
 73
     3
  0
LINE
  5
193
330
2B2
100
AcDbEntity
  8
DIMNSIONS
  6
Continuous
 62
     7
100
AcDbLine
 10
-72.02887458916717
 20
57.42781352708207
 30
0.0
 11
-62.5
 21
81.25
 31
0.0
  0
LINE
  5
194
330
2B2
100
AcDbEntity
  8
DIMNSIONS
  6
Continuous
 62
     7
100
AcDbLine
 10
-72.02887458916717
 20
57.42781352708207
 30
0.0
 11
-71.08237573482743
 21
65.13642809050589
 31
0.0
  0
LINE
  5
195
330
2B2
100
AcDbEntity
  8
DIMNSIONS
  6
Continuous
 62
     7
100
AcDbLine
 10
-72.02887458916717
 20
57.42781352708207
 30
0.0
 11
-67.35487525494419
 21
63.63042013981992
 31
0.0
  0
LINE
  5
196
330
2B2
100
AcDbEntity
  8
DIMNSIONS
  6
Continuous
 62
     7
100
AcDbLine
 10
-62.5
 20
81.25
 30
0.0
 11
-56.5
 21
81.25
 31
0.0
  0
TEXT
  5
197
330
2B2
100
AcDbEntity
  8
DIMNSIONS
 62
     7
100
AcDbText
 10
-56.5
 20
77.43999999999999
 30
0.0
 40
8.144205729166673
  1
φ16.0(ウィンドスクリーン)
 41
0.7
 11
-56.5
 21
85.58420572916666
 31
0.0
100
AcDbText
 73
     3
  0
LINE
  5
198
330
2B2
100
AcDbEntity
  8
DIMNSIONS
  6
Continuous
 62
     7
100
AcDbLine
 10
-72.67025917585404
 20
51.55316054943064
 30
0.0
 11
-56.25
 21
62.5
 31
0.0
  0
LINE
  5
199
330
2B2
100
AcDbEntity
  8
DIMNSIONS
  6
Continuous
 62
     7
100
AcDbLine
 10
-72.67025917585404
 20
51.55316054943064
 30
0.0
 11
-67.47345303391206
 21
57.32479848781261
 31
0.0
  0
LINE
  5
19A
330
2B2
100
AcDbEntity
  8
DIMNSIONS
  6
Continuous
 62
     7
100
AcDbLine
 10
-72.67025917585404
 20
51.55316054943064
 30
0.0
 11
-65.28387406919829
 21
53.9531425545445
 31
0.0
  0
LINE
  5
19B
330
2B2
100
AcDbEntity
  8
DIMNSIONS
  6
Continuous
 62
     7
100
AcDbLine
 10
-56.25
 20
62.5
 30
0.0
 11
-50.25
 21
62.5
 31
0.0
  0
TEXT
  5
19C
330
2B2
100
AcDbEntity
  8
DIMNSIONS
 62
     7
100
AcDbText
 10
-50.25
 20
58.68999999999998
 30
0.0
 40
8.144205729166673
  1
φ5.6
 41
0.7
 11
-50.25
 21
66.83420572916666
 31
0.0
100
AcDbText
 73
     3
  0
LINE
  5
19D
330
2B2
100
AcDbEntity
  8
DIMNSIONS
  6
Continuous
 62
     7
100
AcDbLine
 10
-64.0
 20
-38.2000000000329
 30
0.0
 11
-47.0
 21
-38.2000000000329
 31
0.0
  0
LINE
  5
19E
330
2B2
100
AcDbEntity
  8
DIMNSIONS
  6
Continuous
 62
     7
100
AcDbLine
 10
-69.0
 20
19.79999999996711
 30
0.0
 11
-47.0
 21
19.79999999996711
 31
0.0
  0
LINE
  5
19F
330
2B2
100
AcDbEntity
  8
DIMNSIONS
  6
Continuous
 62
     7
100
AcDbLine
 10
-50.0
 20
-38.2000000000329
 30
0.0
 11
-50.0
 21
19.79999999996711
 31
0.0
  0
LINE
  5
1A0
330
2B2
100
AcDbEntity
  8
DIMNSIONS
  6
Continuous
 62
     7
100
AcDbLine
 10
-50.0
 20
-38.2000000000329
 30
0.0
 11
-52.01011938545073
 21
-30.69813232425164
 31
0.0
  0
LINE
  5
1A1
330
2B2
100
AcDbEntity
  8
DIMNSIONS
  6
Continuous
 62
     7
100
AcDbLine
 10
-50.0
 20
-38.2000000000329
 30
0.0
 11
-47.98988061454926
 21
-30.69813232425164
 31
0.0
  0
LINE
  5
1A2
330
2B2
100
AcDbEntity
  8
DIMNSIONS
  6
Continuous
 62
     7
100
AcDbLine
 10
-50.0
 20
19.79999999996711
 30
0.0
 11
-47.98988061454926
 21
12.29813232418586
 31
0.0
  0
LINE
  5
1A3
330
2B2
100
AcDbEntity
  8
DIMNSIONS
  6
Continuous
 62
     7
100
AcDbLine
 10
-50.0
 20
19.79999999996711
 30
0.0
 11
-52.01011938545073
 21
12.29813232418586
 31
0.0
  0
TEXT
  5
1A4
330
2B2
100
AcDbEntity
  8
DIMNSIONS
 62
     7
100
AcDbText
 10
-52.98166666666666
 20
-19.78333333336621
 30
0.0
 40
8.144205729166673
  1
58.0
 50
90.0
 41
0.7
 11
-61.12587239583334
 21
-19.78333333336621
 31
0.0
100
AcDbText
 73
     3
  0
LINE
  5
1A5
330
2B2
100
AcDbEntity
  8
DIMNSIONS
  6
Continuous
 62
     7
100
AcDbLine
 10
-73.65835921350013
 20
-272.3167184270002
 30
0.0
 11
-68.75
 21
-262.5
 31
0.0
  0
LINE
  5
1A6
330
2B2
100
AcDbEntity
  8
DIMNSIONS
  6
Continuous
 62
     7
100
AcDbLine
 10
-73.65835921350013
 20
-272.3167184270002
 30
0.0
 11
-72.04361204522633
 21
-264.7199302799444
 31
0.0
  0
LINE
  5
1A7
330
2B2
100
AcDbEntity
  8
DIMNSIONS
  6
Continuous
 62
     7
100
AcDbLine
 10
-73.65835921350013
 20
-272.3167184270002
 30
0.0
 11
-68.46155307155813
 21
-266.5450804886182
 31
0.0
  0
LINE
  5
1A8
330
2B2
100
AcDbEntity
  8
DIMNSIONS
  6
Continuous
 62
     7
100
AcDbLine
 10
-68.75
 20
-262.5
 30
0.0
 11
-62.75
 21
-262.5
 31
0.0
  0
TEXT
  5
1A9
330
2B2
100
AcDbEntity
  8
DIMNSIONS
 62
     7
100
AcDbText
 10
-62.75
 20
-266.31
 30
0.0
 40
8.144205729166673
  1
φ6.0
 41
0.7
 11
-62.75
 21
-258.1657942708334
 31
0.0
100
AcDbText
 73
     3
  0
LINE
  5
1AA
330
2B2
100
AcDbEntity
  8
DIMNSIONS
  6
Continuous
 62
     7
100
AcDbLine
 10
-83.92499999999998
 20
-250.0
 30
0.0
 11
-96.75
 21
-250.0
 31
0.0
  0
LINE
  5
1AB
330
2B2
100
AcDbEntity
  8
DIMNSIONS
  6
Continuous
 62
     7
100
AcDbLine
 10
-83.50000000000001
 20
-204.0
 30
0.0
 11
-96.75
 21
-204.0
 31
0.0
  0
LINE
  5
1AC
330
2B2
100
AcDbEntity
  8
DIMNSIONS
  6
Continuous
 62
     7
100
AcDbLine
 10
-93.75
 20
-250.0
 30
0.0
 11
-93.75
 21
-204.0
 31
0.0
  0
LINE
  5
1AD
330
2B2
100
AcDbEntity
  8
DIMNSIONS
  6
Continuous
 62
     7
100
AcDbLine
 10
-93.75
 20
-250.0
 30
0.0
 11
-95.76011938545072
 21
-242.4981323242187
 31
0.0
  0
LINE
  5
1AE
330
2B2
100
AcDbEntity
  8
DIMNSIONS
  6
Continuous
 62
     7
100
AcDbLine
 10
-93.75
 20
-250.0
 30
0.0
 11
-91.73988061454927
 21
-242.4981323242187
 31
0.0
  0
LINE
  5
1AF
330
2B2
100
AcDbEntity
  8
DIMNSIONS
  6
Continuous
 62
     7
100
AcDbLine
 10
-93.75
 20
-204.0
 30
0.0
 11
-91.73988061454927
 21
-211.5018676757813
 31
0.0
  0
LINE
  5
1B0
330
2B2
100
AcDbEntity
  8
DIMNSIONS
  6
Continuous
 62
     7
100
AcDbLine
 10
-93.75
 20
-204.0
 30
0.0
 11
-95.76011938545072
 21
-211.5018676757813
 31
0.0
  0
TEXT
  5
1B1
330
2B2
100
AcDbEntity
  8
DIMNSIONS
 62
     7
100
AcDbText
 10
-96.73166666666666
 20
-237.5833333333333
 30
0.0
 40
8.144205729166673
  1
46.0
 50
90.0
 41
0.7
 11
-104.8758723958333
 21
-237.5833333333333
 31
0.0
100
AcDbText
 73
     3
  0
LINE
  5
1B2
330
2B2
100
AcDbEntity
  8
DIMNSIONS
  6
Continuous
 62
     7
100
AcDbLine
 10
-83.75
 20
-37.99999999999999
 30
0.0
 11
-96.75
 21
-37.99999999999999
 31
0.0
  0
LINE
  5
1B3
330
2B2
100
AcDbEntity
  8
DIMNSIONS
  6
Continuous
 62
     7
100
AcDbLine
 10
-83.79999999999999
 20
8.009883707520252
 30
0.0
 11
-96.75
 21
8.009883707520252
 31
0.0
  0
LINE
  5
1B4
330
2B2
100
AcDbEntity
  8
DIMNSIONS
  6
Continuous
 62
     7
100
AcDbLine
 10
-93.75
 20
-37.99999999999999
 30
0.0
 11
-93.75
 21
8.009883707520252
 31
0.0
  0
LINE
  5
1B5
330
2B2
100
AcDbEntity
  8
DIMNSIONS
  6
Continuous
 62
     7
100
AcDbLine
 10
-93.75
 20
-37.99999999999999
 30
0.0
 11
-95.76011938545072
 21
-30.49813232421874
 31
0.0
  0
LINE
  5
1B6
330
2B2
100
AcDbEntity
  8
DIMNSIONS
  6
Continuous
 62
     7
100
AcDbLine
 10
-93.75
 20
-37.99999999999999
 30
0.0
 11
-91.73988061454927
 21
-30.49813232421874
 31
0.0
  0
LINE
  5
1B7
330
2B2
100
AcDbEntity
  8
DIMNSIONS
  6
Continuous
 62
     7
100
AcDbLine
 10
-93.75
 20
8.009883707520252
 30
0.0
 11
-91.73988061454927
 21
0.5080160317390039
 31
0.0
  0
LINE
  5
1B8
330
2B2
100
AcDbEntity
  8
DIMNSIONS
  6
Continuous
 62
     7
100
AcDbLine
 10
-93.75
 20
8.009883707520252
 30
0.0
 11
-95.76011938545072
 21
0.5080160317390039
 31
0.0
  0
TEXT
  5
1B9
330
2B2
100
AcDbEntity
  8
DIMNSIONS
 62
     7
100
AcDbText
 10
-96.73166666666666
 20
-25.5783914795732
 30
0.0
 40
8.144205729166673
  1
46.0
 50
90.0
 41
0.7
 11
-104.8758723958333
 21
-25.5783914795732
 31
0.0
100
AcDbText
 73
     3
  0
LINE
  5
1BA
330
2B2
100
AcDbEntity
  8
DIMNSIONS
  6
Continuous
 62
     7
100
AcDbLine
 10
-83.49999999999999
 20
-70.99999999999998
 30
0.0
 11
-96.75
 21
-70.99999999999998
 31
0.0
  0
LINE
  5
1BB
330
2B2
100
AcDbEntity
  8
DIMNSIONS
  6
Continuous
 62
     7
100
AcDbLine
 10
-83.75
 20
-37.99999999999999
 30
0.0
 11
-96.75
 21
-37.99999999999999
 31
0.0
  0
LINE
  5
1BC
330
2B2
100
AcDbEntity
  8
DIMNSIONS
  6
Continuous
 62
     7
100
AcDbLine
 10
-93.75
 20
-70.99999999999998
 30
0.0
 11
-93.75
 21
-37.99999999999999
 31
0.0
  0
LINE
  5
1BD
330
2B2
100
AcDbEntity
  8
DIMNSIONS
  6
Continuous
 62
     7
100
AcDbLine
 10
-93.75
 20
-70.99999999999998
 30
0.0
 11
-95.76011938545072
 21
-63.49813232421873
 31
0.0
  0
LINE
  5
1BE
330
2B2
100
AcDbEntity
  8
DIMNSIONS
  6
Continuous
 62
     7
100
AcDbLine
 10
-93.75
 20
-70.99999999999998
 30
0.0
 11
-91.73988061454927
 21
-63.49813232421873
 31
0.0
  0
LINE
  5
1BF
330
2B2
100
AcDbEntity
  8
DIMNSIONS
  6
Continuous
 62
     7
100
AcDbLine
 10
-93.75
 20
-37.99999999999999
 30
0.0
 11
-91.73988061454927
 21
-45.50186767578124
 31
0.0
  0
LINE
  5
1C0
330
2B2
100
AcDbEntity
  8
DIMNSIONS
  6
Continuous
 62
     7
100
AcDbLine
 10
-93.75
 20
-37.99999999999999
 30
0.0
 11
-95.76011938545072
 21
-45.50186767578124
 31
0.0
  0
TEXT
  5
1C1
330
2B2
100
AcDbEntity
  8
DIMNSIONS
 62
     7
100
AcDbText
 10
-96.73166666666666
 20
-65.08333333333331
 30
0.0
 40
8.144205729166673
  1
33.0
 50
90.0
 41
0.7
 11
-104.8758723958333
 21
-65.08333333333331
 31
0.0
100
AcDbText
 73
     3
  0
LINE
  5
1C2
330
2B2
100
AcDbEntity
  8
DIMNSIONS
  6
Continuous
 62
     7
100
AcDbLine
 10
-83.92499999999998
 20
-250.0
 30
0.0
 11
-115.5
 21
-250.0
 31
0.0
  0
LINE
  5
1C3
330
2B2
100
AcDbEntity
  8
DIMNSIONS
  6
Continuous
 62
     7
100
AcDbLine
 10
-83.79999999999999
 20
8.009883707520252
 30
0.0
 11
-115.5
 21
8.009883707520252
 31
0.0
  0
LINE
  5
1C4
330
2B2
100
AcDbEntity
  8
DIMNSIONS
  6
Continuous
 62
     7
100
AcDbLine
 10
-112.5
 20
-250.0
 30
0.0
 11
-112.5
 21
8.009883707520252
 31
0.0
  0
LINE
  5
1C5
330
2B2
100
AcDbEntity
  8
DIMNSIONS
  6
Continuous
 62
     7
100
AcDbLine
 10
-112.5
 20
-250.0
 30
0.0
 11
-114.5101193854507
 21
-242.4981323242187
 31
0.0
  0
LINE
  5
1C6
330
2B2
100
AcDbEntity
  8
DIMNSIONS
  6
Continuous
 62
     7
100
AcDbLine
 10
-112.5
 20
-250.0
 30
0.0
 11
-110.4898806145492
 21
-242.4981323242187
 31
0.0
  0
LINE
  5
1C7
330
2B2
100
AcDbEntity
  8
DIMNSIONS
  6
Continuous
 62
     7
100
AcDbLine
 10
-112.5
 20
8.009883707520252
 30
0.0
 11
-110.4898806145492
 21
0.5080160317390039
 31
0.0
  0
LINE
  5
1C8
330
2B2
100
AcDbEntity
  8
DIMNSIONS
  6
Continuous
 62
     7
100
AcDbLine
 10
-112.5
 20
8.009883707520252
 30
0.0
 11
-114.5101193854507
 21
0.5080160317390039
 31
0.0
  0
TEXT
  5
1C9
330
2B2
100
AcDbEntity
  8
DIMNSIONS
 62
     7
100
AcDbText
 10
-115.4816666666667
 20
-128.9325581462398
 30
0.0
 40
8.144205729166666
  1
258
 50
90.0
 41
0.7
 11
-123.6258723958333
 21
-128.9325581462398
 31
0.0
100
AcDbText
 73
     3
  0
TEXT
  5
1CA
330
2B2
100
AcDbEntity
  8
DATA
 62
     7
100
AcDbText
 10
149.9999999999999
 20
-349.5897594444443
 30
0.0
 40
7.329785156249999
  1
SC4098-BM30、SC4098-WM30
 41
0.7
 11
149.9999999999999
 21
-342.2599742881943
 31
0.0
100
AcDbText
 73
     3
  0
TEXT
  5
1CB
330
2B2
100
AcDbEntity
  8
DATA
 62
     7
100
AcDbText
 10
-262.5
 20
-359.353596111111
 30
0.0
 40
5.700944010416667
  1
※仕様及び外観は予告なく変更されることがあります。
 41
0.7
 11
-262.5
 21
-353.6526521006944
 31
0.0
100
AcDbText
 73
     3
  0
TEXT
  5
1CC
330
2B2
100
AcDbEntity
  8
DATA
 62
     7
100
AcDbText
 10
-262.5
 20
-366.7619294444444
 30
0.0
 40
5.700944010416667
  1
　また、同一商品でも若干の個体差があることがあります。ご了承ください。
 41
0.7
 11
-262.5
 21
-361.0609854340277
 31
0.0
100
AcDbText
 73
     3
  0
LINE
  5
1CD
330
2B2
100
AcDbEntity
  8
DATA
  6
Continuous
 62
     7
100
AcDbLine
 10
-77.92499999999998
 20
-250.0
 30
0.0
 11
-77.92499999999998
 21
-245.0
 31
0.0
  0
LINE
  5
1CE
330
2B2
100
AcDbEntity
  8
DATA
  6
Continuous
 62
     7
100
AcDbLine
 10
-72.075
 20
-250.0
 30
0.0
 11
-77.92499999999998
 21
-250.0
 31
0.0
  0
LINE
  5
1CF
330
2B2
100
AcDbEntity
  8
DATA
  6
Continuous
 62
     7
100
AcDbLine
 10
-72.075
 20
-245.0
 30
0.0
 11
-72.075
 21
-250.0
 31
0.0
  0
LINE
  5
1D0
330
2B2
100
AcDbEntity
  8
DATA
  6
Continuous
 62
     7
100
AcDbLine
 10
-71.99999999999999
 20
-244.27
 30
0.0
 11
-71.99999999999999
 21
-244.93
 31
0.0
  0
LINE
  5
1D1
330
2B2
100
AcDbEntity
  8
DATA
  6
Continuous
 62
     7
100
AcDbLine
 10
-77.99999999999998
 20
-244.93
 30
0.0
 11
-77.99999999999998
 21
-244.27
 31
0.0
  0
LINE
  5
1D2
330
2B2
100
AcDbEntity
  8
DATA
  6
Continuous
 62
     7
100
AcDbLine
 10
-77.88000000000002
 20
-244.2
 30
0.0
 11
-72.11999999999997
 21
-244.2
 31
0.0
  0
LINE
  5
1D3
330
2B2
100
AcDbEntity
  8
DATA
  6
Continuous
 62
     7
100
AcDbLine
 10
-77.92999999999998
 20
-245.0
 30
0.0
 11
-72.06999999999998
 21
-245.0
 31
0.0
  0
LINE
  5
1D4
330
2B2
100
AcDbEntity
  8
DATA
  6
Continuous
 62
     7
100
AcDbLine
 10
-77.875
 20
-244.2
 30
0.0
 11
-77.875
 21
-238.2
 31
0.0
  0
LINE
  5
1D5
330
2B2
100
AcDbEntity
  8
DATA
  6
Continuous
 62
     7
100
AcDbLine
 10
-72.06999999999998
 20
-244.2
 30
0.0
 11
-77.93000000000001
 21
-244.2
 31
0.0
  0
LINE
  5
1D6
330
2B2
100
AcDbEntity
  8
DATA
  6
Continuous
 62
     7
100
AcDbLine
 10
-72.125
 20
-238.2
 30
0.0
 11
-72.125
 21
-244.2
 31
0.0
  0
LINE
  5
1D7
330
2B2
100
AcDbEntity
  8
DATA
  6
Continuous
 62
     7
100
AcDbLine
 10
-77.5
 20
-238.2
 30
0.0
 11
-77.49999999999999
 21
-38.0
 31
0.0
  0
LINE
  5
1D8
330
2B2
100
AcDbEntity
  8
DATA
  6
Continuous
 62
     7
100
AcDbLine
 10
-72.5
 20
-38.0
 30
0.0
 11
-72.5
 21
-238.2
 31
0.0
  0
ARC
  5
1D9
330
2B2
100
AcDbEntity
  8
DATA
  6
Continuous
 62
     7
100
AcDbCircle
 10
-77.92999999999998
 20
-244.27
 30
0.0
 40
0.0699999999999932
100
AcDbArc
 50
90.0
 51
180.0
  0
ARC
  5
1DA
330
2B2
100
AcDbEntity
  8
DATA
  6
Continuous
 62
     7
100
AcDbCircle
 10
-77.92999999999998
 20
-244.93
 30
0.0
 40
0.0699999999999932
100
AcDbArc
 50
180.0
 51
270.0
  0
ARC
  5
1DB
330
2B2
100
AcDbEntity
  8
DATA
  6
Continuous
 62
     7
100
AcDbCircle
 10
-72.06999999999998
 20
-244.27
 30
0.0
 40
0.0699999999999932
100
AcDbArc
 50
0.0
 51
90.0
  0
ARC
  5
1DC
330
2B2
100
AcDbEntity
  8
DATA
  6
Continuous
 62
     7
100
AcDbCircle
 10
-72.06999999999998
 20
-244.93
 30
0.0
 40
0.0699999999999932
100
AcDbArc
 50
270.0
 51
0.0
  0
CIRCLE
  5
1DD
330
2B2
100
AcDbEntity
  8
DATA
  6
Continuous
 62
     7
100
AcDbCircle
 10
-75.0
 20
-275.0
 30
0.0
 40
2.924999999999996
  0
CIRCLE
  5
1DE
330
2B2
100
AcDbEntity
  8
DATA
  6
Continuous
 62
     7
100
AcDbCircle
 10
-75.0
 20
-275.0
 30
0.0
 40
3.0
  0
CIRCLE
  5
1DF
330
2B2
100
AcDbEntity
  8
DATA
  6
Continuous
 62
     7
100
AcDbCircle
 10
-75.0
 20
-275.0
 30
0.0
 40
2.0
  0
CIRCLE
  5
1E0
330
2B2
100
AcDbEntity
  8
DATA
  6
Continuous
 62
     7
100
AcDbCircle
 10
-75.0
 20
-275.0
 30
0.0
 40
0.375
  0
LINE
  5
1E1
330
2B2
100
AcDbEntity
  8
DATA
  6
Continuous
 62
     7
100
AcDbLine
 10
-77.75
 20
-37.99999999999999
 30
0.0
 11
-77.75
 21
-26.19999999999999
 31
0.0
  0
LINE
  5
1E2
330
2B2
100
AcDbEntity
  8
DATA
  6
Continuous
 62
     7
100
AcDbLine
 10
-72.25
 20
-26.19999999999999
 30
0.0
 11
-72.25
 21
-37.99999999999999
 31
0.0
  0
LINE
  5
1E3
330
2B2
100
AcDbEntity
  8
DATA
  6
Continuous
 62
     7
100
AcDbLine
 10
-77.75
 20
-26.19999999999999
 30
0.0
 11
-72.25
 21
-26.19999999999999
 31
0.0
  0
LWPOLYLINE
  5
1E4
330
2B2
100
AcDbEntity
  8
DATA
  6
Continuous
 62
     7
100
AcDbPolyline
 90
        4
 70
     1
 43
0.0
 10
-77.80000000000002
 20
-22.19999999999999
 10
-72.20000000000002
 20
-22.19999999999999
 10
-72.20000000000002
 20
-26.19999999999999
 10
-77.80000000000002
 20
-26.19999999999999
  0
LINE
  5
1EB
330
2B2
100
AcDbEntity
  8
DATA
  6
Continuous
 62
     7
100
AcDbLine
 10
-77.5
 20
-22.19999999999999
 30
0.0
 11
-77.5
 21
7.009883707520252
 31
0.0
  0
LINE
  5
1EC
330
2B2
100
AcDbEntity
  8
DATA
  6
Continuous
 62
     7
100
AcDbLine
 10
-72.5
 20
-22.19999999999999
 30
0.0
 11
-77.5
 21
-22.19999999999999
 31
0.0
  0
LINE
  5
1ED
330
2B2
100
AcDbEntity
  8
DATA
  6
Continuous
 62
     7
100
AcDbLine
 10
-72.5
 20
7.009883707520244
 30
0.0
 11
-72.5
 21
-22.19999999999999
 31
0.0
  0
LINE
  5
1EE
330
2B2
100
AcDbEntity
  8
DATA
  6
Continuous
 62
     7
100
AcDbLine
 10
-77.79999999999998
 20
8.009883707520252
 30
0.0
 11
-72.2
 21
8.009883707520252
 31
0.0
  0
LWPOLYLINE
  5
1EF
330
2B2
100
AcDbEntity
  8
DATA
  6
Continuous
 62
     7
100
AcDbPolyline
 90
        4
 70
     1
 43
0.0
 10
-77.79999999999998
 20
8.009883707520252
 10
-72.2
 20
8.009883707520252
 10
-72.2
 20
7.009883707520252
 10
-77.79999999999998
 20
7.009883707520252
  0
TEXT
  5
1F6
330
2B2
100
AcDbEntity
  8
DATA
 62
     7
100
AcDbText
 10
149.6660203758708
 20
-325.665678687128
 30
0.0
 40
7.329785156249999
  1
DPA Microphones
 41
0.7
 11
149.6660203758708
 21
-318.335893530878
 31
0.0
100
AcDbText
 73
     3
  0
LINE
  5
1F7
330
2B2
100
AcDbEntity
  8
DATA
  6
Continuous
 62
     7
100
AcDbLine
 10
22.07500000000001
 20
-250.0
 30
0.0
 11
22.07500000000001
 21
-245.0
 31
0.0
  0
LINE
  5
1F8
330
2B2
100
AcDbEntity
  8
DATA
  6
Continuous
 62
     7
100
AcDbLine
 10
27.92500000000001
 20
-250.0
 30
0.0
 11
22.07500000000001
 21
-250.0
 31
0.0
  0
LINE
  5
1F9
330
2B2
100
AcDbEntity
  8
DATA
  6
Continuous
 62
     7
100
AcDbLine
 10
27.92500000000001
 20
-245.0
 30
0.0
 11
27.92500000000001
 21
-250.0
 31
0.0
  0
LINE
  5
1FA
330
2B2
100
AcDbEntity
  8
DATA
  6
Continuous
 62
     7
100
AcDbLine
 10
28.00000000000001
 20
-244.27
 30
0.0
 11
28.00000000000001
 21
-244.93
 31
0.0
  0
LINE
  5
1FB
330
2B2
100
AcDbEntity
  8
DATA
  6
Continuous
 62
     7
100
AcDbLine
 10
22.00000000000001
 20
-244.93
 30
0.0
 11
22.00000000000001
 21
-244.27
 31
0.0
  0
LINE
  5
1FC
330
2B2
100
AcDbEntity
  8
DATA
  6
Continuous
 62
     7
100
AcDbLine
 10
22.11999999999999
 20
-244.2
 30
0.0
 11
27.88000000000001
 21
-244.2
 31
0.0
  0
LINE
  5
1FD
330
2B2
100
AcDbEntity
  8
DATA
  6
Continuous
 62
     7
100
AcDbLine
 10
22.07000000000001
 20
-245.0
 30
0.0
 11
27.93000000000002
 21
-245.0
 31
0.0
  0
LINE
  5
1FE
330
2B2
100
AcDbEntity
  8
DATA
  6
Continuous
 62
     7
100
AcDbLine
 10
22.125
 20
-244.2
 30
0.0
 11
22.125
 21
-238.2
 31
0.0
  0
LINE
  5
1FF
330
2B2
100
AcDbEntity
  8
DATA
  6
Continuous
 62
     7
100
AcDbLine
 10
27.93000000000001
 20
-244.2
 30
0.0
 11
22.07
 21
-244.2
 31
0.0
  0
LINE
  5
200
330
2B2
100
AcDbEntity
  8
DATA
  6
Continuous
 62
     7
100
AcDbLine
 10
27.875
 20
-238.2
 30
0.0
 11
27.875
 21
-244.2
 31
0.0
  0
LINE
  5
201
330
2B2
100
AcDbEntity
  8
DATA
  6
Continuous
 62
     7
100
AcDbLine
 10
22.5
 20
-238.2
 30
0.0
 11
22.50000000000001
 21
-38.0
 31
0.0
  0
LINE
  5
202
330
2B2
100
AcDbEntity
  8
DATA
  6
Continuous
 62
     7
100
AcDbLine
 10
27.5
 20
-38.0
 30
0.0
 11
27.5
 21
-238.2
 31
0.0
  0
ARC
  5
203
330
2B2
100
AcDbEntity
  8
DATA
  6
Continuous
 62
     7
100
AcDbCircle
 10
22.07000000000001
 20
-244.27
 30
0.0
 40
0.0699999999999932
100
AcDbArc
 50
90.0
 51
180.0
  0
ARC
  5
204
330
2B2
100
AcDbEntity
  8
DATA
  6
Continuous
 62
     7
100
AcDbCircle
 10
22.07000000000001
 20
-244.93
 30
0.0
 40
0.0699999999999932
100
AcDbArc
 50
180.0
 51
270.0
  0
ARC
  5
205
330
2B2
100
AcDbEntity
  8
DATA
  6
Continuous
 62
     7
100
AcDbCircle
 10
27.93000000000002
 20
-244.27
 30
0.0
 40
0.0699999999999932
100
AcDbArc
 50
0.0
 51
90.0
  0
ARC
  5
206
330
2B2
100
AcDbEntity
  8
DATA
  6
Continuous
 62
     7
100
AcDbCircle
 10
27.93000000000002
 20
-244.93
 30
0.0
 40
0.0699999999999932
100
AcDbArc
 50
270.0
 51
0.0
  0
LINE
  5
207
330
2B2
100
AcDbEntity
  8
DATA
  6
Continuous
 62
     7
100
AcDbLine
 10
22.25
 20
-37.99999999999999
 30
0.0
 11
22.25
 21
-26.19999999999999
 31
0.0
  0
LINE
  5
208
330
2B2
100
AcDbEntity
  8
DATA
  6
Continuous
 62
     7
100
AcDbLine
 10
27.75
 20
-26.19999999999999
 30
0.0
 11
27.75
 21
-37.99999999999999
 31
0.0
  0
LINE
  5
209
330
2B2
100
AcDbEntity
  8
DATA
  6
Continuous
 62
     7
100
AcDbLine
 10
22.25
 20
-26.19999999999999
 30
0.0
 11
27.75
 21
-26.19999999999999
 31
0.0
  0
LWPOLYLINE
  5
20A
330
2B2
100
AcDbEntity
  8
DATA
  6
Continuous
 62
     7
100
AcDbPolyline
 90
        4
 70
     1
 43
0.0
 10
22.19999999999999
 20
-22.19999999999999
 10
27.79999999999999
 20
-22.19999999999999
 10
27.79999999999999
 20
-26.19999999999999
 10
22.19999999999999
 20
-26.19999999999999
  0
LINE
  5
211
330
2B2
100
AcDbEntity
  8
DATA
  6
Continuous
 62
     7
100
AcDbLine
 10
22.5
 20
-22.19999999999999
 30
0.0
 11
22.5
 21
7.009883707520252
 31
0.0
  0
LINE
  5
212
330
2B2
100
AcDbEntity
  8
DATA
  6
Continuous
 62
     7
100
AcDbLine
 10
27.5
 20
-22.19999999999999
 30
0.0
 11
22.5
 21
-22.19999999999999
 31
0.0
  0
LINE
  5
213
330
2B2
100
AcDbEntity
  8
DATA
  6
Continuous
 62
     7
100
AcDbLine
 10
27.5
 20
7.009883707520244
 30
0.0
 11
27.5
 21
-22.19999999999999
 31
0.0
  0
LINE
  5
214
330
2B2
100
AcDbEntity
  8
DATA
  6
Continuous
 62
     7
100
AcDbLine
 10
22.20000000000001
 20
8.009883707520252
 30
0.0
 11
27.80000000000001
 21
8.009883707520252
 31
0.0
  0
LWPOLYLINE
  5
215
330
2B2
100
AcDbEntity
  8
DATA
  6
Continuous
 62
     7
100
AcDbPolyline
 90
        4
 70
     1
 43
0.0
 10
22.20000000000001
 20
8.009883707520252
 10
27.8
 20
8.009883707520252
 10
27.8
 20
7.009883707520252
 10
22.20000000000001
 20
7.009883707520252
  0
ARC
  5
21C
330
2B2
100
AcDbEntity
  8
DATA
  6
STYLE_11
 62
     7
100
AcDbCircle
 10
-80.0
 20
-35.20000000003289
 30
0.0
 40
3.0
100
AcDbArc
 50
180.0
 51
270.0
  0
ARC
  5
21D
330
2B2
100
AcDbEntity
  8
DATA
  6
STYLE_11
 62
     7
100
AcDbCircle
 10
-70.0
 20
-35.20000000003289
 30
0.0
 40
3.0
100
AcDbArc
 50
270.0
 51
0.0
  0
CIRCLE
  5
21E
330
2B2
100
AcDbEntity
  8
DATA
  6
STYLE_11
 62
     7
100
AcDbCircle
 10
-75.0
 20
50.0
 30
0.0
 40
8.0
  0
CIRCLE
  5
21F
330
2B2
100
AcDbEntity
  8
DATA
  6
Continuous
 62
     7
100
AcDbCircle
 10
-75.0
 20
50.0
 30
0.0
 40
2.799999999999996
  0
CIRCLE
  5
220
330
2B2
100
AcDbEntity
  8
DATA
  6
Continuous
 62
     7
100
AcDbCircle
 10
-75.0
 20
50.0
 30
0.0
 40
2.299999999999996
  0
ARC
  5
221
330
2B2
100
AcDbEntity
  8
DATA
  6
Continuous
 62
     7
100
AcDbCircle
 10
25.00010118834778
 20
-27.61232703366167
 30
0.0
 40
0.5896099422146599
100
AcDbArc
 50
28.56372796219821
 51
151.2020468817584
  0
ARC
  5
222
330
2B2
100
AcDbEntity
  8
DATA
  6
Continuous
 62
     7
100
AcDbCircle
 10
25.45314951232911
 20
-27.95309579848524
 30
0.0
 40
1.153586748414221
100
AcDbArc
 50
147.2065201697245
 51
181.8390314501166
  0
ARC
  5
223
330
2B2
100
AcDbEntity
  8
DATA
  6
Continuous
 62
     7
100
AcDbCircle
 10
24.54685048767089
 20
-27.95309579848524
 30
0.0
 40
1.15358674841422
100
AcDbArc
 50
358.1609685498833
 51
32.6686291743863
  0
ARC
  5
224
330
2B2
100
AcDbEntity
  8
DATA
  6
Continuous
 62
     7
100
AcDbCircle
 10
25.00010118834778
 20
-28.36790555129783
 30
0.0
 40
0.5896099422146584
100
AcDbArc
 50
208.7979531182415
 51
331.4362720378019
  0
ARC
  5
225
330
2B2
100
AcDbEntity
  8
DATA
  6
Continuous
 62
     7
100
AcDbCircle
 10
25.45314951232911
 20
-28.02713678647425
 30
0.0
 40
1.15358674841422
100
AcDbArc
 50
178.1609685498833
 51
212.7934798302754
  0
ARC
  5
226
330
2B2
100
AcDbEntity
  8
DATA
  6
Continuous
 62
     7
100
AcDbCircle
 10
24.54685048767089
 20
-28.02713678647425
 30
0.0
 40
1.153586748414218
100
AcDbArc
 50
327.3313708256136
 51
1.839031450116636
  0
ARC
  5
227
330
2B2
100
AcDbEntity
  8
DATA
  6
Continuous
 62
     7
100
AcDbCircle
 10
25.00011636659995
 20
-27.55565864483895
 30
0.0
 40
0.6780514335468554
100
AcDbArc
 50
28.56372796219833
 51
151.2020468817585
  0
ARC
  5
228
330
2B2
100
AcDbEntity
  8
DATA
  6
Continuous
 62
     7
100
AcDbCircle
 10
25.52112193917848
 20
-27.94754272438607
 30
0.0
 40
1.326624760676352
100
AcDbArc
 50
147.2065201697244
 51
181.8390314501165
  0
ARC
  5
229
330
2B2
100
AcDbEntity
  8
DATA
  6
Continuous
 62
     7
100
AcDbCircle
 10
24.47887806082152
 20
-27.94754272438607
 30
0.0
 40
1.326624760676349
100
AcDbArc
 50
358.1609685498833
 51
32.6686291743863
  0
ARC
  5
22A
330
2B2
100
AcDbEntity
  8
DATA
  6
Continuous
 62
     7
100
AcDbCircle
 10
25.00011636659995
 20
-28.42457394012055
 30
0.0
 40
0.6780514335468633
100
AcDbArc
 50
208.7979531182414
 51
331.4362720378016
  0
ARC
  5
22B
330
2B2
100
AcDbEntity
  8
DATA
  6
Continuous
 62
     7
100
AcDbCircle
 10
25.52112193917848
 20
-28.03268986057343
 30
0.0
 40
1.326624760676349
100
AcDbArc
 50
178.1609685498834
 51
212.7934798302756
  0
ARC
  5
22C
330
2B2
100
AcDbEntity
  8
DATA
  6
Continuous
 62
     7
100
AcDbCircle
 10
24.47887806082152
 20
-28.03268986057343
 30
0.0
 40
1.326624760676348
100
AcDbArc
 50
327.3313708256136
 51
1.839031450116636
  0
ARC
  5
22D
330
2B2
100
AcDbEntity
  8
DATA
  6
STYLE_11
 62
     7
100
AcDbCircle
 10
20.0
 20
-35.20000000003289
 30
0.0
 40
3.0
100
AcDbArc
 50
180.0
 51
270.0
  0
ARC
  5
22E
330
2B2
100
AcDbEntity
  8
DATA
  6
STYLE_11
 62
     7
100
AcDbCircle
 10
30.0
 20
-35.20000000003289
 30
0.0
 40
3.0
100
AcDbArc
 50
270.0
 51
0.0
  0
LINE
  5
22F
330
2B2
100
AcDbEntity
  8
DATA
  6
STYLE_11
 62
     7
100
AcDbLine
 10
-83.0
 20
-34.85879008046071
 30
0.0
 11
-83.0
 21
11.79999999996711
 31
0.0
  0
ARC
  5
230
330
2B2
100
AcDbEntity
  8
DATA
  6
STYLE_11
 62
     7
100
AcDbCircle
 10
-75.0
 20
11.79999999996711
 30
0.0
 40
8.0
100
AcDbArc
 50
0.0
 51
180.0
  0
LINE
  5
231
330
2B2
100
AcDbEntity
  8
DATA
  6
STYLE_11
 62
     7
100
AcDbLine
 10
-67.0
 20
-34.85879008046071
 30
0.0
 11
-67.0
 21
11.79999999996711
 31
0.0
  0
LINE
  5
232
330
2B2
100
AcDbEntity
  8
DATA
  6
STYLE_11
 62
     7
100
AcDbLine
 10
17.0
 20
-34.85879008046071
 30
0.0
 11
17.0
 21
11.79999999996711
 31
0.0
  0
ARC
  5
233
330
2B2
100
AcDbEntity
  8
DATA
  6
STYLE_11
 62
     7
100
AcDbCircle
 10
25.0
 20
11.79999999996711
 30
0.0
 40
8.0
100
AcDbArc
 50
0.0
 51
180.0
  0
LINE
  5
234
330
2B2
100
AcDbEntity
  8
DATA
  6
STYLE_11
 62
     7
100
AcDbLine
 10
33.0
 20
-34.85879008046071
 30
0.0
 11
33.0
 21
11.79999999996711
 31
0.0
  0
INSERT
  5
235
330
2B2
100
AcDbEntity
  8
DATA
 62
     7
100
AcDbBlockReference
  2
____
 10
0.0
 20
0.0
 30
0.0
  0
INSERT
  5
236
330
2B2
100
AcDbEntity
  8
DATA
 62
     7
100
AcDbBlockReference
  2
____-1
 10
0.0
 20
0.0
 30
0.0
  0
LINE
  5
237
330
2B2
100
AcDbEntity
  8
DATA
  6
Continuous
 62
     7
100
AcDbLine
 10
-77.875
 20
-238.2
 30
0.0
 11
-72.12500000000002
 21
-238.2
 31
0.0
  0
LINE
  5
238
330
2B2
100
AcDbEntity
  8
DATA
  6
Continuous
 62
     7
100
AcDbLine
 10
-77.50000000000001
 20
-204.0
 30
0.0
 11
-72.5
 21
-204.0
 31
0.0
  0
LINE
  5
239
330
2B2
100
AcDbEntity
  8
DATA
  6
Continuous
 62
     7
100
AcDbLine
 10
-77.5
 20
-70.99999999999998
 30
0.0
 11
-72.5
 21
-70.99999999999998
 31
0.0
  0
LINE
  5
23A
330
2B2
100
AcDbEntity
  8
DATA
  6
Continuous
 62
     7
100
AcDbLine
 10
-72.25
 20
-37.99999999999999
 30
0.0
 11
-77.75
 21
-37.99999999999999
 31
0.0
  0
LINE
  5
23B
330
2B2
100
AcDbEntity
  8
DATA
  6
Continuous
 62
     7
100
AcDbLine
 10
22.125
 20
-238.2
 30
0.0
 11
27.87499999999999
 21
-238.2
 31
0.0
  0
LINE
  5
23C
330
2B2
100
AcDbEntity
  8
DATA
  6
Continuous
 62
     7
100
AcDbLine
 10
22.49999999999999
 20
-204.0
 30
0.0
 11
27.5
 21
-204.0
 31
0.0
  0
LINE
  5
23D
330
2B2
100
AcDbEntity
  8
DATA
  6
Continuous
 62
     7
100
AcDbLine
 10
22.5
 20
-70.99999999999998
 30
0.0
 11
27.5
 21
-70.99999999999998
 31
0.0
  0
LINE
  5
23E
330
2B2
100
AcDbEntity
  8
DATA
  6
Continuous
 62
     7
100
AcDbLine
 10
27.75
 20
-37.99999999999999
 30
0.0
 11
22.25
 21
-37.99999999999999
 31
0.0
  0
LINE
  5
23F
330
2B2
100
AcDbEntity
  8
DATA
  6
STYLE_11
 62
     7
100
AcDbLine
 10
-70.0
 20
-38.2000000000329
 30
0.0
 11
-80.0
 21
-38.2000000000329
 31
0.0
  0
LINE
  5
240
330
2B2
100
AcDbEntity
  8
DATA
  6
STYLE_11
 62
     7
100
AcDbLine
 10
30.0
 20
-38.2000000000329
 30
0.0
 11
20.0
 21
-38.2000000000329
 31
0.0
  0
TEXT
  5
241
330
2B2
100
AcDbEntity
  8
DATA
 62
     7
100
AcDbText
 10
142.4999999999999
 20
-337.590104143268
 30
0.0
 40
5.700944010416665
  1
グースネック・マイクロホン
 41
0.7
 11
142.4999999999999
 21
-331.8891601328514
 31
0.0
100
AcDbText
 73
     3
  0
ENDSEC
  0
SECTION
  2
OBJECTS
  0
DICTIONARY
  5
24F
330
0
100
AcDbDictionary
281
     1
  3
ACAD_CIP_PREVIOUS_PRODUCT_INFO
350
2CE
  3
ACAD_COLOR
350
2A5
  3
ACAD_DETAILVIEWSTYLE
350
2AC
  3
ACAD_GROUP
350
250
  3
ACAD_LAYOUT
350
2A4
  3
ACAD_MATERIAL
350
253
  3
ACAD_MLEADERSTYLE
350
2A8
  3
ACAD_MLINESTYLE
350
2A1
  3
ACAD_PLOTSETTINGS
350
2A3
  3
ACAD_PLOTSTYLENAME
350
251
  3
ACAD_SCALELIST
350
285
  3
ACAD_SECTIONVIEWSTYLE
350
2AA
  3
ACAD_TABLESTYLE
350
2A6
  3
ACAD_VISUALSTYLE
350
26C
  3
ACDB_RECOMPOSE_DATA
350
2E8
  3
AcDbVariableDictionary
350
2DB
  3
DWGPROPS
350
2E9
  0
DICTIONARY
  5
2CF
330
297
100
AcDbDictionary
280
     1
281
     1
  3
ADSK_XREC_LAYER_RECONCILED
360
2D0
  0
DICTIONARY
  5
2D1
330
2B6
100
AcDbDictionary
280
     1
281
     1
  3
ADSK_XREC_LAYER_RECONCILED
360
2D2
  0
DICTIONARY
  5
2D3
330
2C3
100
AcDbDictionary
280
     1
281
     1
  3
ADSK_XREC_LAYER_RECONCILED
360
2D4
  0
DICTIONARY
  5
2D5
330
2C4
100
AcDbDictionary
280
     1
281
     1
  3
ADSK_XREC_LAYER_RECONCILED
360
2D6
  0
DICTIONARY
  5
2D7
330
2C5
100
AcDbDictionary
280
     1
281
     1
  3
ADSK_XREC_LAYER_RECONCILED
360
2D8
  0
DICTIONARY
  5
2D9
330
2C6
100
AcDbDictionary
280
     1
281
     1
  3
ADSK_XREC_LAYER_RECONCILED
360
2DA
  0
XRECORD
  5
2CE
102
{ACAD_REACTORS
330
24F
102
}
330
24F
100
AcDbXrecord
280
     1
300
ACDLT
300
2018
300
ACDLT_F_S
  0
DICTIONARY
  5
2A5
102
{ACAD_REACTORS
330
24F
102
}
330
24F
100
AcDbDictionary
281
     1
  0
DICTIONARY
  5
2AC
102
{ACAD_REACTORS
330
24F
102
}
330
24F
100
AcDbDictionary
281
     1
  3
Imperial24
350
2AD
  0
DICTIONARY
  5
250
102
{ACAD_REACTORS
330
24F
102
}
330
24F
100
AcDbDictionary
281
     1
  0
DICTIONARY
  5
2A4
102
{ACAD_REACTORS
330
24F
102
}
330
24F
100
AcDbDictionary
281
     1
  3
Model
350
2B5
  3
レイアウト1
350
2B1
  0
DICTIONARY
  5
253
102
{ACAD_REACTORS
330
24F
102
}
330
24F
100
AcDbDictionary
281
     1
  3
ByBlock
350
25C
  3
ByLayer
350
254
  3
Global
350
264
  0
DICTIONARY
  5
2A8
102
{ACAD_REACTORS
330
24F
102
}
330
24F
100
AcDbDictionary
281
     1
  3
Standard
350
2A9
  0
DICTIONARY
  5
2A1
102
{ACAD_REACTORS
330
24F
102
}
330
24F
100
AcDbDictionary
281
     1
  3
Standard
350
2A2
  0
DICTIONARY
  5
2A3
102
{ACAD_REACTORS
330
24F
102
}
330
24F
100
AcDbDictionary
281
     1
  0
ACDBDICTIONARYWDFLT
  5
251
102
{ACAD_REACTORS
330
24F
102
}
330
24F
100
AcDbDictionary
281
     1
  3
Normal
350
252
100
AcDbDictionaryWithDefault
340
252
  0
DICTIONARY
  5
285
102
{ACAD_REACTORS
330
24F
102
}
330
24F
100
AcDbDictionary
281
     1
  3
A0
350
286
  3
A1
350
287
  3
A2
350
288
  3
A3
350
289
  3
A4
350
28A
  3
A5
350
28B
  3
A6
350
28C
  3
A7
350
28D
  3
A8
350
28E
  3
A9
350
28F
  3
B0
350
290
  3
B1
350
291
  3
B2
350
292
  3
B3
350
293
  3
B4
350
294
  3
B5
350
295
  3
B6
350
296
  0
DICTIONARY
  5
2AA
102
{ACAD_REACTORS
330
24F
102
}
330
24F
100
AcDbDictionary
281
     1
  3
Imperial24
350
2AB
  0
DICTIONARY
  5
2A6
102
{ACAD_REACTORS
330
24F
102
}
330
24F
100
AcDbDictionary
281
     1
  3
Standard
350
2A7
  0
DICTIONARY
  5
26C
102
{ACAD_REACTORS
330
24F
102
}
330
24F
100
AcDbDictionary
281
     1
  3
2dWireframe
350
272
  3
Basic
350
271
  3
Brighten
350
278
  3
ColorChange
350
27C
  3
Conceptual
350
275
  3
Dim
350
277
  3
EdgeColorOff
350
284
  3
Facepattern
350
27B
  3
Flat
350
26D
  3
FlatWithEdges
350
26E
  3
Gouraud
350
26F
  3
GouraudWithEdges
350
270
  3
Hidden
350
274
  3
JitterOff
350
282
  3
Linepattern
350
27A
  3
OverhangOff
350
283
  3
Realistic
350
276
  3
Shaded
350
281
  3
Shaded with edges
350
280
  3
Shades of Gray
350
27D
  3
Sketchy
350
27E
  3
Thicken
350
279
  3
Wireframe
350
273
  3
X-Ray
350
27F
  0
XRECORD
  5
2E8
102
{ACAD_REACTORS
330
24F
102
}
330
24F
100
AcDbXrecord
280
     1
 90
        1
330
2A7
  0
DICTIONARY
  5
2DB
102
{ACAD_REACTORS
330
24F
102
}
330
24F
100
AcDbDictionary
281
     1
  3
CANNOSCALE
350
2E0
  3
CMLEADERSTYLE
350
2DD
  3
CTABLESTYLE
350
2DC
  3
CVIEWDETAILSTYLE
350
2DE
  3
CVIEWSECTIONSTYLE
350
2DF
  3
DIMASSOC
350
2E3
  3
INDEXCTL
350
2E2
  3
SORTENTS
350
2E1
  3
XCLIPFRAME
350
2E4
  0
XRECORD
  5
2E9
102
{ACAD_REACTORS
330
24F
102
}
330
24F
100
AcDbXrecord
280
     1
  1
DWGPROPS COOKIE
  2

  3

  4

  6

  7

  8
sasaki_n
  9

300
=
301
=
302
=
303
=
304
=
305
=
306
=
307
=
308
=
309
=
 40
0.0002893518518519
 41
2457865.505046296
 42
2457865.508715278
  1

 90
        0
  0
XRECORD
  5
2D0
102
{ACAD_REACTORS
330
2CF
102
}
330
2CF
100
AcDbXrecord
280
     1
290
     1
  0
XRECORD
  5
2D2
102
{ACAD_REACTORS
330
2D1
102
}
330
2D1
100
AcDbXrecord
280
     1
290
     1
  0
XRECORD
  5
2D4
102
{ACAD_REACTORS
330
2D3
102
}
330
2D3
100
AcDbXrecord
280
     1
290
     1
  0
XRECORD
  5
2D6
102
{ACAD_REACTORS
330
2D5
102
}
330
2D5
100
AcDbXrecord
280
     1
290
     1
  0
XRECORD
  5
2D8
102
{ACAD_REACTORS
330
2D7
102
}
330
2D7
100
AcDbXrecord
280
     1
290
     1
  0
XRECORD
  5
2DA
102
{ACAD_REACTORS
330
2D9
102
}
330
2D9
100
AcDbXrecord
280
     1
290
     1
  0
ACDBDETAILVIEWSTYLE
  5
2AD
102
{ACAD_XDICTIONARY
360
321
102
}
102
{ACAD_REACTORS
330
2AC
102
}
330
2AC
100
AcDbModelDocViewStyle
 70
     0
  3
Imperial24
290
     0
100
AcDbDetailViewStyle
 70
     0
 71
     0
 90
        3
 71
     1
340
298
 40
0.24
340
0
 40
0.24
300

 40
0.36
280
     3
 71
     2
340
29F
 90
       25
 71
     3
340
298
 40
0.24
 90
        1
 40
0.75
 90
        1
300
%<\AcVar ViewType \f "%tc1">% %<\AcVar ViewDetailId>%\PSCALE %<\AcVar ViewScale \f "%sn">%
 71
     4
340
29F
 90
       25
340
29F
 90
       25
280
     0
  0
LAYOUT
  5
2B5
102
{ACAD_XDICTIONARY
360
325
102
}
102
{ACAD_REACTORS
330
2A4
102
}
330
2A4
100
AcDbPlotSettings
  1

  2
DocuPrint 3000-2
  4

  6

 40
0.0
 41
0.0
 42
0.0
 43
0.0
 44
0.0
 45
0.0
 46
0.0
 47
0.0
 48
0.0
 49
0.0
140
0.0
141
0.0
142
1.0
143
1.0
 70
  1712
 72
     0
 73
     0
 74
     0
  7

 75
     0
147
1.0
148
0.0
149
0.0
100
AcDbLayout
  1
Model
 70
     1
 71
     0
 10
0.0
 20
0.0
 11
12.0
 21
9.0
 12
0.0
 22
0.0
 32
0.0
 14
0.0
 24
0.0
 34
0.0
 15
0.0
 25
0.0
 35
0.0
146
0.0
 13
0.0
 23
0.0
 33
0.0
 16
1.0
 26
0.0
 36
0.0
 17
0.0
 27
1.0
 37
0.0
 76
     0
330
2B2
331
2B7
  0
LAYOUT
  5
2B1
102
{ACAD_XDICTIONARY
360
323
102
}
102
{ACAD_REACTORS
330
2A4
102
}
330
2A4
100
AcDbPlotSettings
  1

  2
DocuPrint 3000-2
  4

  6

 40
0.0
 41
0.0
 42
0.0
 43
0.0
 44
0.0
 45
0.0
 46
0.0
 47
0.0
 48
0.0
 49
0.0
140
0.0
141
0.0
142
1.0
143
1.0
 70
   688
 72
     0
 73
     0
 74
     5
  7

 75
    16
147
1.0
148
0.0
149
0.0
100
AcDbLayout
  1
レイアウト1
 70
     0
 71
     1
 10
0.0
 20
0.0
 11
12.0
 21
9.0
 12
0.0
 22
0.0
 32
0.0
 14
1.000000000000000E+20
 24
1.000000000000000E+20
 34
1.000000000000000E+20
 15
-1.000000000000000E+20
 25
-1.000000000000000E+20
 35
-1.000000000000000E+20
146
0.0
 13
0.0
 23
0.0
 33
0.0
 16
1.0
 26
0.0
 36
0.0
 17
0.0
 27
1.0
 37
0.0
 76
     0
330
2AE
  0
MATERIAL
  5
25C
102
{ACAD_XDICTIONARY
360
25D
102
}
102
{ACAD_REACTORS
330
253
102
}
330
253
100
AcDbMaterial
  1
ByBlock
 72
     0
 43
0.0208333333333333
 43
0.0
 43
0.0
 43
0.0
 43
0.0
 43
0.0208333333333333
 43
0.0
 43
0.0
 43
0.0
 43
0.0
 43
1.0
 43
0.0
 43
0.0
 43
0.0
 43
0.0
 43
1.0
 77
     0
 47
0.0208333333333333
 47
0.0
 47
0.0
 47
0.0
 47
0.0
 47
0.0208333333333333
 47
0.0
 47
0.0
 47
0.0
 47
0.0
 47
1.0
 47
0.0
 47
0.0
 47
0.0
 47
0.0
 47
1.0
171
     0
 49
0.0208333333333333
 49
0.0
 49
0.0
 49
0.0
 49
0.0
 49
0.0208333333333333
 49
0.0
 49
0.0
 49
0.0
 49
0.0
 49
1.0
 49
0.0
 49
0.0
 49
0.0
 49
0.0
 49
1.0
175
     0
142
0.0208333333333333
142
0.0
142
0.0
142
0.0
142
0.0
142
0.0208333333333333
142
0.0
142
0.0
142
0.0
142
0.0
142
1.0
142
0.0
142
0.0
142
0.0
142
0.0
142
1.0
179
     0
144
0.0208333333333333
144
0.0
144
0.0
144
0.0
144
0.0
144
0.0208333333333333
144
0.0
144
0.0
144
0.0
144
0.0
144
1.0
144
0.0
144
0.0
144
0.0
144
0.0
144
1.0
147
0.0208333333333333
147
0.0
147
0.0
147
0.0
147
0.0
147
0.0208333333333333
147
0.0
147
0.0
147
0.0
147
0.0
147
1.0
147
0.0
147
0.0
147
0.0
147
0.0
147
1.0
  0
MATERIAL
  5
254
102
{ACAD_XDICTIONARY
360
255
102
}
102
{ACAD_REACTORS
330
253
102
}
330
253
100
AcDbMaterial
  1
ByLayer
 72
     0
 43
0.0208333333333333
 43
0.0
 43
0.0
 43
0.0
 43
0.0
 43
0.0208333333333333
 43
0.0
 43
0.0
 43
0.0
 43
0.0
 43
1.0
 43
0.0
 43
0.0
 43
0.0
 43
0.0
 43
1.0
 77
     0
 47
0.0208333333333333
 47
0.0
 47
0.0
 47
0.0
 47
0.0
 47
0.0208333333333333
 47
0.0
 47
0.0
 47
0.0
 47
0.0
 47
1.0
 47
0.0
 47
0.0
 47
0.0
 47
0.0
 47
1.0
171
     0
 49
0.0208333333333333
 49
0.0
 49
0.0
 49
0.0
 49
0.0
 49
0.0208333333333333
 49
0.0
 49
0.0
 49
0.0
 49
0.0
 49
1.0
 49
0.0
 49
0.0
 49
0.0
 49
0.0
 49
1.0
175
     0
142
0.0208333333333333
142
0.0
142
0.0
142
0.0
142
0.0
142
0.0208333333333333
142
0.0
142
0.0
142
0.0
142
0.0
142
1.0
142
0.0
142
0.0
142
0.0
142
0.0
142
1.0
179
     0
144
0.0208333333333333
144
0.0
144
0.0
144
0.0
144
0.0
144
0.0208333333333333
144
0.0
144
0.0
144
0.0
144
0.0
144
1.0
144
0.0
144
0.0
144
0.0
144
0.0
144
1.0
147
0.0208333333333333
147
0.0
147
0.0
147
0.0
147
0.0
147
0.0208333333333333
147
0.0
147
0.0
147
0.0
147
0.0
147
1.0
147
0.0
147
0.0
147
0.0
147
0.0
147
1.0
  0
MATERIAL
  5
264
102
{ACAD_XDICTIONARY
360
265
102
}
102
{ACAD_REACTORS
330
253
102
}
330
253
100
AcDbMaterial
  1
Global
 72
     0
 43
0.0208333333333333
 43
0.0
 43
0.0
 43
0.0
 43
0.0
 43
0.0208333333333333
 43
0.0
 43
0.0
 43
0.0
 43
0.0
 43
1.0
 43
0.0
 43
0.0
 43
0.0
 43
0.0
 43
1.0
 77
     0
 47
0.0208333333333333
 47
0.0
 47
0.0
 47
0.0
 47
0.0
 47
0.0208333333333333
 47
0.0
 47
0.0
 47
0.0
 47
0.0
 47
1.0
 47
0.0
 47
0.0
 47
0.0
 47
0.0
 47
1.0
171
     0
 49
0.0208333333333333
 49
0.0
 49
0.0
 49
0.0
 49
0.0
 49
0.0208333333333333
 49
0.0
 49
0.0
 49
0.0
 49
0.0
 49
1.0
 49
0.0
 49
0.0
 49
0.0
 49
0.0
 49
1.0
175
     0
142
0.0208333333333333
142
0.0
142
0.0
142
0.0
142
0.0
142
0.0208333333333333
142
0.0
142
0.0
142
0.0
142
0.0
142
1.0
142
0.0
142
0.0
142
0.0
142
0.0
142
1.0
179
     0
144
0.0208333333333333
144
0.0
144
0.0
144
0.0
144
0.0
144
0.0208333333333333
144
0.0
144
0.0
144
0.0
144
0.0
144
1.0
144
0.0
144
0.0
144
0.0
144
0.0
144
1.0
147
0.0208333333333333
147
0.0
147
0.0
147
0.0
147
0.0
147
0.0208333333333333
147
0.0
147
0.0
147
0.0
147
0.0
147
1.0
147
0.0
147
0.0
147
0.0
147
0.0
147
1.0
  0
MLEADERSTYLE
  5
2A9
102
{ACAD_REACTORS
330
2A8
102
}
330
2A8
100
AcDbMLeaderStyle
170
     2
171
     1
172
     0
 90
        2
 40
0.0
 41
0.0
173
     1
 91
-1056964608
340
29D
 92
       -2
290
     1
 42
0.09
291
     1
 43
0.36
  3
Standard
 44
0.18
300

342
298
174
     1
178
     6
175
     1
176
     0
 93
-1056964608
 45
0.18
292
     0
297
     0
 46
0.18
 94
-1056964608
 47
1.0
 49
1.0
140
1.0
293
     1
141
0.0
294
     1
177
     0
142
1.0
295
     0
296
     0
143
0.125
1001
ACAD_MLEADERVER
1070
     2
  0
MLINESTYLE
  5
2A2
102
{ACAD_REACTORS
330
2A1
102
}
330
2A1
100
AcDbMlineStyle
  2
STANDARD
 70
     0
  3

 62
   256
 51
90.0
 52
90.0
 71
     2
 49
0.5
 62
   256
  6
BYLAYER
 49
-0.5
 62
   256
  6
BYLAYER
  0
ACDBPLACEHOLDER
  5
252
102
{ACAD_REACTORS
330
251
102
}
330
251
  0
SCALE
  5
286
102
{ACAD_REACTORS
330
285
102
}
330
285
100
AcDbScale
 70
     0
300
1:1
140
1.0
141
1.0
290
     1
  0
SCALE
  5
287
102
{ACAD_REACTORS
330
285
102
}
330
285
100
AcDbScale
 70
     0
300
1/128" = 1'-0"
140
0.0078125
141
12.0
290
     0
  0
SCALE
  5
288
102
{ACAD_REACTORS
330
285
102
}
330
285
100
AcDbScale
 70
     0
300
1/64" = 1'-0"
140
0.015625
141
12.0
290
     0
  0
SCALE
  5
289
102
{ACAD_REACTORS
330
285
102
}
330
285
100
AcDbScale
 70
     0
300
1/32" = 1'-0"
140
0.03125
141
12.0
290
     0
  0
SCALE
  5
28A
102
{ACAD_REACTORS
330
285
102
}
330
285
100
AcDbScale
 70
     0
300
1/16" = 1'-0"
140
0.0625
141
12.0
290
     0
  0
SCALE
  5
28B
102
{ACAD_REACTORS
330
285
102
}
330
285
100
AcDbScale
 70
     0
300
3/32" = 1'-0"
140
0.09375
141
12.0
290
     0
  0
SCALE
  5
28C
102
{ACAD_REACTORS
330
285
102
}
330
285
100
AcDbScale
 70
     0
300
1/8" = 1'-0"
140
0.125
141
12.0
290
     0
  0
SCALE
  5
28D
102
{ACAD_REACTORS
330
285
102
}
330
285
100
AcDbScale
 70
     0
300
3/16" = 1'-0"
140
0.1875
141
12.0
290
     0
  0
SCALE
  5
28E
102
{ACAD_REACTORS
330
285
102
}
330
285
100
AcDbScale
 70
     0
300
1/4" = 1'-0"
140
0.25
141
12.0
290
     0
  0
SCALE
  5
28F
102
{ACAD_REACTORS
330
285
102
}
330
285
100
AcDbScale
 70
     0
300
3/8" = 1'-0"
140
0.375
141
12.0
290
     0
  0
SCALE
  5
290
102
{ACAD_REACTORS
330
285
102
}
330
285
100
AcDbScale
 70
     0
300
1/2" = 1'-0"
140
0.5
141
12.0
290
     0
  0
SCALE
  5
291
102
{ACAD_REACTORS
330
285
102
}
330
285
100
AcDbScale
 70
     0
300
3/4" = 1'-0"
140
0.75
141
12.0
290
     0
  0
SCALE
  5
292
102
{ACAD_REACTORS
330
285
102
}
330
285
100
AcDbScale
 70
     0
300
1" = 1'-0"
140
1.0
141
12.0
290
     0
  0
SCALE
  5
293
102
{ACAD_REACTORS
330
285
102
}
330
285
100
AcDbScale
 70
     0
300
1-1/2" = 1'-0"
140
1.5
141
12.0
290
     0
  0
SCALE
  5
294
102
{ACAD_REACTORS
330
285
102
}
330
285
100
AcDbScale
 70
     0
300
3" = 1'-0"
140
3.0
141
12.0
290
     0
  0
SCALE
  5
295
102
{ACAD_REACTORS
330
285
102
}
330
285
100
AcDbScale
 70
     0
300
6" = 1'-0"
140
6.0
141
12.0
290
     0
  0
SCALE
  5
296
102
{ACAD_REACTORS
330
285
102
}
330
285
100
AcDbScale
 70
     0
300
1'-0" = 1'-0"
140
12.0
141
12.0
290
     0
  0
ACDBSECTIONVIEWSTYLE
  5
2AB
102
{ACAD_XDICTIONARY
360
31F
102
}
102
{ACAD_REACTORS
330
2AA
102
}
330
2AA
100
AcDbModelDocViewStyle
 70
     0
  3
Imperial24
290
     0
100
AcDbSectionViewStyle
 70
     0
 71
     0
 90
       78
 71
     1
340
298
 40
0.24
340
0
340
0
 40
0.24
300
I, O, Q, S, X, Z
 40
0.48
 90
        3
 40
0.18
 90
        1
 71
     2
340
29F
 90
       25
340
29F
 90
       50
 40
0.24
 40
0.0
 40
0.24
 71
     3
340
298
 40
0.24
 90
        1
 40
0.75
 90
        1
300
%<\AcVar ViewType \f "%tc1">% %<\AcVar ViewSectionStartId>%-%<\AcVar ViewSectionEndId>%\PSCALE %<\AcVar ViewScale \f "%sn">%
 71
     4
300
ANSI31
 40
1.0
 90
        0
290
     0
290
     0
 90
        6
 40
0.0
 40
1.570796326794896
 40
0.2617993877991494
 40
1.308996938995747
 40
-0.2617993877991494
 40
1.832595714594046
  0
TABLESTYLE
  5
2A7
102
{ACAD_XDICTIONARY
360
2E6
102
}
102
{ACAD_REACTORS
330
2A6
102
}
330
2A6
100
AcDbTableStyle
  3
Standard
 70
     0
 71
     0
 40
0.06
 41
0.06
280
     0
281
     0
  7
STANDARD
140
0.18
170
     2
 62
     0
 63
     7
283
     0
274
    -2
284
     1
 64
     0
275
    -2
285
     1
 65
     0
276
    -2
286
     1
 66
     0
277
    -2
287
     1
 67
     0
278
    -2
288
     1
 68
     0
279
    -2
289
     1
 69
     0
  7
STANDARD
140
0.25
170
     5
 62
     0
 63
     7
283
     0
274
    -2
284
     1
 64
     0
275
    -2
285
     1
 65
     0
276
    -2
286
     1
 66
     0
277
    -2
287
     1
 67
     0
278
    -2
288
     1
 68
     0
279
    -2
289
     1
 69
     0
  7
STANDARD
140
0.18
170
     5
 62
     0
 63
     7
283
     0
274
    -2
284
     1
 64
     0
275
    -2
285
     1
 65
     0
276
    -2
286
     1
 66
     0
277
    -2
287
     1
 67
     0
278
    -2
288
     1
 68
     0
279
    -2
289
     1
 69
     0
  0
VISUALSTYLE
  5
272
102
{ACAD_XDICTIONARY
360
2F7
102
}
102
{ACAD_REACTORS
330
26C
102
}
330
26C
100
AcDbVisualStyle
  2
2dWireframe
 70
     4
 71
     0
 72
     2
 73
     0
 90
        0
 40
-0.6
 41
-30.0
 62
     5
 63
     7
 74
     1
 91
        4
 64
     7
 65
   257
 75
     1
175
     1
 42
1.0
 92
        0
 66
   257
 43
1.0
 76
     1
 77
     6
 78
     2
 67
     7
 79
     5
170
     0
171
     0
290
     0
174
     0
 93
        1
 44
0.0
173
     0
291
     0
 45
0.0
1001
ACAD
1000
AcDbSavedByObjectVersion
1070
     0
  0
VISUALSTYLE
  5
271
102
{ACAD_XDICTIONARY
360
2F5
102
}
102
{ACAD_REACTORS
330
26C
102
}
330
26C
100
AcDbVisualStyle
  2
Basic
 70
     7
 71
     1
 72
     0
 73
     1
 90
        0
 40
-0.6
 41
-30.0
 62
     5
 63
     7
 74
     0
 91
        4
 64
     7
 65
   257
 75
     1
175
     1
 42
1.0
 92
        8
 66
     7
 43
1.0
 76
     1
 77
     6
 78
     2
 67
     7
 79
     5
170
     0
171
     0
290
     0
174
     0
 93
        1
 44
0.0
173
     0
291
     1
 45
0.0
1001
ACAD
1000
AcDbSavedByObjectVersion
1070
     0
  0
VISUALSTYLE
  5
278
102
{ACAD_XDICTIONARY
360
303
102
}
102
{ACAD_REACTORS
330
26C
102
}
330
26C
100
AcDbVisualStyle
  2
Brighten
 70
    12
 71
     2
 72
     2
 73
     0
 90
        0
 40
-0.6
 41
-30.0
 62
     5
 63
     7
 74
     1
 91
        4
 64
     7
 65
   257
 75
     1
175
     1
 42
1.0
 92
        8
 66
     7
 43
1.0
 76
     1
 77
     6
 78
     2
 67
     7
 79
     5
170
     0
171
     0
290
     0
174
     0
 93
        1
 44
50.0
173
     0
291
     1
 45
0.0
1001
ACAD
1000
AcDbSavedByObjectVersion
1070
     0
  0
VISUALSTYLE
  5
27C
102
{ACAD_XDICTIONARY
360
30B
102
}
102
{ACAD_REACTORS
330
26C
102
}
330
26C
100
AcDbVisualStyle
  2
ColorChange
 70
    16
 71
     2
 72
     2
 73
     3
 90
        0
 40
-0.6
 41
-30.0
 62
     5
 63
     8
 74
     1
 91
        4
 64
     7
 65
   257
 75
     1
175
     1
 42
1.0
 92
        8
 66
     8
 43
1.0
 76
     1
 77
     6
 78
     2
 67
     7
 79
     5
170
     0
171
     0
290
     0
174
     0
 93
        1
 44
0.0
173
     0
291
     1
 45
0.0
1001
ACAD
1000
AcDbSavedByObjectVersion
1070
     0
  0
VISUALSTYLE
  5
275
102
{ACAD_XDICTIONARY
360
2FD
102
}
102
{ACAD_REACTORS
330
26C
102
}
330
26C
100
AcDbVisualStyle
  2
Conceptual
 70
     9
 71
     3
 72
     2
 73
     0
 90
        0
 40
-0.6
 41
-30.0
 62
     5
 63
     7
 74
     2
 91
        2
 64
     7
 65
   257
 75
     1
175
     1
 42
179.0
 92
        8
 66
     7
 43
1.0
 76
     1
 77
     6
 78
     2
 67
     7
 79
     3
170
     0
171
     0
290
     0
174
     0
 93
        1
 44
0.0
173
     0
291
     0
 45
0.0
1001
ACAD
1000
AcDbSavedByObjectVersion
1070
     0
  0
VISUALSTYLE
  5
277
102
{ACAD_XDICTIONARY
360
301
102
}
102
{ACAD_REACTORS
330
26C
102
}
330
26C
100
AcDbVisualStyle
  2
Dim
 70
    11
 71
     2
 72
     2
 73
     0
 90
        0
 40
-0.6
 41
-30.0
 62
     5
 63
     7
 74
     1
 91
        4
 64
     7
 65
   257
 75
     1
175
     1
 42
1.0
 92
        8
 66
     7
 43
1.0
 76
     1
 77
     6
 78
     2
 67
     7
 79
     5
170
     0
171
     0
290
     0
174
     0
 93
        1
 44
-50.0
173
     0
291
     1
 45
0.0
1001
ACAD
1000
AcDbSavedByObjectVersion
1070
     0
  0
VISUALSTYLE
  5
284
102
{ACAD_XDICTIONARY
360
31B
102
}
102
{ACAD_REACTORS
330
26C
102
}
330
26C
100
AcDbVisualStyle
  2
EdgeColorOff
 70
    22
 71
     2
 72
     2
 73
     0
 90
        0
 40
-0.6
 41
-30.0
 62
     5
 63
     7
 74
     1
 91
        4
 64
     7
 65
   257
 75
     1
175
     1
 42
1.0
 92
        8
 66
     7
 43
1.0
 76
     1
 77
     6
 78
     2
 67
     7
 79
     5
170
     0
171
     0
290
     0
174
     0
 93
        1
 44
0.0
173
     0
291
     1
 45
0.0
1001
ACAD
1000
AcDbSavedByObjectVersion
1070
     0
  0
VISUALSTYLE
  5
27B
102
{ACAD_XDICTIONARY
360
309
102
}
102
{ACAD_REACTORS
330
26C
102
}
330
26C
100
AcDbVisualStyle
  2
Facepattern
 70
    15
 71
     2
 72
     2
 73
     0
 90
        0
 40
-0.6
 41
-30.0
 62
     5
 63
     7
 74
     1
 91
        4
 64
     7
 65
   257
 75
     1
175
     1
 42
1.0
 92
        8
 66
     7
 43
1.0
 76
     1
 77
     6
 78
     2
 67
     7
 79
     5
170
     0
171
     0
290
     0
174
     0
 93
        1
 44
0.0
173
     0
291
     1
 45
0.0
1001
ACAD
1000
AcDbSavedByObjectVersion
1070
     0
  0
VISUALSTYLE
  5
26D
102
{ACAD_XDICTIONARY
360
2ED
102
}
102
{ACAD_REACTORS
330
26C
102
}
330
26C
100
AcDbVisualStyle
  2
Flat
 70
     0
 71
     2
 72
     1
 73
     1
 90
        2
 40
-0.6
 41
30.0
 62
     5
 63
     7
 74
     0
 91
        0
 64
     7
 65
   257
 75
     1
175
     1
 42
1.0
 92
        8
 66
     7
 43
1.0
 76
     1
 77
     6
 78
     2
 67
     7
 79
     5
170
     0
171
     0
290
     0
174
     0
 93
       13
 44
0.0
173
     0
291
     1
 45
0.0
1001
ACAD
1000
AcDbSavedByObjectVersion
1070
     0
  0
VISUALSTYLE
  5
26E
102
{ACAD_XDICTIONARY
360
2EF
102
}
102
{ACAD_REACTORS
330
26C
102
}
330
26C
100
AcDbVisualStyle
  2
FlatWithEdges
 70
     1
 71
     2
 72
     1
 73
     1
 90
        2
 40
-0.6
 41
30.0
 62
     5
 63
     7
 74
     1
 91
        0
 64
     7
 65
   257
 75
     1
175
     1
 42
1.0
 92
        0
 66
   257
 43
1.0
 76
     1
 77
     6
 78
     2
 67
     7
 79
     5
170
     0
171
     0
290
     0
174
     0
 93
       13
 44
0.0
173
     0
291
     1
 45
0.0
1001
ACAD
1000
AcDbSavedByObjectVersion
1070
     0
  0
VISUALSTYLE
  5
26F
102
{ACAD_XDICTIONARY
360
2F1
102
}
102
{ACAD_REACTORS
330
26C
102
}
330
26C
100
AcDbVisualStyle
  2
Gouraud
 70
     2
 71
     2
 72
     2
 73
     1
 90
        2
 40
-0.6
 41
30.0
 62
     5
 63
     7
 74
     0
 91
        0
 64
     7
 65
   257
 75
     1
175
     1
 42
1.0
 92
        0
 66
     7
 43
1.0
 76
     1
 77
     6
 78
     2
 67
     7
 79
     5
170
     0
171
     0
290
     0
174
     0
 93
       13
 44
0.0
173
     0
291
     1
 45
0.0
1001
ACAD
1000
AcDbSavedByObjectVersion
1070
     0
  0
VISUALSTYLE
  5
270
102
{ACAD_XDICTIONARY
360
2F3
102
}
102
{ACAD_REACTORS
330
26C
102
}
330
26C
100
AcDbVisualStyle
  2
GouraudWithEdges
 70
     3
 71
     2
 72
     2
 73
     1
 90
        2
 40
-0.6
 41
30.0
 62
     5
 63
     7
 74
     1
 91
        0
 64
     7
 65
   257
 75
     1
175
     1
 42
1.0
 92
        0
 66
   257
 43
1.0
 76
     1
 77
     6
 78
     2
 67
     7
 79
     5
170
     0
171
     0
290
     0
174
     0
 93
       13
 44
0.0
173
     0
291
     1
 45
0.0
1001
ACAD
1000
AcDbSavedByObjectVersion
1070
     0
  0
VISUALSTYLE
  5
274
102
{ACAD_XDICTIONARY
360
2FB
102
}
102
{ACAD_REACTORS
330
26C
102
}
330
26C
100
AcDbVisualStyle
  2
Hidden
 70
     6
 71
     1
 72
     2
 73
     2
 90
        0
 40
-0.6
 41
-30.0
 62
     5
 63
     7
 74
     2
 91
        2
 64
     7
 65
   257
 75
     2
175
     1
 42
40.0
 92
        0
 66
   257
 43
1.0
 76
     1
 77
     6
 78
     2
 67
     7
 79
     3
170
     0
171
     0
290
     0
174
     0
 93
        1
 44
0.0
173
     0
291
     0
 45
0.0
1001
ACAD
1000
AcDbSavedByObjectVersion
1070
     0
  0
VISUALSTYLE
  5
282
102
{ACAD_XDICTIONARY
360
317
102
}
102
{ACAD_REACTORS
330
26C
102
}
330
26C
100
AcDbVisualStyle
  2
JitterOff
 70
    20
 71
     2
 72
     2
 73
     0
 90
        0
 40
-0.6
 41
-30.0
 62
     5
 63
     7
 74
     1
 91
        4
 64
     7
 65
   257
 75
     1
175
     1
 42
1.0
 92
       10
 66
     7
 43
1.0
 76
     1
 77
     6
 78
     2
 67
     7
 79
     5
170
     0
171
     0
290
     0
174
     0
 93
        1
 44
0.0
173
     0
291
     1
 45
0.0
1001
ACAD
1000
AcDbSavedByObjectVersion
1070
     0
  0
VISUALSTYLE
  5
27A
102
{ACAD_XDICTIONARY
360
307
102
}
102
{ACAD_REACTORS
330
26C
102
}
330
26C
100
AcDbVisualStyle
  2
Linepattern
 70
    14
 71
     2
 72
     2
 73
     0
 90
        0
 40
-0.6
 41
-30.0
 62
     5
 63
     7
 74
     1
 91
        4
 64
     7
 65
   257
 75
     7
175
     7
 42
1.0
 92
        8
 66
     7
 43
1.0
 76
     1
 77
     6
 78
     2
 67
     7
 79
     5
170
     0
171
     0
290
     0
174
     0
 93
        1
 44
0.0
173
     0
291
     1
 45
0.0
1001
ACAD
1000
AcDbSavedByObjectVersion
1070
     0
  0
VISUALSTYLE
  5
283
102
{ACAD_XDICTIONARY
360
319
102
}
102
{ACAD_REACTORS
330
26C
102
}
330
26C
100
AcDbVisualStyle
  2
OverhangOff
 70
    21
 71
     2
 72
     2
 73
     0
 90
        0
 40
-0.6
 41
-30.0
 62
     5
 63
     7
 74
     1
 91
        4
 64
     7
 65
   257
 75
     1
175
     1
 42
1.0
 92
        9
 66
     7
 43
1.0
 76
     1
 77
     6
 78
     2
 67
     7
 79
     5
170
     0
171
     0
290
     0
174
     0
 93
        1
 44
0.0
173
     0
291
     1
 45
0.0
1001
ACAD
1000
AcDbSavedByObjectVersion
1070
     0
  0
VISUALSTYLE
  5
276
102
{ACAD_XDICTIONARY
360
2FF
102
}
102
{ACAD_REACTORS
330
26C
102
}
330
26C
100
AcDbVisualStyle
  2
Realistic
 70
     8
 71
     2
 72
     3
 73
     0
 90
        2
 40
-0.6
 41
30.0
 62
     5
 63
     7
 74
     0
 91
        0
 64
     7
 65
   257
 75
     1
175
     1
 42
1.0
 92
        8
 66
   257
 43
1.0
 76
     1
 77
     6
 78
     2
 67
     7
 79
     3
170
     0
171
     0
290
     0
174
     0
 93
       13
 44
0.0
173
     0
291
     0
 45
0.0
1001
ACAD
1000
AcDbSavedByObjectVersion
1070
     0
  0
VISUALSTYLE
  5
281
102
{ACAD_XDICTIONARY
360
315
102
}
102
{ACAD_REACTORS
330
26C
102
}
330
26C
100
AcDbVisualStyle
  2
Shaded
 70
    27
 71
     2
 72
     2
 73
     1
 90
        2
 40
-0.6
 41
30.0
 62
     5
 63
     7
 74
     0
 91
        4
 64
     7
 65
   257
 75
     1
175
     1
 42
1.0
 92
        8
 66
   257
 43
1.0
 76
     1
 77
     6
 78
     2
 67
     8
 79
     3
170
     0
171
     0
290
     0
174
     0
 93
        5
 44
0.0
173
     0
291
     0
 45
0.0
1001
ACAD
1000
AcDbSavedByObjectVersion
1070
     0
  0
VISUALSTYLE
  5
280
102
{ACAD_XDICTIONARY
360
313
102
}
102
{ACAD_REACTORS
330
26C
102
}
330
26C
100
AcDbVisualStyle
  2
Shaded with edges
 70
    26
 71
     2
 72
     2
 73
     1
 90
        2
 40
-0.6
 41
30.0
 62
     5
 63
     7
 74
     1
 91
        2
 64
     7
 65
   257
 75
     2
175
     1
 42
1.0
 92
        8
 66
   257
 43
1.0
 76
     1
 77
     6
 78
     2
 67
     7
 79
     3
170
     0
171
     0
290
     0
174
     0
 93
        5
 44
0.0
173
     0
291
     0
 45
0.0
1001
ACAD
1000
AcDbSavedByObjectVersion
1070
     0
  0
VISUALSTYLE
  5
27D
102
{ACAD_XDICTIONARY
360
30D
102
}
102
{ACAD_REACTORS
330
26C
102
}
330
26C
100
AcDbVisualStyle
  2
Shades of Gray
 70
    23
 71
     2
 72
     2
 73
     3
 90
        0
 40
-0.6
 41
-30.0
 62
     5
 63
     7
 74
     2
 91
        2
 64
     7
 65
     7
 75
     1
175
     1
 42
40.0
 92
        8
 66
     7
 43
1.0
 76
     1
 77
     6
 78
     2
 67
     7
 79
     3
170
     0
171
     0
290
     0
174
     0
 93
        1
 44
0.0
173
     0
291
     0
 45
0.0
1001
ACAD
1000
AcDbSavedByObjectVersion
1070
     0
  0
VISUALSTYLE
  5
27E
102
{ACAD_XDICTIONARY
360
30F
102
}
102
{ACAD_REACTORS
330
26C
102
}
330
26C
100
AcDbVisualStyle
  2
Sketchy
 70
    24
 71
     1
 72
     2
 73
     2
 90
        0
 40
-0.6
 41
-30.0
 62
     5
 63
     7
 74
     2
 91
        2
 64
     7
 65
     7
 75
     1
175
     1
 42
40.0
 92
       11
 66
     7
 43
1.0
 76
     1
 77
     6
 78
     2
 67
     7
 79
     6
170
     0
171
     0
290
     0
174
     0
 93
        1
 44
0.0
173
     0
291
     0
 45
0.0
1001
ACAD
1000
AcDbSavedByObjectVersion
1070
     0
  0
VISUALSTYLE
  5
279
102
{ACAD_XDICTIONARY
360
305
102
}
102
{ACAD_REACTORS
330
26C
102
}
330
26C
100
AcDbVisualStyle
  2
Thicken
 70
    13
 71
     2
 72
     2
 73
     0
 90
        0
 40
-0.6
 41
-30.0
 62
     5
 63
     7
 74
     1
 91
        4
 64
     7
 65
   257
 75
     1
175
     1
 42
1.0
 92
       12
 66
     7
 43
1.0
 76
     1
 77
     6
 78
     2
 67
     7
 79
     5
170
     0
171
     0
290
     0
174
     0
 93
        1
 44
0.0
173
     0
291
     1
 45
0.0
1001
ACAD
1000
AcDbSavedByObjectVersion
1070
     0
  0
VISUALSTYLE
  5
273
102
{ACAD_XDICTIONARY
360
2F9
102
}
102
{ACAD_REACTORS
330
26C
102
}
330
26C
100
AcDbVisualStyle
  2
Wireframe
 70
     5
 71
     0
 72
     2
 73
     0
 90
        0
 40
-0.6
 41
-30.0
 62
     5
 63
     7
 74
     1
 91
        4
 64
     7
 65
   257
 75
     1
175
     1
 42
1.0
 92
        0
 66
   257
 43
1.0
 76
     1
 77
     6
 78
     2
 67
     7
 79
     3
170
     0
171
     0
290
     0
174
     0
 93
        1
 44
0.0
173
     0
291
     0
 45
0.0
1001
ACAD
1000
AcDbSavedByObjectVersion
1070
     0
  0
VISUALSTYLE
  5
27F
102
{ACAD_XDICTIONARY
360
311
102
}
102
{ACAD_REACTORS
330
26C
102
}
330
26C
100
AcDbVisualStyle
  2
X-Ray
 70
    25
 71
     2
 72
     2
 73
     1
 90
        1
 40
0.5
 41
-30.0
 62
     5
 63
     7
 74
     1
 91
        0
 64
     7
 65
   257
 75
     1
175
     1
 42
1.0
 92
        8
 66
     7
 43
1.0
 76
     1
 77
     6
 78
     2
 67
     7
 79
     3
170
     0
171
     0
290
     0
174
     0
 93
       13
 44
0.0
173
     0
291
     0
 45
0.0
1001
ACAD
1000
AcDbSavedByObjectVersion
1070
     0
  0
DICTIONARYVAR
  5
2E0
102
{ACAD_REACTORS
330
2DB
102
}
330
2DB
100
DictionaryVariables
280
     0
  1
1:1
  0
DICTIONARYVAR
  5
2DD
102
{ACAD_REACTORS
330
2DB
102
}
330
2DB
100
DictionaryVariables
280
     0
  1
STANDARD
  0
DICTIONARYVAR
  5
2DC
102
{ACAD_REACTORS
330
2DB
102
}
330
2DB
100
DictionaryVariables
280
     0
  1
STANDARD
  0
DICTIONARYVAR
  5
2DE
102
{ACAD_REACTORS
330
2DB
102
}
330
2DB
100
DictionaryVariables
280
     0
  1
Imperial24
  0
DICTIONARYVAR
  5
2DF
102
{ACAD_REACTORS
330
2DB
102
}
330
2DB
100
DictionaryVariables
280
     0
  1
Imperial24
  0
DICTIONARYVAR
  5
2E3
102
{ACAD_REACTORS
330
2DB
102
}
330
2DB
100
DictionaryVariables
280
     0
  1
1
  0
DICTIONARYVAR
  5
2E2
102
{ACAD_REACTORS
330
2DB
102
}
330
2DB
100
DictionaryVariables
280
     0
  1
0
  0
DICTIONARYVAR
  5
2E1
102
{ACAD_REACTORS
330
2DB
102
}
330
2DB
100
DictionaryVariables
280
     0
  1
127
  0
DICTIONARYVAR
  5
2E4
102
{ACAD_REACTORS
330
2DB
102
}
330
2DB
100
DictionaryVariables
280
     0
  1
2
  0
DICTIONARY
  5
321
330
2AD
100
AcDbDictionary
280
     1
281
     1
  3
ACAD_XREC_ROUNDTRIP
360
322
  0
DICTIONARY
  5
325
330
2B5
100
AcDbDictionary
280
     1
281
     1
  3
ACAD_XREC_ROUNDTRIP
360
326
  0
DICTIONARY
  5
323
330
2B1
100
AcDbDictionary
280
     1
281
     1
  3
ACAD_XREC_ROUNDTRIP
360
324
  0
DICTIONARY
  5
25D
330
25C
100
AcDbDictionary
280
     1
281
     1
  3
ACAD_XREC_ROUNDTRIP
360
2EB
  3
BUMPTILE
360
25F
  3
DIFFUSETILE
360
25E
  3
OPACITYTILE
360
262
  3
REFLECTIONTILE
360
261
  3
REFRACTIONTILE
360
263
  3
SPECULARTILE
360
260
  0
DICTIONARY
  5
255
330
254
100
AcDbDictionary
280
     1
281
     1
  3
ACAD_XREC_ROUNDTRIP
360
2EA
  3
BUMPTILE
360
257
  3
DIFFUSETILE
360
256
  3
OPACITYTILE
360
25A
  3
REFLECTIONTILE
360
259
  3
REFRACTIONTILE
360
25B
  3
SPECULARTILE
360
258
  0
DICTIONARY
  5
265
330
264
100
AcDbDictionary
280
     1
281
     1
  3
ACAD_XREC_ROUNDTRIP
360
2EC
  3
BUMPTILE
360
267
  3
DIFFUSETILE
360
266
  3
OPACITYTILE
360
26A
  3
REFLECTIONTILE
360
269
  3
REFRACTIONTILE
360
26B
  3
SPECULARTILE
360
268
  0
DICTIONARY
  5
31F
330
2AB
100
AcDbDictionary
280
     1
281
     1
  3
ACAD_XREC_ROUNDTRIP
360
320
  0
DICTIONARY
  5
2E6
330
2A7
100
AcDbDictionary
280
     1
281
     1
  3
ACAD_ROUNDTRIP_2008_TABLESTYLE_CELLSTYLEMAP
360
2E7
  3
ACAD_XREC_ROUNDTRIP
360
31D
  0
DICTIONARY
  5
2F7
330
272
100
AcDbDictionary
280
     1
281
     1
  3
ACAD_XREC_ROUNDTRIP
360
2F8
  0
DICTIONARY
  5
2F5
330
271
100
AcDbDictionary
280
     1
281
     1
  3
ACAD_XREC_ROUNDTRIP
360
2F6
  0
DICTIONARY
  5
303
330
278
100
AcDbDictionary
280
     1
281
     1
  3
ACAD_XREC_ROUNDTRIP
360
304
  0
DICTIONARY
  5
30B
330
27C
100
AcDbDictionary
280
     1
281
     1
  3
ACAD_XREC_ROUNDTRIP
360
30C
  0
DICTIONARY
  5
2FD
330
275
100
AcDbDictionary
280
     1
281
     1
  3
ACAD_XREC_ROUNDTRIP
360
2FE
  0
DICTIONARY
  5
301
330
277
100
AcDbDictionary
280
     1
281
     1
  3
ACAD_XREC_ROUNDTRIP
360
302
  0
DICTIONARY
  5
31B
330
284
100
AcDbDictionary
280
     1
281
     1
  3
ACAD_XREC_ROUNDTRIP
360
31C
  0
DICTIONARY
  5
309
330
27B
100
AcDbDictionary
280
     1
281
     1
  3
ACAD_XREC_ROUNDTRIP
360
30A
  0
DICTIONARY
  5
2ED
330
26D
100
AcDbDictionary
280
     1
281
     1
  3
ACAD_XREC_ROUNDTRIP
360
2EE
  0
DICTIONARY
  5
2EF
330
26E
100
AcDbDictionary
280
     1
281
     1
  3
ACAD_XREC_ROUNDTRIP
360
2F0
  0
DICTIONARY
  5
2F1
330
26F
100
AcDbDictionary
280
     1
281
     1
  3
ACAD_XREC_ROUNDTRIP
360
2F2
  0
DICTIONARY
  5
2F3
330
270
100
AcDbDictionary
280
     1
281
     1
  3
ACAD_XREC_ROUNDTRIP
360
2F4
  0
DICTIONARY
  5
2FB
330
274
100
AcDbDictionary
280
     1
281
     1
  3
ACAD_XREC_ROUNDTRIP
360
2FC
  0
DICTIONARY
  5
317
330
282
100
AcDbDictionary
280
     1
281
     1
  3
ACAD_XREC_ROUNDTRIP
360
318
  0
DICTIONARY
  5
307
330
27A
100
AcDbDictionary
280
     1
281
     1
  3
ACAD_XREC_ROUNDTRIP
360
308
  0
DICTIONARY
  5
319
330
283
100
AcDbDictionary
280
     1
281
     1
  3
ACAD_XREC_ROUNDTRIP
360
31A
  0
DICTIONARY
  5
2FF
330
276
100
AcDbDictionary
280
     1
281
     1
  3
ACAD_XREC_ROUNDTRIP
360
300
  0
DICTIONARY
  5
315
330
281
100
AcDbDictionary
280
     1
281
     1
  3
ACAD_XREC_ROUNDTRIP
360
316
  0
DICTIONARY
  5
313
330
280
100
AcDbDictionary
280
     1
281
     1
  3
ACAD_XREC_ROUNDTRIP
360
314
  0
DICTIONARY
  5
30D
330
27D
100
AcDbDictionary
280
     1
281
     1
  3
ACAD_XREC_ROUNDTRIP
360
30E
  0
DICTIONARY
  5
30F
330
27E
100
AcDbDictionary
280
     1
281
     1
  3
ACAD_XREC_ROUNDTRIP
360
310
  0
DICTIONARY
  5
305
330
279
100
AcDbDictionary
280
     1
281
     1
  3
ACAD_XREC_ROUNDTRIP
360
306
  0
DICTIONARY
  5
2F9
330
273
100
AcDbDictionary
280
     1
281
     1
  3
ACAD_XREC_ROUNDTRIP
360
2FA
  0
DICTIONARY
  5
311
330
27F
100
AcDbDictionary
280
     1
281
     1
  3
ACAD_XREC_ROUNDTRIP
360
312
  0
XRECORD
  5
322
102
{ACAD_REACTORS
330
321
102
}
330
321
100
AcDbXrecord
280
     1
102
DISPLAYNAME
  1
Imperial24
102
FLAGS
 90
        0
  0
XRECORD
  5
326
102
{ACAD_REACTORS
330
325
102
}
330
325
100
AcDbXrecord
280
     1
102
SHADEPLOT
 70
     0
102
SHADEPLOTRESLEVEL
 70
     2
102
SHADEPLOTCUSTOMDPI
 70
   300
  0
XRECORD
  5
324
102
{ACAD_REACTORS
330
323
102
}
330
323
100
AcDbXrecord
280
     1
102
SHADEPLOT
 70
     0
102
SHADEPLOTRESLEVEL
 70
     2
102
SHADEPLOTCUSTOMDPI
 70
   300
  0
XRECORD
  5
2EB
102
{ACAD_REACTORS
330
25D
102
}
330
25D
100
AcDbXrecord
280
     1
102
MATERIAL
148
0.0
149
0.0
149
0.0
 93
        0
 94
      127
282
     0
 72
     0
 77
     0
171
     0
175
     0
179
     0
273
     0
  0
XRECORD
  5
25F
102
{ACAD_REACTORS
330
25D
102
}
330
25D
100
AcDbXrecord
280
     1
270
     1
271
     1
  0
XRECORD
  5
25E
102
{ACAD_REACTORS
330
25D
102
}
330
25D
100
AcDbXrecord
280
     1
270
     1
271
     1
  0
XRECORD
  5
262
102
{ACAD_REACTORS
330
25D
102
}
330
25D
100
AcDbXrecord
280
     1
270
     1
271
     1
  0
XRECORD
  5
261
102
{ACAD_REACTORS
330
25D
102
}
330
25D
100
AcDbXrecord
280
     1
270
     1
271
     1
  0
XRECORD
  5
263
102
{ACAD_REACTORS
330
25D
102
}
330
25D
100
AcDbXrecord
280
     1
270
     1
271
     1
  0
XRECORD
  5
260
102
{ACAD_REACTORS
330
25D
102
}
330
25D
100
AcDbXrecord
280
     1
270
     1
271
     1
  0
XRECORD
  5
2EA
102
{ACAD_REACTORS
330
255
102
}
330
255
100
AcDbXrecord
280
     1
102
MATERIAL
148
0.0
149
0.0
149
0.0
 93
        0
 94
      127
282
     0
 72
     0
 77
     0
171
     0
175
     0
179
     0
273
     0
  0
XRECORD
  5
257
102
{ACAD_REACTORS
330
255
102
}
330
255
100
AcDbXrecord
280
     1
270
     1
271
     1
  0
XRECORD
  5
256
102
{ACAD_REACTORS
330
255
102
}
330
255
100
AcDbXrecord
280
     1
270
     1
271
     1
  0
XRECORD
  5
25A
102
{ACAD_REACTORS
330
255
102
}
330
255
100
AcDbXrecord
280
     1
270
     1
271
     1
  0
XRECORD
  5
259
102
{ACAD_REACTORS
330
255
102
}
330
255
100
AcDbXrecord
280
     1
270
     1
271
     1
  0
XRECORD
  5
25B
102
{ACAD_REACTORS
330
255
102
}
330
255
100
AcDbXrecord
280
     1
270
     1
271
     1
  0
XRECORD
  5
258
102
{ACAD_REACTORS
330
255
102
}
330
255
100
AcDbXrecord
280
     1
270
     1
271
     1
  0
XRECORD
  5
2EC
102
{ACAD_REACTORS
330
265
102
}
330
265
100
AcDbXrecord
280
     1
102
MATERIAL
148
0.0
149
0.0
149
0.0
 93
        0
 94
      127
282
     0
 72
     0
 77
     0
171
     0
175
     0
179
     0
273
     0
  0
XRECORD
  5
267
102
{ACAD_REACTORS
330
265
102
}
330
265
100
AcDbXrecord
280
     1
270
     1
271
     1
  0
XRECORD
  5
266
102
{ACAD_REACTORS
330
265
102
}
330
265
100
AcDbXrecord
280
     1
270
     1
271
     1
  0
XRECORD
  5
26A
102
{ACAD_REACTORS
330
265
102
}
330
265
100
AcDbXrecord
280
     1
270
     1
271
     1
  0
XRECORD
  5
269
102
{ACAD_REACTORS
330
265
102
}
330
265
100
AcDbXrecord
280
     1
270
     1
271
     1
  0
XRECORD
  5
26B
102
{ACAD_REACTORS
330
265
102
}
330
265
100
AcDbXrecord
280
     1
270
     1
271
     1
  0
XRECORD
  5
268
102
{ACAD_REACTORS
330
265
102
}
330
265
100
AcDbXrecord
280
     1
270
     1
271
     1
  0
XRECORD
  5
320
102
{ACAD_REACTORS
330
31F
102
}
330
31F
100
AcDbXrecord
280
     1
102
DISPLAYNAME
  1
Imperial24
102
FLAGS
 90
        0
  0
CELLSTYLEMAP
  5
2E7
102
{ACAD_REACTORS
330
2E6
102
}
330
2E6
100
AcDbCellStyleMap
 90
        3
300
CELLSTYLE
  1
TABLEFORMAT_BEGIN
 90
        5
170
     1
 91
        0
 92
    32768
 62
   257
 93
        1
300
CONTENTFORMAT
  1
CONTENTFORMAT_BEGIN
 90
        0
 91
        0
 92
      512
 93
        0
300

 40
0.0
140
1.0
 94
        5
 62
     0
340
298
144
0.25
309
CONTENTFORMAT_END
171
     0
 94
        0
309
TABLEFORMAT_END
  1
CELLSTYLE_BEGIN
 90
        1
 91
        1
300
_TITLE
309
CELLSTYLE_END
300
CELLSTYLE
  1
TABLEFORMAT_BEGIN
 90
        5
170
     1
 91
        0
 92
        0
 62
   257
 93
        1
300
CONTENTFORMAT
  1
CONTENTFORMAT_BEGIN
 90
        0
 91
        0
 92
      512
 93
        0
300

 40
0.0
140
1.0
 94
        5
 62
     0
340
298
144
0.18
309
CONTENTFORMAT_END
171
     0
 94
        0
309
TABLEFORMAT_END
  1
CELLSTYLE_BEGIN
 90
        2
 91
        1
300
_HEADER
309
CELLSTYLE_END
300
CELLSTYLE
  1
TABLEFORMAT_BEGIN
 90
        5
170
     1
 91
        0
 92
        0
 62
   257
 93
        1
300
CONTENTFORMAT
  1
CONTENTFORMAT_BEGIN
 90
        0
 91
        0
 92
      512
 93
        0
300

 40
0.0
140
1.0
 94
        2
 62
     0
340
298
144
0.18
309
CONTENTFORMAT_END
171
     0
 94
        0
309
TABLEFORMAT_END
  1
CELLSTYLE_BEGIN
 90
        3
 91
        2
300
_DATA
309
CELLSTYLE_END
  0
XRECORD
  5
31D
102
{ACAD_REACTORS
330
2E6
102
}
330
2E6
100
AcDbXrecord
280
     1
102
ACAD_ROUNDTRIP_PRE2007_TABLESTYLE
 90
      512
 91
        0
  1

 92
      512
 93
        0
  2

 94
      512
 95
        0
  3

  0
XRECORD
  5
2F8
102
{ACAD_REACTORS
330
2F7
102
}
330
2F7
100
AcDbXrecord
280
     1
102
RTVSPost2010Prop28
280
     1
102
RTVSPost2010PropOp28
 70
     1
102
RTVSPost2010Prop29
280
     1
102
RTVSPost2010PropOp29
 70
     1
102
RTVSPost2010Prop30
280
     0
102
RTVSPost2010PropOp30
 70
     1
102
RTVSPost2010Prop31
280
     0
102
RTVSPost2010PropOp31
 70
     1
102
RTVSPost2010Prop32
280
     0
102
RTVSPost2010PropOp32
 70
     1
102
RTVSPost2010Prop33
280
     0
102
RTVSPost2010PropOp33
 70
     1
102
RTVSPost2010Prop34
280
     0
102
RTVSPost2010PropOp34
 70
     1
102
RTVSPost2010Prop35
280
     0
102
RTVSPost2010PropOp35
 70
     1
102
RTVSPost2010Prop36
280
     0
102
RTVSPost2010PropOp36
 70
     1
102
RTVSPost2010Prop37
 90
       50
102
RTVSPost2010PropOp37
 70
     1
102
RTVSPost2010Prop38
140
0.0
102
RTVSPost2010PropOp38
 70
     1
102
RTVSPost2010Prop39
140
1.0
102
RTVSPost2010PropOp39
 70
     1
102
RTVSPost2010Prop40
 90
        0
102
RTVSPost2010PropOp40
 70
     1
102
RTVSPost2010Prop41ColorIndex
 90
       18
102
RTVSPost2010Prop41ColorRGB
 90
        0
102
RTVSPost2010PropOp41
 70
     1
102
RTVSPost2010Prop42
 90
       50
102
RTVSPost2010PropOp42
 70
     1
102
RTVSPost2010Prop43
 90
        3
102
RTVSPost2010PropOp43
 70
     1
102
RTVSPost2010Prop44ColorIndex
 90
        5
102
RTVSPost2010Prop44ColorRGB
 90
      255
102
RTVSPost2010PropOp44
 70
     1
102
RTVSPost2010Prop45
280
     0
102
RTVSPost2010PropOp45
 70
     1
102
RTVSPost2010Prop46
 90
       50
102
RTVSPost2010PropOp46
 70
     1
102
RTVSPost2010Prop47
 90
       50
102
RTVSPost2010PropOp47
 70
     1
102
RTVSPost2010Prop48
 90
       50
102
RTVSPost2010PropOp48
 70
     1
102
RTVSPost2010Prop49
280
     0
102
RTVSPost2010PropOp49
 70
     1
102
RTVSPost2010Prop50
 90
       50
102
RTVSPost2010PropOp50
 70
     1
102
RTVSPost2010Prop51ColorIndex
 90
      256
102
RTVSPost2010Prop51ColorRGB
 90
-16777216
102
RTVSPost2010PropOp51
 70
     0
102
RTVSPost2010Prop52
140
1.0
102
RTVSPost2010PropOp52
 70
     0
102
RTVSPost2010Prop53
 90
        2
102
RTVSPost2010PropOp53
 70
     1
102
RTVSPost2010Prop54
  1
strokes_ogs.tif
102
RTVSPost2010PropOp54
 70
     1
102
RTVSPost2010Prop55
280
     0
102
RTVSPost2010PropOp55
 70
     1
102
RTVSPost2010Prop56
140
1.0
102
RTVSPost2010PropOp56
 70
     1
102
RTVSPost2010Prop57
140
1.0
102
RTVSPost2010PropOp57
 70
     1
102
RTVSPropertyOp0
 70
     1
102
RTVSPropertyOp1
 70
     1
102
RTVSPropertyOp2
 70
     1
102
RTVSPropertyOp3
 70
     1
102
RTVSPropertyOp4
 70
     1
102
RTVSPropertyOp5
 70
     1
102
RTVSPropertyOp6
 70
     1
102
RTVSPropertyOp7
 70
     1
102
RTVSPropertyOp8
 70
     1
102
RTVSPropertyOp9
 70
     1
102
RTVSPropertyOp10
 70
     1
102
RTVSPropertyOp11
 70
     1
102
RTVSPropertyOp12
 70
     1
102
RTVSPropertyOp13
 70
     1
102
RTVSPropertyOp14
 70
     1
102
RTVSPropertyOp15
 70
     1
102
RTVSPropertyOp16
 70
     1
102
RTVSPropertyOp17
 70
     1
102
RTVSPropertyOp18
 70
     1
102
RTVSPropertyOp19
 70
     1
102
RTVSPropertyOp20
 70
     1
102
RTVSPropertyOp21
 70
     1
102
RTVSPropertyOp22
 70
     1
102
RTVSPropertyOp23
 70
     1
102
RTVSPropertyOp24
 70
     1
102
RTVSPropertyOp25
 70
     1
102
RTVSPropertyOp26
 70
     1
102
RTVSPropertyOp27
 70
     1
102
RTVSPropertyOp28
 70
     1
102
RTVSPropertyOp29
 70
     1
102
RTVSPropertyOp30
 70
     1
102
RTVSPropertyOp31
 70
     1
102
RTVSPropertyOp32
 70
     1
102
RTVSPropertyOp33
 70
     1
102
RTVSPropertyOp34
 70
     1
102
RTVSPropertyOp35
 70
     1
102
RTVSPropertyOp36
 70
     1
102
RTVSPropertyOp37
 70
     1
102
RTVSPropertyOp38
 70
     1
102
RTVSPropertyOp39
 70
     1
102
RTVSPropertyOp40
 70
     1
102
RTVSPropertyOp41
 70
     1
102
RTVSPropertyOp42
 70
     1
102
RTVSPropertyOp43
 70
     1
102
RTVSPropertyOp44
 70
     1
102
RTVSPropertyOp45
 70
     1
102
RTVSPropertyOp46
 70
     1
102
RTVSPropertyOp47
 70
     1
102
RTVSPropertyOp48
 70
     1
102
RTVSPropertyOp49
 70
     1
102
RTVSPropertyOp50
 70
     1
102
RTVSPropertyOp51
 70
     0
102
RTVSPropertyOp52
 70
     0
102
RTVSPropertyOp53
 70
     1
102
RTVSPropertyOp54
 70
     1
102
RTVSPropertyOp55
 70
     1
102
RTVSPropertyOp56
 70
     1
102
RTVSPropertyOp57
 70
     1
102
RTVSPropertyOp58
 70
     1
102
RTVSPropertyOp59
 70
     1
102
RTVSPropertyOp60
 70
     1
102
RTVSPropertyOp61
 70
     1
102
RTVSPropertyOp62
 70
     1
  0
XRECORD
  5
2F6
102
{ACAD_REACTORS
330
2F5
102
}
330
2F5
100
AcDbXrecord
280
     1
102
RTVSPost2010Prop28
280
     0
102
RTVSPost2010PropOp28
 70
     1
102
RTVSPost2010Prop29
280
     1
102
RTVSPost2010PropOp29
 70
     1
102
RTVSPost2010Prop30
280
     1
102
RTVSPost2010PropOp30
 70
     1
102
RTVSPost2010Prop31
280
     0
102
RTVSPost2010PropOp31
 70
     1
102
RTVSPost2010Prop32
280
     0
102
RTVSPost2010PropOp32
 70
     1
102
RTVSPost2010Prop33
280
     0
102
RTVSPost2010PropOp33
 70
     1
102
RTVSPost2010Prop34
280
     0
102
RTVSPost2010PropOp34
 70
     1
102
RTVSPost2010Prop35
280
     0
102
RTVSPost2010PropOp35
 70
     1
102
RTVSPost2010Prop36
280
     0
102
RTVSPost2010PropOp36
 70
     1
102
RTVSPost2010Prop37
 90
       50
102
RTVSPost2010PropOp37
 70
     1
102
RTVSPost2010Prop38
140
0.0
102
RTVSPost2010PropOp38
 70
     1
102
RTVSPost2010Prop39
140
1.0
102
RTVSPost2010PropOp39
 70
     1
102
RTVSPost2010Prop40
 90
        0
102
RTVSPost2010PropOp40
 70
     1
102
RTVSPost2010Prop41ColorIndex
 90
       18
102
RTVSPost2010Prop41ColorRGB
 90
        0
102
RTVSPost2010PropOp41
 70
     1
102
RTVSPost2010Prop42
 90
       50
102
RTVSPost2010PropOp42
 70
     1
102
RTVSPost2010Prop43
 90
        3
102
RTVSPost2010PropOp43
 70
     1
102
RTVSPost2010Prop44ColorIndex
 90
        5
102
RTVSPost2010Prop44ColorRGB
 90
      255
102
RTVSPost2010PropOp44
 70
     1
102
RTVSPost2010Prop45
280
     0
102
RTVSPost2010PropOp45
 70
     1
102
RTVSPost2010Prop46
 90
       50
102
RTVSPost2010PropOp46
 70
     1
102
RTVSPost2010Prop47
 90
       50
102
RTVSPost2010PropOp47
 70
     1
102
RTVSPost2010Prop48
 90
       50
102
RTVSPost2010PropOp48
 70
     1
102
RTVSPost2010Prop49
280
     0
102
RTVSPost2010PropOp49
 70
     1
102
RTVSPost2010Prop50
 90
       50
102
RTVSPost2010PropOp50
 70
     1
102
RTVSPost2010Prop51ColorIndex
 90
      256
102
RTVSPost2010Prop51ColorRGB
 90
-16777216
102
RTVSPost2010PropOp51
 70
     0
102
RTVSPost2010Prop52
140
1.0
102
RTVSPost2010PropOp52
 70
     0
102
RTVSPost2010Prop53
 90
        2
102
RTVSPost2010PropOp53
 70
     1
102
RTVSPost2010Prop54
  1
strokes_ogs.tif
102
RTVSPost2010PropOp54
 70
     1
102
RTVSPost2010Prop55
280
     0
102
RTVSPost2010PropOp55
 70
     1
102
RTVSPost2010Prop56
140
1.0
102
RTVSPost2010PropOp56
 70
     1
102
RTVSPost2010Prop57
140
1.0
102
RTVSPost2010PropOp57
 70
     1
102
RTVSPropertyOp0
 70
     1
102
RTVSPropertyOp1
 70
     1
102
RTVSPropertyOp2
 70
     1
102
RTVSPropertyOp3
 70
     1
102
RTVSPropertyOp4
 70
     1
102
RTVSPropertyOp5
 70
     1
102
RTVSPropertyOp6
 70
     1
102
RTVSPropertyOp7
 70
     1
102
RTVSPropertyOp8
 70
     1
102
RTVSPropertyOp9
 70
     1
102
RTVSPropertyOp10
 70
     1
102
RTVSPropertyOp11
 70
     1
102
RTVSPropertyOp12
 70
     1
102
RTVSPropertyOp13
 70
     1
102
RTVSPropertyOp14
 70
     1
102
RTVSPropertyOp15
 70
     1
102
RTVSPropertyOp16
 70
     1
102
RTVSPropertyOp17
 70
     1
102
RTVSPropertyOp18
 70
     1
102
RTVSPropertyOp19
 70
     1
102
RTVSPropertyOp20
 70
     1
102
RTVSPropertyOp21
 70
     1
102
RTVSPropertyOp22
 70
     1
102
RTVSPropertyOp23
 70
     1
102
RTVSPropertyOp24
 70
     1
102
RTVSPropertyOp25
 70
     1
102
RTVSPropertyOp26
 70
     1
102
RTVSPropertyOp27
 70
     1
102
RTVSPropertyOp28
 70
     1
102
RTVSPropertyOp29
 70
     1
102
RTVSPropertyOp30
 70
     1
102
RTVSPropertyOp31
 70
     1
102
RTVSPropertyOp32
 70
     1
102
RTVSPropertyOp33
 70
     1
102
RTVSPropertyOp34
 70
     1
102
RTVSPropertyOp35
 70
     1
102
RTVSPropertyOp36
 70
     1
102
RTVSPropertyOp37
 70
     1
102
RTVSPropertyOp38
 70
     1
102
RTVSPropertyOp39
 70
     1
102
RTVSPropertyOp40
 70
     1
102
RTVSPropertyOp41
 70
     1
102
RTVSPropertyOp42
 70
     1
102
RTVSPropertyOp43
 70
     1
102
RTVSPropertyOp44
 70
     1
102
RTVSPropertyOp45
 70
     1
102
RTVSPropertyOp46
 70
     1
102
RTVSPropertyOp47
 70
     1
102
RTVSPropertyOp48
 70
     1
102
RTVSPropertyOp49
 70
     1
102
RTVSPropertyOp50
 70
     1
102
RTVSPropertyOp51
 70
     0
102
RTVSPropertyOp52
 70
     0
102
RTVSPropertyOp53
 70
     1
102
RTVSPropertyOp54
 70
     1
102
RTVSPropertyOp55
 70
     1
102
RTVSPropertyOp56
 70
     1
102
RTVSPropertyOp57
 70
     1
102
RTVSPropertyOp58
 70
     1
102
RTVSPropertyOp59
 70
     1
102
RTVSPropertyOp60
 70
     1
102
RTVSPropertyOp61
 70
     1
102
RTVSPropertyOp62
 70
     1
  0
XRECORD
  5
304
102
{ACAD_REACTORS
330
303
102
}
330
303
100
AcDbXrecord
280
     1
102
RTVSPost2010Prop28
280
     0
102
RTVSPost2010PropOp28
 70
     1
102
RTVSPost2010Prop29
280
     1
102
RTVSPost2010PropOp29
 70
     1
102
RTVSPost2010Prop30
280
     1
102
RTVSPost2010PropOp30
 70
     1
102
RTVSPost2010Prop31
280
     0
102
RTVSPost2010PropOp31
 70
     1
102
RTVSPost2010Prop32
280
     0
102
RTVSPost2010PropOp32
 70
     1
102
RTVSPost2010Prop33
280
     0
102
RTVSPost2010PropOp33
 70
     1
102
RTVSPost2010Prop34
280
     0
102
RTVSPost2010PropOp34
 70
     1
102
RTVSPost2010Prop35
280
     0
102
RTVSPost2010PropOp35
 70
     1
102
RTVSPost2010Prop36
280
     0
102
RTVSPost2010PropOp36
 70
     1
102
RTVSPost2010Prop37
 90
       50
102
RTVSPost2010PropOp37
 70
     1
102
RTVSPost2010Prop38
140
0.0
102
RTVSPost2010PropOp38
 70
     1
102
RTVSPost2010Prop39
140
1.0
102
RTVSPost2010PropOp39
 70
     1
102
RTVSPost2010Prop40
 90
        0
102
RTVSPost2010PropOp40
 70
     1
102
RTVSPost2010Prop41ColorIndex
 90
       18
102
RTVSPost2010Prop41ColorRGB
 90
        0
102
RTVSPost2010PropOp41
 70
     1
102
RTVSPost2010Prop42
 90
       50
102
RTVSPost2010PropOp42
 70
     1
102
RTVSPost2010Prop43
 90
        3
102
RTVSPost2010PropOp43
 70
     1
102
RTVSPost2010Prop44ColorIndex
 90
        5
102
RTVSPost2010Prop44ColorRGB
 90
      255
102
RTVSPost2010PropOp44
 70
     1
102
RTVSPost2010Prop45
280
     0
102
RTVSPost2010PropOp45
 70
     1
102
RTVSPost2010Prop46
 90
       50
102
RTVSPost2010PropOp46
 70
     1
102
RTVSPost2010Prop47
 90
       50
102
RTVSPost2010PropOp47
 70
     1
102
RTVSPost2010Prop48
 90
       50
102
RTVSPost2010PropOp48
 70
     1
102
RTVSPost2010Prop49
280
     0
102
RTVSPost2010PropOp49
 70
     1
102
RTVSPost2010Prop50
 90
       50
102
RTVSPost2010PropOp50
 70
     1
102
RTVSPost2010Prop51ColorIndex
 90
      256
102
RTVSPost2010Prop51ColorRGB
 90
-16777216
102
RTVSPost2010PropOp51
 70
     0
102
RTVSPost2010Prop52
140
1.0
102
RTVSPost2010PropOp52
 70
     0
102
RTVSPost2010Prop53
 90
        2
102
RTVSPost2010PropOp53
 70
     1
102
RTVSPost2010Prop54
  1
strokes_ogs.tif
102
RTVSPost2010PropOp54
 70
     1
102
RTVSPost2010Prop55
280
     0
102
RTVSPost2010PropOp55
 70
     1
102
RTVSPost2010Prop56
140
1.0
102
RTVSPost2010PropOp56
 70
     1
102
RTVSPost2010Prop57
140
1.0
102
RTVSPost2010PropOp57
 70
     1
102
RTVSPropertyOp0
 70
     1
102
RTVSPropertyOp1
 70
     1
102
RTVSPropertyOp2
 70
     1
102
RTVSPropertyOp3
 70
     1
102
RTVSPropertyOp4
 70
     1
102
RTVSPropertyOp5
 70
     1
102
RTVSPropertyOp6
 70
     1
102
RTVSPropertyOp7
 70
     1
102
RTVSPropertyOp8
 70
     1
102
RTVSPropertyOp9
 70
     1
102
RTVSPropertyOp10
 70
     1
102
RTVSPropertyOp11
 70
     1
102
RTVSPropertyOp12
 70
     1
102
RTVSPropertyOp13
 70
     1
102
RTVSPropertyOp14
 70
     1
102
RTVSPropertyOp15
 70
     1
102
RTVSPropertyOp16
 70
     1
102
RTVSPropertyOp17
 70
     1
102
RTVSPropertyOp18
 70
     1
102
RTVSPropertyOp19
 70
     1
102
RTVSPropertyOp20
 70
     1
102
RTVSPropertyOp21
 70
     1
102
RTVSPropertyOp22
 70
     1
102
RTVSPropertyOp23
 70
     1
102
RTVSPropertyOp24
 70
     1
102
RTVSPropertyOp25
 70
     1
102
RTVSPropertyOp26
 70
     1
102
RTVSPropertyOp27
 70
     1
102
RTVSPropertyOp28
 70
     1
102
RTVSPropertyOp29
 70
     1
102
RTVSPropertyOp30
 70
     1
102
RTVSPropertyOp31
 70
     1
102
RTVSPropertyOp32
 70
     1
102
RTVSPropertyOp33
 70
     1
102
RTVSPropertyOp34
 70
     1
102
RTVSPropertyOp35
 70
     1
102
RTVSPropertyOp36
 70
     1
102
RTVSPropertyOp37
 70
     1
102
RTVSPropertyOp38
 70
     1
102
RTVSPropertyOp39
 70
     1
102
RTVSPropertyOp40
 70
     1
102
RTVSPropertyOp41
 70
     1
102
RTVSPropertyOp42
 70
     1
102
RTVSPropertyOp43
 70
     1
102
RTVSPropertyOp44
 70
     1
102
RTVSPropertyOp45
 70
     1
102
RTVSPropertyOp46
 70
     1
102
RTVSPropertyOp47
 70
     1
102
RTVSPropertyOp48
 70
     1
102
RTVSPropertyOp49
 70
     1
102
RTVSPropertyOp50
 70
     1
102
RTVSPropertyOp51
 70
     0
102
RTVSPropertyOp52
 70
     0
102
RTVSPropertyOp53
 70
     1
102
RTVSPropertyOp54
 70
     1
102
RTVSPropertyOp55
 70
     1
102
RTVSPropertyOp56
 70
     1
102
RTVSPropertyOp57
 70
     1
102
RTVSPropertyOp58
 70
     1
102
RTVSPropertyOp59
 70
     1
102
RTVSPropertyOp60
 70
     1
102
RTVSPropertyOp61
 70
     1
102
RTVSPropertyOp62
 70
     1
  0
XRECORD
  5
30C
102
{ACAD_REACTORS
330
30B
102
}
330
30B
100
AcDbXrecord
280
     1
102
RTVSPost2010Prop28
280
     0
102
RTVSPost2010PropOp28
 70
     1
102
RTVSPost2010Prop29
280
     1
102
RTVSPost2010PropOp29
 70
     1
102
RTVSPost2010Prop30
280
     1
102
RTVSPost2010PropOp30
 70
     1
102
RTVSPost2010Prop31
280
     0
102
RTVSPost2010PropOp31
 70
     1
102
RTVSPost2010Prop32
280
     0
102
RTVSPost2010PropOp32
 70
     1
102
RTVSPost2010Prop33
280
     0
102
RTVSPost2010PropOp33
 70
     1
102
RTVSPost2010Prop34
280
     0
102
RTVSPost2010PropOp34
 70
     1
102
RTVSPost2010Prop35
280
     0
102
RTVSPost2010PropOp35
 70
     1
102
RTVSPost2010Prop36
280
     0
102
RTVSPost2010PropOp36
 70
     1
102
RTVSPost2010Prop37
 90
       50
102
RTVSPost2010PropOp37
 70
     1
102
RTVSPost2010Prop38
140
0.0
102
RTVSPost2010PropOp38
 70
     1
102
RTVSPost2010Prop39
140
1.0
102
RTVSPost2010PropOp39
 70
     1
102
RTVSPost2010Prop40
 90
        0
102
RTVSPost2010PropOp40
 70
     1
102
RTVSPost2010Prop41ColorIndex
 90
       18
102
RTVSPost2010Prop41ColorRGB
 90
        0
102
RTVSPost2010PropOp41
 70
     1
102
RTVSPost2010Prop42
 90
       50
102
RTVSPost2010PropOp42
 70
     1
102
RTVSPost2010Prop43
 90
        3
102
RTVSPost2010PropOp43
 70
     1
102
RTVSPost2010Prop44ColorIndex
 90
        5
102
RTVSPost2010Prop44ColorRGB
 90
      255
102
RTVSPost2010PropOp44
 70
     1
102
RTVSPost2010Prop45
280
     0
102
RTVSPost2010PropOp45
 70
     1
102
RTVSPost2010Prop46
 90
       50
102
RTVSPost2010PropOp46
 70
     1
102
RTVSPost2010Prop47
 90
       50
102
RTVSPost2010PropOp47
 70
     1
102
RTVSPost2010Prop48
 90
       50
102
RTVSPost2010PropOp48
 70
     1
102
RTVSPost2010Prop49
280
     0
102
RTVSPost2010PropOp49
 70
     1
102
RTVSPost2010Prop50
 90
       50
102
RTVSPost2010PropOp50
 70
     1
102
RTVSPost2010Prop51ColorIndex
 90
      256
102
RTVSPost2010Prop51ColorRGB
 90
-16777216
102
RTVSPost2010PropOp51
 70
     0
102
RTVSPost2010Prop52
140
1.0
102
RTVSPost2010PropOp52
 70
     0
102
RTVSPost2010Prop53
 90
        2
102
RTVSPost2010PropOp53
 70
     1
102
RTVSPost2010Prop54
  1
strokes_ogs.tif
102
RTVSPost2010PropOp54
 70
     1
102
RTVSPost2010Prop55
280
     0
102
RTVSPost2010PropOp55
 70
     1
102
RTVSPost2010Prop56
140
1.0
102
RTVSPost2010PropOp56
 70
     1
102
RTVSPost2010Prop57
140
1.0
102
RTVSPost2010PropOp57
 70
     1
102
RTVSPropertyOp0
 70
     1
102
RTVSPropertyOp1
 70
     1
102
RTVSPropertyOp2
 70
     1
102
RTVSPropertyOp3
 70
     1
102
RTVSPropertyOp4
 70
     1
102
RTVSPropertyOp5
 70
     1
102
RTVSPropertyOp6
 70
     1
102
RTVSPropertyOp7
 70
     1
102
RTVSPropertyOp8
 70
     1
102
RTVSPropertyOp9
 70
     1
102
RTVSPropertyOp10
 70
     1
102
RTVSPropertyOp11
 70
     1
102
RTVSPropertyOp12
 70
     1
102
RTVSPropertyOp13
 70
     1
102
RTVSPropertyOp14
 70
     1
102
RTVSPropertyOp15
 70
     1
102
RTVSPropertyOp16
 70
     1
102
RTVSPropertyOp17
 70
     1
102
RTVSPropertyOp18
 70
     1
102
RTVSPropertyOp19
 70
     1
102
RTVSPropertyOp20
 70
     1
102
RTVSPropertyOp21
 70
     1
102
RTVSPropertyOp22
 70
     1
102
RTVSPropertyOp23
 70
     1
102
RTVSPropertyOp24
 70
     1
102
RTVSPropertyOp25
 70
     1
102
RTVSPropertyOp26
 70
     1
102
RTVSPropertyOp27
 70
     1
102
RTVSPropertyOp28
 70
     1
102
RTVSPropertyOp29
 70
     1
102
RTVSPropertyOp30
 70
     1
102
RTVSPropertyOp31
 70
     1
102
RTVSPropertyOp32
 70
     1
102
RTVSPropertyOp33
 70
     1
102
RTVSPropertyOp34
 70
     1
102
RTVSPropertyOp35
 70
     1
102
RTVSPropertyOp36
 70
     1
102
RTVSPropertyOp37
 70
     1
102
RTVSPropertyOp38
 70
     1
102
RTVSPropertyOp39
 70
     1
102
RTVSPropertyOp40
 70
     1
102
RTVSPropertyOp41
 70
     1
102
RTVSPropertyOp42
 70
     1
102
RTVSPropertyOp43
 70
     1
102
RTVSPropertyOp44
 70
     1
102
RTVSPropertyOp45
 70
     1
102
RTVSPropertyOp46
 70
     1
102
RTVSPropertyOp47
 70
     1
102
RTVSPropertyOp48
 70
     1
102
RTVSPropertyOp49
 70
     1
102
RTVSPropertyOp50
 70
     1
102
RTVSPropertyOp51
 70
     0
102
RTVSPropertyOp52
 70
     0
102
RTVSPropertyOp53
 70
     1
102
RTVSPropertyOp54
 70
     1
102
RTVSPropertyOp55
 70
     1
102
RTVSPropertyOp56
 70
     1
102
RTVSPropertyOp57
 70
     1
102
RTVSPropertyOp58
 70
     1
102
RTVSPropertyOp59
 70
     1
102
RTVSPropertyOp60
 70
     1
102
RTVSPropertyOp61
 70
     1
102
RTVSPropertyOp62
 70
     1
  0
XRECORD
  5
2FE
102
{ACAD_REACTORS
330
2FD
102
}
330
2FD
100
AcDbXrecord
280
     1
102
RTVSPost2010Prop28
280
     0
102
RTVSPost2010PropOp28
 70
     1
102
RTVSPost2010Prop29
280
     1
102
RTVSPost2010PropOp29
 70
     1
102
RTVSPost2010Prop30
280
     1
102
RTVSPost2010PropOp30
 70
     1
102
RTVSPost2010Prop31
280
     0
102
RTVSPost2010PropOp31
 70
     1
102
RTVSPost2010Prop32
280
     0
102
RTVSPost2010PropOp32
 70
     1
102
RTVSPost2010Prop33
280
     0
102
RTVSPost2010PropOp33
 70
     1
102
RTVSPost2010Prop34
280
     0
102
RTVSPost2010PropOp34
 70
     1
102
RTVSPost2010Prop35
280
     0
102
RTVSPost2010PropOp35
 70
     1
102
RTVSPost2010Prop36
280
     0
102
RTVSPost2010PropOp36
 70
     1
102
RTVSPost2010Prop37
 90
       50
102
RTVSPost2010PropOp37
 70
     1
102
RTVSPost2010Prop38
140
0.0
102
RTVSPost2010PropOp38
 70
     1
102
RTVSPost2010Prop39
140
1.0
102
RTVSPost2010PropOp39
 70
     1
102
RTVSPost2010Prop40
 90
        0
102
RTVSPost2010PropOp40
 70
     1
102
RTVSPost2010Prop41ColorIndex
 90
       18
102
RTVSPost2010Prop41ColorRGB
 90
        0
102
RTVSPost2010PropOp41
 70
     1
102
RTVSPost2010Prop42
 90
       50
102
RTVSPost2010PropOp42
 70
     1
102
RTVSPost2010Prop43
 90
        3
102
RTVSPost2010PropOp43
 70
     1
102
RTVSPost2010Prop44ColorIndex
 90
        5
102
RTVSPost2010Prop44ColorRGB
 90
      255
102
RTVSPost2010PropOp44
 70
     1
102
RTVSPost2010Prop45
280
     0
102
RTVSPost2010PropOp45
 70
     1
102
RTVSPost2010Prop46
 90
       50
102
RTVSPost2010PropOp46
 70
     1
102
RTVSPost2010Prop47
 90
       50
102
RTVSPost2010PropOp47
 70
     1
102
RTVSPost2010Prop48
 90
       50
102
RTVSPost2010PropOp48
 70
     1
102
RTVSPost2010Prop49
280
     0
102
RTVSPost2010PropOp49
 70
     1
102
RTVSPost2010Prop50
 90
       50
102
RTVSPost2010PropOp50
 70
     1
102
RTVSPost2010Prop51ColorIndex
 90
      256
102
RTVSPost2010Prop51ColorRGB
 90
-16777216
102
RTVSPost2010PropOp51
 70
     0
102
RTVSPost2010Prop52
140
1.0
102
RTVSPost2010PropOp52
 70
     0
102
RTVSPost2010Prop53
 90
        2
102
RTVSPost2010PropOp53
 70
     1
102
RTVSPost2010Prop54
  1
strokes_ogs.tif
102
RTVSPost2010PropOp54
 70
     1
102
RTVSPost2010Prop55
280
     0
102
RTVSPost2010PropOp55
 70
     1
102
RTVSPost2010Prop56
140
1.0
102
RTVSPost2010PropOp56
 70
     1
102
RTVSPost2010Prop57
140
1.0
102
RTVSPost2010PropOp57
 70
     1
102
RTVSPropertyOp0
 70
     1
102
RTVSPropertyOp1
 70
     1
102
RTVSPropertyOp2
 70
     1
102
RTVSPropertyOp3
 70
     1
102
RTVSPropertyOp4
 70
     1
102
RTVSPropertyOp5
 70
     1
102
RTVSPropertyOp6
 70
     1
102
RTVSPropertyOp7
 70
     1
102
RTVSPropertyOp8
 70
     1
102
RTVSPropertyOp9
 70
     1
102
RTVSPropertyOp10
 70
     1
102
RTVSPropertyOp11
 70
     1
102
RTVSPropertyOp12
 70
     1
102
RTVSPropertyOp13
 70
     1
102
RTVSPropertyOp14
 70
     1
102
RTVSPropertyOp15
 70
     1
102
RTVSPropertyOp16
 70
     1
102
RTVSPropertyOp17
 70
     1
102
RTVSPropertyOp18
 70
     1
102
RTVSPropertyOp19
 70
     1
102
RTVSPropertyOp20
 70
     1
102
RTVSPropertyOp21
 70
     1
102
RTVSPropertyOp22
 70
     1
102
RTVSPropertyOp23
 70
     1
102
RTVSPropertyOp24
 70
     1
102
RTVSPropertyOp25
 70
     1
102
RTVSPropertyOp26
 70
     1
102
RTVSPropertyOp27
 70
     1
102
RTVSPropertyOp28
 70
     1
102
RTVSPropertyOp29
 70
     1
102
RTVSPropertyOp30
 70
     1
102
RTVSPropertyOp31
 70
     1
102
RTVSPropertyOp32
 70
     1
102
RTVSPropertyOp33
 70
     1
102
RTVSPropertyOp34
 70
     1
102
RTVSPropertyOp35
 70
     1
102
RTVSPropertyOp36
 70
     1
102
RTVSPropertyOp37
 70
     1
102
RTVSPropertyOp38
 70
     1
102
RTVSPropertyOp39
 70
     1
102
RTVSPropertyOp40
 70
     1
102
RTVSPropertyOp41
 70
     1
102
RTVSPropertyOp42
 70
     1
102
RTVSPropertyOp43
 70
     1
102
RTVSPropertyOp44
 70
     1
102
RTVSPropertyOp45
 70
     1
102
RTVSPropertyOp46
 70
     1
102
RTVSPropertyOp47
 70
     1
102
RTVSPropertyOp48
 70
     1
102
RTVSPropertyOp49
 70
     1
102
RTVSPropertyOp50
 70
     1
102
RTVSPropertyOp51
 70
     0
102
RTVSPropertyOp52
 70
     0
102
RTVSPropertyOp53
 70
     1
102
RTVSPropertyOp54
 70
     1
102
RTVSPropertyOp55
 70
     1
102
RTVSPropertyOp56
 70
     1
102
RTVSPropertyOp57
 70
     1
102
RTVSPropertyOp58
 70
     1
102
RTVSPropertyOp59
 70
     1
102
RTVSPropertyOp60
 70
     1
102
RTVSPropertyOp61
 70
     1
102
RTVSPropertyOp62
 70
     1
  0
XRECORD
  5
302
102
{ACAD_REACTORS
330
301
102
}
330
301
100
AcDbXrecord
280
     1
102
RTVSPost2010Prop28
280
     0
102
RTVSPost2010PropOp28
 70
     1
102
RTVSPost2010Prop29
280
     1
102
RTVSPost2010PropOp29
 70
     1
102
RTVSPost2010Prop30
280
     1
102
RTVSPost2010PropOp30
 70
     1
102
RTVSPost2010Prop31
280
     0
102
RTVSPost2010PropOp31
 70
     1
102
RTVSPost2010Prop32
280
     0
102
RTVSPost2010PropOp32
 70
     1
102
RTVSPost2010Prop33
280
     0
102
RTVSPost2010PropOp33
 70
     1
102
RTVSPost2010Prop34
280
     0
102
RTVSPost2010PropOp34
 70
     1
102
RTVSPost2010Prop35
280
     0
102
RTVSPost2010PropOp35
 70
     1
102
RTVSPost2010Prop36
280
     0
102
RTVSPost2010PropOp36
 70
     1
102
RTVSPost2010Prop37
 90
       50
102
RTVSPost2010PropOp37
 70
     1
102
RTVSPost2010Prop38
140
0.0
102
RTVSPost2010PropOp38
 70
     1
102
RTVSPost2010Prop39
140
1.0
102
RTVSPost2010PropOp39
 70
     1
102
RTVSPost2010Prop40
 90
        0
102
RTVSPost2010PropOp40
 70
     1
102
RTVSPost2010Prop41ColorIndex
 90
       18
102
RTVSPost2010Prop41ColorRGB
 90
        0
102
RTVSPost2010PropOp41
 70
     1
102
RTVSPost2010Prop42
 90
       50
102
RTVSPost2010PropOp42
 70
     1
102
RTVSPost2010Prop43
 90
        3
102
RTVSPost2010PropOp43
 70
     1
102
RTVSPost2010Prop44ColorIndex
 90
        5
102
RTVSPost2010Prop44ColorRGB
 90
      255
102
RTVSPost2010PropOp44
 70
     1
102
RTVSPost2010Prop45
280
     0
102
RTVSPost2010PropOp45
 70
     1
102
RTVSPost2010Prop46
 90
       50
102
RTVSPost2010PropOp46
 70
     1
102
RTVSPost2010Prop47
 90
       50
102
RTVSPost2010PropOp47
 70
     1
102
RTVSPost2010Prop48
 90
       50
102
RTVSPost2010PropOp48
 70
     1
102
RTVSPost2010Prop49
280
     0
102
RTVSPost2010PropOp49
 70
     1
102
RTVSPost2010Prop50
 90
       50
102
RTVSPost2010PropOp50
 70
     1
102
RTVSPost2010Prop51ColorIndex
 90
      256
102
RTVSPost2010Prop51ColorRGB
 90
-16777216
102
RTVSPost2010PropOp51
 70
     0
102
RTVSPost2010Prop52
140
1.0
102
RTVSPost2010PropOp52
 70
     0
102
RTVSPost2010Prop53
 90
        2
102
RTVSPost2010PropOp53
 70
     1
102
RTVSPost2010Prop54
  1
strokes_ogs.tif
102
RTVSPost2010PropOp54
 70
     1
102
RTVSPost2010Prop55
280
     0
102
RTVSPost2010PropOp55
 70
     1
102
RTVSPost2010Prop56
140
1.0
102
RTVSPost2010PropOp56
 70
     1
102
RTVSPost2010Prop57
140
1.0
102
RTVSPost2010PropOp57
 70
     1
102
RTVSPropertyOp0
 70
     1
102
RTVSPropertyOp1
 70
     1
102
RTVSPropertyOp2
 70
     1
102
RTVSPropertyOp3
 70
     1
102
RTVSPropertyOp4
 70
     1
102
RTVSPropertyOp5
 70
     1
102
RTVSPropertyOp6
 70
     1
102
RTVSPropertyOp7
 70
     1
102
RTVSPropertyOp8
 70
     1
102
RTVSPropertyOp9
 70
     1
102
RTVSPropertyOp10
 70
     1
102
RTVSPropertyOp11
 70
     1
102
RTVSPropertyOp12
 70
     1
102
RTVSPropertyOp13
 70
     1
102
RTVSPropertyOp14
 70
     1
102
RTVSPropertyOp15
 70
     1
102
RTVSPropertyOp16
 70
     1
102
RTVSPropertyOp17
 70
     1
102
RTVSPropertyOp18
 70
     1
102
RTVSPropertyOp19
 70
     1
102
RTVSPropertyOp20
 70
     1
102
RTVSPropertyOp21
 70
     1
102
RTVSPropertyOp22
 70
     1
102
RTVSPropertyOp23
 70
     1
102
RTVSPropertyOp24
 70
     1
102
RTVSPropertyOp25
 70
     1
102
RTVSPropertyOp26
 70
     1
102
RTVSPropertyOp27
 70
     1
102
RTVSPropertyOp28
 70
     1
102
RTVSPropertyOp29
 70
     1
102
RTVSPropertyOp30
 70
     1
102
RTVSPropertyOp31
 70
     1
102
RTVSPropertyOp32
 70
     1
102
RTVSPropertyOp33
 70
     1
102
RTVSPropertyOp34
 70
     1
102
RTVSPropertyOp35
 70
     1
102
RTVSPropertyOp36
 70
     1
102
RTVSPropertyOp37
 70
     1
102
RTVSPropertyOp38
 70
     1
102
RTVSPropertyOp39
 70
     1
102
RTVSPropertyOp40
 70
     1
102
RTVSPropertyOp41
 70
     1
102
RTVSPropertyOp42
 70
     1
102
RTVSPropertyOp43
 70
     1
102
RTVSPropertyOp44
 70
     1
102
RTVSPropertyOp45
 70
     1
102
RTVSPropertyOp46
 70
     1
102
RTVSPropertyOp47
 70
     1
102
RTVSPropertyOp48
 70
     1
102
RTVSPropertyOp49
 70
     1
102
RTVSPropertyOp50
 70
     1
102
RTVSPropertyOp51
 70
     0
102
RTVSPropertyOp52
 70
     0
102
RTVSPropertyOp53
 70
     1
102
RTVSPropertyOp54
 70
     1
102
RTVSPropertyOp55
 70
     1
102
RTVSPropertyOp56
 70
     1
102
RTVSPropertyOp57
 70
     1
102
RTVSPropertyOp58
 70
     1
102
RTVSPropertyOp59
 70
     1
102
RTVSPropertyOp60
 70
     1
102
RTVSPropertyOp61
 70
     1
102
RTVSPropertyOp62
 70
     1
  0
XRECORD
  5
31C
102
{ACAD_REACTORS
330
31B
102
}
330
31B
100
AcDbXrecord
280
     1
102
RTVSPost2010Prop28
280
     0
102
RTVSPost2010PropOp28
 70
     1
102
RTVSPost2010Prop29
280
     1
102
RTVSPost2010PropOp29
 70
     1
102
RTVSPost2010Prop30
280
     1
102
RTVSPost2010PropOp30
 70
     1
102
RTVSPost2010Prop31
280
     0
102
RTVSPost2010PropOp31
 70
     1
102
RTVSPost2010Prop32
280
     0
102
RTVSPost2010PropOp32
 70
     1
102
RTVSPost2010Prop33
280
     0
102
RTVSPost2010PropOp33
 70
     1
102
RTVSPost2010Prop34
280
     0
102
RTVSPost2010PropOp34
 70
     1
102
RTVSPost2010Prop35
280
     0
102
RTVSPost2010PropOp35
 70
     1
102
RTVSPost2010Prop36
280
     0
102
RTVSPost2010PropOp36
 70
     1
102
RTVSPost2010Prop37
 90
       50
102
RTVSPost2010PropOp37
 70
     0
102
RTVSPost2010Prop38
140
0.0
102
RTVSPost2010PropOp38
 70
     0
102
RTVSPost2010Prop39
140
1.0
102
RTVSPost2010PropOp39
 70
     0
102
RTVSPost2010Prop40
 90
        0
102
RTVSPost2010PropOp40
 70
     0
102
RTVSPost2010Prop41ColorIndex
 90
       18
102
RTVSPost2010Prop41ColorRGB
 90
        0
102
RTVSPost2010PropOp41
 70
     0
102
RTVSPost2010Prop42
 90
       50
102
RTVSPost2010PropOp42
 70
     0
102
RTVSPost2010Prop43
 90
        3
102
RTVSPost2010PropOp43
 70
     0
102
RTVSPost2010Prop44ColorIndex
 90
        5
102
RTVSPost2010Prop44ColorRGB
 90
      255
102
RTVSPost2010PropOp44
 70
     0
102
RTVSPost2010Prop45
280
     0
102
RTVSPost2010PropOp45
 70
     1
102
RTVSPost2010Prop46
 90
       50
102
RTVSPost2010PropOp46
 70
     0
102
RTVSPost2010Prop47
 90
       50
102
RTVSPost2010PropOp47
 70
     0
102
RTVSPost2010Prop48
 90
       50
102
RTVSPost2010PropOp48
 70
     0
102
RTVSPost2010Prop49
280
     0
102
RTVSPost2010PropOp49
 70
     1
102
RTVSPost2010Prop50
 90
       50
102
RTVSPost2010PropOp50
 70
     0
102
RTVSPost2010Prop51ColorIndex
 90
      256
102
RTVSPost2010Prop51ColorRGB
 90
-16777216
102
RTVSPost2010PropOp51
 70
     0
102
RTVSPost2010Prop52
140
1.0
102
RTVSPost2010PropOp52
 70
     0
102
RTVSPost2010Prop53
 90
        2
102
RTVSPost2010PropOp53
 70
     0
102
RTVSPost2010Prop54
  1
strokes_ogs.tif
102
RTVSPost2010PropOp54
 70
     0
102
RTVSPost2010Prop55
280
     0
102
RTVSPost2010PropOp55
 70
     1
102
RTVSPost2010Prop56
140
1.0
102
RTVSPost2010PropOp56
 70
     0
102
RTVSPost2010Prop57
140
1.0
102
RTVSPost2010PropOp57
 70
     0
102
RTVSPropertyOp0
 70
     0
102
RTVSPropertyOp1
 70
     0
102
RTVSPropertyOp2
 70
     0
102
RTVSPropertyOp3
 70
     0
102
RTVSPropertyOp4
 70
     0
102
RTVSPropertyOp5
 70
     0
102
RTVSPropertyOp6
 70
     0
102
RTVSPropertyOp7
 70
     0
102
RTVSPropertyOp8
 70
     0
102
RTVSPropertyOp9
 70
     0
102
RTVSPropertyOp10
 70
     0
102
RTVSPropertyOp11
 70
     0
102
RTVSPropertyOp12
 70
     0
102
RTVSPropertyOp13
 70
     0
102
RTVSPropertyOp14
 70
     2
102
RTVSPropertyOp15
 70
     0
102
RTVSPropertyOp16
 70
     0
102
RTVSPropertyOp17
 70
     0
102
RTVSPropertyOp18
 70
     0
102
RTVSPropertyOp19
 70
     0
102
RTVSPropertyOp20
 70
     0
102
RTVSPropertyOp21
 70
     0
102
RTVSPropertyOp22
 70
     0
102
RTVSPropertyOp23
 70
     0
102
RTVSPropertyOp24
 70
     0
102
RTVSPropertyOp25
 70
     0
102
RTVSPropertyOp26
 70
     0
102
RTVSPropertyOp27
 70
     0
102
RTVSPropertyOp28
 70
     1
102
RTVSPropertyOp29
 70
     1
102
RTVSPropertyOp30
 70
     1
102
RTVSPropertyOp31
 70
     1
102
RTVSPropertyOp32
 70
     1
102
RTVSPropertyOp33
 70
     1
102
RTVSPropertyOp34
 70
     1
102
RTVSPropertyOp35
 70
     1
102
RTVSPropertyOp36
 70
     1
102
RTVSPropertyOp37
 70
     0
102
RTVSPropertyOp38
 70
     0
102
RTVSPropertyOp39
 70
     0
102
RTVSPropertyOp40
 70
     0
102
RTVSPropertyOp41
 70
     0
102
RTVSPropertyOp42
 70
     0
102
RTVSPropertyOp43
 70
     0
102
RTVSPropertyOp44
 70
     0
102
RTVSPropertyOp45
 70
     1
102
RTVSPropertyOp46
 70
     0
102
RTVSPropertyOp47
 70
     0
102
RTVSPropertyOp48
 70
     0
102
RTVSPropertyOp49
 70
     1
102
RTVSPropertyOp50
 70
     0
102
RTVSPropertyOp51
 70
     0
102
RTVSPropertyOp52
 70
     0
102
RTVSPropertyOp53
 70
     0
102
RTVSPropertyOp54
 70
     0
102
RTVSPropertyOp55
 70
     1
102
RTVSPropertyOp56
 70
     0
102
RTVSPropertyOp57
 70
     0
102
RTVSPropertyOp58
 70
     0
102
RTVSPropertyOp59
 70
     0
102
RTVSPropertyOp60
 70
     0
102
RTVSPropertyOp61
 70
     0
102
RTVSPropertyOp62
 70
     0
  0
XRECORD
  5
30A
102
{ACAD_REACTORS
330
309
102
}
330
309
100
AcDbXrecord
280
     1
102
RTVSPost2010Prop28
280
     0
102
RTVSPost2010PropOp28
 70
     1
102
RTVSPost2010Prop29
280
     1
102
RTVSPost2010PropOp29
 70
     1
102
RTVSPost2010Prop30
280
     1
102
RTVSPost2010PropOp30
 70
     1
102
RTVSPost2010Prop31
280
     0
102
RTVSPost2010PropOp31
 70
     1
102
RTVSPost2010Prop32
280
     0
102
RTVSPost2010PropOp32
 70
     1
102
RTVSPost2010Prop33
280
     0
102
RTVSPost2010PropOp33
 70
     1
102
RTVSPost2010Prop34
280
     0
102
RTVSPost2010PropOp34
 70
     1
102
RTVSPost2010Prop35
280
     0
102
RTVSPost2010PropOp35
 70
     1
102
RTVSPost2010Prop36
280
     0
102
RTVSPost2010PropOp36
 70
     1
102
RTVSPost2010Prop37
 90
       50
102
RTVSPost2010PropOp37
 70
     1
102
RTVSPost2010Prop38
140
0.0
102
RTVSPost2010PropOp38
 70
     1
102
RTVSPost2010Prop39
140
1.0
102
RTVSPost2010PropOp39
 70
     1
102
RTVSPost2010Prop40
 90
        0
102
RTVSPost2010PropOp40
 70
     1
102
RTVSPost2010Prop41ColorIndex
 90
       18
102
RTVSPost2010Prop41ColorRGB
 90
        0
102
RTVSPost2010PropOp41
 70
     1
102
RTVSPost2010Prop42
 90
       50
102
RTVSPost2010PropOp42
 70
     1
102
RTVSPost2010Prop43
 90
        3
102
RTVSPost2010PropOp43
 70
     1
102
RTVSPost2010Prop44ColorIndex
 90
        5
102
RTVSPost2010Prop44ColorRGB
 90
      255
102
RTVSPost2010PropOp44
 70
     1
102
RTVSPost2010Prop45
280
     0
102
RTVSPost2010PropOp45
 70
     1
102
RTVSPost2010Prop46
 90
       50
102
RTVSPost2010PropOp46
 70
     1
102
RTVSPost2010Prop47
 90
       50
102
RTVSPost2010PropOp47
 70
     1
102
RTVSPost2010Prop48
 90
       50
102
RTVSPost2010PropOp48
 70
     1
102
RTVSPost2010Prop49
280
     0
102
RTVSPost2010PropOp49
 70
     1
102
RTVSPost2010Prop50
 90
       50
102
RTVSPost2010PropOp50
 70
     1
102
RTVSPost2010Prop51ColorIndex
 90
      256
102
RTVSPost2010Prop51ColorRGB
 90
-16777216
102
RTVSPost2010PropOp51
 70
     0
102
RTVSPost2010Prop52
140
1.0
102
RTVSPost2010PropOp52
 70
     0
102
RTVSPost2010Prop53
 90
        2
102
RTVSPost2010PropOp53
 70
     1
102
RTVSPost2010Prop54
  1
strokes_ogs.tif
102
RTVSPost2010PropOp54
 70
     1
102
RTVSPost2010Prop55
280
     0
102
RTVSPost2010PropOp55
 70
     1
102
RTVSPost2010Prop56
140
1.0
102
RTVSPost2010PropOp56
 70
     1
102
RTVSPost2010Prop57
140
1.0
102
RTVSPost2010PropOp57
 70
     1
102
RTVSPropertyOp0
 70
     1
102
RTVSPropertyOp1
 70
     1
102
RTVSPropertyOp2
 70
     1
102
RTVSPropertyOp3
 70
     1
102
RTVSPropertyOp4
 70
     1
102
RTVSPropertyOp5
 70
     1
102
RTVSPropertyOp6
 70
     1
102
RTVSPropertyOp7
 70
     1
102
RTVSPropertyOp8
 70
     1
102
RTVSPropertyOp9
 70
     1
102
RTVSPropertyOp10
 70
     1
102
RTVSPropertyOp11
 70
     1
102
RTVSPropertyOp12
 70
     1
102
RTVSPropertyOp13
 70
     1
102
RTVSPropertyOp14
 70
     1
102
RTVSPropertyOp15
 70
     1
102
RTVSPropertyOp16
 70
     1
102
RTVSPropertyOp17
 70
     1
102
RTVSPropertyOp18
 70
     1
102
RTVSPropertyOp19
 70
     1
102
RTVSPropertyOp20
 70
     1
102
RTVSPropertyOp21
 70
     1
102
RTVSPropertyOp22
 70
     1
102
RTVSPropertyOp23
 70
     1
102
RTVSPropertyOp24
 70
     1
102
RTVSPropertyOp25
 70
     1
102
RTVSPropertyOp26
 70
     1
102
RTVSPropertyOp27
 70
     1
102
RTVSPropertyOp28
 70
     1
102
RTVSPropertyOp29
 70
     1
102
RTVSPropertyOp30
 70
     1
102
RTVSPropertyOp31
 70
     1
102
RTVSPropertyOp32
 70
     1
102
RTVSPropertyOp33
 70
     1
102
RTVSPropertyOp34
 70
     1
102
RTVSPropertyOp35
 70
     1
102
RTVSPropertyOp36
 70
     1
102
RTVSPropertyOp37
 70
     1
102
RTVSPropertyOp38
 70
     1
102
RTVSPropertyOp39
 70
     1
102
RTVSPropertyOp40
 70
     1
102
RTVSPropertyOp41
 70
     1
102
RTVSPropertyOp42
 70
     1
102
RTVSPropertyOp43
 70
     1
102
RTVSPropertyOp44
 70
     1
102
RTVSPropertyOp45
 70
     1
102
RTVSPropertyOp46
 70
     1
102
RTVSPropertyOp47
 70
     1
102
RTVSPropertyOp48
 70
     1
102
RTVSPropertyOp49
 70
     1
102
RTVSPropertyOp50
 70
     1
102
RTVSPropertyOp51
 70
     0
102
RTVSPropertyOp52
 70
     0
102
RTVSPropertyOp53
 70
     1
102
RTVSPropertyOp54
 70
     1
102
RTVSPropertyOp55
 70
     1
102
RTVSPropertyOp56
 70
     1
102
RTVSPropertyOp57
 70
     1
102
RTVSPropertyOp58
 70
     1
102
RTVSPropertyOp59
 70
     1
102
RTVSPropertyOp60
 70
     1
102
RTVSPropertyOp61
 70
     1
102
RTVSPropertyOp62
 70
     1
  0
XRECORD
  5
2EE
102
{ACAD_REACTORS
330
2ED
102
}
330
2ED
100
AcDbXrecord
280
     1
102
RTVSPost2010Prop28
280
     0
102
RTVSPost2010PropOp28
 70
     1
102
RTVSPost2010Prop29
280
     1
102
RTVSPost2010PropOp29
 70
     1
102
RTVSPost2010Prop30
280
     1
102
RTVSPost2010PropOp30
 70
     1
102
RTVSPost2010Prop31
280
     0
102
RTVSPost2010PropOp31
 70
     1
102
RTVSPost2010Prop32
280
     0
102
RTVSPost2010PropOp32
 70
     1
102
RTVSPost2010Prop33
280
     0
102
RTVSPost2010PropOp33
 70
     1
102
RTVSPost2010Prop34
280
     0
102
RTVSPost2010PropOp34
 70
     1
102
RTVSPost2010Prop35
280
     0
102
RTVSPost2010PropOp35
 70
     1
102
RTVSPost2010Prop36
280
     0
102
RTVSPost2010PropOp36
 70
     1
102
RTVSPost2010Prop37
 90
       50
102
RTVSPost2010PropOp37
 70
     1
102
RTVSPost2010Prop38
140
0.0
102
RTVSPost2010PropOp38
 70
     1
102
RTVSPost2010Prop39
140
1.0
102
RTVSPost2010PropOp39
 70
     1
102
RTVSPost2010Prop40
 90
        0
102
RTVSPost2010PropOp40
 70
     1
102
RTVSPost2010Prop41ColorIndex
 90
       18
102
RTVSPost2010Prop41ColorRGB
 90
        0
102
RTVSPost2010PropOp41
 70
     1
102
RTVSPost2010Prop42
 90
       50
102
RTVSPost2010PropOp42
 70
     1
102
RTVSPost2010Prop43
 90
        3
102
RTVSPost2010PropOp43
 70
     1
102
RTVSPost2010Prop44ColorIndex
 90
        5
102
RTVSPost2010Prop44ColorRGB
 90
      255
102
RTVSPost2010PropOp44
 70
     1
102
RTVSPost2010Prop45
280
     0
102
RTVSPost2010PropOp45
 70
     1
102
RTVSPost2010Prop46
 90
       50
102
RTVSPost2010PropOp46
 70
     1
102
RTVSPost2010Prop47
 90
       50
102
RTVSPost2010PropOp47
 70
     1
102
RTVSPost2010Prop48
 90
       50
102
RTVSPost2010PropOp48
 70
     1
102
RTVSPost2010Prop49
280
     0
102
RTVSPost2010PropOp49
 70
     1
102
RTVSPost2010Prop50
 90
       50
102
RTVSPost2010PropOp50
 70
     1
102
RTVSPost2010Prop51ColorIndex
 90
      256
102
RTVSPost2010Prop51ColorRGB
 90
-16777216
102
RTVSPost2010PropOp51
 70
     0
102
RTVSPost2010Prop52
140
1.0
102
RTVSPost2010PropOp52
 70
     0
102
RTVSPost2010Prop53
 90
        2
102
RTVSPost2010PropOp53
 70
     1
102
RTVSPost2010Prop54
  1
strokes_ogs.tif
102
RTVSPost2010PropOp54
 70
     1
102
RTVSPost2010Prop55
280
     0
102
RTVSPost2010PropOp55
 70
     1
102
RTVSPost2010Prop56
140
1.0
102
RTVSPost2010PropOp56
 70
     1
102
RTVSPost2010Prop57
140
1.0
102
RTVSPost2010PropOp57
 70
     1
102
RTVSPropertyOp0
 70
     1
102
RTVSPropertyOp1
 70
     1
102
RTVSPropertyOp2
 70
     1
102
RTVSPropertyOp3
 70
     1
102
RTVSPropertyOp4
 70
     1
102
RTVSPropertyOp5
 70
     1
102
RTVSPropertyOp6
 70
     1
102
RTVSPropertyOp7
 70
     1
102
RTVSPropertyOp8
 70
     1
102
RTVSPropertyOp9
 70
     1
102
RTVSPropertyOp10
 70
     1
102
RTVSPropertyOp11
 70
     1
102
RTVSPropertyOp12
 70
     1
102
RTVSPropertyOp13
 70
     1
102
RTVSPropertyOp14
 70
     1
102
RTVSPropertyOp15
 70
     1
102
RTVSPropertyOp16
 70
     1
102
RTVSPropertyOp17
 70
     1
102
RTVSPropertyOp18
 70
     1
102
RTVSPropertyOp19
 70
     1
102
RTVSPropertyOp20
 70
     1
102
RTVSPropertyOp21
 70
     1
102
RTVSPropertyOp22
 70
     1
102
RTVSPropertyOp23
 70
     1
102
RTVSPropertyOp24
 70
     1
102
RTVSPropertyOp25
 70
     1
102
RTVSPropertyOp26
 70
     1
102
RTVSPropertyOp27
 70
     1
102
RTVSPropertyOp28
 70
     1
102
RTVSPropertyOp29
 70
     1
102
RTVSPropertyOp30
 70
     1
102
RTVSPropertyOp31
 70
     1
102
RTVSPropertyOp32
 70
     1
102
RTVSPropertyOp33
 70
     1
102
RTVSPropertyOp34
 70
     1
102
RTVSPropertyOp35
 70
     1
102
RTVSPropertyOp36
 70
     1
102
RTVSPropertyOp37
 70
     1
102
RTVSPropertyOp38
 70
     1
102
RTVSPropertyOp39
 70
     1
102
RTVSPropertyOp40
 70
     1
102
RTVSPropertyOp41
 70
     1
102
RTVSPropertyOp42
 70
     1
102
RTVSPropertyOp43
 70
     1
102
RTVSPropertyOp44
 70
     1
102
RTVSPropertyOp45
 70
     1
102
RTVSPropertyOp46
 70
     1
102
RTVSPropertyOp47
 70
     1
102
RTVSPropertyOp48
 70
     1
102
RTVSPropertyOp49
 70
     1
102
RTVSPropertyOp50
 70
     1
102
RTVSPropertyOp51
 70
     0
102
RTVSPropertyOp52
 70
     0
102
RTVSPropertyOp53
 70
     1
102
RTVSPropertyOp54
 70
     1
102
RTVSPropertyOp55
 70
     1
102
RTVSPropertyOp56
 70
     1
102
RTVSPropertyOp57
 70
     1
102
RTVSPropertyOp58
 70
     1
102
RTVSPropertyOp59
 70
     1
102
RTVSPropertyOp60
 70
     1
102
RTVSPropertyOp61
 70
     1
102
RTVSPropertyOp62
 70
     1
  0
XRECORD
  5
2F0
102
{ACAD_REACTORS
330
2EF
102
}
330
2EF
100
AcDbXrecord
280
     1
102
RTVSPost2010Prop28
280
     0
102
RTVSPost2010PropOp28
 70
     1
102
RTVSPost2010Prop29
280
     1
102
RTVSPost2010PropOp29
 70
     1
102
RTVSPost2010Prop30
280
     1
102
RTVSPost2010PropOp30
 70
     1
102
RTVSPost2010Prop31
280
     0
102
RTVSPost2010PropOp31
 70
     1
102
RTVSPost2010Prop32
280
     0
102
RTVSPost2010PropOp32
 70
     1
102
RTVSPost2010Prop33
280
     0
102
RTVSPost2010PropOp33
 70
     1
102
RTVSPost2010Prop34
280
     0
102
RTVSPost2010PropOp34
 70
     1
102
RTVSPost2010Prop35
280
     0
102
RTVSPost2010PropOp35
 70
     1
102
RTVSPost2010Prop36
280
     0
102
RTVSPost2010PropOp36
 70
     1
102
RTVSPost2010Prop37
 90
       50
102
RTVSPost2010PropOp37
 70
     1
102
RTVSPost2010Prop38
140
0.0
102
RTVSPost2010PropOp38
 70
     1
102
RTVSPost2010Prop39
140
1.0
102
RTVSPost2010PropOp39
 70
     1
102
RTVSPost2010Prop40
 90
        0
102
RTVSPost2010PropOp40
 70
     1
102
RTVSPost2010Prop41ColorIndex
 90
       18
102
RTVSPost2010Prop41ColorRGB
 90
        0
102
RTVSPost2010PropOp41
 70
     1
102
RTVSPost2010Prop42
 90
       50
102
RTVSPost2010PropOp42
 70
     1
102
RTVSPost2010Prop43
 90
        3
102
RTVSPost2010PropOp43
 70
     1
102
RTVSPost2010Prop44ColorIndex
 90
        5
102
RTVSPost2010Prop44ColorRGB
 90
      255
102
RTVSPost2010PropOp44
 70
     1
102
RTVSPost2010Prop45
280
     0
102
RTVSPost2010PropOp45
 70
     1
102
RTVSPost2010Prop46
 90
       50
102
RTVSPost2010PropOp46
 70
     1
102
RTVSPost2010Prop47
 90
       50
102
RTVSPost2010PropOp47
 70
     1
102
RTVSPost2010Prop48
 90
       50
102
RTVSPost2010PropOp48
 70
     1
102
RTVSPost2010Prop49
280
     0
102
RTVSPost2010PropOp49
 70
     1
102
RTVSPost2010Prop50
 90
       50
102
RTVSPost2010PropOp50
 70
     1
102
RTVSPost2010Prop51ColorIndex
 90
      256
102
RTVSPost2010Prop51ColorRGB
 90
-16777216
102
RTVSPost2010PropOp51
 70
     0
102
RTVSPost2010Prop52
140
1.0
102
RTVSPost2010PropOp52
 70
     0
102
RTVSPost2010Prop53
 90
        2
102
RTVSPost2010PropOp53
 70
     1
102
RTVSPost2010Prop54
  1
strokes_ogs.tif
102
RTVSPost2010PropOp54
 70
     1
102
RTVSPost2010Prop55
280
     0
102
RTVSPost2010PropOp55
 70
     1
102
RTVSPost2010Prop56
140
1.0
102
RTVSPost2010PropOp56
 70
     1
102
RTVSPost2010Prop57
140
1.0
102
RTVSPost2010PropOp57
 70
     1
102
RTVSPropertyOp0
 70
     1
102
RTVSPropertyOp1
 70
     1
102
RTVSPropertyOp2
 70
     1
102
RTVSPropertyOp3
 70
     1
102
RTVSPropertyOp4
 70
     1
102
RTVSPropertyOp5
 70
     1
102
RTVSPropertyOp6
 70
     1
102
RTVSPropertyOp7
 70
     1
102
RTVSPropertyOp8
 70
     1
102
RTVSPropertyOp9
 70
     1
102
RTVSPropertyOp10
 70
     1
102
RTVSPropertyOp11
 70
     1
102
RTVSPropertyOp12
 70
     1
102
RTVSPropertyOp13
 70
     1
102
RTVSPropertyOp14
 70
     1
102
RTVSPropertyOp15
 70
     1
102
RTVSPropertyOp16
 70
     1
102
RTVSPropertyOp17
 70
     1
102
RTVSPropertyOp18
 70
     1
102
RTVSPropertyOp19
 70
     1
102
RTVSPropertyOp20
 70
     1
102
RTVSPropertyOp21
 70
     1
102
RTVSPropertyOp22
 70
     1
102
RTVSPropertyOp23
 70
     1
102
RTVSPropertyOp24
 70
     1
102
RTVSPropertyOp25
 70
     1
102
RTVSPropertyOp26
 70
     1
102
RTVSPropertyOp27
 70
     1
102
RTVSPropertyOp28
 70
     1
102
RTVSPropertyOp29
 70
     1
102
RTVSPropertyOp30
 70
     1
102
RTVSPropertyOp31
 70
     1
102
RTVSPropertyOp32
 70
     1
102
RTVSPropertyOp33
 70
     1
102
RTVSPropertyOp34
 70
     1
102
RTVSPropertyOp35
 70
     1
102
RTVSPropertyOp36
 70
     1
102
RTVSPropertyOp37
 70
     1
102
RTVSPropertyOp38
 70
     1
102
RTVSPropertyOp39
 70
     1
102
RTVSPropertyOp40
 70
     1
102
RTVSPropertyOp41
 70
     1
102
RTVSPropertyOp42
 70
     1
102
RTVSPropertyOp43
 70
     1
102
RTVSPropertyOp44
 70
     1
102
RTVSPropertyOp45
 70
     1
102
RTVSPropertyOp46
 70
     1
102
RTVSPropertyOp47
 70
     1
102
RTVSPropertyOp48
 70
     1
102
RTVSPropertyOp49
 70
     1
102
RTVSPropertyOp50
 70
     1
102
RTVSPropertyOp51
 70
     0
102
RTVSPropertyOp52
 70
     0
102
RTVSPropertyOp53
 70
     1
102
RTVSPropertyOp54
 70
     1
102
RTVSPropertyOp55
 70
     1
102
RTVSPropertyOp56
 70
     1
102
RTVSPropertyOp57
 70
     1
102
RTVSPropertyOp58
 70
     1
102
RTVSPropertyOp59
 70
     1
102
RTVSPropertyOp60
 70
     1
102
RTVSPropertyOp61
 70
     1
102
RTVSPropertyOp62
 70
     1
  0
XRECORD
  5
2F2
102
{ACAD_REACTORS
330
2F1
102
}
330
2F1
100
AcDbXrecord
280
     1
102
RTVSPost2010Prop28
280
     0
102
RTVSPost2010PropOp28
 70
     1
102
RTVSPost2010Prop29
280
     1
102
RTVSPost2010PropOp29
 70
     1
102
RTVSPost2010Prop30
280
     1
102
RTVSPost2010PropOp30
 70
     1
102
RTVSPost2010Prop31
280
     0
102
RTVSPost2010PropOp31
 70
     1
102
RTVSPost2010Prop32
280
     0
102
RTVSPost2010PropOp32
 70
     1
102
RTVSPost2010Prop33
280
     0
102
RTVSPost2010PropOp33
 70
     1
102
RTVSPost2010Prop34
280
     0
102
RTVSPost2010PropOp34
 70
     1
102
RTVSPost2010Prop35
280
     0
102
RTVSPost2010PropOp35
 70
     1
102
RTVSPost2010Prop36
280
     0
102
RTVSPost2010PropOp36
 70
     1
102
RTVSPost2010Prop37
 90
       50
102
RTVSPost2010PropOp37
 70
     1
102
RTVSPost2010Prop38
140
0.0
102
RTVSPost2010PropOp38
 70
     1
102
RTVSPost2010Prop39
140
1.0
102
RTVSPost2010PropOp39
 70
     1
102
RTVSPost2010Prop40
 90
        0
102
RTVSPost2010PropOp40
 70
     1
102
RTVSPost2010Prop41ColorIndex
 90
       18
102
RTVSPost2010Prop41ColorRGB
 90
        0
102
RTVSPost2010PropOp41
 70
     1
102
RTVSPost2010Prop42
 90
       50
102
RTVSPost2010PropOp42
 70
     1
102
RTVSPost2010Prop43
 90
        3
102
RTVSPost2010PropOp43
 70
     1
102
RTVSPost2010Prop44ColorIndex
 90
        5
102
RTVSPost2010Prop44ColorRGB
 90
      255
102
RTVSPost2010PropOp44
 70
     1
102
RTVSPost2010Prop45
280
     0
102
RTVSPost2010PropOp45
 70
     1
102
RTVSPost2010Prop46
 90
       50
102
RTVSPost2010PropOp46
 70
     1
102
RTVSPost2010Prop47
 90
       50
102
RTVSPost2010PropOp47
 70
     1
102
RTVSPost2010Prop48
 90
       50
102
RTVSPost2010PropOp48
 70
     1
102
RTVSPost2010Prop49
280
     0
102
RTVSPost2010PropOp49
 70
     1
102
RTVSPost2010Prop50
 90
       50
102
RTVSPost2010PropOp50
 70
     1
102
RTVSPost2010Prop51ColorIndex
 90
      256
102
RTVSPost2010Prop51ColorRGB
 90
-16777216
102
RTVSPost2010PropOp51
 70
     0
102
RTVSPost2010Prop52
140
1.0
102
RTVSPost2010PropOp52
 70
     0
102
RTVSPost2010Prop53
 90
        2
102
RTVSPost2010PropOp53
 70
     1
102
RTVSPost2010Prop54
  1
strokes_ogs.tif
102
RTVSPost2010PropOp54
 70
     1
102
RTVSPost2010Prop55
280
     0
102
RTVSPost2010PropOp55
 70
     1
102
RTVSPost2010Prop56
140
1.0
102
RTVSPost2010PropOp56
 70
     1
102
RTVSPost2010Prop57
140
1.0
102
RTVSPost2010PropOp57
 70
     1
102
RTVSPropertyOp0
 70
     1
102
RTVSPropertyOp1
 70
     1
102
RTVSPropertyOp2
 70
     1
102
RTVSPropertyOp3
 70
     1
102
RTVSPropertyOp4
 70
     1
102
RTVSPropertyOp5
 70
     1
102
RTVSPropertyOp6
 70
     1
102
RTVSPropertyOp7
 70
     1
102
RTVSPropertyOp8
 70
     1
102
RTVSPropertyOp9
 70
     1
102
RTVSPropertyOp10
 70
     1
102
RTVSPropertyOp11
 70
     1
102
RTVSPropertyOp12
 70
     1
102
RTVSPropertyOp13
 70
     1
102
RTVSPropertyOp14
 70
     1
102
RTVSPropertyOp15
 70
     1
102
RTVSPropertyOp16
 70
     1
102
RTVSPropertyOp17
 70
     1
102
RTVSPropertyOp18
 70
     1
102
RTVSPropertyOp19
 70
     1
102
RTVSPropertyOp20
 70
     1
102
RTVSPropertyOp21
 70
     1
102
RTVSPropertyOp22
 70
     1
102
RTVSPropertyOp23
 70
     1
102
RTVSPropertyOp24
 70
     1
102
RTVSPropertyOp25
 70
     1
102
RTVSPropertyOp26
 70
     1
102
RTVSPropertyOp27
 70
     1
102
RTVSPropertyOp28
 70
     1
102
RTVSPropertyOp29
 70
     1
102
RTVSPropertyOp30
 70
     1
102
RTVSPropertyOp31
 70
     1
102
RTVSPropertyOp32
 70
     1
102
RTVSPropertyOp33
 70
     1
102
RTVSPropertyOp34
 70
     1
102
RTVSPropertyOp35
 70
     1
102
RTVSPropertyOp36
 70
     1
102
RTVSPropertyOp37
 70
     1
102
RTVSPropertyOp38
 70
     1
102
RTVSPropertyOp39
 70
     1
102
RTVSPropertyOp40
 70
     1
102
RTVSPropertyOp41
 70
     1
102
RTVSPropertyOp42
 70
     1
102
RTVSPropertyOp43
 70
     1
102
RTVSPropertyOp44
 70
     1
102
RTVSPropertyOp45
 70
     1
102
RTVSPropertyOp46
 70
     1
102
RTVSPropertyOp47
 70
     1
102
RTVSPropertyOp48
 70
     1
102
RTVSPropertyOp49
 70
     1
102
RTVSPropertyOp50
 70
     1
102
RTVSPropertyOp51
 70
     0
102
RTVSPropertyOp52
 70
     0
102
RTVSPropertyOp53
 70
     1
102
RTVSPropertyOp54
 70
     1
102
RTVSPropertyOp55
 70
     1
102
RTVSPropertyOp56
 70
     1
102
RTVSPropertyOp57
 70
     1
102
RTVSPropertyOp58
 70
     1
102
RTVSPropertyOp59
 70
     1
102
RTVSPropertyOp60
 70
     1
102
RTVSPropertyOp61
 70
     1
102
RTVSPropertyOp62
 70
     1
  0
XRECORD
  5
2F4
102
{ACAD_REACTORS
330
2F3
102
}
330
2F3
100
AcDbXrecord
280
     1
102
RTVSPost2010Prop28
280
     0
102
RTVSPost2010PropOp28
 70
     1
102
RTVSPost2010Prop29
280
     1
102
RTVSPost2010PropOp29
 70
     1
102
RTVSPost2010Prop30
280
     1
102
RTVSPost2010PropOp30
 70
     1
102
RTVSPost2010Prop31
280
     0
102
RTVSPost2010PropOp31
 70
     1
102
RTVSPost2010Prop32
280
     0
102
RTVSPost2010PropOp32
 70
     1
102
RTVSPost2010Prop33
280
     0
102
RTVSPost2010PropOp33
 70
     1
102
RTVSPost2010Prop34
280
     0
102
RTVSPost2010PropOp34
 70
     1
102
RTVSPost2010Prop35
280
     0
102
RTVSPost2010PropOp35
 70
     1
102
RTVSPost2010Prop36
280
     0
102
RTVSPost2010PropOp36
 70
     1
102
RTVSPost2010Prop37
 90
       50
102
RTVSPost2010PropOp37
 70
     1
102
RTVSPost2010Prop38
140
0.0
102
RTVSPost2010PropOp38
 70
     1
102
RTVSPost2010Prop39
140
1.0
102
RTVSPost2010PropOp39
 70
     1
102
RTVSPost2010Prop40
 90
        0
102
RTVSPost2010PropOp40
 70
     1
102
RTVSPost2010Prop41ColorIndex
 90
       18
102
RTVSPost2010Prop41ColorRGB
 90
        0
102
RTVSPost2010PropOp41
 70
     1
102
RTVSPost2010Prop42
 90
       50
102
RTVSPost2010PropOp42
 70
     1
102
RTVSPost2010Prop43
 90
        3
102
RTVSPost2010PropOp43
 70
     1
102
RTVSPost2010Prop44ColorIndex
 90
        5
102
RTVSPost2010Prop44ColorRGB
 90
      255
102
RTVSPost2010PropOp44
 70
     1
102
RTVSPost2010Prop45
280
     0
102
RTVSPost2010PropOp45
 70
     1
102
RTVSPost2010Prop46
 90
       50
102
RTVSPost2010PropOp46
 70
     1
102
RTVSPost2010Prop47
 90
       50
102
RTVSPost2010PropOp47
 70
     1
102
RTVSPost2010Prop48
 90
       50
102
RTVSPost2010PropOp48
 70
     1
102
RTVSPost2010Prop49
280
     0
102
RTVSPost2010PropOp49
 70
     1
102
RTVSPost2010Prop50
 90
       50
102
RTVSPost2010PropOp50
 70
     1
102
RTVSPost2010Prop51ColorIndex
 90
      256
102
RTVSPost2010Prop51ColorRGB
 90
-16777216
102
RTVSPost2010PropOp51
 70
     0
102
RTVSPost2010Prop52
140
1.0
102
RTVSPost2010PropOp52
 70
     0
102
RTVSPost2010Prop53
 90
        2
102
RTVSPost2010PropOp53
 70
     1
102
RTVSPost2010Prop54
  1
strokes_ogs.tif
102
RTVSPost2010PropOp54
 70
     1
102
RTVSPost2010Prop55
280
     0
102
RTVSPost2010PropOp55
 70
     1
102
RTVSPost2010Prop56
140
1.0
102
RTVSPost2010PropOp56
 70
     1
102
RTVSPost2010Prop57
140
1.0
102
RTVSPost2010PropOp57
 70
     1
102
RTVSPropertyOp0
 70
     1
102
RTVSPropertyOp1
 70
     1
102
RTVSPropertyOp2
 70
     1
102
RTVSPropertyOp3
 70
     1
102
RTVSPropertyOp4
 70
     1
102
RTVSPropertyOp5
 70
     1
102
RTVSPropertyOp6
 70
     1
102
RTVSPropertyOp7
 70
     1
102
RTVSPropertyOp8
 70
     1
102
RTVSPropertyOp9
 70
     1
102
RTVSPropertyOp10
 70
     1
102
RTVSPropertyOp11
 70
     1
102
RTVSPropertyOp12
 70
     1
102
RTVSPropertyOp13
 70
     1
102
RTVSPropertyOp14
 70
     1
102
RTVSPropertyOp15
 70
     1
102
RTVSPropertyOp16
 70
     1
102
RTVSPropertyOp17
 70
     1
102
RTVSPropertyOp18
 70
     1
102
RTVSPropertyOp19
 70
     1
102
RTVSPropertyOp20
 70
     1
102
RTVSPropertyOp21
 70
     1
102
RTVSPropertyOp22
 70
     1
102
RTVSPropertyOp23
 70
     1
102
RTVSPropertyOp24
 70
     1
102
RTVSPropertyOp25
 70
     1
102
RTVSPropertyOp26
 70
     1
102
RTVSPropertyOp27
 70
     1
102
RTVSPropertyOp28
 70
     1
102
RTVSPropertyOp29
 70
     1
102
RTVSPropertyOp30
 70
     1
102
RTVSPropertyOp31
 70
     1
102
RTVSPropertyOp32
 70
     1
102
RTVSPropertyOp33
 70
     1
102
RTVSPropertyOp34
 70
     1
102
RTVSPropertyOp35
 70
     1
102
RTVSPropertyOp36
 70
     1
102
RTVSPropertyOp37
 70
     1
102
RTVSPropertyOp38
 70
     1
102
RTVSPropertyOp39
 70
     1
102
RTVSPropertyOp40
 70
     1
102
RTVSPropertyOp41
 70
     1
102
RTVSPropertyOp42
 70
     1
102
RTVSPropertyOp43
 70
     1
102
RTVSPropertyOp44
 70
     1
102
RTVSPropertyOp45
 70
     1
102
RTVSPropertyOp46
 70
     1
102
RTVSPropertyOp47
 70
     1
102
RTVSPropertyOp48
 70
     1
102
RTVSPropertyOp49
 70
     1
102
RTVSPropertyOp50
 70
     1
102
RTVSPropertyOp51
 70
     0
102
RTVSPropertyOp52
 70
     0
102
RTVSPropertyOp53
 70
     1
102
RTVSPropertyOp54
 70
     1
102
RTVSPropertyOp55
 70
     1
102
RTVSPropertyOp56
 70
     1
102
RTVSPropertyOp57
 70
     1
102
RTVSPropertyOp58
 70
     1
102
RTVSPropertyOp59
 70
     1
102
RTVSPropertyOp60
 70
     1
102
RTVSPropertyOp61
 70
     1
102
RTVSPropertyOp62
 70
     1
  0
XRECORD
  5
2FC
102
{ACAD_REACTORS
330
2FB
102
}
330
2FB
100
AcDbXrecord
280
     1
102
RTVSPost2010Prop28
280
     0
102
RTVSPost2010PropOp28
 70
     1
102
RTVSPost2010Prop29
280
     1
102
RTVSPost2010PropOp29
 70
     1
102
RTVSPost2010Prop30
280
     1
102
RTVSPost2010PropOp30
 70
     1
102
RTVSPost2010Prop31
280
     0
102
RTVSPost2010PropOp31
 70
     1
102
RTVSPost2010Prop32
280
     0
102
RTVSPost2010PropOp32
 70
     1
102
RTVSPost2010Prop33
280
     0
102
RTVSPost2010PropOp33
 70
     1
102
RTVSPost2010Prop34
280
     0
102
RTVSPost2010PropOp34
 70
     1
102
RTVSPost2010Prop35
280
     0
102
RTVSPost2010PropOp35
 70
     1
102
RTVSPost2010Prop36
280
     0
102
RTVSPost2010PropOp36
 70
     1
102
RTVSPost2010Prop37
 90
       50
102
RTVSPost2010PropOp37
 70
     1
102
RTVSPost2010Prop38
140
0.0
102
RTVSPost2010PropOp38
 70
     1
102
RTVSPost2010Prop39
140
1.0
102
RTVSPost2010PropOp39
 70
     1
102
RTVSPost2010Prop40
 90
        0
102
RTVSPost2010PropOp40
 70
     1
102
RTVSPost2010Prop41ColorIndex
 90
       18
102
RTVSPost2010Prop41ColorRGB
 90
        0
102
RTVSPost2010PropOp41
 70
     1
102
RTVSPost2010Prop42
 90
       50
102
RTVSPost2010PropOp42
 70
     1
102
RTVSPost2010Prop43
 90
        3
102
RTVSPost2010PropOp43
 70
     1
102
RTVSPost2010Prop44ColorIndex
 90
        5
102
RTVSPost2010Prop44ColorRGB
 90
      255
102
RTVSPost2010PropOp44
 70
     1
102
RTVSPost2010Prop45
280
     0
102
RTVSPost2010PropOp45
 70
     1
102
RTVSPost2010Prop46
 90
       50
102
RTVSPost2010PropOp46
 70
     1
102
RTVSPost2010Prop47
 90
       50
102
RTVSPost2010PropOp47
 70
     1
102
RTVSPost2010Prop48
 90
       50
102
RTVSPost2010PropOp48
 70
     1
102
RTVSPost2010Prop49
280
     0
102
RTVSPost2010PropOp49
 70
     1
102
RTVSPost2010Prop50
 90
       50
102
RTVSPost2010PropOp50
 70
     1
102
RTVSPost2010Prop51ColorIndex
 90
      256
102
RTVSPost2010Prop51ColorRGB
 90
-16777216
102
RTVSPost2010PropOp51
 70
     0
102
RTVSPost2010Prop52
140
1.0
102
RTVSPost2010PropOp52
 70
     0
102
RTVSPost2010Prop53
 90
        2
102
RTVSPost2010PropOp53
 70
     1
102
RTVSPost2010Prop54
  1
strokes_ogs.tif
102
RTVSPost2010PropOp54
 70
     1
102
RTVSPost2010Prop55
280
     0
102
RTVSPost2010PropOp55
 70
     1
102
RTVSPost2010Prop56
140
1.0
102
RTVSPost2010PropOp56
 70
     1
102
RTVSPost2010Prop57
140
1.0
102
RTVSPost2010PropOp57
 70
     1
102
RTVSPropertyOp0
 70
     1
102
RTVSPropertyOp1
 70
     1
102
RTVSPropertyOp2
 70
     1
102
RTVSPropertyOp3
 70
     1
102
RTVSPropertyOp4
 70
     1
102
RTVSPropertyOp5
 70
     1
102
RTVSPropertyOp6
 70
     1
102
RTVSPropertyOp7
 70
     1
102
RTVSPropertyOp8
 70
     1
102
RTVSPropertyOp9
 70
     1
102
RTVSPropertyOp10
 70
     1
102
RTVSPropertyOp11
 70
     1
102
RTVSPropertyOp12
 70
     1
102
RTVSPropertyOp13
 70
     1
102
RTVSPropertyOp14
 70
     1
102
RTVSPropertyOp15
 70
     1
102
RTVSPropertyOp16
 70
     1
102
RTVSPropertyOp17
 70
     1
102
RTVSPropertyOp18
 70
     1
102
RTVSPropertyOp19
 70
     1
102
RTVSPropertyOp20
 70
     1
102
RTVSPropertyOp21
 70
     1
102
RTVSPropertyOp22
 70
     1
102
RTVSPropertyOp23
 70
     1
102
RTVSPropertyOp24
 70
     1
102
RTVSPropertyOp25
 70
     1
102
RTVSPropertyOp26
 70
     1
102
RTVSPropertyOp27
 70
     1
102
RTVSPropertyOp28
 70
     1
102
RTVSPropertyOp29
 70
     1
102
RTVSPropertyOp30
 70
     1
102
RTVSPropertyOp31
 70
     1
102
RTVSPropertyOp32
 70
     1
102
RTVSPropertyOp33
 70
     1
102
RTVSPropertyOp34
 70
     1
102
RTVSPropertyOp35
 70
     1
102
RTVSPropertyOp36
 70
     1
102
RTVSPropertyOp37
 70
     1
102
RTVSPropertyOp38
 70
     1
102
RTVSPropertyOp39
 70
     1
102
RTVSPropertyOp40
 70
     1
102
RTVSPropertyOp41
 70
     1
102
RTVSPropertyOp42
 70
     1
102
RTVSPropertyOp43
 70
     1
102
RTVSPropertyOp44
 70
     1
102
RTVSPropertyOp45
 70
     1
102
RTVSPropertyOp46
 70
     1
102
RTVSPropertyOp47
 70
     1
102
RTVSPropertyOp48
 70
     1
102
RTVSPropertyOp49
 70
     1
102
RTVSPropertyOp50
 70
     1
102
RTVSPropertyOp51
 70
     0
102
RTVSPropertyOp52
 70
     0
102
RTVSPropertyOp53
 70
     1
102
RTVSPropertyOp54
 70
     1
102
RTVSPropertyOp55
 70
     1
102
RTVSPropertyOp56
 70
     1
102
RTVSPropertyOp57
 70
     1
102
RTVSPropertyOp58
 70
     1
102
RTVSPropertyOp59
 70
     1
102
RTVSPropertyOp60
 70
     1
102
RTVSPropertyOp61
 70
     1
102
RTVSPropertyOp62
 70
     1
  0
XRECORD
  5
318
102
{ACAD_REACTORS
330
317
102
}
330
317
100
AcDbXrecord
280
     1
102
RTVSPost2010Prop28
280
     0
102
RTVSPost2010PropOp28
 70
     1
102
RTVSPost2010Prop29
280
     1
102
RTVSPost2010PropOp29
 70
     1
102
RTVSPost2010Prop30
280
     1
102
RTVSPost2010PropOp30
 70
     1
102
RTVSPost2010Prop31
280
     0
102
RTVSPost2010PropOp31
 70
     1
102
RTVSPost2010Prop32
280
     0
102
RTVSPost2010PropOp32
 70
     1
102
RTVSPost2010Prop33
280
     0
102
RTVSPost2010PropOp33
 70
     1
102
RTVSPost2010Prop34
280
     0
102
RTVSPost2010PropOp34
 70
     1
102
RTVSPost2010Prop35
280
     0
102
RTVSPost2010PropOp35
 70
     1
102
RTVSPost2010Prop36
280
     0
102
RTVSPost2010PropOp36
 70
     1
102
RTVSPost2010Prop37
 90
       50
102
RTVSPost2010PropOp37
 70
     0
102
RTVSPost2010Prop38
140
0.0
102
RTVSPost2010PropOp38
 70
     0
102
RTVSPost2010Prop39
140
1.0
102
RTVSPost2010PropOp39
 70
     0
102
RTVSPost2010Prop40
 90
        0
102
RTVSPost2010PropOp40
 70
     0
102
RTVSPost2010Prop41ColorIndex
 90
       18
102
RTVSPost2010Prop41ColorRGB
 90
        0
102
RTVSPost2010PropOp41
 70
     0
102
RTVSPost2010Prop42
 90
       50
102
RTVSPost2010PropOp42
 70
     0
102
RTVSPost2010Prop43
 90
        3
102
RTVSPost2010PropOp43
 70
     0
102
RTVSPost2010Prop44ColorIndex
 90
        5
102
RTVSPost2010Prop44ColorRGB
 90
      255
102
RTVSPost2010PropOp44
 70
     0
102
RTVSPost2010Prop45
280
     0
102
RTVSPost2010PropOp45
 70
     1
102
RTVSPost2010Prop46
 90
       50
102
RTVSPost2010PropOp46
 70
     0
102
RTVSPost2010Prop47
 90
       50
102
RTVSPost2010PropOp47
 70
     0
102
RTVSPost2010Prop48
 90
       50
102
RTVSPost2010PropOp48
 70
     0
102
RTVSPost2010Prop49
280
     0
102
RTVSPost2010PropOp49
 70
     1
102
RTVSPost2010Prop50
 90
       50
102
RTVSPost2010PropOp50
 70
     0
102
RTVSPost2010Prop51ColorIndex
 90
      256
102
RTVSPost2010Prop51ColorRGB
 90
-16777216
102
RTVSPost2010PropOp51
 70
     0
102
RTVSPost2010Prop52
140
1.0
102
RTVSPost2010PropOp52
 70
     0
102
RTVSPost2010Prop53
 90
        2
102
RTVSPost2010PropOp53
 70
     0
102
RTVSPost2010Prop54
  1
strokes_ogs.tif
102
RTVSPost2010PropOp54
 70
     0
102
RTVSPost2010Prop55
280
     0
102
RTVSPost2010PropOp55
 70
     1
102
RTVSPost2010Prop56
140
1.0
102
RTVSPost2010PropOp56
 70
     0
102
RTVSPost2010Prop57
140
1.0
102
RTVSPost2010PropOp57
 70
     0
102
RTVSPropertyOp0
 70
     0
102
RTVSPropertyOp1
 70
     0
102
RTVSPropertyOp2
 70
     0
102
RTVSPropertyOp3
 70
     0
102
RTVSPropertyOp4
 70
     0
102
RTVSPropertyOp5
 70
     0
102
RTVSPropertyOp6
 70
     0
102
RTVSPropertyOp7
 70
     0
102
RTVSPropertyOp8
 70
     0
102
RTVSPropertyOp9
 70
     0
102
RTVSPropertyOp10
 70
     0
102
RTVSPropertyOp11
 70
     0
102
RTVSPropertyOp12
 70
     0
102
RTVSPropertyOp13
 70
     0
102
RTVSPropertyOp14
 70
     2
102
RTVSPropertyOp15
 70
     0
102
RTVSPropertyOp16
 70
     0
102
RTVSPropertyOp17
 70
     0
102
RTVSPropertyOp18
 70
     0
102
RTVSPropertyOp19
 70
     0
102
RTVSPropertyOp20
 70
     0
102
RTVSPropertyOp21
 70
     0
102
RTVSPropertyOp22
 70
     0
102
RTVSPropertyOp23
 70
     0
102
RTVSPropertyOp24
 70
     0
102
RTVSPropertyOp25
 70
     0
102
RTVSPropertyOp26
 70
     0
102
RTVSPropertyOp27
 70
     0
102
RTVSPropertyOp28
 70
     1
102
RTVSPropertyOp29
 70
     1
102
RTVSPropertyOp30
 70
     1
102
RTVSPropertyOp31
 70
     1
102
RTVSPropertyOp32
 70
     1
102
RTVSPropertyOp33
 70
     1
102
RTVSPropertyOp34
 70
     1
102
RTVSPropertyOp35
 70
     1
102
RTVSPropertyOp36
 70
     1
102
RTVSPropertyOp37
 70
     0
102
RTVSPropertyOp38
 70
     0
102
RTVSPropertyOp39
 70
     0
102
RTVSPropertyOp40
 70
     0
102
RTVSPropertyOp41
 70
     0
102
RTVSPropertyOp42
 70
     0
102
RTVSPropertyOp43
 70
     0
102
RTVSPropertyOp44
 70
     0
102
RTVSPropertyOp45
 70
     1
102
RTVSPropertyOp46
 70
     0
102
RTVSPropertyOp47
 70
     0
102
RTVSPropertyOp48
 70
     0
102
RTVSPropertyOp49
 70
     1
102
RTVSPropertyOp50
 70
     0
102
RTVSPropertyOp51
 70
     0
102
RTVSPropertyOp52
 70
     0
102
RTVSPropertyOp53
 70
     0
102
RTVSPropertyOp54
 70
     0
102
RTVSPropertyOp55
 70
     1
102
RTVSPropertyOp56
 70
     0
102
RTVSPropertyOp57
 70
     0
102
RTVSPropertyOp58
 70
     0
102
RTVSPropertyOp59
 70
     0
102
RTVSPropertyOp60
 70
     0
102
RTVSPropertyOp61
 70
     0
102
RTVSPropertyOp62
 70
     0
  0
XRECORD
  5
308
102
{ACAD_REACTORS
330
307
102
}
330
307
100
AcDbXrecord
280
     1
102
RTVSPost2010Prop28
280
     0
102
RTVSPost2010PropOp28
 70
     1
102
RTVSPost2010Prop29
280
     1
102
RTVSPost2010PropOp29
 70
     1
102
RTVSPost2010Prop30
280
     1
102
RTVSPost2010PropOp30
 70
     1
102
RTVSPost2010Prop31
280
     0
102
RTVSPost2010PropOp31
 70
     1
102
RTVSPost2010Prop32
280
     0
102
RTVSPost2010PropOp32
 70
     1
102
RTVSPost2010Prop33
280
     0
102
RTVSPost2010PropOp33
 70
     1
102
RTVSPost2010Prop34
280
     0
102
RTVSPost2010PropOp34
 70
     1
102
RTVSPost2010Prop35
280
     0
102
RTVSPost2010PropOp35
 70
     1
102
RTVSPost2010Prop36
280
     0
102
RTVSPost2010PropOp36
 70
     1
102
RTVSPost2010Prop37
 90
       50
102
RTVSPost2010PropOp37
 70
     1
102
RTVSPost2010Prop38
140
0.0
102
RTVSPost2010PropOp38
 70
     1
102
RTVSPost2010Prop39
140
1.0
102
RTVSPost2010PropOp39
 70
     1
102
RTVSPost2010Prop40
 90
        0
102
RTVSPost2010PropOp40
 70
     1
102
RTVSPost2010Prop41ColorIndex
 90
       18
102
RTVSPost2010Prop41ColorRGB
 90
        0
102
RTVSPost2010PropOp41
 70
     1
102
RTVSPost2010Prop42
 90
       50
102
RTVSPost2010PropOp42
 70
     1
102
RTVSPost2010Prop43
 90
        3
102
RTVSPost2010PropOp43
 70
     1
102
RTVSPost2010Prop44ColorIndex
 90
        5
102
RTVSPost2010Prop44ColorRGB
 90
      255
102
RTVSPost2010PropOp44
 70
     1
102
RTVSPost2010Prop45
280
     0
102
RTVSPost2010PropOp45
 70
     1
102
RTVSPost2010Prop46
 90
       50
102
RTVSPost2010PropOp46
 70
     1
102
RTVSPost2010Prop47
 90
       50
102
RTVSPost2010PropOp47
 70
     1
102
RTVSPost2010Prop48
 90
       50
102
RTVSPost2010PropOp48
 70
     1
102
RTVSPost2010Prop49
280
     0
102
RTVSPost2010PropOp49
 70
     1
102
RTVSPost2010Prop50
 90
       50
102
RTVSPost2010PropOp50
 70
     1
102
RTVSPost2010Prop51ColorIndex
 90
      256
102
RTVSPost2010Prop51ColorRGB
 90
-16777216
102
RTVSPost2010PropOp51
 70
     0
102
RTVSPost2010Prop52
140
1.0
102
RTVSPost2010PropOp52
 70
     0
102
RTVSPost2010Prop53
 90
        2
102
RTVSPost2010PropOp53
 70
     1
102
RTVSPost2010Prop54
  1
strokes_ogs.tif
102
RTVSPost2010PropOp54
 70
     1
102
RTVSPost2010Prop55
280
     0
102
RTVSPost2010PropOp55
 70
     1
102
RTVSPost2010Prop56
140
1.0
102
RTVSPost2010PropOp56
 70
     1
102
RTVSPost2010Prop57
140
1.0
102
RTVSPost2010PropOp57
 70
     1
102
RTVSPropertyOp0
 70
     1
102
RTVSPropertyOp1
 70
     1
102
RTVSPropertyOp2
 70
     1
102
RTVSPropertyOp3
 70
     1
102
RTVSPropertyOp4
 70
     1
102
RTVSPropertyOp5
 70
     1
102
RTVSPropertyOp6
 70
     1
102
RTVSPropertyOp7
 70
     1
102
RTVSPropertyOp8
 70
     1
102
RTVSPropertyOp9
 70
     1
102
RTVSPropertyOp10
 70
     1
102
RTVSPropertyOp11
 70
     1
102
RTVSPropertyOp12
 70
     1
102
RTVSPropertyOp13
 70
     1
102
RTVSPropertyOp14
 70
     1
102
RTVSPropertyOp15
 70
     1
102
RTVSPropertyOp16
 70
     1
102
RTVSPropertyOp17
 70
     1
102
RTVSPropertyOp18
 70
     1
102
RTVSPropertyOp19
 70
     1
102
RTVSPropertyOp20
 70
     1
102
RTVSPropertyOp21
 70
     1
102
RTVSPropertyOp22
 70
     1
102
RTVSPropertyOp23
 70
     1
102
RTVSPropertyOp24
 70
     1
102
RTVSPropertyOp25
 70
     1
102
RTVSPropertyOp26
 70
     1
102
RTVSPropertyOp27
 70
     1
102
RTVSPropertyOp28
 70
     1
102
RTVSPropertyOp29
 70
     1
102
RTVSPropertyOp30
 70
     1
102
RTVSPropertyOp31
 70
     1
102
RTVSPropertyOp32
 70
     1
102
RTVSPropertyOp33
 70
     1
102
RTVSPropertyOp34
 70
     1
102
RTVSPropertyOp35
 70
     1
102
RTVSPropertyOp36
 70
     1
102
RTVSPropertyOp37
 70
     1
102
RTVSPropertyOp38
 70
     1
102
RTVSPropertyOp39
 70
     1
102
RTVSPropertyOp40
 70
     1
102
RTVSPropertyOp41
 70
     1
102
RTVSPropertyOp42
 70
     1
102
RTVSPropertyOp43
 70
     1
102
RTVSPropertyOp44
 70
     1
102
RTVSPropertyOp45
 70
     1
102
RTVSPropertyOp46
 70
     1
102
RTVSPropertyOp47
 70
     1
102
RTVSPropertyOp48
 70
     1
102
RTVSPropertyOp49
 70
     1
102
RTVSPropertyOp50
 70
     1
102
RTVSPropertyOp51
 70
     0
102
RTVSPropertyOp52
 70
     0
102
RTVSPropertyOp53
 70
     1
102
RTVSPropertyOp54
 70
     1
102
RTVSPropertyOp55
 70
     1
102
RTVSPropertyOp56
 70
     1
102
RTVSPropertyOp57
 70
     1
102
RTVSPropertyOp58
 70
     1
102
RTVSPropertyOp59
 70
     1
102
RTVSPropertyOp60
 70
     1
102
RTVSPropertyOp61
 70
     1
102
RTVSPropertyOp62
 70
     1
  0
XRECORD
  5
31A
102
{ACAD_REACTORS
330
319
102
}
330
319
100
AcDbXrecord
280
     1
102
RTVSPost2010Prop28
280
     0
102
RTVSPost2010PropOp28
 70
     1
102
RTVSPost2010Prop29
280
     1
102
RTVSPost2010PropOp29
 70
     1
102
RTVSPost2010Prop30
280
     1
102
RTVSPost2010PropOp30
 70
     1
102
RTVSPost2010Prop31
280
     0
102
RTVSPost2010PropOp31
 70
     1
102
RTVSPost2010Prop32
280
     0
102
RTVSPost2010PropOp32
 70
     1
102
RTVSPost2010Prop33
280
     0
102
RTVSPost2010PropOp33
 70
     1
102
RTVSPost2010Prop34
280
     0
102
RTVSPost2010PropOp34
 70
     1
102
RTVSPost2010Prop35
280
     0
102
RTVSPost2010PropOp35
 70
     1
102
RTVSPost2010Prop36
280
     0
102
RTVSPost2010PropOp36
 70
     1
102
RTVSPost2010Prop37
 90
       50
102
RTVSPost2010PropOp37
 70
     0
102
RTVSPost2010Prop38
140
0.0
102
RTVSPost2010PropOp38
 70
     0
102
RTVSPost2010Prop39
140
1.0
102
RTVSPost2010PropOp39
 70
     0
102
RTVSPost2010Prop40
 90
        0
102
RTVSPost2010PropOp40
 70
     0
102
RTVSPost2010Prop41ColorIndex
 90
       18
102
RTVSPost2010Prop41ColorRGB
 90
        0
102
RTVSPost2010PropOp41
 70
     0
102
RTVSPost2010Prop42
 90
       50
102
RTVSPost2010PropOp42
 70
     0
102
RTVSPost2010Prop43
 90
        3
102
RTVSPost2010PropOp43
 70
     0
102
RTVSPost2010Prop44ColorIndex
 90
        5
102
RTVSPost2010Prop44ColorRGB
 90
      255
102
RTVSPost2010PropOp44
 70
     0
102
RTVSPost2010Prop45
280
     0
102
RTVSPost2010PropOp45
 70
     1
102
RTVSPost2010Prop46
 90
       50
102
RTVSPost2010PropOp46
 70
     0
102
RTVSPost2010Prop47
 90
       50
102
RTVSPost2010PropOp47
 70
     0
102
RTVSPost2010Prop48
 90
       50
102
RTVSPost2010PropOp48
 70
     0
102
RTVSPost2010Prop49
280
     0
102
RTVSPost2010PropOp49
 70
     1
102
RTVSPost2010Prop50
 90
       50
102
RTVSPost2010PropOp50
 70
     0
102
RTVSPost2010Prop51ColorIndex
 90
      256
102
RTVSPost2010Prop51ColorRGB
 90
-16777216
102
RTVSPost2010PropOp51
 70
     0
102
RTVSPost2010Prop52
140
1.0
102
RTVSPost2010PropOp52
 70
     0
102
RTVSPost2010Prop53
 90
        2
102
RTVSPost2010PropOp53
 70
     0
102
RTVSPost2010Prop54
  1
strokes_ogs.tif
102
RTVSPost2010PropOp54
 70
     0
102
RTVSPost2010Prop55
280
     0
102
RTVSPost2010PropOp55
 70
     1
102
RTVSPost2010Prop56
140
1.0
102
RTVSPost2010PropOp56
 70
     0
102
RTVSPost2010Prop57
140
1.0
102
RTVSPost2010PropOp57
 70
     0
102
RTVSPropertyOp0
 70
     0
102
RTVSPropertyOp1
 70
     0
102
RTVSPropertyOp2
 70
     0
102
RTVSPropertyOp3
 70
     0
102
RTVSPropertyOp4
 70
     0
102
RTVSPropertyOp5
 70
     0
102
RTVSPropertyOp6
 70
     0
102
RTVSPropertyOp7
 70
     0
102
RTVSPropertyOp8
 70
     0
102
RTVSPropertyOp9
 70
     0
102
RTVSPropertyOp10
 70
     0
102
RTVSPropertyOp11
 70
     0
102
RTVSPropertyOp12
 70
     0
102
RTVSPropertyOp13
 70
     0
102
RTVSPropertyOp14
 70
     2
102
RTVSPropertyOp15
 70
     0
102
RTVSPropertyOp16
 70
     0
102
RTVSPropertyOp17
 70
     0
102
RTVSPropertyOp18
 70
     0
102
RTVSPropertyOp19
 70
     0
102
RTVSPropertyOp20
 70
     0
102
RTVSPropertyOp21
 70
     0
102
RTVSPropertyOp22
 70
     0
102
RTVSPropertyOp23
 70
     0
102
RTVSPropertyOp24
 70
     0
102
RTVSPropertyOp25
 70
     0
102
RTVSPropertyOp26
 70
     0
102
RTVSPropertyOp27
 70
     0
102
RTVSPropertyOp28
 70
     1
102
RTVSPropertyOp29
 70
     1
102
RTVSPropertyOp30
 70
     1
102
RTVSPropertyOp31
 70
     1
102
RTVSPropertyOp32
 70
     1
102
RTVSPropertyOp33
 70
     1
102
RTVSPropertyOp34
 70
     1
102
RTVSPropertyOp35
 70
     1
102
RTVSPropertyOp36
 70
     1
102
RTVSPropertyOp37
 70
     0
102
RTVSPropertyOp38
 70
     0
102
RTVSPropertyOp39
 70
     0
102
RTVSPropertyOp40
 70
     0
102
RTVSPropertyOp41
 70
     0
102
RTVSPropertyOp42
 70
     0
102
RTVSPropertyOp43
 70
     0
102
RTVSPropertyOp44
 70
     0
102
RTVSPropertyOp45
 70
     1
102
RTVSPropertyOp46
 70
     0
102
RTVSPropertyOp47
 70
     0
102
RTVSPropertyOp48
 70
     0
102
RTVSPropertyOp49
 70
     1
102
RTVSPropertyOp50
 70
     0
102
RTVSPropertyOp51
 70
     0
102
RTVSPropertyOp52
 70
     0
102
RTVSPropertyOp53
 70
     0
102
RTVSPropertyOp54
 70
     0
102
RTVSPropertyOp55
 70
     1
102
RTVSPropertyOp56
 70
     0
102
RTVSPropertyOp57
 70
     0
102
RTVSPropertyOp58
 70
     0
102
RTVSPropertyOp59
 70
     0
102
RTVSPropertyOp60
 70
     0
102
RTVSPropertyOp61
 70
     0
102
RTVSPropertyOp62
 70
     0
  0
XRECORD
  5
300
102
{ACAD_REACTORS
330
2FF
102
}
330
2FF
100
AcDbXrecord
280
     1
102
RTVSPost2010Prop28
280
     0
102
RTVSPost2010PropOp28
 70
     1
102
RTVSPost2010Prop29
280
     1
102
RTVSPost2010PropOp29
 70
     1
102
RTVSPost2010Prop30
280
     1
102
RTVSPost2010PropOp30
 70
     1
102
RTVSPost2010Prop31
280
     0
102
RTVSPost2010PropOp31
 70
     1
102
RTVSPost2010Prop32
280
     0
102
RTVSPost2010PropOp32
 70
     1
102
RTVSPost2010Prop33
280
     0
102
RTVSPost2010PropOp33
 70
     1
102
RTVSPost2010Prop34
280
     0
102
RTVSPost2010PropOp34
 70
     1
102
RTVSPost2010Prop35
280
     0
102
RTVSPost2010PropOp35
 70
     1
102
RTVSPost2010Prop36
280
     0
102
RTVSPost2010PropOp36
 70
     1
102
RTVSPost2010Prop37
 90
       50
102
RTVSPost2010PropOp37
 70
     1
102
RTVSPost2010Prop38
140
0.0
102
RTVSPost2010PropOp38
 70
     1
102
RTVSPost2010Prop39
140
1.0
102
RTVSPost2010PropOp39
 70
     1
102
RTVSPost2010Prop40
 90
        0
102
RTVSPost2010PropOp40
 70
     1
102
RTVSPost2010Prop41ColorIndex
 90
       18
102
RTVSPost2010Prop41ColorRGB
 90
        0
102
RTVSPost2010PropOp41
 70
     1
102
RTVSPost2010Prop42
 90
       50
102
RTVSPost2010PropOp42
 70
     1
102
RTVSPost2010Prop43
 90
        3
102
RTVSPost2010PropOp43
 70
     1
102
RTVSPost2010Prop44ColorIndex
 90
        5
102
RTVSPost2010Prop44ColorRGB
 90
      255
102
RTVSPost2010PropOp44
 70
     1
102
RTVSPost2010Prop45
280
     0
102
RTVSPost2010PropOp45
 70
     1
102
RTVSPost2010Prop46
 90
       50
102
RTVSPost2010PropOp46
 70
     1
102
RTVSPost2010Prop47
 90
       50
102
RTVSPost2010PropOp47
 70
     1
102
RTVSPost2010Prop48
 90
       50
102
RTVSPost2010PropOp48
 70
     1
102
RTVSPost2010Prop49
280
     0
102
RTVSPost2010PropOp49
 70
     1
102
RTVSPost2010Prop50
 90
       50
102
RTVSPost2010PropOp50
 70
     1
102
RTVSPost2010Prop51ColorIndex
 90
      256
102
RTVSPost2010Prop51ColorRGB
 90
-16777216
102
RTVSPost2010PropOp51
 70
     0
102
RTVSPost2010Prop52
140
1.0
102
RTVSPost2010PropOp52
 70
     0
102
RTVSPost2010Prop53
 90
        2
102
RTVSPost2010PropOp53
 70
     1
102
RTVSPost2010Prop54
  1
strokes_ogs.tif
102
RTVSPost2010PropOp54
 70
     1
102
RTVSPost2010Prop55
280
     0
102
RTVSPost2010PropOp55
 70
     1
102
RTVSPost2010Prop56
140
1.0
102
RTVSPost2010PropOp56
 70
     1
102
RTVSPost2010Prop57
140
1.0
102
RTVSPost2010PropOp57
 70
     1
102
RTVSPropertyOp0
 70
     1
102
RTVSPropertyOp1
 70
     1
102
RTVSPropertyOp2
 70
     1
102
RTVSPropertyOp3
 70
     1
102
RTVSPropertyOp4
 70
     1
102
RTVSPropertyOp5
 70
     1
102
RTVSPropertyOp6
 70
     1
102
RTVSPropertyOp7
 70
     1
102
RTVSPropertyOp8
 70
     1
102
RTVSPropertyOp9
 70
     1
102
RTVSPropertyOp10
 70
     1
102
RTVSPropertyOp11
 70
     1
102
RTVSPropertyOp12
 70
     1
102
RTVSPropertyOp13
 70
     1
102
RTVSPropertyOp14
 70
     1
102
RTVSPropertyOp15
 70
     1
102
RTVSPropertyOp16
 70
     1
102
RTVSPropertyOp17
 70
     1
102
RTVSPropertyOp18
 70
     1
102
RTVSPropertyOp19
 70
     1
102
RTVSPropertyOp20
 70
     1
102
RTVSPropertyOp21
 70
     1
102
RTVSPropertyOp22
 70
     1
102
RTVSPropertyOp23
 70
     1
102
RTVSPropertyOp24
 70
     1
102
RTVSPropertyOp25
 70
     1
102
RTVSPropertyOp26
 70
     1
102
RTVSPropertyOp27
 70
     1
102
RTVSPropertyOp28
 70
     1
102
RTVSPropertyOp29
 70
     1
102
RTVSPropertyOp30
 70
     1
102
RTVSPropertyOp31
 70
     1
102
RTVSPropertyOp32
 70
     1
102
RTVSPropertyOp33
 70
     1
102
RTVSPropertyOp34
 70
     1
102
RTVSPropertyOp35
 70
     1
102
RTVSPropertyOp36
 70
     1
102
RTVSPropertyOp37
 70
     1
102
RTVSPropertyOp38
 70
     1
102
RTVSPropertyOp39
 70
     1
102
RTVSPropertyOp40
 70
     1
102
RTVSPropertyOp41
 70
     1
102
RTVSPropertyOp42
 70
     1
102
RTVSPropertyOp43
 70
     1
102
RTVSPropertyOp44
 70
     1
102
RTVSPropertyOp45
 70
     1
102
RTVSPropertyOp46
 70
     1
102
RTVSPropertyOp47
 70
     1
102
RTVSPropertyOp48
 70
     1
102
RTVSPropertyOp49
 70
     1
102
RTVSPropertyOp50
 70
     1
102
RTVSPropertyOp51
 70
     0
102
RTVSPropertyOp52
 70
     0
102
RTVSPropertyOp53
 70
     1
102
RTVSPropertyOp54
 70
     1
102
RTVSPropertyOp55
 70
     1
102
RTVSPropertyOp56
 70
     1
102
RTVSPropertyOp57
 70
     1
102
RTVSPropertyOp58
 70
     1
102
RTVSPropertyOp59
 70
     1
102
RTVSPropertyOp60
 70
     1
102
RTVSPropertyOp61
 70
     1
102
RTVSPropertyOp62
 70
     1
  0
XRECORD
  5
316
102
{ACAD_REACTORS
330
315
102
}
330
315
100
AcDbXrecord
280
     1
102
RTVSPost2010Prop28
280
     0
102
RTVSPost2010PropOp28
 70
     1
102
RTVSPost2010Prop29
280
     1
102
RTVSPost2010PropOp29
 70
     1
102
RTVSPost2010Prop30
280
     1
102
RTVSPost2010PropOp30
 70
     1
102
RTVSPost2010Prop31
280
     0
102
RTVSPost2010PropOp31
 70
     1
102
RTVSPost2010Prop32
280
     0
102
RTVSPost2010PropOp32
 70
     1
102
RTVSPost2010Prop33
280
     0
102
RTVSPost2010PropOp33
 70
     1
102
RTVSPost2010Prop34
280
     0
102
RTVSPost2010PropOp34
 70
     1
102
RTVSPost2010Prop35
280
     0
102
RTVSPost2010PropOp35
 70
     1
102
RTVSPost2010Prop36
280
     0
102
RTVSPost2010PropOp36
 70
     1
102
RTVSPost2010Prop37
 90
       50
102
RTVSPost2010PropOp37
 70
     1
102
RTVSPost2010Prop38
140
0.0
102
RTVSPost2010PropOp38
 70
     1
102
RTVSPost2010Prop39
140
1.0
102
RTVSPost2010PropOp39
 70
     1
102
RTVSPost2010Prop40
 90
        0
102
RTVSPost2010PropOp40
 70
     1
102
RTVSPost2010Prop41ColorIndex
 90
       18
102
RTVSPost2010Prop41ColorRGB
 90
        0
102
RTVSPost2010PropOp41
 70
     1
102
RTVSPost2010Prop42
 90
       50
102
RTVSPost2010PropOp42
 70
     1
102
RTVSPost2010Prop43
 90
        3
102
RTVSPost2010PropOp43
 70
     1
102
RTVSPost2010Prop44ColorIndex
 90
        5
102
RTVSPost2010Prop44ColorRGB
 90
      255
102
RTVSPost2010PropOp44
 70
     1
102
RTVSPost2010Prop45
280
     0
102
RTVSPost2010PropOp45
 70
     1
102
RTVSPost2010Prop46
 90
       50
102
RTVSPost2010PropOp46
 70
     1
102
RTVSPost2010Prop47
 90
       50
102
RTVSPost2010PropOp47
 70
     1
102
RTVSPost2010Prop48
 90
       50
102
RTVSPost2010PropOp48
 70
     1
102
RTVSPost2010Prop49
280
     0
102
RTVSPost2010PropOp49
 70
     1
102
RTVSPost2010Prop50
 90
       50
102
RTVSPost2010PropOp50
 70
     1
102
RTVSPost2010Prop51ColorIndex
 90
      256
102
RTVSPost2010Prop51ColorRGB
 90
-16777216
102
RTVSPost2010PropOp51
 70
     0
102
RTVSPost2010Prop52
140
1.0
102
RTVSPost2010PropOp52
 70
     0
102
RTVSPost2010Prop53
 90
        2
102
RTVSPost2010PropOp53
 70
     1
102
RTVSPost2010Prop54
  1
strokes_ogs.tif
102
RTVSPost2010PropOp54
 70
     1
102
RTVSPost2010Prop55
280
     0
102
RTVSPost2010PropOp55
 70
     1
102
RTVSPost2010Prop56
140
1.0
102
RTVSPost2010PropOp56
 70
     1
102
RTVSPost2010Prop57
140
1.0
102
RTVSPost2010PropOp57
 70
     1
102
RTVSPropertyOp0
 70
     1
102
RTVSPropertyOp1
 70
     1
102
RTVSPropertyOp2
 70
     1
102
RTVSPropertyOp3
 70
     1
102
RTVSPropertyOp4
 70
     1
102
RTVSPropertyOp5
 70
     1
102
RTVSPropertyOp6
 70
     1
102
RTVSPropertyOp7
 70
     1
102
RTVSPropertyOp8
 70
     1
102
RTVSPropertyOp9
 70
     1
102
RTVSPropertyOp10
 70
     1
102
RTVSPropertyOp11
 70
     1
102
RTVSPropertyOp12
 70
     1
102
RTVSPropertyOp13
 70
     1
102
RTVSPropertyOp14
 70
     1
102
RTVSPropertyOp15
 70
     1
102
RTVSPropertyOp16
 70
     1
102
RTVSPropertyOp17
 70
     1
102
RTVSPropertyOp18
 70
     1
102
RTVSPropertyOp19
 70
     1
102
RTVSPropertyOp20
 70
     1
102
RTVSPropertyOp21
 70
     1
102
RTVSPropertyOp22
 70
     1
102
RTVSPropertyOp23
 70
     1
102
RTVSPropertyOp24
 70
     1
102
RTVSPropertyOp25
 70
     1
102
RTVSPropertyOp26
 70
     1
102
RTVSPropertyOp27
 70
     1
102
RTVSPropertyOp28
 70
     1
102
RTVSPropertyOp29
 70
     1
102
RTVSPropertyOp30
 70
     1
102
RTVSPropertyOp31
 70
     1
102
RTVSPropertyOp32
 70
     1
102
RTVSPropertyOp33
 70
     1
102
RTVSPropertyOp34
 70
     1
102
RTVSPropertyOp35
 70
     1
102
RTVSPropertyOp36
 70
     1
102
RTVSPropertyOp37
 70
     1
102
RTVSPropertyOp38
 70
     1
102
RTVSPropertyOp39
 70
     1
102
RTVSPropertyOp40
 70
     1
102
RTVSPropertyOp41
 70
     1
102
RTVSPropertyOp42
 70
     1
102
RTVSPropertyOp43
 70
     1
102
RTVSPropertyOp44
 70
     1
102
RTVSPropertyOp45
 70
     1
102
RTVSPropertyOp46
 70
     1
102
RTVSPropertyOp47
 70
     1
102
RTVSPropertyOp48
 70
     1
102
RTVSPropertyOp49
 70
     1
102
RTVSPropertyOp50
 70
     1
102
RTVSPropertyOp51
 70
     0
102
RTVSPropertyOp52
 70
     0
102
RTVSPropertyOp53
 70
     1
102
RTVSPropertyOp54
 70
     1
102
RTVSPropertyOp55
 70
     1
102
RTVSPropertyOp56
 70
     1
102
RTVSPropertyOp57
 70
     1
102
RTVSPropertyOp58
 70
     1
102
RTVSPropertyOp59
 70
     1
102
RTVSPropertyOp60
 70
     1
102
RTVSPropertyOp61
 70
     1
102
RTVSPropertyOp62
 70
     1
  0
XRECORD
  5
314
102
{ACAD_REACTORS
330
313
102
}
330
313
100
AcDbXrecord
280
     1
102
RTVSPost2010Prop28
280
     0
102
RTVSPost2010PropOp28
 70
     1
102
RTVSPost2010Prop29
280
     1
102
RTVSPost2010PropOp29
 70
     1
102
RTVSPost2010Prop30
280
     1
102
RTVSPost2010PropOp30
 70
     1
102
RTVSPost2010Prop31
280
     0
102
RTVSPost2010PropOp31
 70
     1
102
RTVSPost2010Prop32
280
     0
102
RTVSPost2010PropOp32
 70
     1
102
RTVSPost2010Prop33
280
     0
102
RTVSPost2010PropOp33
 70
     1
102
RTVSPost2010Prop34
280
     0
102
RTVSPost2010PropOp34
 70
     1
102
RTVSPost2010Prop35
280
     0
102
RTVSPost2010PropOp35
 70
     1
102
RTVSPost2010Prop36
280
     0
102
RTVSPost2010PropOp36
 70
     1
102
RTVSPost2010Prop37
 90
       50
102
RTVSPost2010PropOp37
 70
     1
102
RTVSPost2010Prop38
140
0.0
102
RTVSPost2010PropOp38
 70
     1
102
RTVSPost2010Prop39
140
1.0
102
RTVSPost2010PropOp39
 70
     1
102
RTVSPost2010Prop40
 90
        0
102
RTVSPost2010PropOp40
 70
     1
102
RTVSPost2010Prop41ColorIndex
 90
       18
102
RTVSPost2010Prop41ColorRGB
 90
        0
102
RTVSPost2010PropOp41
 70
     1
102
RTVSPost2010Prop42
 90
       50
102
RTVSPost2010PropOp42
 70
     1
102
RTVSPost2010Prop43
 90
        3
102
RTVSPost2010PropOp43
 70
     1
102
RTVSPost2010Prop44ColorIndex
 90
        5
102
RTVSPost2010Prop44ColorRGB
 90
      255
102
RTVSPost2010PropOp44
 70
     1
102
RTVSPost2010Prop45
280
     0
102
RTVSPost2010PropOp45
 70
     1
102
RTVSPost2010Prop46
 90
       50
102
RTVSPost2010PropOp46
 70
     1
102
RTVSPost2010Prop47
 90
       50
102
RTVSPost2010PropOp47
 70
     1
102
RTVSPost2010Prop48
 90
       50
102
RTVSPost2010PropOp48
 70
     1
102
RTVSPost2010Prop49
280
     0
102
RTVSPost2010PropOp49
 70
     1
102
RTVSPost2010Prop50
 90
       50
102
RTVSPost2010PropOp50
 70
     1
102
RTVSPost2010Prop51ColorIndex
 90
      256
102
RTVSPost2010Prop51ColorRGB
 90
-16777216
102
RTVSPost2010PropOp51
 70
     0
102
RTVSPost2010Prop52
140
1.0
102
RTVSPost2010PropOp52
 70
     0
102
RTVSPost2010Prop53
 90
        2
102
RTVSPost2010PropOp53
 70
     1
102
RTVSPost2010Prop54
  1
strokes_ogs.tif
102
RTVSPost2010PropOp54
 70
     1
102
RTVSPost2010Prop55
280
     0
102
RTVSPost2010PropOp55
 70
     1
102
RTVSPost2010Prop56
140
1.0
102
RTVSPost2010PropOp56
 70
     1
102
RTVSPost2010Prop57
140
1.0
102
RTVSPost2010PropOp57
 70
     1
102
RTVSPropertyOp0
 70
     1
102
RTVSPropertyOp1
 70
     1
102
RTVSPropertyOp2
 70
     1
102
RTVSPropertyOp3
 70
     1
102
RTVSPropertyOp4
 70
     1
102
RTVSPropertyOp5
 70
     1
102
RTVSPropertyOp6
 70
     1
102
RTVSPropertyOp7
 70
     1
102
RTVSPropertyOp8
 70
     1
102
RTVSPropertyOp9
 70
     1
102
RTVSPropertyOp10
 70
     1
102
RTVSPropertyOp11
 70
     1
102
RTVSPropertyOp12
 70
     1
102
RTVSPropertyOp13
 70
     1
102
RTVSPropertyOp14
 70
     1
102
RTVSPropertyOp15
 70
     1
102
RTVSPropertyOp16
 70
     1
102
RTVSPropertyOp17
 70
     1
102
RTVSPropertyOp18
 70
     1
102
RTVSPropertyOp19
 70
     1
102
RTVSPropertyOp20
 70
     1
102
RTVSPropertyOp21
 70
     1
102
RTVSPropertyOp22
 70
     1
102
RTVSPropertyOp23
 70
     1
102
RTVSPropertyOp24
 70
     1
102
RTVSPropertyOp25
 70
     1
102
RTVSPropertyOp26
 70
     1
102
RTVSPropertyOp27
 70
     1
102
RTVSPropertyOp28
 70
     1
102
RTVSPropertyOp29
 70
     1
102
RTVSPropertyOp30
 70
     1
102
RTVSPropertyOp31
 70
     1
102
RTVSPropertyOp32
 70
     1
102
RTVSPropertyOp33
 70
     1
102
RTVSPropertyOp34
 70
     1
102
RTVSPropertyOp35
 70
     1
102
RTVSPropertyOp36
 70
     1
102
RTVSPropertyOp37
 70
     1
102
RTVSPropertyOp38
 70
     1
102
RTVSPropertyOp39
 70
     1
102
RTVSPropertyOp40
 70
     1
102
RTVSPropertyOp41
 70
     1
102
RTVSPropertyOp42
 70
     1
102
RTVSPropertyOp43
 70
     1
102
RTVSPropertyOp44
 70
     1
102
RTVSPropertyOp45
 70
     1
102
RTVSPropertyOp46
 70
     1
102
RTVSPropertyOp47
 70
     1
102
RTVSPropertyOp48
 70
     1
102
RTVSPropertyOp49
 70
     1
102
RTVSPropertyOp50
 70
     1
102
RTVSPropertyOp51
 70
     0
102
RTVSPropertyOp52
 70
     0
102
RTVSPropertyOp53
 70
     1
102
RTVSPropertyOp54
 70
     1
102
RTVSPropertyOp55
 70
     1
102
RTVSPropertyOp56
 70
     1
102
RTVSPropertyOp57
 70
     1
102
RTVSPropertyOp58
 70
     1
102
RTVSPropertyOp59
 70
     1
102
RTVSPropertyOp60
 70
     1
102
RTVSPropertyOp61
 70
     1
102
RTVSPropertyOp62
 70
     1
  0
XRECORD
  5
30E
102
{ACAD_REACTORS
330
30D
102
}
330
30D
100
AcDbXrecord
280
     1
102
RTVSPost2010Prop28
280
     0
102
RTVSPost2010PropOp28
 70
     1
102
RTVSPost2010Prop29
280
     1
102
RTVSPost2010PropOp29
 70
     1
102
RTVSPost2010Prop30
280
     1
102
RTVSPost2010PropOp30
 70
     1
102
RTVSPost2010Prop31
280
     0
102
RTVSPost2010PropOp31
 70
     1
102
RTVSPost2010Prop32
280
     0
102
RTVSPost2010PropOp32
 70
     1
102
RTVSPost2010Prop33
280
     0
102
RTVSPost2010PropOp33
 70
     1
102
RTVSPost2010Prop34
280
     0
102
RTVSPost2010PropOp34
 70
     1
102
RTVSPost2010Prop35
280
     0
102
RTVSPost2010PropOp35
 70
     1
102
RTVSPost2010Prop36
280
     0
102
RTVSPost2010PropOp36
 70
     1
102
RTVSPost2010Prop37
 90
       50
102
RTVSPost2010PropOp37
 70
     1
102
RTVSPost2010Prop38
140
0.0
102
RTVSPost2010PropOp38
 70
     1
102
RTVSPost2010Prop39
140
1.0
102
RTVSPost2010PropOp39
 70
     1
102
RTVSPost2010Prop40
 90
        0
102
RTVSPost2010PropOp40
 70
     1
102
RTVSPost2010Prop41ColorIndex
 90
       18
102
RTVSPost2010Prop41ColorRGB
 90
        0
102
RTVSPost2010PropOp41
 70
     1
102
RTVSPost2010Prop42
 90
       50
102
RTVSPost2010PropOp42
 70
     1
102
RTVSPost2010Prop43
 90
        3
102
RTVSPost2010PropOp43
 70
     1
102
RTVSPost2010Prop44ColorIndex
 90
        5
102
RTVSPost2010Prop44ColorRGB
 90
      255
102
RTVSPost2010PropOp44
 70
     1
102
RTVSPost2010Prop45
280
     0
102
RTVSPost2010PropOp45
 70
     1
102
RTVSPost2010Prop46
 90
       50
102
RTVSPost2010PropOp46
 70
     1
102
RTVSPost2010Prop47
 90
       50
102
RTVSPost2010PropOp47
 70
     1
102
RTVSPost2010Prop48
 90
       50
102
RTVSPost2010PropOp48
 70
     1
102
RTVSPost2010Prop49
280
     0
102
RTVSPost2010PropOp49
 70
     1
102
RTVSPost2010Prop50
 90
       50
102
RTVSPost2010PropOp50
 70
     1
102
RTVSPost2010Prop51ColorIndex
 90
      256
102
RTVSPost2010Prop51ColorRGB
 90
-16777216
102
RTVSPost2010PropOp51
 70
     0
102
RTVSPost2010Prop52
140
1.0
102
RTVSPost2010PropOp52
 70
     0
102
RTVSPost2010Prop53
 90
        2
102
RTVSPost2010PropOp53
 70
     1
102
RTVSPost2010Prop54
  1
strokes_ogs.tif
102
RTVSPost2010PropOp54
 70
     1
102
RTVSPost2010Prop55
280
     0
102
RTVSPost2010PropOp55
 70
     1
102
RTVSPost2010Prop56
140
1.0
102
RTVSPost2010PropOp56
 70
     1
102
RTVSPost2010Prop57
140
1.0
102
RTVSPost2010PropOp57
 70
     1
102
RTVSPropertyOp0
 70
     1
102
RTVSPropertyOp1
 70
     1
102
RTVSPropertyOp2
 70
     1
102
RTVSPropertyOp3
 70
     1
102
RTVSPropertyOp4
 70
     1
102
RTVSPropertyOp5
 70
     1
102
RTVSPropertyOp6
 70
     1
102
RTVSPropertyOp7
 70
     1
102
RTVSPropertyOp8
 70
     1
102
RTVSPropertyOp9
 70
     1
102
RTVSPropertyOp10
 70
     1
102
RTVSPropertyOp11
 70
     1
102
RTVSPropertyOp12
 70
     1
102
RTVSPropertyOp13
 70
     1
102
RTVSPropertyOp14
 70
     1
102
RTVSPropertyOp15
 70
     1
102
RTVSPropertyOp16
 70
     1
102
RTVSPropertyOp17
 70
     1
102
RTVSPropertyOp18
 70
     1
102
RTVSPropertyOp19
 70
     1
102
RTVSPropertyOp20
 70
     1
102
RTVSPropertyOp21
 70
     1
102
RTVSPropertyOp22
 70
     1
102
RTVSPropertyOp23
 70
     1
102
RTVSPropertyOp24
 70
     1
102
RTVSPropertyOp25
 70
     1
102
RTVSPropertyOp26
 70
     1
102
RTVSPropertyOp27
 70
     1
102
RTVSPropertyOp28
 70
     1
102
RTVSPropertyOp29
 70
     1
102
RTVSPropertyOp30
 70
     1
102
RTVSPropertyOp31
 70
     1
102
RTVSPropertyOp32
 70
     1
102
RTVSPropertyOp33
 70
     1
102
RTVSPropertyOp34
 70
     1
102
RTVSPropertyOp35
 70
     1
102
RTVSPropertyOp36
 70
     1
102
RTVSPropertyOp37
 70
     1
102
RTVSPropertyOp38
 70
     1
102
RTVSPropertyOp39
 70
     1
102
RTVSPropertyOp40
 70
     1
102
RTVSPropertyOp41
 70
     1
102
RTVSPropertyOp42
 70
     1
102
RTVSPropertyOp43
 70
     1
102
RTVSPropertyOp44
 70
     1
102
RTVSPropertyOp45
 70
     1
102
RTVSPropertyOp46
 70
     1
102
RTVSPropertyOp47
 70
     1
102
RTVSPropertyOp48
 70
     1
102
RTVSPropertyOp49
 70
     1
102
RTVSPropertyOp50
 70
     1
102
RTVSPropertyOp51
 70
     0
102
RTVSPropertyOp52
 70
     0
102
RTVSPropertyOp53
 70
     1
102
RTVSPropertyOp54
 70
     1
102
RTVSPropertyOp55
 70
     1
102
RTVSPropertyOp56
 70
     1
102
RTVSPropertyOp57
 70
     1
102
RTVSPropertyOp58
 70
     1
102
RTVSPropertyOp59
 70
     1
102
RTVSPropertyOp60
 70
     1
102
RTVSPropertyOp61
 70
     1
102
RTVSPropertyOp62
 70
     1
  0
XRECORD
  5
310
102
{ACAD_REACTORS
330
30F
102
}
330
30F
100
AcDbXrecord
280
     1
102
RTVSPost2010Prop28
280
     0
102
RTVSPost2010PropOp28
 70
     1
102
RTVSPost2010Prop29
280
     1
102
RTVSPost2010PropOp29
 70
     1
102
RTVSPost2010Prop30
280
     1
102
RTVSPost2010PropOp30
 70
     1
102
RTVSPost2010Prop31
280
     0
102
RTVSPost2010PropOp31
 70
     1
102
RTVSPost2010Prop32
280
     0
102
RTVSPost2010PropOp32
 70
     1
102
RTVSPost2010Prop33
280
     0
102
RTVSPost2010PropOp33
 70
     1
102
RTVSPost2010Prop34
280
     0
102
RTVSPost2010PropOp34
 70
     1
102
RTVSPost2010Prop35
280
     0
102
RTVSPost2010PropOp35
 70
     1
102
RTVSPost2010Prop36
280
     0
102
RTVSPost2010PropOp36
 70
     1
102
RTVSPost2010Prop37
 90
       50
102
RTVSPost2010PropOp37
 70
     1
102
RTVSPost2010Prop38
140
0.0
102
RTVSPost2010PropOp38
 70
     1
102
RTVSPost2010Prop39
140
1.0
102
RTVSPost2010PropOp39
 70
     1
102
RTVSPost2010Prop40
 90
        0
102
RTVSPost2010PropOp40
 70
     1
102
RTVSPost2010Prop41ColorIndex
 90
       18
102
RTVSPost2010Prop41ColorRGB
 90
        0
102
RTVSPost2010PropOp41
 70
     1
102
RTVSPost2010Prop42
 90
       50
102
RTVSPost2010PropOp42
 70
     1
102
RTVSPost2010Prop43
 90
        3
102
RTVSPost2010PropOp43
 70
     1
102
RTVSPost2010Prop44ColorIndex
 90
        5
102
RTVSPost2010Prop44ColorRGB
 90
      255
102
RTVSPost2010PropOp44
 70
     1
102
RTVSPost2010Prop45
280
     0
102
RTVSPost2010PropOp45
 70
     1
102
RTVSPost2010Prop46
 90
       50
102
RTVSPost2010PropOp46
 70
     1
102
RTVSPost2010Prop47
 90
       50
102
RTVSPost2010PropOp47
 70
     1
102
RTVSPost2010Prop48
 90
       50
102
RTVSPost2010PropOp48
 70
     1
102
RTVSPost2010Prop49
280
     0
102
RTVSPost2010PropOp49
 70
     1
102
RTVSPost2010Prop50
 90
       50
102
RTVSPost2010PropOp50
 70
     1
102
RTVSPost2010Prop51ColorIndex
 90
      256
102
RTVSPost2010Prop51ColorRGB
 90
-16777216
102
RTVSPost2010PropOp51
 70
     0
102
RTVSPost2010Prop52
140
1.0
102
RTVSPost2010PropOp52
 70
     0
102
RTVSPost2010Prop53
 90
        2
102
RTVSPost2010PropOp53
 70
     1
102
RTVSPost2010Prop54
  1
strokes_ogs.tif
102
RTVSPost2010PropOp54
 70
     1
102
RTVSPost2010Prop55
280
     0
102
RTVSPost2010PropOp55
 70
     1
102
RTVSPost2010Prop56
140
1.0
102
RTVSPost2010PropOp56
 70
     1
102
RTVSPost2010Prop57
140
1.0
102
RTVSPost2010PropOp57
 70
     1
102
RTVSPropertyOp0
 70
     1
102
RTVSPropertyOp1
 70
     1
102
RTVSPropertyOp2
 70
     1
102
RTVSPropertyOp3
 70
     1
102
RTVSPropertyOp4
 70
     1
102
RTVSPropertyOp5
 70
     1
102
RTVSPropertyOp6
 70
     1
102
RTVSPropertyOp7
 70
     1
102
RTVSPropertyOp8
 70
     1
102
RTVSPropertyOp9
 70
     1
102
RTVSPropertyOp10
 70
     1
102
RTVSPropertyOp11
 70
     1
102
RTVSPropertyOp12
 70
     1
102
RTVSPropertyOp13
 70
     1
102
RTVSPropertyOp14
 70
     1
102
RTVSPropertyOp15
 70
     1
102
RTVSPropertyOp16
 70
     1
102
RTVSPropertyOp17
 70
     1
102
RTVSPropertyOp18
 70
     1
102
RTVSPropertyOp19
 70
     1
102
RTVSPropertyOp20
 70
     1
102
RTVSPropertyOp21
 70
     1
102
RTVSPropertyOp22
 70
     1
102
RTVSPropertyOp23
 70
     1
102
RTVSPropertyOp24
 70
     1
102
RTVSPropertyOp25
 70
     1
102
RTVSPropertyOp26
 70
     1
102
RTVSPropertyOp27
 70
     1
102
RTVSPropertyOp28
 70
     1
102
RTVSPropertyOp29
 70
     1
102
RTVSPropertyOp30
 70
     1
102
RTVSPropertyOp31
 70
     1
102
RTVSPropertyOp32
 70
     1
102
RTVSPropertyOp33
 70
     1
102
RTVSPropertyOp34
 70
     1
102
RTVSPropertyOp35
 70
     1
102
RTVSPropertyOp36
 70
     1
102
RTVSPropertyOp37
 70
     1
102
RTVSPropertyOp38
 70
     1
102
RTVSPropertyOp39
 70
     1
102
RTVSPropertyOp40
 70
     1
102
RTVSPropertyOp41
 70
     1
102
RTVSPropertyOp42
 70
     1
102
RTVSPropertyOp43
 70
     1
102
RTVSPropertyOp44
 70
     1
102
RTVSPropertyOp45
 70
     1
102
RTVSPropertyOp46
 70
     1
102
RTVSPropertyOp47
 70
     1
102
RTVSPropertyOp48
 70
     1
102
RTVSPropertyOp49
 70
     1
102
RTVSPropertyOp50
 70
     1
102
RTVSPropertyOp51
 70
     0
102
RTVSPropertyOp52
 70
     0
102
RTVSPropertyOp53
 70
     1
102
RTVSPropertyOp54
 70
     1
102
RTVSPropertyOp55
 70
     1
102
RTVSPropertyOp56
 70
     1
102
RTVSPropertyOp57
 70
     1
102
RTVSPropertyOp58
 70
     1
102
RTVSPropertyOp59
 70
     1
102
RTVSPropertyOp60
 70
     1
102
RTVSPropertyOp61
 70
     1
102
RTVSPropertyOp62
 70
     1
  0
XRECORD
  5
306
102
{ACAD_REACTORS
330
305
102
}
330
305
100
AcDbXrecord
280
     1
102
RTVSPost2010Prop28
280
     0
102
RTVSPost2010PropOp28
 70
     1
102
RTVSPost2010Prop29
280
     1
102
RTVSPost2010PropOp29
 70
     1
102
RTVSPost2010Prop30
280
     1
102
RTVSPost2010PropOp30
 70
     1
102
RTVSPost2010Prop31
280
     0
102
RTVSPost2010PropOp31
 70
     1
102
RTVSPost2010Prop32
280
     0
102
RTVSPost2010PropOp32
 70
     1
102
RTVSPost2010Prop33
280
     0
102
RTVSPost2010PropOp33
 70
     1
102
RTVSPost2010Prop34
280
     0
102
RTVSPost2010PropOp34
 70
     1
102
RTVSPost2010Prop35
280
     0
102
RTVSPost2010PropOp35
 70
     1
102
RTVSPost2010Prop36
280
     0
102
RTVSPost2010PropOp36
 70
     1
102
RTVSPost2010Prop37
 90
       50
102
RTVSPost2010PropOp37
 70
     1
102
RTVSPost2010Prop38
140
0.0
102
RTVSPost2010PropOp38
 70
     1
102
RTVSPost2010Prop39
140
1.0
102
RTVSPost2010PropOp39
 70
     1
102
RTVSPost2010Prop40
 90
        0
102
RTVSPost2010PropOp40
 70
     1
102
RTVSPost2010Prop41ColorIndex
 90
       18
102
RTVSPost2010Prop41ColorRGB
 90
        0
102
RTVSPost2010PropOp41
 70
     1
102
RTVSPost2010Prop42
 90
       50
102
RTVSPost2010PropOp42
 70
     1
102
RTVSPost2010Prop43
 90
        3
102
RTVSPost2010PropOp43
 70
     1
102
RTVSPost2010Prop44ColorIndex
 90
        5
102
RTVSPost2010Prop44ColorRGB
 90
      255
102
RTVSPost2010PropOp44
 70
     1
102
RTVSPost2010Prop45
280
     0
102
RTVSPost2010PropOp45
 70
     1
102
RTVSPost2010Prop46
 90
       50
102
RTVSPost2010PropOp46
 70
     1
102
RTVSPost2010Prop47
 90
       50
102
RTVSPost2010PropOp47
 70
     1
102
RTVSPost2010Prop48
 90
       50
102
RTVSPost2010PropOp48
 70
     1
102
RTVSPost2010Prop49
280
     0
102
RTVSPost2010PropOp49
 70
     1
102
RTVSPost2010Prop50
 90
       50
102
RTVSPost2010PropOp50
 70
     1
102
RTVSPost2010Prop51ColorIndex
 90
      256
102
RTVSPost2010Prop51ColorRGB
 90
-16777216
102
RTVSPost2010PropOp51
 70
     0
102
RTVSPost2010Prop52
140
1.0
102
RTVSPost2010PropOp52
 70
     0
102
RTVSPost2010Prop53
 90
        2
102
RTVSPost2010PropOp53
 70
     1
102
RTVSPost2010Prop54
  1
strokes_ogs.tif
102
RTVSPost2010PropOp54
 70
     1
102
RTVSPost2010Prop55
280
     0
102
RTVSPost2010PropOp55
 70
     1
102
RTVSPost2010Prop56
140
1.0
102
RTVSPost2010PropOp56
 70
     1
102
RTVSPost2010Prop57
140
1.0
102
RTVSPost2010PropOp57
 70
     1
102
RTVSPropertyOp0
 70
     1
102
RTVSPropertyOp1
 70
     1
102
RTVSPropertyOp2
 70
     1
102
RTVSPropertyOp3
 70
     1
102
RTVSPropertyOp4
 70
     1
102
RTVSPropertyOp5
 70
     1
102
RTVSPropertyOp6
 70
     1
102
RTVSPropertyOp7
 70
     1
102
RTVSPropertyOp8
 70
     1
102
RTVSPropertyOp9
 70
     1
102
RTVSPropertyOp10
 70
     1
102
RTVSPropertyOp11
 70
     1
102
RTVSPropertyOp12
 70
     1
102
RTVSPropertyOp13
 70
     1
102
RTVSPropertyOp14
 70
     1
102
RTVSPropertyOp15
 70
     1
102
RTVSPropertyOp16
 70
     1
102
RTVSPropertyOp17
 70
     1
102
RTVSPropertyOp18
 70
     1
102
RTVSPropertyOp19
 70
     1
102
RTVSPropertyOp20
 70
     1
102
RTVSPropertyOp21
 70
     1
102
RTVSPropertyOp22
 70
     1
102
RTVSPropertyOp23
 70
     1
102
RTVSPropertyOp24
 70
     1
102
RTVSPropertyOp25
 70
     1
102
RTVSPropertyOp26
 70
     1
102
RTVSPropertyOp27
 70
     1
102
RTVSPropertyOp28
 70
     1
102
RTVSPropertyOp29
 70
     1
102
RTVSPropertyOp30
 70
     1
102
RTVSPropertyOp31
 70
     1
102
RTVSPropertyOp32
 70
     1
102
RTVSPropertyOp33
 70
     1
102
RTVSPropertyOp34
 70
     1
102
RTVSPropertyOp35
 70
     1
102
RTVSPropertyOp36
 70
     1
102
RTVSPropertyOp37
 70
     1
102
RTVSPropertyOp38
 70
     1
102
RTVSPropertyOp39
 70
     1
102
RTVSPropertyOp40
 70
     1
102
RTVSPropertyOp41
 70
     1
102
RTVSPropertyOp42
 70
     1
102
RTVSPropertyOp43
 70
     1
102
RTVSPropertyOp44
 70
     1
102
RTVSPropertyOp45
 70
     1
102
RTVSPropertyOp46
 70
     1
102
RTVSPropertyOp47
 70
     1
102
RTVSPropertyOp48
 70
     1
102
RTVSPropertyOp49
 70
     1
102
RTVSPropertyOp50
 70
     1
102
RTVSPropertyOp51
 70
     0
102
RTVSPropertyOp52
 70
     0
102
RTVSPropertyOp53
 70
     1
102
RTVSPropertyOp54
 70
     1
102
RTVSPropertyOp55
 70
     1
102
RTVSPropertyOp56
 70
     1
102
RTVSPropertyOp57
 70
     1
102
RTVSPropertyOp58
 70
     1
102
RTVSPropertyOp59
 70
     1
102
RTVSPropertyOp60
 70
     1
102
RTVSPropertyOp61
 70
     1
102
RTVSPropertyOp62
 70
     1
  0
XRECORD
  5
2FA
102
{ACAD_REACTORS
330
2F9
102
}
330
2F9
100
AcDbXrecord
280
     1
102
RTVSPost2010Prop28
280
     0
102
RTVSPost2010PropOp28
 70
     1
102
RTVSPost2010Prop29
280
     1
102
RTVSPost2010PropOp29
 70
     1
102
RTVSPost2010Prop30
280
     1
102
RTVSPost2010PropOp30
 70
     1
102
RTVSPost2010Prop31
280
     0
102
RTVSPost2010PropOp31
 70
     1
102
RTVSPost2010Prop32
280
     0
102
RTVSPost2010PropOp32
 70
     1
102
RTVSPost2010Prop33
280
     0
102
RTVSPost2010PropOp33
 70
     1
102
RTVSPost2010Prop34
280
     0
102
RTVSPost2010PropOp34
 70
     1
102
RTVSPost2010Prop35
280
     0
102
RTVSPost2010PropOp35
 70
     1
102
RTVSPost2010Prop36
280
     0
102
RTVSPost2010PropOp36
 70
     1
102
RTVSPost2010Prop37
 90
       50
102
RTVSPost2010PropOp37
 70
     1
102
RTVSPost2010Prop38
140
0.0
102
RTVSPost2010PropOp38
 70
     1
102
RTVSPost2010Prop39
140
1.0
102
RTVSPost2010PropOp39
 70
     1
102
RTVSPost2010Prop40
 90
        0
102
RTVSPost2010PropOp40
 70
     1
102
RTVSPost2010Prop41ColorIndex
 90
       18
102
RTVSPost2010Prop41ColorRGB
 90
        0
102
RTVSPost2010PropOp41
 70
     1
102
RTVSPost2010Prop42
 90
       50
102
RTVSPost2010PropOp42
 70
     1
102
RTVSPost2010Prop43
 90
        3
102
RTVSPost2010PropOp43
 70
     1
102
RTVSPost2010Prop44ColorIndex
 90
        5
102
RTVSPost2010Prop44ColorRGB
 90
      255
102
RTVSPost2010PropOp44
 70
     1
102
RTVSPost2010Prop45
280
     0
102
RTVSPost2010PropOp45
 70
     1
102
RTVSPost2010Prop46
 90
       50
102
RTVSPost2010PropOp46
 70
     1
102
RTVSPost2010Prop47
 90
       50
102
RTVSPost2010PropOp47
 70
     1
102
RTVSPost2010Prop48
 90
       50
102
RTVSPost2010PropOp48
 70
     1
102
RTVSPost2010Prop49
280
     0
102
RTVSPost2010PropOp49
 70
     1
102
RTVSPost2010Prop50
 90
       50
102
RTVSPost2010PropOp50
 70
     1
102
RTVSPost2010Prop51ColorIndex
 90
      256
102
RTVSPost2010Prop51ColorRGB
 90
-16777216
102
RTVSPost2010PropOp51
 70
     0
102
RTVSPost2010Prop52
140
1.0
102
RTVSPost2010PropOp52
 70
     0
102
RTVSPost2010Prop53
 90
        2
102
RTVSPost2010PropOp53
 70
     1
102
RTVSPost2010Prop54
  1
strokes_ogs.tif
102
RTVSPost2010PropOp54
 70
     1
102
RTVSPost2010Prop55
280
     0
102
RTVSPost2010PropOp55
 70
     1
102
RTVSPost2010Prop56
140
1.0
102
RTVSPost2010PropOp56
 70
     1
102
RTVSPost2010Prop57
140
1.0
102
RTVSPost2010PropOp57
 70
     1
102
RTVSPropertyOp0
 70
     1
102
RTVSPropertyOp1
 70
     1
102
RTVSPropertyOp2
 70
     1
102
RTVSPropertyOp3
 70
     1
102
RTVSPropertyOp4
 70
     1
102
RTVSPropertyOp5
 70
     1
102
RTVSPropertyOp6
 70
     1
102
RTVSPropertyOp7
 70
     1
102
RTVSPropertyOp8
 70
     1
102
RTVSPropertyOp9
 70
     1
102
RTVSPropertyOp10
 70
     1
102
RTVSPropertyOp11
 70
     1
102
RTVSPropertyOp12
 70
     1
102
RTVSPropertyOp13
 70
     1
102
RTVSPropertyOp14
 70
     1
102
RTVSPropertyOp15
 70
     1
102
RTVSPropertyOp16
 70
     1
102
RTVSPropertyOp17
 70
     1
102
RTVSPropertyOp18
 70
     1
102
RTVSPropertyOp19
 70
     1
102
RTVSPropertyOp20
 70
     1
102
RTVSPropertyOp21
 70
     1
102
RTVSPropertyOp22
 70
     1
102
RTVSPropertyOp23
 70
     1
102
RTVSPropertyOp24
 70
     1
102
RTVSPropertyOp25
 70
     1
102
RTVSPropertyOp26
 70
     1
102
RTVSPropertyOp27
 70
     1
102
RTVSPropertyOp28
 70
     1
102
RTVSPropertyOp29
 70
     1
102
RTVSPropertyOp30
 70
     1
102
RTVSPropertyOp31
 70
     1
102
RTVSPropertyOp32
 70
     1
102
RTVSPropertyOp33
 70
     1
102
RTVSPropertyOp34
 70
     1
102
RTVSPropertyOp35
 70
     1
102
RTVSPropertyOp36
 70
     1
102
RTVSPropertyOp37
 70
     1
102
RTVSPropertyOp38
 70
     1
102
RTVSPropertyOp39
 70
     1
102
RTVSPropertyOp40
 70
     1
102
RTVSPropertyOp41
 70
     1
102
RTVSPropertyOp42
 70
     1
102
RTVSPropertyOp43
 70
     1
102
RTVSPropertyOp44
 70
     1
102
RTVSPropertyOp45
 70
     1
102
RTVSPropertyOp46
 70
     1
102
RTVSPropertyOp47
 70
     1
102
RTVSPropertyOp48
 70
     1
102
RTVSPropertyOp49
 70
     1
102
RTVSPropertyOp50
 70
     1
102
RTVSPropertyOp51
 70
     0
102
RTVSPropertyOp52
 70
     0
102
RTVSPropertyOp53
 70
     1
102
RTVSPropertyOp54
 70
     1
102
RTVSPropertyOp55
 70
     1
102
RTVSPropertyOp56
 70
     1
102
RTVSPropertyOp57
 70
     1
102
RTVSPropertyOp58
 70
     1
102
RTVSPropertyOp59
 70
     1
102
RTVSPropertyOp60
 70
     1
102
RTVSPropertyOp61
 70
     1
102
RTVSPropertyOp62
 70
     1
  0
XRECORD
  5
312
102
{ACAD_REACTORS
330
311
102
}
330
311
100
AcDbXrecord
280
     1
102
RTVSPost2010Prop28
280
     0
102
RTVSPost2010PropOp28
 70
     1
102
RTVSPost2010Prop29
280
     1
102
RTVSPost2010PropOp29
 70
     1
102
RTVSPost2010Prop30
280
     1
102
RTVSPost2010PropOp30
 70
     1
102
RTVSPost2010Prop31
280
     0
102
RTVSPost2010PropOp31
 70
     1
102
RTVSPost2010Prop32
280
     0
102
RTVSPost2010PropOp32
 70
     1
102
RTVSPost2010Prop33
280
     0
102
RTVSPost2010PropOp33
 70
     1
102
RTVSPost2010Prop34
280
     0
102
RTVSPost2010PropOp34
 70
     1
102
RTVSPost2010Prop35
280
     0
102
RTVSPost2010PropOp35
 70
     1
102
RTVSPost2010Prop36
280
     0
102
RTVSPost2010PropOp36
 70
     1
102
RTVSPost2010Prop37
 90
       50
102
RTVSPost2010PropOp37
 70
     1
102
RTVSPost2010Prop38
140
0.0
102
RTVSPost2010PropOp38
 70
     1
102
RTVSPost2010Prop39
140
1.0
102
RTVSPost2010PropOp39
 70
     1
102
RTVSPost2010Prop40
 90
        0
102
RTVSPost2010PropOp40
 70
     1
102
RTVSPost2010Prop41ColorIndex
 90
       18
102
RTVSPost2010Prop41ColorRGB
 90
        0
102
RTVSPost2010PropOp41
 70
     1
102
RTVSPost2010Prop42
 90
       50
102
RTVSPost2010PropOp42
 70
     1
102
RTVSPost2010Prop43
 90
        3
102
RTVSPost2010PropOp43
 70
     1
102
RTVSPost2010Prop44ColorIndex
 90
        5
102
RTVSPost2010Prop44ColorRGB
 90
      255
102
RTVSPost2010PropOp44
 70
     1
102
RTVSPost2010Prop45
280
     0
102
RTVSPost2010PropOp45
 70
     1
102
RTVSPost2010Prop46
 90
       50
102
RTVSPost2010PropOp46
 70
     1
102
RTVSPost2010Prop47
 90
       50
102
RTVSPost2010PropOp47
 70
     1
102
RTVSPost2010Prop48
 90
       50
102
RTVSPost2010PropOp48
 70
     1
102
RTVSPost2010Prop49
280
     0
102
RTVSPost2010PropOp49
 70
     1
102
RTVSPost2010Prop50
 90
       50
102
RTVSPost2010PropOp50
 70
     1
102
RTVSPost2010Prop51ColorIndex
 90
      256
102
RTVSPost2010Prop51ColorRGB
 90
-16777216
102
RTVSPost2010PropOp51
 70
     0
102
RTVSPost2010Prop52
140
1.0
102
RTVSPost2010PropOp52
 70
     0
102
RTVSPost2010Prop53
 90
        2
102
RTVSPost2010PropOp53
 70
     1
102
RTVSPost2010Prop54
  1
strokes_ogs.tif
102
RTVSPost2010PropOp54
 70
     1
102
RTVSPost2010Prop55
280
     0
102
RTVSPost2010PropOp55
 70
     1
102
RTVSPost2010Prop56
140
1.0
102
RTVSPost2010PropOp56
 70
     1
102
RTVSPost2010Prop57
140
1.0
102
RTVSPost2010PropOp57
 70
     1
102
RTVSPropertyOp0
 70
     1
102
RTVSPropertyOp1
 70
     1
102
RTVSPropertyOp2
 70
     1
102
RTVSPropertyOp3
 70
     1
102
RTVSPropertyOp4
 70
     1
102
RTVSPropertyOp5
 70
     1
102
RTVSPropertyOp6
 70
     1
102
RTVSPropertyOp7
 70
     1
102
RTVSPropertyOp8
 70
     1
102
RTVSPropertyOp9
 70
     1
102
RTVSPropertyOp10
 70
     1
102
RTVSPropertyOp11
 70
     1
102
RTVSPropertyOp12
 70
     1
102
RTVSPropertyOp13
 70
     1
102
RTVSPropertyOp14
 70
     1
102
RTVSPropertyOp15
 70
     1
102
RTVSPropertyOp16
 70
     1
102
RTVSPropertyOp17
 70
     1
102
RTVSPropertyOp18
 70
     1
102
RTVSPropertyOp19
 70
     1
102
RTVSPropertyOp20
 70
     1
102
RTVSPropertyOp21
 70
     1
102
RTVSPropertyOp22
 70
     1
102
RTVSPropertyOp23
 70
     1
102
RTVSPropertyOp24
 70
     1
102
RTVSPropertyOp25
 70
     1
102
RTVSPropertyOp26
 70
     1
102
RTVSPropertyOp27
 70
     1
102
RTVSPropertyOp28
 70
     1
102
RTVSPropertyOp29
 70
     1
102
RTVSPropertyOp30
 70
     1
102
RTVSPropertyOp31
 70
     1
102
RTVSPropertyOp32
 70
     1
102
RTVSPropertyOp33
 70
     1
102
RTVSPropertyOp34
 70
     1
102
RTVSPropertyOp35
 70
     1
102
RTVSPropertyOp36
 70
     1
102
RTVSPropertyOp37
 70
     1
102
RTVSPropertyOp38
 70
     1
102
RTVSPropertyOp39
 70
     1
102
RTVSPropertyOp40
 70
     1
102
RTVSPropertyOp41
 70
     1
102
RTVSPropertyOp42
 70
     1
102
RTVSPropertyOp43
 70
     1
102
RTVSPropertyOp44
 70
     1
102
RTVSPropertyOp45
 70
     1
102
RTVSPropertyOp46
 70
     1
102
RTVSPropertyOp47
 70
     1
102
RTVSPropertyOp48
 70
     1
102
RTVSPropertyOp49
 70
     1
102
RTVSPropertyOp50
 70
     1
102
RTVSPropertyOp51
 70
     0
102
RTVSPropertyOp52
 70
     0
102
RTVSPropertyOp53
 70
     1
102
RTVSPropertyOp54
 70
     1
102
RTVSPropertyOp55
 70
     1
102
RTVSPropertyOp56
 70
     1
102
RTVSPropertyOp57
 70
     1
102
RTVSPropertyOp58
 70
     1
102
RTVSPropertyOp59
 70
     1
102
RTVSPropertyOp60
 70
     1
102
RTVSPropertyOp61
 70
     1
102
RTVSPropertyOp62
 70
     1
  0
ENDSEC
  0
EOF
