  0
SECTION
  2
HEADER
  9
$ACADVER
  1
AC1009
  9
$INSBASE
 10
0.0
 20
0.0
 30
0.0
  9
$EXTMIN
 10
-180.0
 20
-271.669603117468
 30
0.0
  9
$EXTMAX
 10
180.0
 20
263.53364789486591
 30
0.0
  9
$LIMMIN
 10
0.0
 20
0.0
  9
$LIMMAX
 10
0.0
 20
0.0
  9
$ORTHOMODE
 70
     0
  9
$REGENMODE
 70
     1
  9
$FILLMODE
 70
     1
  9
$QTEXTMODE
 70
     0
  9
$MIRRTEXT
 70
     1
  9
$DRAGMODE
 70
     2
  9
$LTSCALE
 40
10.16
  9
$OSMODE
 70
   231
  9
$ATTMODE
 70
     1
  9
$TEXTSIZE
 40
0.0
  9
$TRACEWID
 40
1.0
  9
$TEXTSTYLE
  7
STANDARD
  9
$CLAYER
  8
DATA
  9
$CELTYPE
  6
BYLAYER
  9
$CECOLOR
 62
   256
  9
$DIMSCALE
 40
1.0
  9
$DIMASZ
 40
0.18
  9
$DIMEXO
 40
0.0625
  9
$DIMDLI
 40
0.38
  9
$DIMRND
 40
0.0
  9
$DIMDLE
 40
0.0
  9
$DIMEXE
 40
0.18
  9
$DIMTP
 40
0.0
  9
$DIMTM
 40
0.0
  9
$DIMTXT
 40
0.18
  9
$DIMCEN
 40
0.09
  9
$DIMTSZ
 40
0.0
  9
$DIMTOL
 70
     0
  9
$DIMLIM
 70
     0
  9
$DIMTIH
 70
     1
  9
$DIMTOH
 70
     1
  9
$DIMSE1
 70
     0
  9
$DIMSE2
 70
     0
  9
$DIMTAD
 70
     0
  9
$DIMZIN
 70
     0
  9
$DIMBLK
  1

  9
$DIMASO
 70
     1
  9
$DIMSHO
 70
     1
  9
$DIMPOST
  1

  9
$DIMAPOST
  1

  9
$DIMALT
 70
     0
  9
$DIMALTD
 70
     2
  9
$DIMALTF
 40
25.399999999999999
  9
$DIMLFAC
 40
1.0
  9
$DIMTOFL
 70
     0
  9
$DIMTVP
 40
0.0
  9
$DIMTIX
 70
     0
  9
$DIMSOXD
 70
     0
  9
$DIMSAH
 70
     0
  9
$DIMBLK1
  1

  9
$DIMBLK2
  1

  9
$DIMSTYLE
  2
STANDARD
  9
$DIMCLRD
 70
     0
  9
$DIMCLRE
 70
     0
  9
$DIMCLRT
 70
     0
  9
$DIMTFAC
 40
1.0
  9
$DIMGAP
 40
0.09
  9
$LUNITS
 70
     2
  9
$LUPREC
 70
     4
  9
$SKETCHINC
 40
0.1
  9
$FILLETRAD
 40
0.0
  9
$AUNITS
 70
     0
  9
$AUPREC
 70
     0
  9
$MENU
  1
acad
  9
$ELEVATION
 40
0.0
  9
$PELEVATION
 40
0.0
  9
$THICKNESS
 40
0.0
  9
$LIMCHECK
 70
     0
  9
$BLIPMODE
 70
     0
  9
$CHAMFERA
 40
0.0
  9
$CHAMFERB
 40
0.0
  9
$SKPOLY
 70
     0
  9
$TDCREATE
 40
2456457.5438425932
  9
$TDUPDATE
 40
2456457.5728596882
  9
$TDINDWG
 40
0.0006009722
  9
$TDUSRTIMER
 40
0.0006008796
  9
$USRTIMER
 70
     1
  9
$ANGBASE
 50
0.0
  9
$ANGDIR
 70
     0
  9
$PDMODE
 70
     1
  9
$PDSIZE
 40
-2.0
  9
$PLINEWID
 40
0.0
  9
$COORDS
 70
     2
  9
$SPLFRAME
 70
     0
  9
$SPLINETYPE
 70
     6
  9
$SPLINESEGS
 70
     8
  9
$ATTDIA
 70
     0
  9
$ATTREQ
 70
     1
  9
$HANDLING
 70
     1
  9
$HANDSEED
  5
2FB
  9
$SURFTAB1
 70
     6
  9
$SURFTAB2
 70
     6
  9
$SURFTYPE
 70
     6
  9
$SURFU
 70
     6
  9
$SURFV
 70
     6
  9
$UCSNAME
  2

  9
$UCSORG
 10
0.0
 20
0.0
 30
0.0
  9
$UCSXDIR
 10
1.0
 20
0.0
 30
0.0
  9
$UCSYDIR
 10
0.0
 20
1.0
 30
0.0
  9
$PUCSNAME
  2

  9
$PUCSORG
 10
0.0
 20
0.0
 30
0.0
  9
$PUCSXDIR
 10
1.0
 20
0.0
 30
0.0
  9
$PUCSYDIR
 10
0.0
 20
1.0
 30
0.0
  9
$USERI1
 70
     0
  9
$USERI2
 70
     0
  9
$USERI3
 70
     0
  9
$USERI4
 70
     0
  9
$USERI5
 70
     0
  9
$USERR1
 40
0.0
  9
$USERR2
 40
0.0
  9
$USERR3
 40
0.0
  9
$USERR4
 40
0.0
  9
$USERR5
 40
0.0
  9
$WORLDVIEW
 70
     1
  9
$SHADEDGE
 70
     3
  9
$SHADEDIF
 70
    70
  9
$TILEMODE
 70
     1
  9
$MAXACTVP
 70
    64
  9
$PLIMCHECK
 70
     0
  9
$PEXTMIN
 10
1.0000000000000000E+020
 20
1.0000000000000000E+020
 30
1.0000000000000000E+020
  9
$PEXTMAX
 10
-1.0000000000000000E+020
 20
-1.0000000000000000E+020
 30
-1.0000000000000000E+020
  9
$PLIMMIN
 10
0.0
 20
0.0
  9
$PLIMMAX
 10
12.0
 20
9.0
  9
$UNITMODE
 70
     0
  9
$VISRETAIN
 70
     0
  9
$PLINEGEN
 70
     1
  9
$PSLTSCALE
 70
     0
  0
ENDSEC
  0
SECTION
  2
TABLES
  0
TABLE
  2
VPORT
 70
     1
  0
VPORT
  2
*ACTIVE
 70
     0
 10
0.0
 20
0.0
 11
1.0
 21
1.0
 12
0.0000008381904308
 22
37.639660710773292
 13
0.0
 23
0.0
 14
1.0
 24
1.0
 15
0.0
 25
0.0
 16
0.0
 26
0.0
 36
1.0
 17
0.0
 27
0.0
 37
0.0
 40
539.45273302965427
 41
2.1585051546391751
 42
50.0
 43
0.0
 44
0.0
 50
0.0
 51
0.0
 71
     0
 72
  2000
 73
     1
 74
     1
 75
     0
 76
     0
 77
     0
 78
     0
  0
ENDTAB
  0
TABLE
  2
LTYPE
 70
     2
  0
LTYPE
  2
CONTINUOUS
 70
     0
  3
Solid line
 72
    65
 73
     0
 40
0.0
  0
LTYPE
  2
STYLE_01
 70
     0
  3

 72
    65
 73
     2
 40
0.4166412353515625
 49
0.208282470703125
 49
-0.2083587646484375
  0
ENDTAB
  0
TABLE
  2
LAYER
 70
     5
  0
LAYER
  2
0
 70
     0
 62
     7
  6
CONTINUOUS
  0
LAYER
  2
DATA
 70
     0
 62
     7
  6
CONTINUOUS
  0
LAYER
  2
HIBINO-BASE
 70
     0
 62
     7
  6
CONTINUOUS
  0
LAYER
  2
SPEC
 70
     0
 62
     7
  6
CONTINUOUS
  0
LAYER
  2
DIMNSIONS
 70
     0
 62
     7
  6
CONTINUOUS
  0
ENDTAB
  0
TABLE
  2
STYLE
 70
     2
  0
STYLE
  2
STANDARD
 70
     0
 40
0.0
 41
1.0
 50
0.0
 71
     0
 42
0.0
  3
txt
  4
BIGFONT.SHX
  0
ENDTAB
  0
TABLE
  2
VIEW
 70
     0
  0
ENDTAB
  0
TABLE
  2
UCS
 70
     0
  0
ENDTAB
  0
TABLE
  2
APPID
 70
     4
  0
APPID
  2
ACAD
 70
     0
  0
APPID
  2
ACADANNOTATIVE
 70
     0
  0
APPID
  2
ACAD_NAV_VCDISPLAY
 70
     0
  0
APPID
  2
ACAD_MLEADERVER
 70
     0
  0
ENDTAB
  0
TABLE
  2
DIMSTYLE
 70
     2
  0
DIMSTYLE
  2
STANDARD
 70
     0
  3

  4

  5

  6

  7

 40
1.0
 41
0.18
 42
0.0625
 43
0.38
 44
0.18
 45
0.0
 46
0.0
 47
0.0
 48
0.0
140
0.18
141
0.09
142
0.0
143
25.399999999999999
144
1.0
145
0.0
146
1.0
147
0.09
 71
     0
 72
     0
 73
     1
 74
     1
 75
     0
 76
     0
 77
     0
 78
     0
170
     0
171
     2
172
     0
173
     0
174
     0
175
     0
176
     0
177
     0
178
     0
  0
ENDTAB
  0
ENDSEC
  0
SECTION
  2
BLOCKS
  0
BLOCK
  8
0
  2
$MODEL_SPACE
 70
     0
 10
0.0
 20
0.0
 30
0.0
  3
$MODEL_SPACE
  1

  0
ENDBLK
  5
28C
  8
0
  0
BLOCK
 67
     1
  8
0
  2
$PAPER_SPACE
 70
     0
 10
0.0
 20
0.0
 30
0.0
  3
$PAPER_SPACE
  1

  0
ENDBLK
  5
288
 67
     1
  8
0
  0
ENDSEC
  0
SECTION
  2
ENTITIES
  0
LINE
  5
2C
  8
HIBINO-BASE
  6
CONTINUOUS
 62
     7
 10
-180.0
 20
263.53364789486591
 30
0.0
 11
180.0
 21
263.53364789486591
 31
0.0
  0
LINE
  5
2D
  8
HIBINO-BASE
  6
CONTINUOUS
 62
     7
 10
180.0
 20
-256.46635210513409
 30
0.0
 11
-180.0
 21
-256.46635210513409
 31
0.0
  0
LINE
  5
2E
  8
HIBINO-BASE
  6
CONTINUOUS
 62
     7
 10
-180.0
 20
-256.46635210513409
 30
0.0
 11
-180.0
 21
263.53364789486591
 31
0.0
  0
LINE
  5
2F
  8
HIBINO-BASE
  6
CONTINUOUS
 62
     7
 10
180.0
 20
263.53364789486591
 30
0.0
 11
180.0
 21
-256.46635210513409
 31
0.0
  0
LINE
  5
30
  8
HIBINO-BASE
  6
CONTINUOUS
 62
     7
 10
0.0
 20
-211.46635210513409
 30
0.0
 11
180.0
 21
-211.46635210513409
 31
0.0
  0
LINE
  5
31
  8
HIBINO-BASE
  6
CONTINUOUS
 62
     7
 10
0.0
 20
-256.46635210513409
 30
0.0
 11
0.0
 21
-211.46635210513409
 31
0.0
  0
TEXT
  5
32
  8
HIBINO-BASE
 62
     7
 10
1.799999999999998
 20
-216.48373877180069
 30
0.0
 40
3.257682291666665
  1
NOTE
 51
0.7
 11
1.799999999999998
 21
-213.2260564801341
 31
0.0
 73
     3
  0
LINE
  5
33
  8
HIBINO-BASE
  6
CONTINUOUS
 62
     7
 10
70.0
 20
-256.46635210513409
 30
0.0
 11
70.0
 21
-211.46635210513409
 31
0.0
  0
TEXT
  5
34
  8
HIBINO-BASE
 62
     7
 10
71.799999999999983
 20
-216.48373877180069
 30
0.0
 40
3.257682291666665
  1
TITLE
 51
0.7
 11
71.799999999999983
 21
-213.2260564801341
 31
0.0
 73
     3
  0
LINE
  5
35
  8
HIBINO-BASE
  6
CONTINUOUS
 62
     7
 10
0.0
 20
-236.46635210513409
 30
0.0
 11
180.0
 21
-236.46635210513409
 31
0.0
  0
TEXT
  5
36
  8
HIBINO-BASE
 62
     7
 10
96.799999999999983
 20
-241.37109877180069
 30
0.0
 40
3.257682291666665
  1
DRAWN
 51
0.7
 11
96.799999999999983
 21
-238.11341648013411
 31
0.0
 73
     3
  0
TEXT
  5
37
  8
HIBINO-BASE
 62
     7
 10
46.799999999999983
 20
-241.37109877180069
 30
0.0
 40
3.257682291666665
  1
DATE
 51
0.7
 11
46.799999999999983
 21
-238.11341648013411
 31
0.0
 73
     3
  0
TEXT
  5
38
  8
HIBINO-BASE
 62
     7
 10
26.800000000000001
 20
-241.37109877180069
 30
0.0
 40
3.257682291666665
  1
SCALE
 51
0.7
 11
26.800000000000001
 21
-238.11341648013411
 31
0.0
 73
     3
  0
TEXT
  5
39
  8
HIBINO-BASE
 62
     7
 10
71.799999999999983
 20
-241.37109877180069
 30
0.0
 40
3.257682291666665
  1
DESIGN
 51
0.7
 11
71.799999999999983
 21
-238.11341648013411
 31
0.0
 73
     3
  0
TEXT
  5
3A
  8
HIBINO-BASE
 62
     7
 10
146.7999999999999
 20
-241.37109877180069
 30
0.0
 40
3.257682291666665
  1
DRAWING NO.
 51
0.7
 11
146.7999999999999
 21
-238.11341648013411
 31
0.0
 73
     3
  0
TEXT
  5
3B
  8
HIBINO-BASE
 62
     7
 10
121.7999999999999
 20
-241.37109877180069
 30
0.0
 40
3.257682291666665
  1
CHECK
 51
0.7
 11
121.7999999999999
 21
-238.11341648013411
 31
0.0
 73
     3
  0
LINE
  5
3C
  8
HIBINO-BASE
  6
CONTINUOUS
 62
     7
 10
28.75
 20
-253.96635210513409
 30
0.0
 11
36.25
 21
-246.46635210513409
 31
0.0
  0
TEXT
  5
3D
  8
HIBINO-BASE
 62
     7
 10
27.5
 20
-248.68423877180081
 30
0.0
 40
3.257682291666665
  1
1
 51
0.7
 11
27.5
 21
-245.42655648013411
 31
0.0
 73
     3
  0
LINE
  5
3E
  8
HIBINO-BASE
  6
CONTINUOUS
 62
     7
 10
25.0
 20
-256.46635210513409
 30
0.0
 11
25.0
 21
-236.46635210513409
 31
0.0
  0
LINE
  5
3F
  8
HIBINO-BASE
  6
CONTINUOUS
 62
     7
 10
44.999999999999993
 20
-256.46635210513409
 30
0.0
 11
44.999999999999993
 21
-236.46635210513409
 31
0.0
  0
LINE
  5
40
  8
HIBINO-BASE
  6
CONTINUOUS
 62
     7
 10
94.999999999999986
 20
-236.46635210513409
 30
0.0
 11
94.999999999999986
 21
-256.46635210513409
 31
0.0
  0
LINE
  5
41
  8
HIBINO-BASE
  6
CONTINUOUS
 62
     7
 10
145.0
 20
-236.46635210513409
 30
0.0
 11
145.0
 21
-256.46635210513409
 31
0.0
  0
LINE
  5
42
  8
HIBINO-BASE
  6
CONTINUOUS
 62
     7
 10
120.0
 20
-256.46635210513409
 30
0.0
 11
120.0
 21
-236.46635210513409
 31
0.0
  0
TEXT
  5
43
  8
HIBINO-BASE
 62
     7
 10
46.713079999999977
 20
-250.73905877180081
 30
0.0
 40
3.257682291666665
  1
'11.02.
 51
0.7
 11
46.713079999999977
 21
-247.48137648013409
 31
0.0
 73
     3
  0
TEXT
  5
44
  8
HIBINO-BASE
 62
     7
 10
35.0
 20
-252.43423877180069
 30
0.0
 40
3.257682291666665
  1
2
 51
0.7
 11
35.0
 21
-249.17655648013411
 31
0.0
 73
     3
  0
TEXT
  5
45
  8
HIBINO-BASE
 62
     7
 10
98.011620022069224
 20
-250.73905877180081
 30
0.0
 40
3.257682291666665
  1
T.Ootake
 51
0.7
 11
98.011620022069224
 21
-247.48137648013409
 31
0.0
 73
     3
  0
TEXT
  5
46
  8
HIBINO-BASE
 62
     7
 10
7.7666666666666968
 20
-252.51435210513409
 30
0.0
 40
6.5153645833333309
  1
A4
 51
0.7
 11
7.7666666666666968
 21
-245.99898752180081
 31
0.0
 73
     3
  0
TEXT
  5
47
  8
HIBINO-BASE
 62
     7
 10
1.916666666666663
 20
-241.70526210513401
 30
0.0
 40
3.257682291666665
  1
PAPER SIZE
 51
0.7
 11
1.9166666666666641
 21
-238.4475798134674
 31
0.0
 73
     3
  0
TEXT
  5
48
  8
HIBINO-BASE
 62
     7
 10
-174.48072948621959
 20
-269.31683257348652
 30
0.0
 40
7.0583116319444441
  1
Hibino-Intersound Corporation
 51
0.7
 11
-174.48072948621959
 21
-262.25852094154209
 31
0.0
 73
     3
  0
TEXT
  5
49
  8
HIBINO-BASE
 62
     7
 10
40.361219360427782
 20
-268.61465606690763
 30
0.0
 40
7.0583116319444441
  1
ヒビノインターサウンド株式会社
 51
0.7
 11
40.361219360427782
 21
-261.55634443496319
 31
0.0
 73
     3
  0
LINE
  5
4A
  8
SPEC
  6
CONTINUOUS
 62
     7
 10
-164.9999999999998
 20
243.53364789486591
 30
0.0
 11
130.0
 21
243.53364789486591
 31
0.0
  0
LINE
  5
4B
  8
SPEC
  6
CONTINUOUS
 62
     7
 10
-164.9999999999998
 20
236.03364789486591
 30
0.0
 11
130.0
 21
236.03364789486591
 31
0.0
  0
LINE
  5
4C
  8
SPEC
  6
CONTINUOUS
 62
     7
 10
-164.9999999999998
 20
221.03364789486591
 30
0.0
 11
130.0
 21
221.03364789486591
 31
0.0
  0
LINE
  5
4D
  8
SPEC
  6
CONTINUOUS
 62
     7
 10
-164.9999999999998
 20
228.53364789486591
 30
0.0
 11
130.0
 21
228.53364789486591
 31
0.0
  0
LINE
  5
4E
  8
SPEC
  6
CONTINUOUS
 62
     7
 10
-164.9999999999998
 20
243.53364789486591
 30
0.0
 11
-164.9999999999998
 21
108.53364789486589
 31
0.0
  0
TEXT
  5
4F
  8
SPEC
 62
     7
 10
-162.5
 20
246.32018789486591
 30
0.0
 40
4.8865234375000002
  1
仕様
 51
0.7
 11
-162.5
 21
251.2067113323659
 31
0.0
 73
     3
  0
LINE
  5
50
  8
SPEC
  6
CONTINUOUS
 62
     7
 10
-69.999999999999986
 20
243.53364789486591
 30
0.0
 11
-70.000000000000014
 21
108.53364789486589
 31
0.0
  0
LINE
  5
51
  8
SPEC
  6
CONTINUOUS
 62
     7
 10
130.0
 20
243.53364789486591
 30
0.0
 11
130.0
 21
108.53364789486589
 31
0.0
  0
LINE
  5
52
  8
SPEC
  6
CONTINUOUS
 62
     7
 10
-164.9999999999998
 20
213.53364789486591
 30
0.0
 11
130.0
 21
213.53364789486591
 31
0.0
  0
LINE
  5
53
  8
SPEC
  6
CONTINUOUS
 62
     7
 10
-164.9999999999998
 20
206.03364789486591
 30
0.0
 11
130.0
 21
206.03364789486591
 31
0.0
  0
LINE
  5
54
  8
SPEC
  6
CONTINUOUS
 62
     7
 10
-164.9999999999998
 20
198.53364789486591
 30
0.0
 11
130.0
 21
198.53364789486591
 31
0.0
  0
LINE
  5
55
  8
SPEC
  6
CONTINUOUS
 62
     7
 10
-164.9999999999998
 20
191.03364789486591
 30
0.0
 11
130.0
 21
191.03364789486591
 31
0.0
  0
LINE
  5
56
  8
SPEC
  6
CONTINUOUS
 62
     7
 10
-164.9999999999998
 20
183.53364789486591
 30
0.0
 11
130.0
 21
183.53364789486591
 31
0.0
  0
LINE
  5
57
  8
SPEC
  6
CONTINUOUS
 62
     7
 10
-164.9999999999998
 20
176.03364789486591
 30
0.0
 11
130.0
 21
176.03364789486591
 31
0.0
  0
LINE
  5
58
  8
SPEC
  6
CONTINUOUS
 62
     7
 10
-164.9999999999998
 20
168.53364789486591
 30
0.0
 11
130.0
 21
168.53364789486591
 31
0.0
  0
LINE
  5
59
  8
SPEC
  6
CONTINUOUS
 62
     7
 10
-164.9999999999998
 20
161.03364789486579
 30
0.0
 11
130.0
 21
161.03364789486579
 31
0.0
  0
LINE
  5
5A
  8
SPEC
  6
CONTINUOUS
 62
     7
 10
-164.9999999999998
 20
153.53364789486579
 30
0.0
 11
130.0
 21
153.53364789486579
 31
0.0
  0
LINE
  5
5B
  8
SPEC
  6
CONTINUOUS
 62
     7
 10
-164.9999999999998
 20
146.03364789486591
 30
0.0
 11
130.0
 21
146.03364789486591
 31
0.0
  0
LINE
  5
5C
  8
SPEC
  6
CONTINUOUS
 62
     7
 10
-164.9999999999998
 20
131.03364789486591
 30
0.0
 11
130.0
 21
131.03364789486591
 31
0.0
  0
LINE
  5
5D
  8
SPEC
  6
CONTINUOUS
 62
     7
 10
-164.9999999999998
 20
138.53364789486591
 30
0.0
 11
130.0
 21
138.53364789486591
 31
0.0
  0
LINE
  5
5E
  8
SPEC
  6
CONTINUOUS
 62
     7
 10
-164.9999999999998
 20
123.53364789486579
 30
0.0
 11
130.0
 21
123.53364789486579
 31
0.0
  0
LINE
  5
5F
  8
SPEC
  6
CONTINUOUS
 62
     7
 10
-164.9999999999998
 20
116.03364789486579
 30
0.0
 11
130.0
 21
116.03364789486579
 31
0.0
  0
LINE
  5
60
  8
SPEC
  6
CONTINUOUS
 62
     7
 10
-164.9999999999998
 20
108.53364789486589
 30
0.0
 11
130.0
 21
108.53364789486589
 31
0.0
  0
LINE
  5
61
  8
SPEC
  6
CONTINUOUS
 62
     7
 10
-164.9999999999998
 20
116.03364789486579
 30
0.0
 11
130.0
 21
116.03364789486579
 31
0.0
  0
LINE
  5
62
  8
SPEC
  6
CONTINUOUS
 62
     7
 10
-164.9999999999998
 20
108.53364789486589
 30
0.0
 11
130.0
 21
108.53364789486589
 31
0.0
  0
TEXT
  5
63
  8
SPEC
 62
     7
 10
-163.24246884355489
 20
237.81702648956531
 30
0.0
 40
3.800629340277776
  1
指向性
 51
0.7
 11
-163.24246884355489
 21
241.6176558298431
 31
0.0
 73
     3
  0
TEXT
  5
64
  8
SPEC
 62
     7
 10
-68.160988261578609
 20
237.83247490759291
 30
0.0
 40
3.800629340277776
  1
無指向性
 51
0.7
 11
-68.160988261578609
 21
241.6331042478707
 31
0.0
 73
     3
  0
TEXT
  5
65
  8
SPEC
 62
     7
 10
-163.2116297451964
 20
133.12169511613689
 30
0.0
 40
3.800629340277776
  1
寸法
 51
0.7
 11
-163.2116297451964
 21
136.92232445641471
 31
0.0
 73
     3
  0
TEXT
  5
66
  8
SPEC
 62
     7
 10
-68.749304174592524
 20
132.7934548183031
 30
0.0
 40
3.800629340277776
  1
\U+03C619.0\U+00D7169mm(除突起部)
 51
0.7
 11
-68.749304174592524
 21
136.5940841585809
 31
0.0
 73
     3
  0
TEXT
  5
67
  8
SPEC
 62
     7
 10
-68.14325319058122
 20
125.3114691971759
 30
0.0
 40
3.800629340277776
  1
165g
 51
0.7
 11
-68.14325319058122
 21
129.1120985374537
 31
0.0
 73
     3
  0
TEXT
  5
68
  8
SPEC
 62
     7
 10
-163.2252593170426
 20
125.4536053100266
 30
0.0
 40
3.800629340277776
  1
質量
 51
0.7
 11
-163.2252593170426
 21
129.2542346503044
 31
0.0
 73
     3
  0
TEXT
  5
69
  8
SPEC
 62
     7
 10
-163.5657478269423
 20
230.37032243286481
 30
0.0
 40
3.800629340277776
  1
カートリッチ
 51
0.7
 11
-163.5657478269423
 21
234.1709517731426
 31
0.0
 73
     3
  0
TEXT
  5
6A
  8
SPEC
 62
     7
 10
-68.789998533610117
 20
230.37899383609169
 30
0.0
 40
3.800629340277776
  1
プリポラライズド・コンデンサー
 51
0.7
 11
-68.789998533610117
 21
234.17962317636949
 31
0.0
 73
     3
  0
TEXT
  5
6B
  8
SPEC
 62
     7
 10
-163.19849119434451
 20
207.8012147554048
 30
0.0
 40
3.800629340277776
  1
等価雑音レベル(Aウェイト、代表値)
 51
0.7
 11
-163.19849119434451
 21
211.60184409568259
 31
0.0
 73
     3
  0
TEXT
  5
6C
  8
SPEC
 62
     7
 10
-68.29408454884279
 20
207.7116538646861
 30
0.0
 40
3.800629340277776
  1
15dB SPL
 51
0.7
 11
-68.29408454884279
 21
211.51228320496381
 31
0.0
 73
     3
  0
TEXT
  5
6D
  8
SPEC
 62
     7
 10
-163.27033954221031
 20
215.37772734128879
 30
0.0
 40
3.800629340277776
  1
感度(\U+00B12dB@250Hz、公称値）
 51
0.7
 11
-163.27033954221031
 21
219.17835668156661
 31
0.0
 73
     3
  0
TEXT
  5
6E
  8
SPEC
 62
     7
 10
-67.982155919398281
 20
215.35120938101619
 30
0.0
 40
3.800629340277776
  1
-28dB re、1V/Pa
 51
0.7
 11
-67.982155919398281
 21
219.15183872129401
 31
0.0
 73
     3
  0
TEXT
  5
6F
  8
SPEC
 62
     7
 10
-163.2458825270007
 20
223.00548962465231
 30
0.0
 40
3.800629340277776
  1
周波数レンジ(\U+00B12dB)
 51
0.7
 11
-163.2458825270007
 21
226.80611896493011
 31
0.0
 73
     3
  0
TEXT
  5
70
  8
SPEC
 62
     7
 10
-68.426684999057073
 20
222.92807363266499
 30
0.0
 40
3.800629340277776
  1
10Hz～20kHz
 51
0.7
 11
-68.426684999057073
 21
226.72870297294281
 31
0.0
 73
     3
  0
TEXT
  5
71
  8
SPEC
 62
     7
 10
-163.214185969108
 20
200.4858584899284
 30
0.0
 40
3.800629340277776
  1
全高調波歪み(THD)
 51
0.7
 11
-163.214185969108
 21
204.2864878302062
 31
0.0
 73
     3
  0
TEXT
  5
72
  8
SPEC
 62
     7
 10
-68.29408454884279
 20
200.3778874466565
 30
0.0
 40
3.800629340277776
  1
1%%%以下(139dB SPL)
 51
0.7
 11
-68.29408454884279
 21
204.1785167869343
 31
0.0
 73
     3
  0
TEXT
  5
73
  8
SPEC
 62
     7
 10
-163.67397197018619
 20
147.88589889167221
 30
0.0
 40
3.800629340277776
  1
コネクター
 51
0.7
 11
-163.67397197018619
 21
151.68652823195001
 31
0.0
 73
     3
  0
TEXT
  5
74
  8
SPEC
 62
     7
 10
-68.117534735070805
 20
147.7702404467135
 30
0.0
 40
3.800629340277776
  1
XLR3ピン(オス)
 51
0.7
 11
-68.117534735070805
 21
151.5708697869913
 31
0.0
 73
     3
  0
TEXT
  5
75
  8
SPEC
 62
     7
 10
-163.43330512829939
 20
162.78187274438989
 30
0.0
 40
3.800629340277776
  1
ケーブル引き伸ばし可能距離
 51
0.7
 11
-163.43330512829939
 21
166.58250208466771
 31
0.0
 73
     3
  0
TEXT
  5
76
  8
SPEC
 62
     7
 10
-68.149228000203493
 20
163.04752440694531
 30
0.0
 40
3.800629340277776
  1
最大100m
 51
0.7
 11
-68.149228000203493
 21
166.84815374722311
 31
0.0
 73
     3
  0
TEXT
  5
77
  8
SPEC
 62
     7
 10
-163.4410145032104
 20
170.51896405089539
 30
0.0
 40
3.800629340277776
  1
インピーダンス
 51
0.7
 11
-163.4410145032104
 21
174.31959339117321
 31
0.0
 73
     3
  0
TEXT
  5
78
  8
SPEC
 62
     7
 10
-68.236696341112818
 20
170.54295584379079
 30
0.0
 40
3.800629340277776
  1
200\U+03A9以下
 51
0.7
 11
-68.236696341112818
 21
174.34358518406859
 31
0.0
 73
     3
  0
TEXT
  5
79
  8
SPEC
 62
     7
 10
-163.46938816273951
 20
177.8643743217317
 30
0.0
 40
3.800629340277776
  1
アッテネータースイッチ
 51
0.7
 11
-163.46938816273951
 21
181.6650036620095
 31
0.0
 73
     3
  0
TEXT
  5
7A
  8
SPEC
 62
     7
 10
-68.10598936883234
 20
177.98921741324961
 30
0.0
 40
3.800629340277776
  1
0dB、-20dB
 51
0.7
 11
-68.10598936883234
 21
181.7898467535274
 31
0.0
 73
     3
  0
TEXT
  5
7B
  8
SPEC
 62
     7
 10
-163.54955226675881
 20
192.84091801634679
 30
0.0
 40
3.800629340277776
  1
ダイナミックレンジ(代表値)
 51
0.7
 11
-163.54955226675881
 21
196.64154735662461
 31
0.0
 73
     3
  0
TEXT
  5
7C
  8
SPEC
 62
     7
 10
-68.405033411163828
 20
192.77639775667251
 30
0.0
 40
3.800629340277776
  1
121dB
 51
0.7
 11
-68.405033411163828
 21
196.5770270969503
 31
0.0
 73
     3
  0
TEXT
  5
7D
  8
SPEC
 62
     7
 10
-163.207502705823
 20
185.44118480555991
 30
0.0
 40
3.800629340277776
  1
最大音圧レベル
 51
0.7
 11
-163.207502705823
 21
189.24181414583759
 31
0.0
 73
     3
  0
TEXT
  5
7E
  8
SPEC
 62
     7
 10
-68.303859215386325
 20
185.2289053161546
 30
0.0
 40
3.800629340277776
  1
147dB SPL
 51
0.7
 11
-68.303859215386325
 21
189.02953465643239
 31
0.0
 73
     3
  0
TEXT
  5
7F
  8
SPEC
 62
     7
 10
-163.3630178100824
 20
155.36748120898901
 30
0.0
 40
3.800629340277776
  1
電源
 51
0.7
 11
-163.3630178100824
 21
159.1681105492668
 31
0.0
 73
     3
  0
TEXT
  5
80
  8
SPEC
 62
     7
 10
-68.750307864390834
 20
155.48583709544121
 30
0.0
 40
3.800629340277776
  1
ファンタムDC48V/2.8mA
 51
0.7
 11
-68.750307864390834
 21
159.28646643571901
 31
0.0
 73
     3
  0
TEXT
  5
81
  8
SPEC
 62
     7
 10
-163.24235132942709
 20
140.46985852045589
 30
0.0
 40
3.800629340277776
  1
色
 51
0.7
 11
-163.24235132942709
 21
144.27048786073371
 31
0.0
 73
     3
  0
TEXT
  5
82
  8
SPEC
 62
     7
 10
-68.312443614914372
 20
140.3940697897352
 30
0.0
 40
3.800629340277776
  1
マットブラック
 51
0.7
 11
-68.312443614914372
 21
144.19469913001299
 31
0.0
 73
     3
  0
TEXT
  5
83
  8
SPEC
 62
     7
 10
-163.04907675813271
 20
110.54325953693611
 30
0.0
 40
3.800629340277776
  1
使用湿度範囲
 51
0.7
 11
-163.04907675813271
 21
114.3438888772139
 31
0.0
 73
     3
  0
TEXT
  5
84
  8
SPEC
 62
     7
 10
-68.23009875387153
 20
110.62305237163071
 30
0.0
 40
3.800629340277776
  1
90%%%以下
 51
0.7
 11
-68.23009875387153
 21
114.4236817119085
 31
0.0
 73
     3
  0
TEXT
  5
85
  8
SPEC
 62
     7
 10
-163.22282238673569
 20
118.0703073455304
 30
0.0
 40
3.800629340277776
  1
使用温度範囲
 51
0.7
 11
-163.22282238673569
 21
121.8709366858082
 31
0.0
 73
     3
  0
TEXT
  5
86
  8
SPEC
 62
     7
 10
-68.065139124605295
 20
117.8708941827024
 30
0.0
 40
3.800629340277776
  1
-40℃～45℃
 51
0.7
 11
-68.065139124605295
 21
121.67152352298019
 31
0.0
 73
     3
  0
TEXT
  5
87
  8
DIMNSIONS
 62
     7
 10
-40.0
 20
-231.92737210513411
 30
0.0
 40
4.8865234375000002
  1
(単位：mm)
 51
0.7
 11
-40.0
 21
-227.04084866763409
 31
0.0
 73
     3
  0
LINE
  5
88
  8
DIMNSIONS
  6
CONTINUOUS
 62
     7
 10
-63.374999999779533
 20
-186.87500000031241
 30
0.0
 11
-88.374999999999986
 21
-186.87500000031241
 31
0.0
  0
LINE
  5
89
  8
DIMNSIONS
  6
CONTINUOUS
 62
     7
 10
-63.374999999779533
 20
-17.875000000312891
 30
0.0
 11
-88.374999999999986
 21
-17.875000000312891
 31
0.0
  0
LINE
  5
8A
  8
DIMNSIONS
  6
CONTINUOUS
 62
     7
 10
-84.374999999999986
 20
-186.87500000031241
 30
0.0
 11
-84.374999999999986
 21
-17.875000000312891
 31
0.0
  0
LINE
  5
8B
  8
DIMNSIONS
  6
CONTINUOUS
 62
     7
 10
-84.374999999999986
 20
-186.87500000031241
 30
0.0
 11
-85.715079590300462
 21
-181.873754883125
 31
0.0
  0
LINE
  5
8C
  8
DIMNSIONS
  6
CONTINUOUS
 62
     7
 10
-84.374999999999986
 20
-186.87500000031241
 30
0.0
 11
-83.034920409699453
 21
-181.873754883125
 31
0.0
  0
LINE
  5
8D
  8
DIMNSIONS
  6
CONTINUOUS
 62
     7
 10
-84.374999999999986
 20
-17.875000000312891
 30
0.0
 11
-83.034920409699453
 21
-22.8762451175004
 31
0.0
  0
LINE
  5
8E
  8
DIMNSIONS
  6
CONTINUOUS
 62
     7
 10
-84.374999999999986
 20
-17.875000000312891
 30
0.0
 11
-85.715079590300462
 21
-22.8762451175004
 31
0.0
  0
TEXT
  5
8F
  8
DIMNSIONS
 62
     7
 10
-86.362777777777794
 20
-107.6666666669793
 30
0.0
 40
5.4294704861111107
  1
169
 50
90.0
 51
0.7
 11
-91.792248263888908
 21
-107.6666666669793
 31
0.0
 73
     3
  0
LINE
  5
90
  8
DIMNSIONS
  6
CONTINUOUS
 62
     7
 10
-42.596623585182968
 20
66.445427196215007
 30
0.0
 11
-15.62499999999998
 21
78.75
 31
0.0
  0
LINE
  5
91
  8
DIMNSIONS
  6
CONTINUOUS
 62
     7
 10
-42.596623585182968
 20
66.445427196215007
 30
0.0
 11
-38.572818299832313
 21
69.703840468977646
 31
0.0
  0
LINE
  5
92
  8
DIMNSIONS
  6
CONTINUOUS
 62
     7
 10
-42.596623585182968
 20
66.445427196215007
 30
0.0
 11
-37.482699351805891
 21
67.25539322378053
 31
0.0
  0
LINE
  5
93
  8
DIMNSIONS
  6
CONTINUOUS
 62
     7
 10
-15.62499999999998
 20
78.75
 30
0.0
 11
9.5416666666666856
 21
78.75
 31
0.0
  0
TEXT
  5
94
  8
DIMNSIONS
 62
     7
 10
-11.62499999999998
 20
80.737777777777794
 30
0.0
 40
5.4294704861111107
  1
\U+03C616.0
 51
0.7
 11
-11.62499999999998
 21
86.167248263888908
 31
0.0
 73
     3
  0
LINE
  5
95
  8
DIMNSIONS
  6
CONTINUOUS
 62
     7
 10
-41.74622125084106
 20
-203.83339995024321
 30
0.0
 11
-34.375
 21
-199.375
 31
0.0
  0
LINE
  5
96
  8
DIMNSIONS
  6
CONTINUOUS
 62
     7
 10
-41.74622125084106
 20
-203.83339995024321
 30
0.0
 11
-38.149509486006458
 21
-200.1088958877898
 31
0.0
  0
LINE
  5
97
  8
DIMNSIONS
  6
CONTINUOUS
 62
     7
 10
-41.74622125084106
 20
-203.83339995024321
 30
0.0
 11
-36.769125461177218
 21
-202.40624069807751
 31
0.0
  0
LINE
  5
98
  8
DIMNSIONS
  6
CONTINUOUS
 62
     7
 10
-34.375
 20
-199.375
 30
0.0
 11
-9.2083333333333144
 21
-199.375
 31
0.0
  0
TEXT
  5
99
  8
DIMNSIONS
 62
     7
 10
-30.374999999999989
 20
-197.38722222222219
 30
0.0
 40
5.4294704861111107
  1
\U+03C619.0
 51
0.7
 11
-30.374999999999989
 21
-191.95775173611111
 31
0.0
 73
     3
  0
LINE
  5
9A
  8
DIMNSIONS
  6
CONTINUOUS
 62
     7
 10
-63.374999999779533
 20
-40.875000000312887
 30
0.0
 11
-72.749999999999986
 21
-40.875000000312887
 31
0.0
  0
LINE
  5
9B
  8
DIMNSIONS
  6
CONTINUOUS
 62
     7
 10
-61.874999999779533
 20
-17.875000000312891
 30
0.0
 11
-72.749999999999986
 21
-17.875000000312891
 31
0.0
  0
LINE
  5
9C
  8
DIMNSIONS
  6
CONTINUOUS
 62
     7
 10
-68.749999999999986
 20
-40.875000000312887
 30
0.0
 11
-68.749999999999986
 21
-17.875000000312891
 31
0.0
  0
LINE
  5
9D
  8
DIMNSIONS
  6
CONTINUOUS
 62
     7
 10
-68.749999999999986
 20
-40.875000000312887
 30
0.0
 11
-70.090079590300476
 21
-35.873754883125379
 31
0.0
  0
LINE
  5
9E
  8
DIMNSIONS
  6
CONTINUOUS
 62
     7
 10
-68.749999999999986
 20
-40.875000000312887
 30
0.0
 11
-67.409920409699495
 21
-35.873754883125379
 31
0.0
  0
LINE
  5
9F
  8
DIMNSIONS
  6
CONTINUOUS
 62
     7
 10
-68.749999999999986
 20
-17.875000000312891
 30
0.0
 11
-67.409920409699495
 21
-22.8762451175004
 31
0.0
  0
LINE
  5
A0
  8
DIMNSIONS
  6
CONTINUOUS
 62
     7
 10
-68.749999999999986
 20
-17.875000000312891
 30
0.0
 11
-70.090079590300476
 21
-22.8762451175004
 31
0.0
  0
TEXT
  5
A1
  8
DIMNSIONS
 62
     7
 10
-70.737777777777765
 20
-36.430555555868452
 30
0.0
 40
5.4294704861111107
  1
23.0
 50
90.0
 51
0.7
 11
-76.167248263888879
 21
-36.430555555868452
 31
0.0
 73
     3
  0
TEXT
  5
A2
  8
DATA
 62
     7
 10
102.89542165461221
 20
-233.6788037092343
 30
0.0
 40
4.8865234375000002
  1
4006A
 51
0.7
 11
102.89542165461221
 21
-228.79228027173431
 31
0.0
 73
     3
  0
TEXT
  5
A3
  8
DATA
 62
     7
 10
103.1003369643245
 20
-218.4750802468601
 30
0.0
 40
4.8865234375000002
  1
DPA
 51
0.7
 11
103.1003369643245
 21
-213.58855680936011
 31
0.0
 73
     3
  0
CIRCLE
  5
A4
  8
DATA
  6
CONTINUOUS
 62
     7
 10
-49.874999999779533
 20
63.124999999687113
 30
0.0
 40
3.80000000000001
  0
LINE
  5
A5
  8
DATA
  6
CONTINUOUS
 62
     7
 10
-59.374999999779533
 20
-40.875000000312887
 30
0.0
 11
-40.374999999779533
 21
-40.875000000312887
 31
0.0
  0
LINE
  5
A6
  8
DATA
  6
CONTINUOUS
 62
     7
 10
-57.874999999779533
 20
-18.07500000031289
 30
0.0
 11
-57.22499999977952
 21
-18.07500000031289
 31
0.0
  0
LINE
  5
A7
  8
DATA
  6
CONTINUOUS
 62
     7
 10
-56.52499999977951
 20
-18.07500000031289
 30
0.0
 11
-55.824999999779521
 21
-18.07500000031289
 31
0.0
  0
LINE
  5
A8
  8
DATA
  6
CONTINUOUS
 62
     7
 10
-55.124999999779533
 20
-18.07500000031289
 30
0.0
 11
-54.424999999779523
 21
-18.07500000031289
 31
0.0
  0
LINE
  5
A9
  8
DATA
  6
CONTINUOUS
 62
     7
 10
-53.724999999779527
 20
-18.07500000031289
 30
0.0
 11
-53.024999999779517
 21
-18.07500000031289
 31
0.0
  0
LINE
  5
AA
  8
DATA
  6
CONTINUOUS
 62
     7
 10
-52.324999999779521
 20
-18.07500000031289
 30
0.0
 11
-51.624999999779533
 21
-18.07500000031289
 31
0.0
  0
LINE
  5
AB
  8
DATA
  6
CONTINUOUS
 62
     7
 10
-50.924999999779523
 20
-18.07500000031289
 30
0.0
 11
-50.22499999977952
 21
-18.07500000031289
 31
0.0
  0
LINE
  5
AC
  8
DATA
  6
CONTINUOUS
 62
     7
 10
-49.524999999779517
 20
-18.07500000031289
 30
0.0
 11
-48.824999999779521
 21
-18.07500000031289
 31
0.0
  0
LINE
  5
AD
  8
DATA
  6
CONTINUOUS
 62
     7
 10
-48.124999999779533
 20
-18.07500000031289
 30
0.0
 11
-47.42499999977953
 21
-18.07500000031289
 31
0.0
  0
LINE
  5
AE
  8
DATA
  6
CONTINUOUS
 62
     7
 10
-46.724999999779527
 20
-18.07500000031289
 30
0.0
 11
-46.02499999977951
 21
-18.07500000031289
 31
0.0
  0
LINE
  5
AF
  8
DATA
  6
CONTINUOUS
 62
     7
 10
-45.324999999779521
 20
-18.07500000031289
 30
0.0
 11
-44.624999999779533
 21
-18.07500000031289
 31
0.0
  0
LINE
  5
B0
  8
DATA
  6
CONTINUOUS
 62
     7
 10
-43.924999999779523
 20
-18.07500000031289
 30
0.0
 11
-43.22499999977952
 21
-18.07500000031289
 31
0.0
  0
LINE
  5
B1
  8
DATA
  6
CONTINUOUS
 62
     7
 10
-42.524999999779517
 20
-18.07500000031289
 30
0.0
 11
-41.874999999779533
 21
-18.07500000031289
 31
0.0
  0
LINE
  5
B2
  8
DATA
  6
CONTINUOUS
 62
     7
 10
-59.374999999779533
 20
-40.875000000312887
 30
0.0
 11
-59.374999999779533
 21
-36.875000000312873
 31
0.0
  0
LINE
  5
B3
  8
DATA
  6
CONTINUOUS
 62
     7
 10
-40.374999999779533
 20
-40.875000000312887
 30
0.0
 11
-40.374999999779533
 21
-36.875000000312873
 31
0.0
  0
CIRCLE
  5
B4
  8
DATA
  6
CONTINUOUS
 62
     7
 10
-49.874999999779533
 20
63.124999999687113
 30
0.0
 40
1.0
  0
LINE
  5
B5
  8
DATA
  6
CONTINUOUS
 62
     7
 10
-59.374999999779533
 20
-40.575000000312883
 30
0.0
 11
-40.374999999779533
 21
-40.575000000312883
 31
0.0
  0
TEXT
  5
B6
  8
DATA
 62
     7
 10
-52.452726974986753
 20
-39.848661276643298
 30
0.0
 40
1.900314670138888
  1
4006
 51
0.7
 11
-52.452726974986753
 21
-37.948346606504408
 31
0.0
 73
     3
  0
LINE
  5
B7
  8
DATA
  6
CONTINUOUS
 62
     7
 10
-50.22499999977952
 20
-19.875000000312891
 30
0.0
 11
-50.22499999977952
 21
-17.875000000312891
 31
0.0
  0
LINE
  5
B8
  8
DATA
  6
CONTINUOUS
 62
     7
 10
-49.524999999779517
 20
-17.875000000312891
 30
0.0
 11
-49.524999999779517
 21
-19.875000000312891
 31
0.0
  0
LINE
  5
B9
  8
DATA
  6
CONTINUOUS
 62
     7
 10
-50.22499999977952
 20
-17.875000000312891
 30
0.0
 11
-49.524999999779517
 21
-17.875000000312891
 31
0.0
  0
LINE
  5
BA
  8
DATA
  6
CONTINUOUS
 62
     7
 10
-51.624999999779533
 20
-19.875000000312891
 30
0.0
 11
-51.624999999779533
 21
-17.875000000312891
 31
0.0
  0
LINE
  5
BB
  8
DATA
  6
CONTINUOUS
 62
     7
 10
-50.924999999779523
 20
-17.875000000312891
 30
0.0
 11
-50.924999999779523
 21
-19.875000000312891
 31
0.0
  0
LINE
  5
BC
  8
DATA
  6
CONTINUOUS
 62
     7
 10
-51.624999999779533
 20
-17.875000000312891
 30
0.0
 11
-50.924999999779523
 21
-17.875000000312891
 31
0.0
  0
LINE
  5
BD
  8
DATA
  6
CONTINUOUS
 62
     7
 10
-53.024999999779517
 20
-19.875000000312891
 30
0.0
 11
-53.024999999779517
 21
-17.875000000312891
 31
0.0
  0
LINE
  5
BE
  8
DATA
  6
CONTINUOUS
 62
     7
 10
-52.324999999779521
 20
-17.875000000312891
 30
0.0
 11
-52.324999999779521
 21
-19.875000000312891
 31
0.0
  0
LINE
  5
BF
  8
DATA
  6
CONTINUOUS
 62
     7
 10
-53.024999999779517
 20
-17.875000000312891
 30
0.0
 11
-52.324999999779521
 21
-17.875000000312891
 31
0.0
  0
LINE
  5
C0
  8
DATA
  6
CONTINUOUS
 62
     7
 10
-54.424999999779523
 20
-19.875000000312891
 30
0.0
 11
-54.424999999779523
 21
-17.875000000312891
 31
0.0
  0
LINE
  5
C1
  8
DATA
  6
CONTINUOUS
 62
     7
 10
-53.724999999779527
 20
-17.875000000312891
 30
0.0
 11
-53.724999999779527
 21
-19.875000000312891
 31
0.0
  0
LINE
  5
C2
  8
DATA
  6
CONTINUOUS
 62
     7
 10
-54.424999999779523
 20
-17.875000000312891
 30
0.0
 11
-53.724999999779527
 21
-17.875000000312891
 31
0.0
  0
LINE
  5
C3
  8
DATA
  6
CONTINUOUS
 62
     7
 10
-55.824999999779521
 20
-19.875000000312891
 30
0.0
 11
-55.824999999779521
 21
-17.875000000312891
 31
0.0
  0
LINE
  5
C4
  8
DATA
  6
CONTINUOUS
 62
     7
 10
-55.124999999779533
 20
-17.875000000312891
 30
0.0
 11
-55.124999999779533
 21
-19.875000000312891
 31
0.0
  0
LINE
  5
C5
  8
DATA
  6
CONTINUOUS
 62
     7
 10
-55.824999999779521
 20
-17.875000000312891
 30
0.0
 11
-55.124999999779533
 21
-17.875000000312891
 31
0.0
  0
LINE
  5
C6
  8
DATA
  6
CONTINUOUS
 62
     7
 10
-57.22499999977952
 20
-19.875000000312891
 30
0.0
 11
-57.22499999977952
 21
-17.875000000312891
 31
0.0
  0
LINE
  5
C7
  8
DATA
  6
CONTINUOUS
 62
     7
 10
-56.52499999977951
 20
-17.875000000312891
 30
0.0
 11
-56.52499999977951
 21
-19.875000000312891
 31
0.0
  0
LINE
  5
C8
  8
DATA
  6
CONTINUOUS
 62
     7
 10
-57.22499999977952
 20
-17.875000000312891
 30
0.0
 11
-56.52499999977951
 21
-17.875000000312891
 31
0.0
  0
LINE
  5
C9
  8
DATA
  6
CONTINUOUS
 62
     7
 10
-48.824999999779521
 20
-19.875000000312891
 30
0.0
 11
-48.824999999779521
 21
-17.875000000312891
 31
0.0
  0
LINE
  5
CA
  8
DATA
  6
CONTINUOUS
 62
     7
 10
-48.124999999779533
 20
-17.875000000312891
 30
0.0
 11
-48.124999999779533
 21
-19.875000000312891
 31
0.0
  0
LINE
  5
CB
  8
DATA
  6
CONTINUOUS
 62
     7
 10
-48.824999999779521
 20
-17.875000000312891
 30
0.0
 11
-48.124999999779533
 21
-17.875000000312891
 31
0.0
  0
LINE
  5
CC
  8
DATA
  6
CONTINUOUS
 62
     7
 10
-47.42499999977953
 20
-19.875000000312891
 30
0.0
 11
-47.42499999977953
 21
-17.875000000312891
 31
0.0
  0
LINE
  5
CD
  8
DATA
  6
CONTINUOUS
 62
     7
 10
-46.724999999779527
 20
-17.875000000312891
 30
0.0
 11
-46.724999999779527
 21
-19.875000000312891
 31
0.0
  0
LINE
  5
CE
  8
DATA
  6
CONTINUOUS
 62
     7
 10
-47.42499999977953
 20
-17.875000000312891
 30
0.0
 11
-46.724999999779527
 21
-17.875000000312891
 31
0.0
  0
LINE
  5
CF
  8
DATA
  6
CONTINUOUS
 62
     7
 10
-46.02499999977951
 20
-19.875000000312891
 30
0.0
 11
-46.02499999977951
 21
-17.875000000312891
 31
0.0
  0
LINE
  5
D0
  8
DATA
  6
CONTINUOUS
 62
     7
 10
-45.324999999779521
 20
-17.875000000312891
 30
0.0
 11
-45.324999999779521
 21
-19.875000000312891
 31
0.0
  0
LINE
  5
D1
  8
DATA
  6
CONTINUOUS
 62
     7
 10
-46.02499999977951
 20
-17.875000000312891
 30
0.0
 11
-45.324999999779521
 21
-17.875000000312891
 31
0.0
  0
LINE
  5
D2
  8
DATA
  6
CONTINUOUS
 62
     7
 10
-44.624999999779533
 20
-19.875000000312891
 30
0.0
 11
-44.624999999779533
 21
-17.875000000312891
 31
0.0
  0
LINE
  5
D3
  8
DATA
  6
CONTINUOUS
 62
     7
 10
-43.924999999779523
 20
-17.875000000312891
 30
0.0
 11
-43.924999999779523
 21
-19.875000000312891
 31
0.0
  0
LINE
  5
D4
  8
DATA
  6
CONTINUOUS
 62
     7
 10
-44.624999999779533
 20
-17.875000000312891
 30
0.0
 11
-43.924999999779523
 21
-17.875000000312891
 31
0.0
  0
LINE
  5
D5
  8
DATA
  6
CONTINUOUS
 62
     7
 10
-43.22499999977952
 20
-19.875000000312891
 30
0.0
 11
-43.22499999977952
 21
-17.875000000312891
 31
0.0
  0
LINE
  5
D6
  8
DATA
  6
CONTINUOUS
 62
     7
 10
-42.524999999779517
 20
-17.875000000312891
 30
0.0
 11
-42.524999999779517
 21
-19.875000000312891
 31
0.0
  0
LINE
  5
D7
  8
DATA
  6
CONTINUOUS
 62
     7
 10
-43.22499999977952
 20
-17.875000000312891
 30
0.0
 11
-42.524999999779517
 21
-17.875000000312891
 31
0.0
  0
LINE
  5
D8
  8
DATA
  6
CONTINUOUS
 62
     7
 10
-57.874999999779533
 20
-19.875000000312891
 30
0.0
 11
-57.22499999977952
 21
-19.875000000312891
 31
0.0
  0
LINE
  5
D9
  8
DATA
  6
CONTINUOUS
 62
     7
 10
-56.52499999977951
 20
-19.875000000312891
 30
0.0
 11
-55.824999999779521
 21
-19.875000000312891
 31
0.0
  0
LINE
  5
DA
  8
DATA
  6
CONTINUOUS
 62
     7
 10
-55.124999999779533
 20
-19.875000000312891
 30
0.0
 11
-54.424999999779523
 21
-19.875000000312891
 31
0.0
  0
LINE
  5
DB
  8
DATA
  6
CONTINUOUS
 62
     7
 10
-53.724999999779527
 20
-19.875000000312891
 30
0.0
 11
-53.024999999779517
 21
-19.875000000312891
 31
0.0
  0
LINE
  5
DC
  8
DATA
  6
CONTINUOUS
 62
     7
 10
-52.324999999779521
 20
-19.875000000312891
 30
0.0
 11
-51.624999999779533
 21
-19.875000000312891
 31
0.0
  0
LINE
  5
DD
  8
DATA
  6
CONTINUOUS
 62
     7
 10
-50.924999999779523
 20
-19.875000000312891
 30
0.0
 11
-50.22499999977952
 21
-19.875000000312891
 31
0.0
  0
LINE
  5
DE
  8
DATA
  6
CONTINUOUS
 62
     7
 10
-49.524999999779517
 20
-19.875000000312891
 30
0.0
 11
-48.824999999779521
 21
-19.875000000312891
 31
0.0
  0
LINE
  5
DF
  8
DATA
  6
CONTINUOUS
 62
     7
 10
-48.124999999779533
 20
-19.875000000312891
 30
0.0
 11
-47.42499999977953
 21
-19.875000000312891
 31
0.0
  0
LINE
  5
E0
  8
DATA
  6
CONTINUOUS
 62
     7
 10
-46.724999999779527
 20
-19.875000000312891
 30
0.0
 11
-46.02499999977951
 21
-19.875000000312891
 31
0.0
  0
LINE
  5
E1
  8
DATA
  6
CONTINUOUS
 62
     7
 10
-45.324999999779521
 20
-19.875000000312891
 30
0.0
 11
-44.624999999779533
 21
-19.875000000312891
 31
0.0
  0
LINE
  5
E2
  8
DATA
  6
CONTINUOUS
 62
     7
 10
-43.924999999779523
 20
-19.875000000312891
 30
0.0
 11
-43.22499999977952
 21
-19.875000000312891
 31
0.0
  0
LINE
  5
E3
  8
DATA
  6
CONTINUOUS
 62
     7
 10
-42.524999999779517
 20
-19.875000000312891
 30
0.0
 11
-41.874999999779533
 21
-19.875000000312891
 31
0.0
  0
LINE
  5
E4
  8
DATA
  6
CONTINUOUS
 62
     7
 10
-49.9012272870049
 20
66.924909489320342
 30
0.0
 11
-49.881901821576662
 21
71.124997022176089
 31
0.0
  0
LINE
  5
E5
  8
DATA
  6
CONTINUOUS
 62
     7
 10
-48.599999999779527
 20
66.704717167285679
 30
0.0
 11
-47.145325462446657
 21
70.644898730404734
 31
0.0
  0
LINE
  5
E6
  8
DATA
  6
CONTINUOUS
 62
     7
 10
-47.452556529550058
 20
66.05275812383988
 30
0.0
 11
-44.737988138226527
 21
69.257789669508256
 31
0.0
  0
LINE
  5
E7
  8
DATA
  6
CONTINUOUS
 62
     7
 10
-46.597295493288271
 20
65.04766824151325
 30
0.0
 11
-42.95025025873008
 21
67.13097566409607
 31
0.0
  0
LINE
  5
E8
  8
DATA
  6
CONTINUOUS
 62
     7
 10
-46.137373994275897
 20
63.810676193661223
 30
0.0
 11
-41.997739396425992
 21
64.520981871651969
 31
0.0
  0
LINE
  5
E9
  8
DATA
  6
CONTINUOUS
 62
     7
 10
-46.12826535301221
 20
62.490981477313063
 30
0.0
 11
-41.995342418871132
 21
61.742612062950784
 31
0.0
  0
LINE
  5
EA
  8
DATA
  6
CONTINUOUS
 62
     7
 10
-46.57106820606289
 20
61.247758751880028
 30
0.0
 11
-42.943348436934542
 21
59.130978641293098
 31
0.0
  0
LINE
  5
EB
  8
DATA
  6
CONTINUOUS
 62
     7
 10
-47.412373994275889
 20
60.230959026062663
 30
0.0
 11
-44.727413933758811
 21
57.001083140935222
 31
0.0
  0
LINE
  5
EC
  8
DATA
  6
CONTINUOUS
 62
     7
 10
-48.550708823241678
 20
59.563223353160289
 30
0.0
 11
-47.132354280424138
 21
55.609822393129463
 31
0.0
  0
LINE
  5
ED
  8
DATA
  6
CONTINUOUS
 62
     7
 10
-49.84877271255413
 20
59.325090510053862
 30
0.0
 11
-49.868098177982418
 21
55.125002977189062
 31
0.0
  0
LINE
  5
EE
  8
DATA
  6
CONTINUOUS
 62
     7
 10
-51.149999999779531
 20
59.545282832088517
 30
0.0
 11
-52.60467453711211
 21
55.605101268970458
 31
0.0
  0
LINE
  5
EF
  8
DATA
  6
CONTINUOUS
 62
     7
 10
-52.297443470008957
 20
60.197241875534317
 30
0.0
 11
-55.012011861332461
 21
56.992210329866133
 31
0.0
  0
LINE
  5
F0
  8
DATA
  6
CONTINUOUS
 62
     7
 10
-53.15270450627078
 20
61.202331757860946
 30
0.0
 11
-56.799749740828879
 21
59.11902433527824
 31
0.0
  0
LINE
  5
F1
  8
DATA
  6
CONTINUOUS
 62
     7
 10
-53.612626005283182
 20
62.439323805712981
 30
0.0
 11
-57.752260603133053
 21
61.729018127722249
 31
0.0
  0
LINE
  5
F2
  8
DATA
  6
CONTINUOUS
 62
     7
 10
-53.62173464654682
 20
63.75901852206114
 30
0.0
 11
-57.754657580687848
 21
64.507387936423427
 31
0.0
  0
LINE
  5
F3
  8
DATA
  6
CONTINUOUS
 62
     7
 10
-53.178931793496162
 20
65.002241247494183
 30
0.0
 11
-56.806651562624531
 21
67.119021358081113
 31
0.0
  0
LINE
  5
F4
  8
DATA
  6
CONTINUOUS
 62
     7
 10
-52.337626005283127
 20
66.019040973311533
 30
0.0
 11
-55.022586065800503
 21
69.248916858439216
 31
0.0
  0
LINE
  5
F5
  8
DATA
  6
CONTINUOUS
 62
     7
 10
-51.199291176317381
 20
66.686776646213929
 30
0.0
 11
-52.61764571913497
 21
70.640177606244691
 31
0.0
  0
LINE
  5
F6
  8
DATA
  6
CONTINUOUS
 62
     7
 10
-59.374999999779533
 20
-186.87500000031241
 30
0.0
 11
-40.374999999779533
 21
-186.87500000031241
 31
0.0
  0
LINE
  5
F7
  8
DATA
  6
CONTINUOUS
 62
     7
 10
-59.374999999779533
 20
-40.875000000312887
 30
0.0
 11
-59.374999999779533
 21
-186.87500000031241
 31
0.0
  0
LINE
  5
F8
  8
DATA
  6
CONTINUOUS
 62
     7
 10
-40.374999999779533
 20
-40.875000000312887
 30
0.0
 11
-40.374999999779533
 21
-186.87500000031241
 31
0.0
  0
TEXT
  5
F9
  8
DATA
 62
     7
 10
-54.979350538792708
 20
-183.48113374640809
 30
0.0
 40
3.257682291666665
  1
MMP-A
 51
0.7
 11
-54.979350538792708
 21
-180.22345145474151
 31
0.0
 73
     3
  0
CIRCLE
  5
FA
  8
DATA
  6
STYLE_01
 62
     7
 10
-49.874999999779533
 20
63.124999999687113
 30
0.0
 40
31.0
  0
ARC
  5
FB
  8
DATA
  6
STYLE_01
 62
     7
 10
-49.874999999779533
 20
-5.8750000003128644
 30
0.0
 40
31.0
 50
0.0
 51
180.0
  0
ARC
  5
FC
  8
DATA
  6
STYLE_01
 62
     7
 10
-49.874999999779533
 20
-37.973179546347218
 30
0.0
 40
31.0
 50
180.0
 51
252.15448225317479
  0
ARC
  5
FD
  8
DATA
  6
STYLE_01
 62
     7
 10
-49.874999999779533
 20
-37.973179546347218
 30
0.0
 40
31.0
 50
287.84551774682518
 51
0.0
  0
LINE
  5
FE
  8
DATA
  6
STYLE_01
 62
     7
 10
-59.374999999779533
 20
-67.481652905706227
 30
0.0
 11
-40.374999999779568
 21
-67.481652905706227
 31
0.0
  0
LINE
  5
FF
  8
DATA
  6
STYLE_01
 62
     7
 10
-80.874999999779547
 20
-37.973179546347211
 30
0.0
 11
-80.874999999779547
 21
-5.875000000312868
 31
0.0
  0
LINE
  5
100
  8
DATA
  6
STYLE_01
 62
     7
 10
-18.874999999779519
 20
-37.973179546347232
 30
0.0
 11
-18.874999999779519
 21
-5.8750000003128644
 31
0.0
  0
TEXT
  5
101
  8
DATA
 62
     7
 10
5.9473336508963364
 20
27.639755028024791
 30
0.0
 40
5.4294704861111107
  1
ウインドスクリーン(UA0896)
 51
0.7
 11
5.9473336508963364
 21
33.069225514135901
 31
0.0
 73
     3
  0
LINE
  5
102
  8
DATA
  6
CONTINUOUS
 62
     7
 10
-41.874999999779533
 20
-17.875000000312891
 30
0.0
 11
-41.874999999779533
 21
-24.875000000312891
 31
0.0
  0
LINE
  5
103
  8
DATA
  6
CONTINUOUS
 62
     7
 10
-57.874999999779533
 20
-24.875000000312891
 30
0.0
 11
-41.874999999779533
 21
-24.875000000312891
 31
0.0
  0
LINE
  5
104
  8
DATA
  6
CONTINUOUS
 62
     7
 10
-57.874999999779533
 20
-24.875000000312891
 30
0.0
 11
-57.874999999779533
 21
-17.875000000312891
 31
0.0
  0
LINE
  5
105
  8
DATA
  6
CONTINUOUS
 62
     7
 10
-59.374999999779533
 20
-36.875000000312902
 30
0.0
 11
-57.874999999779533
 21
-24.875000000312891
 31
0.0
  0
LINE
  5
106
  8
DATA
  6
CONTINUOUS
 62
     7
 10
-41.874999999779533
 20
-24.875000000312891
 30
0.0
 11
-40.374999999779533
 21
-36.875000000312902
 31
0.0
  0
ARC
  5
107
  8
DATA
  6
CONTINUOUS
 62
     7
 10
-49.874999999779519
 20
63.12499999968712
 30
0.0
 40
8.0
 50
130.04943066361241
 51
150.0494306636123
  0
ARC
  5
108
  8
DATA
  6
CONTINUOUS
 62
     7
 10
-49.874999999779519
 20
63.12499999968712
 30
0.0
 40
7.9999999999999947
 50
170.0494306636123
 51
190.0494306636121
  0
ARC
  5
109
  8
DATA
  6
CONTINUOUS
 62
     7
 10
-49.874999999779519
 20
63.12499999968712
 30
0.0
 40
7.9999999999999902
 50
210.04943066361199
 51
230.04943066361199
  0
ARC
  5
10A
  8
DATA
  6
CONTINUOUS
 62
     7
 10
-49.874999999779519
 20
63.12499999968712
 30
0.0
 40
7.9999999999999822
 50
250.0494306636119
 51
270.04943066362432
  0
ARC
  5
10B
  8
DATA
  6
CONTINUOUS
 62
     7
 10
-49.874999999779519
 20
63.12499999968712
 30
0.0
 40
7.9999999999999947
 50
330.04943066361199
 51
350.04943066361238
  0
ARC
  5
10C
  8
DATA
  6
CONTINUOUS
 62
     7
 10
-49.874999999779519
 20
63.12499999968712
 30
0.0
 40
7.9999999999999982
 50
10.04943066361214
 51
30.04943066361237
  0
ARC
  5
10D
  8
DATA
  6
CONTINUOUS
 62
     7
 10
-49.874999999779519
 20
63.12499999968712
 30
0.0
 40
8.0
 50
50.049430663612391
 51
70.049430663612384
  0
ARC
  5
10E
  8
DATA
  6
CONTINUOUS
 62
     7
 10
-49.874999999779519
 20
63.12499999968712
 30
0.0
 40
7.9999999999999929
 50
90.049430663523594
 51
110.0494306636125
  0
ARC
  5
10F
  8
DATA
  6
CONTINUOUS
 62
     7
 10
-49.874999999779561
 20
63.124999999687041
 30
0.0
 40
7.7500000000000009
 50
150.0595294288037
 51
170.05952942880381
  0
ARC
  5
110
  8
DATA
  6
CONTINUOUS
 62
     7
 10
-49.874999999779561
 20
63.124999999687041
 30
0.0
 40
7.7499999999999929
 50
190.05952942880359
 51
210.05952942880381
  0
ARC
  5
111
  8
DATA
  6
CONTINUOUS
 62
     7
 10
-49.874999999779561
 20
63.124999999687041
 30
0.0
 40
7.7499999999999929
 50
230.0595294288037
 51
250.05952942880401
  0
ARC
  5
112
  8
DATA
  6
CONTINUOUS
 62
     7
 10
-49.874999999779561
 20
63.124999999687041
 30
0.0
 40
7.7499999999999929
 50
270.05952942881061
 51
290.05952942880441
  0
ARC
  5
113
  8
DATA
  6
CONTINUOUS
 62
     7
 10
-49.874999999779561
 20
63.124999999687041
 30
0.0
 40
7.7499999999999902
 50
310.0595294288043
 51
330.05952942880452
  0
ARC
  5
114
  8
DATA
  6
CONTINUOUS
 62
     7
 10
-49.874999999779561
 20
63.124999999687041
 30
0.0
 40
7.7499999999999849
 50
350.05952942880452
 51
10.05952942880441
  0
ARC
  5
115
  8
DATA
  6
CONTINUOUS
 62
     7
 10
-49.874999999779561
 20
63.124999999687041
 30
0.0
 40
7.7499999999999849
 50
30.059529428804471
 51
50.059529428803607
  0
ARC
  5
116
  8
DATA
  6
CONTINUOUS
 62
     7
 10
-49.874999999779561
 20
63.124999999687041
 30
0.0
 40
7.7500000000000062
 50
70.059529428804325
 51
90.059529428810464
  0
ARC
  5
117
  8
DATA
  6
CONTINUOUS
 62
     7
 10
-49.874999999779561
 20
63.124999999687041
 30
0.0
 40
7.7500000000000062
 50
110.0595294288039
 51
130.0595294288039
  0
ARC
  5
118
  8
DATA
  6
CONTINUOUS
 62
     7
 10
-49.87499999977954
 20
63.12499999968712
 30
0.0
 40
8.0000000000000249
 50
290.0494306636121
 51
310.04943066361199
  0
CIRCLE
  5
119
  8
DATA
  6
CONTINUOUS
 62
     7
 10
-49.87499999977954
 20
63.12499999968712
 30
0.0
 40
9.5
  0
LINE
  5
11A
  8
DATA
  6
CONTINUOUS
 62
     7
 10
3.1250000000000142
 20
25.625
 30
0.0
 11
100.0
 21
25.625
 31
0.0
  0
LINE
  5
11B
  8
DATA
  6
CONTINUOUS
 62
     7
 10
3.1250000000000142
 20
25.625
 30
0.0
 11
-24.100994199152051
 21
45.900000000000013
 31
0.0
  0
LINE
  5
11C
  8
DATA
  6
CONTINUOUS
 62
     7
 10
-24.100994199152051
 20
45.900000000000013
 30
0.0
 11
-17.96363297853685
 21
43.54408775738478
 31
0.0
  0
LINE
  5
11D
  8
DATA
  6
CONTINUOUS
 62
     7
 10
-24.100994199152051
 20
45.900000000000013
 30
0.0
 11
-19.963839591205431
 21
40.79103953850084
 31
0.0
  0
LINE
  5
11E
  8
DATA
  6
CONTINUOUS
 62
     7
 10
3.1250000000000142
 20
25.625
 30
0.0
 11
-24.100994199152051
 21
11.34999999937425
 31
0.0
  0
LINE
  5
11F
  8
DATA
  6
CONTINUOUS
 62
     7
 10
-24.100994199152051
 20
11.34999999937425
 30
0.0
 11
-19.215557332937401
 21
15.74886711187567
 31
0.0
  0
LINE
  5
120
  8
DATA
  6
CONTINUOUS
 62
     7
 10
-24.100994199152051
 20
11.34999999937425
 30
0.0
 11
-17.67064820817443
 21
12.71681223356506
 31
0.0
  0
TEXT
  5
121
  8
DATA
 62
     7
 10
94.277043928907858
 20
-225.81949520611681
 30
0.0
 40
3.257682291666665
  1
無指向性マイクロホン
 51
0.7
 11
94.277043928907858
 21
-222.56181291445009
 31
0.0
 73
     3
  0
CIRCLE
  5
122
  8
DATA
  6
CONTINUOUS
 62
     7
 10
-49.874999999779533
 20
-208.75000000015629
 30
0.0
 40
9.5
  0
ARC
  5
123
  8
DATA
  6
CONTINUOUS
 62
     7
 10
-49.874999999779462
 20
-208.75000000015621
 30
0.0
 40
8.0000000000000728
 50
232.79368802197979
 51
218.89742555091959
  0
CIRCLE
  5
124
  8
DATA
  6
CONTINUOUS
 62
     7
 10
-45.874999999779533
 20
-208.75000000015629
 30
0.0
 40
1.150000000000005
  0
CIRCLE
  5
125
  8
DATA
  6
CONTINUOUS
 62
     7
 10
-53.874999999779533
 20
-208.75000000015629
 30
0.0
 40
1.150000000000005
  0
ARC
  5
126
  8
DATA
  6
CONTINUOUS
 62
     7
 10
-54.974086103570912
 20
-214.00185377695439
 30
0.0
 40
1.150000000000003
 50
168.54291116051769
 51
283.14820241238237
  0
CIRCLE
  5
127
  8
DATA
  6
CONTINUOUS
 62
     7
 10
-49.874999999779533
 20
-204.6189793813121
 30
0.0
 40
1.150000000000005
  0
POLYLINE
  5
128
  8
DATA
  6
CONTINUOUS
 62
     7
 66
     1
 10
0.0
 20
0.0
 30
0.0
 70
     1
  0
VERTEX
  5
2B6
  8
DATA
  6
CONTINUOUS
 62
     7
 10
-51.374999999779533
 20
-211.26904521791701
 30
0.0
  0
VERTEX
  5
2B7
  8
DATA
  6
CONTINUOUS
 62
     7
 10
-48.374999999779533
 20
-211.26904521791701
 30
0.0
  0
VERTEX
  5
2B8
  8
DATA
  6
CONTINUOUS
 62
     7
 10
-48.374999999779533
 20
-214.26904521791701
 30
0.0
  0
VERTEX
  5
2B9
  8
DATA
  6
CONTINUOUS
 62
     7
 10
-51.374999999779533
 20
-214.26904521791701
 30
0.0
  0
SEQEND
  5
2BA
  8
DATA
  6
CONTINUOUS
 62
     7
  0
CIRCLE
  5
12F
  8
DATA
  6
CONTINUOUS
 62
     7
 10
-49.874999999779462
 20
-208.75000000015621
 30
0.0
 40
7.0
  0
TEXT
  5
130
  8
DATA
 62
     7
 10
-53.025929741870719
 20
-213.42061151447189
 30
0.0
 40
1.303072916666665
  1
0
 51
0.7
 11
-53.025929741870719
 21
-212.7690750561386
 31
0.0
 73
     2
  0
TEXT
  5
131
  8
DATA
 62
     7
 10
-47.894344369076073
 20
-213.42061151447189
 30
0.0
 40
1.303072916666665
  1
-20
 51
0.7
 11
-47.894344369076073
 21
-212.7690750561386
 31
0.0
 73
     2
  0
TEXT
  5
132
  8
DATA
 62
     7
 10
-175.0
 20
-240.7137965495786
 30
0.0
 40
3.800629340277776
  1
※仕様及び外観は予告なく変更されることがあります。
 51
0.7
 11
-175.0
 21
-236.91316720930081
 31
0.0
 73
     3
  0
TEXT
  5
133
  8
DATA
 62
     7
 10
-175.0
 20
-245.6526854384673
 30
0.0
 40
3.800629340277776
  1
　また、同一商品でも若干の個体差があることがあります。ご了承ください。
 51
0.7
 11
-175.0
 21
-241.85205609818959
 31
0.0
 73
     3
  0
ENDSEC
  0
EOF
