  0
SECTION
  2
HEADER
  9
$ACADVER
  1
AC1009
  9
$INSBASE
 10
0.0
 20
0.0
 30
0.0
  9
$EXTMIN
 10
-80.010985489947416
 20
-131.67677505465531
 30
-0.0015258207003583
  9
$EXTMAX
 10
280.01098716632811
 20
403.54994963264153
 30
0.0000000349246037
  9
$LIMMIN
 10
0.0
 20
0.0
  9
$LIMMAX
 10
0.0
 20
0.0
  9
$ORTHOMODE
 70
     0
  9
$REGENMODE
 70
     1
  9
$FILLMODE
 70
     1
  9
$QTEXTMODE
 70
     0
  9
$MIRRTEXT
 70
     1
  9
$DRAGMODE
 70
     2
  9
$LTSCALE
 40
10.16
  9
$OSMODE
 70
   231
  9
$ATTMODE
 70
     1
  9
$TEXTSIZE
 40
0.0
  9
$TRACEWID
 40
1.0
  9
$TEXTSTYLE
  7
STANDARD
  9
$CLAYER
  8
DATA
  9
$CELTYPE
  6
BYLAYER
  9
$CECOLOR
 62
   256
  9
$DIMSCALE
 40
1.0
  9
$DIMASZ
 40
0.18
  9
$DIMEXO
 40
0.0625
  9
$DIMDLI
 40
0.38
  9
$DIMRND
 40
0.0
  9
$DIMDLE
 40
0.0
  9
$DIMEXE
 40
0.18
  9
$DIMTP
 40
0.0
  9
$DIMTM
 40
0.0
  9
$DIMTXT
 40
0.18
  9
$DIMCEN
 40
0.09
  9
$DIMTSZ
 40
0.0
  9
$DIMTOL
 70
     0
  9
$DIMLIM
 70
     0
  9
$DIMTIH
 70
     1
  9
$DIMTOH
 70
     1
  9
$DIMSE1
 70
     0
  9
$DIMSE2
 70
     0
  9
$DIMTAD
 70
     0
  9
$DIMZIN
 70
     0
  9
$DIMBLK
  1

  9
$DIMASO
 70
     1
  9
$DIMSHO
 70
     1
  9
$DIMPOST
  1

  9
$DIMAPOST
  1

  9
$DIMALT
 70
     0
  9
$DIMALTD
 70
     2
  9
$DIMALTF
 40
25.399999999999999
  9
$DIMLFAC
 40
1.0
  9
$DIMTOFL
 70
     0
  9
$DIMTVP
 40
0.0
  9
$DIMTIX
 70
     0
  9
$DIMSOXD
 70
     0
  9
$DIMSAH
 70
     0
  9
$DIMBLK1
  1

  9
$DIMBLK2
  1

  9
$DIMSTYLE
  2
STANDARD
  9
$DIMCLRD
 70
     0
  9
$DIMCLRE
 70
     0
  9
$DIMCLRT
 70
     0
  9
$DIMTFAC
 40
1.0
  9
$DIMGAP
 40
0.09
  9
$LUNITS
 70
     2
  9
$LUPREC
 70
     4
  9
$SKETCHINC
 40
0.1
  9
$FILLETRAD
 40
0.0
  9
$AUNITS
 70
     0
  9
$AUPREC
 70
     0
  9
$MENU
  1
acad
  9
$ELEVATION
 40
0.0
  9
$PELEVATION
 40
0.0
  9
$THICKNESS
 40
0.0
  9
$LIMCHECK
 70
     0
  9
$BLIPMODE
 70
     0
  9
$CHAMFERA
 40
0.0
  9
$CHAMFERB
 40
0.0
  9
$SKPOLY
 70
     0
  9
$TDCREATE
 40
2456457.5802662042
  9
$TDUPDATE
 40
2456457.5830180561
  9
$TDINDWG
 40
0.0005133333
  9
$TDUSRTIMER
 40
0.0005132639
  9
$USRTIMER
 70
     1
  9
$ANGBASE
 50
0.0
  9
$ANGDIR
 70
     0
  9
$PDMODE
 70
     1
  9
$PDSIZE
 40
-2.0
  9
$PLINEWID
 40
0.0
  9
$COORDS
 70
     2
  9
$SPLFRAME
 70
     0
  9
$SPLINETYPE
 70
     6
  9
$SPLINESEGS
 70
     8
  9
$ATTDIA
 70
     0
  9
$ATTREQ
 70
     1
  9
$HANDLING
 70
     1
  9
$HANDSEED
  5
2B2
  9
$SURFTAB1
 70
     6
  9
$SURFTAB2
 70
     6
  9
$SURFTYPE
 70
     6
  9
$SURFU
 70
     6
  9
$SURFV
 70
     6
  9
$UCSNAME
  2

  9
$UCSORG
 10
0.0
 20
0.0
 30
0.0
  9
$UCSXDIR
 10
1.0
 20
0.0
 30
0.0
  9
$UCSYDIR
 10
0.0
 20
1.0
 30
0.0
  9
$PUCSNAME
  2

  9
$PUCSORG
 10
0.0
 20
0.0
 30
0.0
  9
$PUCSXDIR
 10
1.0
 20
0.0
 30
0.0
  9
$PUCSYDIR
 10
0.0
 20
1.0
 30
0.0
  9
$USERI1
 70
     0
  9
$USERI2
 70
     0
  9
$USERI3
 70
     0
  9
$USERI4
 70
     0
  9
$USERI5
 70
     0
  9
$USERR1
 40
0.0
  9
$USERR2
 40
0.0
  9
$USERR3
 40
0.0
  9
$USERR4
 40
0.0
  9
$USERR5
 40
0.0
  9
$WORLDVIEW
 70
     1
  9
$SHADEDGE
 70
     3
  9
$SHADEDIF
 70
    70
  9
$TILEMODE
 70
     1
  9
$MAXACTVP
 70
    64
  9
$PLIMCHECK
 70
     0
  9
$PEXTMIN
 10
1.0000000000000000E+020
 20
1.0000000000000000E+020
 30
1.0000000000000000E+020
  9
$PEXTMAX
 10
-1.0000000000000000E+020
 20
-1.0000000000000000E+020
 30
-1.0000000000000000E+020
  9
$PLIMMIN
 10
0.0
 20
0.0
  9
$PLIMMAX
 10
12.0
 20
9.0
  9
$UNITMODE
 70
     0
  9
$VISRETAIN
 70
     0
  9
$PLINEGEN
 70
     1
  9
$PSLTSCALE
 70
     0
  0
ENDSEC
  0
SECTION
  2
TABLES
  0
TABLE
  2
VPORT
 70
     1
  0
VPORT
  2
*ACTIVE
 70
     0
 10
0.0
 20
0.0
 11
1.0
 21
1.0
 12
100.0000008381904
 22
135.93658728899311
 13
0.0
 23
0.0
 14
1.0
 24
1.0
 15
0.0
 25
0.0
 16
0.0
 26
0.0
 36
1.0
 17
0.0
 27
0.0
 37
0.0
 40
539.35974958835709
 41
2.1585051546391751
 42
50.0
 43
0.0
 44
0.0
 50
0.0
 51
0.0
 71
     0
 72
  2000
 73
     1
 74
     1
 75
     0
 76
     0
 77
     0
 78
     0
  0
ENDTAB
  0
TABLE
  2
LTYPE
 70
    11
  0
LTYPE
  2
CONTINUOUS
 70
     0
  3
Solid line
 72
    65
 73
     0
 40
0.0
  0
LTYPE
  2
STYLE_01
 70
     0
  3

 72
    65
 73
     2
 40
0.4166412353515625
 49
0.208282470703125
 49
-0.2083587646484375
  0
ENDTAB
  0
TABLE
  2
LAYER
 70
     5
  0
LAYER
  2
0
 70
     0
 62
     7
  6
CONTINUOUS
  0
LAYER
  2
DATA
 70
     0
 62
     7
  6
CONTINUOUS
  0
LAYER
  2
HIBINO-BASE
 70
     0
 62
     7
  6
CONTINUOUS
  0
LAYER
  2
SPEC
 70
     0
 62
     7
  6
CONTINUOUS
  0
LAYER
  2
DIMNSIONS
 70
     0
 62
     7
  6
CONTINUOUS
  0
ENDTAB
  0
TABLE
  2
STYLE
 70
     3
  0
STYLE
  2
STANDARD
 70
     0
 40
0.0
 41
1.0
 50
0.0
 71
     0
 42
0.0
  3
txt
  4
BIGFONT.SHX
  0
ENDTAB
  0
TABLE
  2
VIEW
 70
     0
  0
ENDTAB
  0
TABLE
  2
UCS
 70
     0
  0
ENDTAB
  0
TABLE
  2
APPID
 70
     4
  0
APPID
  2
ACAD
 70
     0
  0
APPID
  2
ACADANNOTATIVE
 70
     0
  0
APPID
  2
ACAD_NAV_VCDISPLAY
 70
     0
  0
APPID
  2
ACAD_MLEADERVER
 70
     0
  0
ENDTAB
  0
TABLE
  2
DIMSTYLE
 70
     2
  0
DIMSTYLE
  2
STANDARD
 70
     0
  3

  4

  5

  6

  7

 40
1.0
 41
0.18
 42
0.0625
 43
0.38
 44
0.18
 45
0.0
 46
0.0
 47
0.0
 48
0.0
140
0.18
141
0.09
142
0.0
143
25.399999999999999
144
1.0
145
0.0
146
1.0
147
0.09
 71
     0
 72
     0
 73
     1
 74
     1
 75
     0
 76
     0
 77
     0
 78
     0
170
     0
171
     2
172
     0
173
     0
174
     0
175
     0
176
     0
177
     0
178
     0
  0
ENDTAB
  0
ENDSEC
  0
SECTION
  2
BLOCKS
  0
BLOCK
  8
0
  2
$MODEL_SPACE
 70
     0
 10
0.0
 20
0.0
 30
0.0
  3
$MODEL_SPACE
  1

  0
ENDBLK
  5
1FB
  8
0
  0
BLOCK
 67
     1
  8
0
  2
$PAPER_SPACE
 70
     0
 10
0.0
 20
0.0
 30
0.0
  3
$PAPER_SPACE
  1

  0
ENDBLK
  5
1F7
 67
     1
  8
0
  0
ENDSEC
  0
SECTION
  2
ENTITIES
  0
LINE
  5
2C
  8
HIBINO-BASE
  6
CONTINUOUS
 62
     7
 10
-79.999999999999986
 20
403.53364789486591
 30
0.0
 11
279.99999999999989
 21
403.53364789486591
 31
0.0
  0
LINE
  5
2D
  8
HIBINO-BASE
  6
CONTINUOUS
 62
     7
 10
279.99999999999989
 20
-116.46635210513411
 30
0.0
 11
-79.999999999999986
 21
-116.46635210513411
 31
0.0
  0
LINE
  5
2E
  8
HIBINO-BASE
  6
CONTINUOUS
 62
     7
 10
-79.999999999999986
 20
-116.46635210513411
 30
0.0
 11
-79.999999999999986
 21
403.53364789486591
 31
0.0
  0
LINE
  5
2F
  8
HIBINO-BASE
  6
CONTINUOUS
 62
     7
 10
279.99999999999989
 20
403.53364789486591
 30
0.0
 11
279.99999999999989
 21
-116.46635210513411
 31
0.0
  0
LINE
  5
30
  8
HIBINO-BASE
  6
CONTINUOUS
 62
     7
 10
100.0
 20
-71.466352105134064
 30
0.0
 11
279.99999999999989
 21
-71.466352105134064
 31
0.0
  0
LINE
  5
31
  8
HIBINO-BASE
  6
CONTINUOUS
 62
     7
 10
100.0
 20
-116.46635210513411
 30
0.0
 11
100.0
 21
-71.466352105134064
 31
0.0
  0
TEXT
  5
32
  8
HIBINO-BASE
 62
     7
 10
101.8
 20
-76.483738771800731
 30
0.0
 40
3.2576822916666659
  1
NOTE
 41
0.7
 11
101.8
 21
-73.226056480134062
 31
0.0
 73
     3
  0
LINE
  5
33
  8
HIBINO-BASE
  6
CONTINUOUS
 62
     7
 10
170.0
 20
-116.46635210513411
 30
0.0
 11
170.0
 21
-71.466352105134064
 31
0.0
  0
TEXT
  5
34
  8
HIBINO-BASE
 62
     7
 10
171.7999999999999
 20
-76.483738771800731
 30
0.0
 40
3.2576822916666659
  1
TITLE
 41
0.7
 11
171.7999999999999
 21
-73.226056480134062
 31
0.0
 73
     3
  0
LINE
  5
35
  8
HIBINO-BASE
  6
CONTINUOUS
 62
     7
 10
100.0
 20
-96.466352105134064
 30
0.0
 11
279.99999999999989
 21
-96.466352105134064
 31
0.0
  0
TEXT
  5
36
  8
HIBINO-BASE
 62
     7
 10
196.80000000000001
 20
-101.3710987718007
 30
0.0
 40
3.2576822916666659
  1
DRAWN
 41
0.7
 11
196.80000000000001
 21
-98.113416480134106
 31
0.0
 73
     3
  0
TEXT
  5
37
  8
HIBINO-BASE
 62
     7
 10
146.7999999999999
 20
-101.3710987718007
 30
0.0
 40
3.2576822916666659
  1
DATE
 41
0.7
 11
146.7999999999999
 21
-98.113416480134106
 31
0.0
 73
     3
  0
TEXT
  5
38
  8
HIBINO-BASE
 62
     7
 10
126.8
 20
-101.3710987718007
 30
0.0
 40
3.2576822916666659
  1
SCALE
 41
0.7
 11
126.8
 21
-98.113416480134106
 31
0.0
 73
     3
  0
TEXT
  5
39
  8
HIBINO-BASE
 62
     7
 10
171.7999999999999
 20
-101.3710987718007
 30
0.0
 40
3.2576822916666659
  1
DESIGN
 41
0.7
 11
171.7999999999999
 21
-98.113416480134106
 31
0.0
 73
     3
  0
TEXT
  5
3A
  8
HIBINO-BASE
 62
     7
 10
246.7999999999999
 20
-101.3710987718007
 30
0.0
 40
3.2576822916666659
  1
DRAWING NO.
 41
0.7
 11
246.7999999999999
 21
-98.113416480134106
 31
0.0
 73
     3
  0
TEXT
  5
3B
  8
HIBINO-BASE
 62
     7
 10
221.7999999999999
 20
-101.3710987718007
 30
0.0
 40
3.2576822916666659
  1
CHECK
 41
0.7
 11
221.7999999999999
 21
-98.113416480134106
 31
0.0
 73
     3
  0
LINE
  5
3C
  8
HIBINO-BASE
  6
CONTINUOUS
 62
     7
 10
128.74999999999989
 20
-113.96635210513411
 30
0.0
 11
136.25
 21
-106.46635210513401
 31
0.0
  0
TEXT
  5
3D
  8
HIBINO-BASE
 62
     7
 10
127.5
 20
-108.68423877180069
 30
0.0
 40
3.2576822916666659
  1
1
 41
0.7
 11
127.5
 21
-105.4265564801341
 31
0.0
 73
     3
  0
LINE
  5
3E
  8
HIBINO-BASE
  6
CONTINUOUS
 62
     7
 10
125.0
 20
-116.46635210513411
 30
0.0
 11
125.0
 21
-96.466352105134064
 31
0.0
  0
LINE
  5
3F
  8
HIBINO-BASE
  6
CONTINUOUS
 62
     7
 10
145.0
 20
-116.46635210513411
 30
0.0
 11
145.0
 21
-96.466352105134064
 31
0.0
  0
LINE
  5
40
  8
HIBINO-BASE
  6
CONTINUOUS
 62
     7
 10
195.0
 20
-96.466352105134064
 30
0.0
 11
195.0
 21
-116.46635210513411
 31
0.0
  0
LINE
  5
41
  8
HIBINO-BASE
  6
CONTINUOUS
 62
     7
 10
245.0
 20
-96.466352105134064
 30
0.0
 11
245.0
 21
-116.46635210513411
 31
0.0
  0
LINE
  5
42
  8
HIBINO-BASE
  6
CONTINUOUS
 62
     7
 10
220.0
 20
-116.46635210513411
 30
0.0
 11
220.0
 21
-96.466352105134064
 31
0.0
  0
TEXT
  5
43
  8
HIBINO-BASE
 62
     7
 10
146.71307999999999
 20
-110.7390587718007
 30
0.0
 40
3.2576822916666659
  1
'11.02.
 41
0.7
 11
146.71307999999999
 21
-107.4813764801341
 31
0.0
 73
     3
  0
TEXT
  5
44
  8
HIBINO-BASE
 62
     7
 10
135.0
 20
-112.43423877180069
 30
0.0
 40
3.2576822916666659
  1
2
 41
0.7
 11
135.0
 21
-109.1765564801341
 31
0.0
 73
     3
  0
TEXT
  5
45
  8
HIBINO-BASE
 62
     7
 10
198.0116200220692
 20
-110.7390587718007
 30
0.0
 40
3.2576822916666659
  1
T.Ootake
 41
0.7
 11
198.0116200220692
 21
-107.4813764801341
 31
0.0
 73
     3
  0
TEXT
  5
46
  8
HIBINO-BASE
 62
     7
 10
107.76666666666659
 20
-112.51435210513399
 30
0.0
 40
6.5153645833333318
  1
A4
 41
0.7
 11
107.76666666666659
 21
-105.9989875218007
 31
0.0
 73
     3
  0
TEXT
  5
47
  8
HIBINO-BASE
 62
     7
 10
101.9166666666666
 20
-101.7052621051341
 30
0.0
 40
3.2576822916666659
  1
PAPER SIZE
 41
0.7
 11
101.9166666666666
 21
-98.447579813467414
 31
0.0
 73
     3
  0
TEXT
  5
48
  8
HIBINO-BASE
 62
     7
 10
-74.48072948621963
 20
-129.31683257348661
 30
0.0
 40
7.0583116319444441
  1
Hibino-Intersound Corporation
 41
0.7
 11
-74.48072948621963
 21
-122.2585209415421
 31
0.0
 73
     3
  0
TEXT
  5
49
  8
HIBINO-BASE
 62
     7
 10
140.36121936042781
 20
-128.61465606690771
 30
0.0
 40
7.0583116319444441
  1
ヒビノインターサウンド株式会社
 41
0.7
 11
140.36121936042781
 21
-121.55634443496329
 31
0.0
 73
     3
  0
LINE
  5
4A
  8
SPEC
  6
CONTINUOUS
 62
     7
 10
-64.999999999999986
 20
383.53364789486602
 30
0.0
 11
230.0
 21
383.53364789486602
 31
0.0
  0
LINE
  5
4B
  8
SPEC
  6
CONTINUOUS
 62
     7
 10
-64.999999999999986
 20
376.03364789486591
 30
0.0
 11
230.0
 21
376.03364789486591
 31
0.0
  0
LINE
  5
4C
  8
SPEC
  6
CONTINUOUS
 62
     7
 10
-64.999999999999986
 20
361.03364789486602
 30
0.0
 11
230.0
 21
361.03364789486602
 31
0.0
  0
LINE
  5
4D
  8
SPEC
  6
CONTINUOUS
 62
     7
 10
-64.999999999999986
 20
368.53364789486602
 30
0.0
 11
230.0
 21
368.53364789486602
 31
0.0
  0
LINE
  5
4E
  8
SPEC
  6
CONTINUOUS
 62
     7
 10
-64.999999999999986
 20
383.53364789486602
 30
0.0
 11
-64.999999999999986
 21
248.53364789486591
 31
0.0
  0
TEXT
  5
4F
  8
SPEC
 62
     7
 10
-62.5
 20
386.32018789486591
 30
0.0
 40
4.8865234375000002
  1
仕様
 41
0.7
 11
-62.5
 21
391.2067113323659
 31
0.0
 73
     3
  0
LINE
  5
50
  8
SPEC
  6
CONTINUOUS
 62
     7
 10
230.0
 20
383.53364789486602
 30
0.0
 11
230.0
 21
248.53364789486591
 31
0.0
  0
LINE
  5
51
  8
SPEC
  6
CONTINUOUS
 62
     7
 10
-64.999999999999986
 20
353.53364789486602
 30
0.0
 11
230.0
 21
353.53364789486602
 31
0.0
  0
LINE
  5
52
  8
SPEC
  6
CONTINUOUS
 62
     7
 10
-64.999999999999986
 20
346.03364789486602
 30
0.0
 11
230.0
 21
346.03364789486602
 31
0.0
  0
LINE
  5
53
  8
SPEC
  6
CONTINUOUS
 62
     7
 10
-64.999999999999986
 20
338.53364789486591
 30
0.0
 11
230.0
 21
338.53364789486591
 31
0.0
  0
LINE
  5
54
  8
SPEC
  6
CONTINUOUS
 62
     7
 10
-64.999999999999986
 20
331.03364789486602
 30
0.0
 11
230.0
 21
331.03364789486602
 31
0.0
  0
LINE
  5
55
  8
SPEC
  6
CONTINUOUS
 62
     7
 10
-64.999999999999986
 20
323.53364789486602
 30
0.0
 11
230.0
 21
323.53364789486602
 31
0.0
  0
LINE
  5
56
  8
SPEC
  6
CONTINUOUS
 62
     7
 10
-64.999999999999986
 20
316.03364789486602
 30
0.0
 11
230.0
 21
316.03364789486602
 31
0.0
  0
LINE
  5
57
  8
SPEC
  6
CONTINUOUS
 62
     7
 10
-64.999999999999986
 20
308.53364789486602
 30
0.0
 11
230.0
 21
308.53364789486602
 31
0.0
  0
LINE
  5
58
  8
SPEC
  6
CONTINUOUS
 62
     7
 10
-64.999999999999986
 20
301.03364789486591
 30
0.0
 11
230.0
 21
301.03364789486591
 31
0.0
  0
LINE
  5
59
  8
SPEC
  6
CONTINUOUS
 62
     7
 10
-64.999999999999986
 20
293.53364789486602
 30
0.0
 11
230.0
 21
293.53364789486602
 31
0.0
  0
LINE
  5
5A
  8
SPEC
  6
CONTINUOUS
 62
     7
 10
-64.999999999999986
 20
286.03364789486602
 30
0.0
 11
230.0
 21
286.03364789486602
 31
0.0
  0
TEXT
  5
5B
  8
SPEC
 62
     7
 10
-63.357622436403503
 20
272.94656327272128
 30
0.0
 40
3.8006293402777769
  1
寸法
 41
0.7
 11
-63.357622436403503
 21
276.74719261299907
 31
0.0
 73
     3
  0
TEXT
  5
5C
  8
SPEC
 62
     7
 10
31.228867197907661
 20
272.73932974145458
 30
0.0
 40
3.8006293402777769
  1
\U+03C619.0\U+00D7169mm(除突起部)
 41
0.7
 11
31.228867197907661
 21
276.53995908173238
 31
0.0
 73
     3
  0
TEXT
  5
5D
  8
SPEC
 62
     7
 10
31.92071662647378
 20
265.41818248231652
 30
0.0
 40
3.8006293402777769
  1
160g
 41
0.7
 11
31.92071662647378
 21
269.21881182259432
 31
0.0
 73
     3
  0
TEXT
  5
5E
  8
SPEC
 62
     7
 10
-63.211397160202552
 20
377.82248027474691
 30
0.0
 40
3.8006293402777769
  1
指向性
 41
0.7
 11
-63.211397160202552
 21
381.6231096150247
 31
0.0
 73
     3
  0
TEXT
  5
5F
  8
SPEC
 62
     7
 10
31.857984649574419
 20
377.74300737264338
 30
0.0
 40
3.8006293402777769
  1
単一指向性
 41
0.7
 11
31.857984649574419
 21
381.54363671292123
 31
0.0
 73
     3
  0
TEXT
  5
60
  8
SPEC
 62
     7
 10
-63.587493486783011
 20
370.57055934857419
 30
0.0
 40
3.8006293402777769
  1
カートリッチ
 41
0.7
 11
-63.587493486783011
 21
374.37118868885199
 31
0.0
 73
     3
  0
TEXT
  5
61
  8
SPEC
 62
     7
 10
31.350988268185532
 20
370.27990535393758
 30
0.0
 40
3.8006293402777769
  1
プリポラライズド・コンデンサー
 41
0.7
 11
31.350988268185532
 21
374.08053469421537
 31
0.0
 73
     3
  0
TEXT
  5
62
  8
SPEC
 62
     7
 10
-63.309803790233687
 20
347.81510176349798
 30
0.0
 40
3.8006293402777769
  1
等価雑音レベル(Aウェイト、代表値)
 41
0.7
 11
-63.309803790233687
 21
351.61573110377577
 31
0.0
 73
     3
  0
TEXT
  5
63
  8
SPEC
 62
     7
 10
31.563030489447272
 20
347.67743848642141
 30
0.0
 40
3.8006293402777769
  1
18dB SPL
 41
0.7
 11
31.563030489447272
 21
351.4780678266992
 31
0.0
 73
     3
  0
TEXT
  5
64
  8
SPEC
 62
     7
 10
-63.249763700557359
 20
355.47331452060882
 30
0.0
 40
3.8006293402777769
  1
感度(\U+00B12dB@250Hz、公称値）
 41
0.7
 11
-63.249763700557359
 21
359.27394386088662
 31
0.0
 73
     3
  0
TEXT
  5
65
  8
SPEC
 62
     7
 10
31.951333512889882
 20
355.23047316662741
 30
0.0
 40
3.8006293402777769
  1
-40dB re、1V/Pa
 41
0.7
 11
31.951333512889882
 21
359.0311025069052
 31
0.0
 73
     3
  0
TEXT
  5
66
  8
SPEC
 62
     7
 10
-63.258719887794648
 20
362.9152009481146
 30
0.0
 40
3.8006293402777769
  1
周波数レンジ(\U+00B12dB)
 41
0.7
 11
-63.258719887794648
 21
366.71583028839228
 31
0.0
 73
     3
  0
TEXT
  5
67
  8
SPEC
 62
     7
 10
31.664414133227091
 20
362.73631477198671
 30
0.0
 40
3.8006293402777769
  1
40Hz～20kHz
 41
0.7
 11
31.664414133227091
 21
366.53694411226451
 31
0.0
 73
     3
  0
TEXT
  5
68
  8
SPEC
 62
     7
 10
-63.271553315279441
 20
340.4376683846844
 30
0.0
 40
3.8006293402777769
  1
全高調波歪み(THD)
 41
0.7
 11
-63.271553315279441
 21
344.23829772496219
 31
0.0
 73
     3
  0
TEXT
  5
69
  8
SPEC
 62
     7
 10
31.539796254420249
 20
340.4048796691676
 30
0.0
 40
3.8006293402777769
  1
1%%%以下(139dB SPL)
 41
0.7
 11
31.539796254420249
 21
344.20550900944528
 31
0.0
 73
     3
  0
TEXT
  5
6A
  8
SPEC
 62
     7
 10
-63.758326844392329
 20
287.90931701017001
 30
0.0
 40
3.8006293402777769
  1
コネクター
 41
0.7
 11
-63.758326844392329
 21
291.70994635044781
 31
0.0
 73
     3
  0
TEXT
  5
6B
  8
SPEC
 62
     7
 10
32.36242968506366
 20
287.77746803337379
 30
0.0
 40
3.8006293402777769
  1
XLR3ピン(オス)
 41
0.7
 11
32.36242968506366
 21
291.57809737365159
 31
0.0
 73
     3
  0
TEXT
  5
6C
  8
SPEC
 62
     7
 10
-63.354729526093429
 20
302.79770923270411
 30
0.0
 40
3.8006293402777769
  1
ケーブル引き伸ばし可能距離
 41
0.7
 11
-63.354729526093429
 21
306.59833857298179
 31
0.0
 73
     3
  0
TEXT
  5
6D
  8
SPEC
 62
     7
 10
31.84268684747439
 20
302.78760158895182
 30
0.0
 40
3.8006293402777769
  1
最大100m
 41
0.7
 11
31.84268684747439
 21
306.5882309292295
 31
0.0
 73
     3
  0
TEXT
  5
6E
  8
SPEC
 62
     7
 10
-63.585313382326817
 20
310.42621750555708
 30
0.0
 40
3.8006293402777769
  1
インピーダンス
 41
0.7
 11
-63.585313382326817
 21
314.22684684583493
 31
0.0
 73
     3
  0
TEXT
  5
6F
  8
SPEC
 62
     7
 10
31.738094719306769
 20
310.27110196217922
 30
0.0
 40
3.8006293402777769
  1
200\U+03A9以下
 41
0.7
 11
31.738094719306769
 21
314.07173130245701
 31
0.0
 73
     3
  0
TEXT
  5
70
  8
SPEC
 62
     7
 10
-63.392638933591641
 20
318.09996451031628
 30
0.0
 40
3.8006293402777769
  1
アッテネータースイッチ
 41
0.7
 11
-63.392638933591641
 21
321.90059385059408
 31
0.0
 73
     3
  0
TEXT
  5
71
  8
SPEC
 62
     7
 10
31.98665239551174
 20
317.8205770018954
 30
0.0
 40
3.8006293402777769
  1
0dB、-20dB
 41
0.7
 11
31.98665239551174
 21
321.6212063421732
 31
0.0
 73
     3
  0
TEXT
  5
72
  8
SPEC
 62
     7
 10
-63.634665970468482
 20
332.73344172142191
 30
0.0
 40
3.8006293402777769
  1
ダイナミックレンジ(代表値)
 41
0.7
 11
-63.634665970468482
 21
336.53407106169971
 31
0.0
 73
     3
  0
TEXT
  5
73
  8
SPEC
 62
     7
 10
31.519675404622831
 20
332.84235261992387
 30
0.0
 40
3.8006293402777769
  1
118dB
 41
0.7
 11
31.519675404622831
 21
336.64298196020172
 31
0.0
 73
     3
  0
TEXT
  5
74
  8
SPEC
 62
     7
 10
-63.178390136524698
 20
325.2990560018365
 30
0.0
 40
3.8006293402777769
  1
最大音圧レベル
 41
0.7
 11
-63.178390136524698
 21
329.09968534211441
 31
0.0
 73
     3
  0
TEXT
  5
75
  8
SPEC
 62
     7
 10
31.597081660327191
 20
325.46021747752508
 30
0.0
 40
3.8006293402777769
  1
159dB SPL
 41
0.7
 11
31.597081660327191
 21
329.26084681780293
 31
0.0
 73
     3
  0
TEXT
  5
76
  8
SPEC
 62
     7
 10
-63.29841570173722
 20
295.34570740489158
 30
0.0
 40
3.8006293402777769
  1
電源
 41
0.7
 11
-63.29841570173722
 21
299.14633674516938
 31
0.0
 73
     3
  0
TEXT
  5
77
  8
SPEC
 62
     7
 10
31.209401580521899
 20
295.4262253869075
 30
0.0
 40
3.8006293402777769
  1
ファンタムDC48V/2.8mA
 41
0.7
 11
31.209401580521899
 21
299.22685472718541
 31
0.0
 73
     3
  0
TEXT
  5
78
  8
SPEC
 62
     7
 10
-63.169444444444458
 20
280.41764498078862
 30
0.0
 40
3.8006293402777769
  1
色
 41
0.7
 11
-63.169444444444458
 21
284.2182743210663
 31
0.0
 73
     3
  0
TEXT
  5
79
  8
SPEC
 62
     7
 10
31.535255654426379
 20
280.69725198255941
 30
0.0
 40
3.8006293402777769
  1
マットブラック
 41
0.7
 11
31.535255654426379
 21
284.4978813228372
 31
0.0
 73
     3
  0
TEXT
  5
7A
  8
SPEC
 62
     7
 10
-63.165386804105239
 20
250.84718207029749
 30
0.0
 40
3.8006293402777769
  1
使用湿度範囲
 41
0.7
 11
-63.165386804105239
 21
254.6478114105752
 31
0.0
 73
     3
  0
TEXT
  5
7B
  8
SPEC
 62
     7
 10
31.70042064521208
 20
250.4744674042449
 30
0.0
 40
3.8006293402777769
  1
90%%%以下
 41
0.7
 11
31.70042064521208
 21
254.2750967445227
 31
0.0
 73
     3
  0
TEXT
  5
7C
  8
SPEC
 62
     7
 10
-63.101421020177199
 20
258.06374555351749
 30
0.0
 40
3.8006293402777769
  1
使用温度範囲
 41
0.7
 11
-63.101421020177199
 21
261.86437489379529
 31
0.0
 73
     3
  0
TEXT
  5
7D
  8
SPEC
 62
     7
 10
31.92522370715362
 20
257.74673018230288
 30
0.0
 40
3.8006293402777769
  1
-40℃～45℃
 41
0.7
 11
31.92522370715362
 21
261.54735952258068
 31
0.0
 73
     3
  0
LINE
  5
7E
  8
SPEC
  6
CONTINUOUS
 62
     7
 10
30.000000000000011
 20
383.53364789486602
 30
0.0
 11
30.0
 21
248.53364789486591
 31
0.0
  0
LINE
  5
7F
  8
SPEC
  6
CONTINUOUS
 62
     7
 10
-64.999999999999986
 20
271.03364789486591
 30
0.0
 11
230.0
 21
271.03364789486591
 31
0.0
  0
LINE
  5
80
  8
SPEC
  6
CONTINUOUS
 62
     7
 10
-64.999999999999986
 20
278.53364789486591
 30
0.0
 11
230.0
 21
278.53364789486591
 31
0.0
  0
LINE
  5
81
  8
SPEC
  6
CONTINUOUS
 62
     7
 10
-64.999999999999986
 20
263.53364789486591
 30
0.0
 11
230.0
 21
263.53364789486591
 31
0.0
  0
LINE
  5
82
  8
SPEC
  6
CONTINUOUS
 62
     7
 10
-64.999999999999986
 20
256.03364789486591
 30
0.0
 11
230.0
 21
256.03364789486591
 31
0.0
  0
LINE
  5
83
  8
SPEC
  6
CONTINUOUS
 62
     7
 10
-64.999999999999986
 20
248.53364789486591
 30
0.0
 11
230.0
 21
248.53364789486591
 31
0.0
  0
TEXT
  5
84
  8
SPEC
 62
     7
 10
-63.27952211513157
 20
265.43959840462537
 30
0.0
 40
3.8006293402777769
  1
質量
 41
0.7
 11
-63.27952211513157
 21
269.24022774490322
 31
0.0
 73
     3
  0
TEXT
  5
85
  8
DIMNSIONS
 62
     7
 10
60.0
 20
-91.927372105134054
 30
0.0
 40
4.8865234375000002
  1
(単位：mm)
 41
0.7
 11
60.0
 21
-87.040848667634066
 31
0.0
 73
     3
  0
LINE
  5
86
  8
DIMNSIONS
  6
CONTINUOUS
 62
     7
 10
11.625000000220449
 20
-46.875000000312468
 30
0.0
 11
-13.375
 21
-46.875000000312468
 31
0.0
  0
LINE
  5
87
  8
DIMNSIONS
  6
CONTINUOUS
 62
     7
 10
11.625000000220449
 20
122.12499999968711
 30
0.0
 11
-13.375
 21
122.12499999968711
 31
0.0
  0
LINE
  5
88
  8
DIMNSIONS
  6
CONTINUOUS
 62
     7
 10
-9.375
 20
-46.875000000312468
 30
0.0
 11
-9.375
 21
122.12499999968711
 31
0.0
  0
LINE
  5
89
  8
DIMNSIONS
  6
CONTINUOUS
 62
     7
 10
-9.375
 20
-46.875000000312468
 30
0.0
 11
-10.715079590300491
 21
-41.873754883124967
 31
0.0
  0
LINE
  5
8A
  8
DIMNSIONS
  6
CONTINUOUS
 62
     7
 10
-9.375
 20
-46.875000000312468
 30
0.0
 11
-8.0349204096995095
 21
-41.873754883124967
 31
0.0
  0
LINE
  5
8B
  8
DIMNSIONS
  6
CONTINUOUS
 62
     7
 10
-9.375
 20
122.12499999968711
 30
0.0
 11
-8.0349204096995095
 21
117.1237548824996
 31
0.0
  0
LINE
  5
8C
  8
DIMNSIONS
  6
CONTINUOUS
 62
     7
 10
-9.375
 20
122.12499999968711
 30
0.0
 11
-10.715079590300491
 21
117.1237548824996
 31
0.0
  0
TEXT
  5
8D
  8
DIMNSIONS
 62
     7
 10
-11.362777777777779
 20
32.333333333020683
 30
0.0
 40
5.4294704861111107
  1
169
 50
90.0
 41
0.7
 11
-16.792248263888901
 21
32.333333333020683
 31
0.0
 73
     3
  0
LINE
  5
8E
  8
DIMNSIONS
  6
CONTINUOUS
 62
     7
 10
33.020854317829631
 20
205.27756420612059
 30
0.0
 11
62.5
 21
225.0
 31
0.0
  0
LINE
  5
8F
  8
DIMNSIONS
  6
CONTINUOUS
 62
     7
 10
33.020854317829631
 20
205.27756420612059
 30
0.0
 11
36.485391745790963
 21
209.1253228317087
 31
0.0
  0
LINE
  5
90
  8
DIMNSIONS
  6
CONTINUOUS
 62
     7
 10
33.020854317829631
 20
205.27756420612059
 30
0.0
 11
37.94511105560013
 21
206.87755220952991
 31
0.0
  0
LINE
  5
91
  8
DIMNSIONS
  6
CONTINUOUS
 62
     7
 10
62.5
 20
225.0
 30
0.0
 11
87.666666666666686
 21
225.0
 31
0.0
  0
TEXT
  5
92
  8
DIMNSIONS
 62
     7
 10
66.5
 20
226.98777777777781
 30
0.0
 40
5.4294704861111107
  1
\U+03C619.0
 41
0.7
 11
66.5
 21
232.41724826388889
 31
0.0
 73
     3
  0
LINE
  5
93
  8
DIMNSIONS
  6
CONTINUOUS
 62
     7
 10
32.402422209850741
 20
-62.643517708134077
 30
0.0
 11
40.021919907834217
 21
-56.25
 31
0.0
  0
LINE
  5
94
  8
DIMNSIONS
  6
CONTINUOUS
 62
     7
 10
32.402422209850741
 20
-62.643517708134077
 30
0.0
 11
35.372211683909192
 21
-58.402218790313817
 31
0.0
  0
LINE
  5
95
  8
DIMNSIONS
  6
CONTINUOUS
 62
     7
 10
32.402422209850741
 20
-62.643517708134077
 30
0.0
 11
37.094984797187116
 21
-60.455339837287511
 31
0.0
  0
LINE
  5
96
  8
DIMNSIONS
  6
CONTINUOUS
 62
     7
 10
40.021919907834217
 20
-56.25
 30
0.0
 11
65.188586574500874
 21
-56.25
 31
0.0
  0
TEXT
  5
97
  8
DIMNSIONS
 62
     7
 10
44.02191990783421
 20
-54.262222222222249
 30
0.0
 40
5.4294704861111107
  1
\U+03C619.0
 41
0.7
 11
44.02191990783421
 21
-48.832751736111142
 31
0.0
 73
     3
  0
TEXT
  5
98
  8
DATA
 62
     7
 10
202.5754316788173
 20
-94.041056590619874
 30
0.0
 40
4.8865234375000002
  1
4011A
 41
0.7
 11
202.5754316788173
 21
-89.154533153119871
 31
0.0
 73
     3
  0
TEXT
  5
99
  8
DATA
 62
     7
 10
202.5754316788173
 20
-78.545505687575854
 30
0.0
 40
4.8865234375000002
  1
DPA
 41
0.7
 11
202.5754316788173
 21
-73.658982250075852
 31
0.0
 73
     3
  0
CIRCLE
  5
9A
  8
DATA
  6
CONTINUOUS
 62
     7
 10
25.12500000022046
 20
199.99499999968711
 30
0.0
 40
3.8000000000000109
  0
ARC
  5
9B
  8
DATA
  6
CONTINUOUS
 62
     7
 10
25.12500000022046
 20
199.99499999968711
 30
0.0
 40
9.5000000000000089
 50
90.000000000007745
 51
109.9999999999999
  0
ARC
  5
9C
  8
DATA
  6
CONTINUOUS
 62
     7
 10
25.12500000022046
 20
199.99499999968711
 30
0.0
 40
9.5000000000000142
 50
129.9999999999998
 51
149.99999999999969
  0
ARC
  5
9D
  8
DATA
  6
CONTINUOUS
 62
     7
 10
25.12500000022046
 20
199.99499999968711
 30
0.0
 40
9.5000000000000124
 50
169.99999999999969
 51
189.99999999999949
  0
ARC
  5
9E
  8
DATA
  6
CONTINUOUS
 62
     7
 10
25.12500000022046
 20
199.99499999968711
 30
0.0
 40
9.5000000000000124
 50
209.9999999999996
 51
229.9999999999994
  0
ARC
  5
9F
  8
DATA
  6
CONTINUOUS
 62
     7
 10
25.12500000022046
 20
199.99499999968711
 30
0.0
 40
9.5000000000000124
 50
249.9999999999996
 51
270.00000000000767
  0
ARC
  5
A0
  8
DATA
  6
CONTINUOUS
 62
     7
 10
25.12500000022046
 20
199.99499999968711
 30
0.0
 40
9.5000000000000195
 50
289.99999999999972
 51
309.9999999999996
  0
ARC
  5
A1
  8
DATA
  6
CONTINUOUS
 62
     7
 10
25.12500000022046
 20
199.99499999968711
 30
0.0
 40
9.5000000000000089
 50
329.9999999999996
 51
349.99999999999977
  0
ARC
  5
A2
  8
DATA
  6
CONTINUOUS
 62
     7
 10
25.12500000022046
 20
199.99499999968711
 30
0.0
 40
9.5
 50
9.9999999999998437
 51
29.99999999999995
  0
ARC
  5
A3
  8
DATA
  6
CONTINUOUS
 62
     7
 10
25.12500000022046
 20
199.99499999968711
 30
0.0
 40
9.5
 50
50.000000000000021
 51
69.999999999999986
  0
LINE
  5
A4
  8
DATA
  6
CONTINUOUS
 62
     7
 10
15.625000000220449
 20
99.124999999687105
 30
0.0
 11
34.625000000220453
 21
99.124999999687105
 31
0.0
  0
LINE
  5
A5
  8
DATA
  6
CONTINUOUS
 62
     7
 10
15.625000000220449
 20
121.9249999996871
 30
0.0
 11
16.375000000220449
 21
121.9249999996871
 31
0.0
  0
LINE
  5
A6
  8
DATA
  6
CONTINUOUS
 62
     7
 10
17.07500000022047
 20
121.9249999996871
 30
0.0
 11
17.775000000220459
 21
121.9249999996871
 31
0.0
  0
LINE
  5
A7
  8
DATA
  6
CONTINUOUS
 62
     7
 10
18.475000000220462
 20
121.9249999996871
 30
0.0
 11
19.175000000220461
 21
121.9249999996871
 31
0.0
  0
LINE
  5
A8
  8
DATA
  6
CONTINUOUS
 62
     7
 10
19.875000000220449
 20
121.9249999996871
 30
0.0
 11
20.57500000022047
 21
121.9249999996871
 31
0.0
  0
LINE
  5
A9
  8
DATA
  6
CONTINUOUS
 62
     7
 10
21.275000000220452
 20
121.9249999996871
 30
0.0
 11
21.975000000220469
 21
121.9249999996871
 31
0.0
  0
LINE
  5
AA
  8
DATA
  6
CONTINUOUS
 62
     7
 10
22.675000000220461
 20
121.9249999996871
 30
0.0
 11
23.375000000220449
 21
121.9249999996871
 31
0.0
  0
LINE
  5
AB
  8
DATA
  6
CONTINUOUS
 62
     7
 10
24.07500000022047
 20
121.9249999996871
 30
0.0
 11
24.775000000220452
 21
121.9249999996871
 31
0.0
  0
LINE
  5
AC
  8
DATA
  6
CONTINUOUS
 62
     7
 10
25.475000000220469
 20
121.9249999996871
 30
0.0
 11
26.175000000220461
 21
121.9249999996871
 31
0.0
  0
LINE
  5
AD
  8
DATA
  6
CONTINUOUS
 62
     7
 10
26.875000000220449
 20
121.9249999996871
 30
0.0
 11
27.575000000220449
 21
121.9249999996871
 31
0.0
  0
LINE
  5
AE
  8
DATA
  6
CONTINUOUS
 62
     7
 10
28.275000000220452
 20
121.9249999996871
 30
0.0
 11
28.975000000220469
 21
121.9249999996871
 31
0.0
  0
LINE
  5
AF
  8
DATA
  6
CONTINUOUS
 62
     7
 10
29.675000000220471
 20
121.9249999996871
 30
0.0
 11
30.37500000022046
 21
121.9249999996871
 31
0.0
  0
LINE
  5
B0
  8
DATA
  6
CONTINUOUS
 62
     7
 10
31.075000000220449
 20
121.9249999996871
 30
0.0
 11
31.775000000220452
 21
121.9249999996871
 31
0.0
  0
LINE
  5
B1
  8
DATA
  6
CONTINUOUS
 62
     7
 10
32.475000000220469
 20
121.9249999996871
 30
0.0
 11
33.17500000022045
 21
121.9249999996871
 31
0.0
  0
LINE
  5
B2
  8
DATA
  6
CONTINUOUS
 62
     7
 10
33.87500000022046
 20
121.9249999996871
 30
0.0
 11
34.625000000220453
 21
121.9249999996871
 31
0.0
  0
LINE
  5
B3
  8
DATA
  6
CONTINUOUS
 62
     7
 10
15.625000000220449
 20
99.124999999687105
 30
0.0
 11
15.625000000220449
 21
122.12499999968711
 31
0.0
  0
LINE
  5
B4
  8
DATA
  6
CONTINUOUS
 62
     7
 10
34.625000000220453
 20
99.124999999687105
 30
0.0
 11
34.625000000220453
 21
122.12499999968711
 31
0.0
  0
CIRCLE
  5
B5
  8
DATA
  6
CONTINUOUS
 62
     7
 10
25.12500000022046
 20
199.99499999968711
 30
0.0
 40
1.0
  0
LINE
  5
B6
  8
DATA
  6
CONTINUOUS
 62
     7
 10
15.625000000220449
 20
114.12499999968711
 30
0.0
 11
34.625000000220453
 21
114.12499999968711
 31
0.0
  0
LINE
  5
B7
  8
DATA
  6
CONTINUOUS
 62
     7
 10
15.625000000220449
 20
99.424999999687117
 30
0.0
 11
34.625000000220453
 21
99.424999999687117
 31
0.0
  0
TEXT
  5
B8
  8
DATA
 62
     7
 10
22.402777777998239
 20
116.212388888576
 30
0.0
 40
1.900314670138888
  1
4011
 41
0.7
 11
22.402777777998239
 21
118.1127035587149
 31
0.0
 73
     3
  0
POLYLINE
  5
B9
  8
DATA
  6
CONTINUOUS
 62
     7
 66
     1
 10
0.0
 20
0.0
 30
0.0
 70
     1
  0
VERTEX
  5
22B
  8
DATA
  6
CONTINUOUS
 62
     7
 10
24.775000000220452
 20
113.62499999968711
 30
0.0
  0
VERTEX
  5
22C
  8
DATA
  6
CONTINUOUS
 62
     7
 10
25.475000000220469
 20
113.62499999968711
 30
0.0
  0
VERTEX
  5
22D
  8
DATA
  6
CONTINUOUS
 62
     7
 10
25.475000000220469
 20
106.62499999968711
 30
0.0
  0
VERTEX
  5
22E
  8
DATA
  6
CONTINUOUS
 62
     7
 10
24.775000000220452
 20
106.62499999968711
 30
0.0
  0
SEQEND
  5
22F
  8
DATA
  6
CONTINUOUS
 62
     7
  0
POLYLINE
  5
C0
  8
DATA
  6
CONTINUOUS
 62
     7
 66
     1
 10
0.0
 20
0.0
 30
0.0
 70
     1
  0
VERTEX
  5
230
  8
DATA
  6
CONTINUOUS
 62
     7
 10
26.175000000220461
 20
113.62499999968711
 30
0.0
  0
VERTEX
  5
231
  8
DATA
  6
CONTINUOUS
 62
     7
 10
26.875000000220449
 20
113.62499999968711
 30
0.0
  0
VERTEX
  5
232
  8
DATA
  6
CONTINUOUS
 62
     7
 10
26.875000000220449
 20
106.62499999968711
 30
0.0
  0
VERTEX
  5
233
  8
DATA
  6
CONTINUOUS
 62
     7
 10
26.175000000220461
 20
106.62499999968711
 30
0.0
  0
SEQEND
  5
234
  8
DATA
  6
CONTINUOUS
 62
     7
  0
POLYLINE
  5
C7
  8
DATA
  6
CONTINUOUS
 62
     7
 66
     1
 10
0.0
 20
0.0
 30
0.0
 70
     1
  0
VERTEX
  5
235
  8
DATA
  6
CONTINUOUS
 62
     7
 10
27.575000000220449
 20
113.62499999968711
 30
0.0
  0
VERTEX
  5
236
  8
DATA
  6
CONTINUOUS
 62
     7
 10
28.275000000220452
 20
113.62499999968711
 30
0.0
  0
VERTEX
  5
237
  8
DATA
  6
CONTINUOUS
 62
     7
 10
28.275000000220452
 20
106.62499999968711
 30
0.0
  0
VERTEX
  5
238
  8
DATA
  6
CONTINUOUS
 62
     7
 10
27.575000000220449
 20
106.62499999968711
 30
0.0
  0
SEQEND
  5
239
  8
DATA
  6
CONTINUOUS
 62
     7
  0
POLYLINE
  5
CE
  8
DATA
  6
CONTINUOUS
 62
     7
 66
     1
 10
0.0
 20
0.0
 30
0.0
 70
     1
  0
VERTEX
  5
23A
  8
DATA
  6
CONTINUOUS
 62
     7
 10
28.975000000220469
 20
113.62499999968711
 30
0.0
  0
VERTEX
  5
23B
  8
DATA
  6
CONTINUOUS
 62
     7
 10
29.675000000220471
 20
113.62499999968711
 30
0.0
  0
VERTEX
  5
23C
  8
DATA
  6
CONTINUOUS
 62
     7
 10
29.675000000220471
 20
106.62499999968711
 30
0.0
  0
VERTEX
  5
23D
  8
DATA
  6
CONTINUOUS
 62
     7
 10
28.975000000220469
 20
106.62499999968711
 30
0.0
  0
SEQEND
  5
23E
  8
DATA
  6
CONTINUOUS
 62
     7
  0
POLYLINE
  5
D5
  8
DATA
  6
CONTINUOUS
 62
     7
 66
     1
 10
0.0
 20
0.0
 30
0.0
 70
     1
  0
VERTEX
  5
23F
  8
DATA
  6
CONTINUOUS
 62
     7
 10
30.37500000022046
 20
113.62499999968711
 30
0.0
  0
VERTEX
  5
240
  8
DATA
  6
CONTINUOUS
 62
     7
 10
31.075000000220449
 20
113.62499999968711
 30
0.0
  0
VERTEX
  5
241
  8
DATA
  6
CONTINUOUS
 62
     7
 10
31.075000000220449
 20
106.62499999968711
 30
0.0
  0
VERTEX
  5
242
  8
DATA
  6
CONTINUOUS
 62
     7
 10
30.37500000022046
 20
106.62499999968711
 30
0.0
  0
SEQEND
  5
243
  8
DATA
  6
CONTINUOUS
 62
     7
  0
POLYLINE
  5
DC
  8
DATA
  6
CONTINUOUS
 62
     7
 66
     1
 10
0.0
 20
0.0
 30
0.0
 70
     1
  0
VERTEX
  5
244
  8
DATA
  6
CONTINUOUS
 62
     7
 10
31.775000000220452
 20
113.62499999968711
 30
0.0
  0
VERTEX
  5
245
  8
DATA
  6
CONTINUOUS
 62
     7
 10
32.475000000220469
 20
113.62499999968711
 30
0.0
  0
VERTEX
  5
246
  8
DATA
  6
CONTINUOUS
 62
     7
 10
32.475000000220469
 20
106.62499999968711
 30
0.0
  0
VERTEX
  5
247
  8
DATA
  6
CONTINUOUS
 62
     7
 10
31.775000000220452
 20
106.62499999968711
 30
0.0
  0
SEQEND
  5
248
  8
DATA
  6
CONTINUOUS
 62
     7
  0
POLYLINE
  5
E3
  8
DATA
  6
CONTINUOUS
 62
     7
 66
     1
 10
0.0
 20
0.0
 30
0.0
 70
     1
  0
VERTEX
  5
249
  8
DATA
  6
CONTINUOUS
 62
     7
 10
33.17500000022045
 20
113.62499999968711
 30
0.0
  0
VERTEX
  5
24A
  8
DATA
  6
CONTINUOUS
 62
     7
 10
33.87500000022046
 20
113.62499999968711
 30
0.0
  0
VERTEX
  5
24B
  8
DATA
  6
CONTINUOUS
 62
     7
 10
33.87500000022046
 20
106.62499999968711
 30
0.0
  0
VERTEX
  5
24C
  8
DATA
  6
CONTINUOUS
 62
     7
 10
33.17500000022045
 20
106.62499999968711
 30
0.0
  0
SEQEND
  5
24D
  8
DATA
  6
CONTINUOUS
 62
     7
  0
POLYLINE
  5
EA
  8
DATA
  6
CONTINUOUS
 62
     7
 66
     1
 10
0.0
 20
0.0
 30
0.0
 70
     1
  0
VERTEX
  5
24E
  8
DATA
  6
CONTINUOUS
 62
     7
 10
23.375000000220449
 20
113.62499999968711
 30
0.0
  0
VERTEX
  5
24F
  8
DATA
  6
CONTINUOUS
 62
     7
 10
24.07500000022047
 20
113.62499999968711
 30
0.0
  0
VERTEX
  5
250
  8
DATA
  6
CONTINUOUS
 62
     7
 10
24.07500000022047
 20
106.62499999968711
 30
0.0
  0
VERTEX
  5
251
  8
DATA
  6
CONTINUOUS
 62
     7
 10
23.375000000220449
 20
106.62499999968711
 30
0.0
  0
SEQEND
  5
252
  8
DATA
  6
CONTINUOUS
 62
     7
  0
POLYLINE
  5
F1
  8
DATA
  6
CONTINUOUS
 62
     7
 66
     1
 10
0.0
 20
0.0
 30
0.0
 70
     1
  0
VERTEX
  5
253
  8
DATA
  6
CONTINUOUS
 62
     7
 10
21.975000000220469
 20
113.62499999968711
 30
0.0
  0
VERTEX
  5
254
  8
DATA
  6
CONTINUOUS
 62
     7
 10
22.675000000220461
 20
113.62499999968711
 30
0.0
  0
VERTEX
  5
255
  8
DATA
  6
CONTINUOUS
 62
     7
 10
22.675000000220461
 20
106.62499999968711
 30
0.0
  0
VERTEX
  5
256
  8
DATA
  6
CONTINUOUS
 62
     7
 10
21.975000000220469
 20
106.62499999968711
 30
0.0
  0
SEQEND
  5
257
  8
DATA
  6
CONTINUOUS
 62
     7
  0
POLYLINE
  5
F8
  8
DATA
  6
CONTINUOUS
 62
     7
 66
     1
 10
0.0
 20
0.0
 30
0.0
 70
     1
  0
VERTEX
  5
258
  8
DATA
  6
CONTINUOUS
 62
     7
 10
20.57500000022047
 20
113.62499999968711
 30
0.0
  0
VERTEX
  5
259
  8
DATA
  6
CONTINUOUS
 62
     7
 10
21.275000000220452
 20
113.62499999968711
 30
0.0
  0
VERTEX
  5
25A
  8
DATA
  6
CONTINUOUS
 62
     7
 10
21.275000000220452
 20
106.62499999968711
 30
0.0
  0
VERTEX
  5
25B
  8
DATA
  6
CONTINUOUS
 62
     7
 10
20.57500000022047
 20
106.62499999968711
 30
0.0
  0
SEQEND
  5
25C
  8
DATA
  6
CONTINUOUS
 62
     7
  0
POLYLINE
  5
FF
  8
DATA
  6
CONTINUOUS
 62
     7
 66
     1
 10
0.0
 20
0.0
 30
0.0
 70
     1
  0
VERTEX
  5
25D
  8
DATA
  6
CONTINUOUS
 62
     7
 10
19.175000000220461
 20
113.62499999968711
 30
0.0
  0
VERTEX
  5
25E
  8
DATA
  6
CONTINUOUS
 62
     7
 10
19.875000000220449
 20
113.62499999968711
 30
0.0
  0
VERTEX
  5
25F
  8
DATA
  6
CONTINUOUS
 62
     7
 10
19.875000000220449
 20
106.62499999968711
 30
0.0
  0
VERTEX
  5
260
  8
DATA
  6
CONTINUOUS
 62
     7
 10
19.175000000220461
 20
106.62499999968711
 30
0.0
  0
SEQEND
  5
261
  8
DATA
  6
CONTINUOUS
 62
     7
  0
POLYLINE
  5
106
  8
DATA
  6
CONTINUOUS
 62
     7
 66
     1
 10
0.0
 20
0.0
 30
0.0
 70
     1
  0
VERTEX
  5
262
  8
DATA
  6
CONTINUOUS
 62
     7
 10
17.775000000220459
 20
113.62499999968711
 30
0.0
  0
VERTEX
  5
263
  8
DATA
  6
CONTINUOUS
 62
     7
 10
18.475000000220462
 20
113.62499999968711
 30
0.0
  0
VERTEX
  5
264
  8
DATA
  6
CONTINUOUS
 62
     7
 10
18.475000000220462
 20
106.62499999968711
 30
0.0
  0
VERTEX
  5
265
  8
DATA
  6
CONTINUOUS
 62
     7
 10
17.775000000220459
 20
106.62499999968711
 30
0.0
  0
SEQEND
  5
266
  8
DATA
  6
CONTINUOUS
 62
     7
  0
POLYLINE
  5
10D
  8
DATA
  6
CONTINUOUS
 62
     7
 66
     1
 10
0.0
 20
0.0
 30
0.0
 70
     1
  0
VERTEX
  5
267
  8
DATA
  6
CONTINUOUS
 62
     7
 10
16.375000000220449
 20
113.62499999968711
 30
0.0
  0
VERTEX
  5
268
  8
DATA
  6
CONTINUOUS
 62
     7
 10
17.07500000022047
 20
113.62499999968711
 30
0.0
  0
VERTEX
  5
269
  8
DATA
  6
CONTINUOUS
 62
     7
 10
17.07500000022047
 20
106.62499999968711
 30
0.0
  0
VERTEX
  5
26A
  8
DATA
  6
CONTINUOUS
 62
     7
 10
16.375000000220449
 20
106.62499999968711
 30
0.0
  0
SEQEND
  5
26B
  8
DATA
  6
CONTINUOUS
 62
     7
  0
LINE
  5
114
  8
DATA
  6
CONTINUOUS
 62
     7
 10
24.775000000220452
 20
120.12499999968711
 30
0.0
 11
24.775000000220452
 21
122.12499999968711
 31
0.0
  0
LINE
  5
115
  8
DATA
  6
CONTINUOUS
 62
     7
 10
25.475000000220469
 20
122.12499999968711
 30
0.0
 11
25.475000000220469
 21
120.12499999968711
 31
0.0
  0
LINE
  5
116
  8
DATA
  6
CONTINUOUS
 62
     7
 10
24.775000000220452
 20
122.12499999968711
 30
0.0
 11
25.475000000220469
 21
122.12499999968711
 31
0.0
  0
LINE
  5
117
  8
DATA
  6
CONTINUOUS
 62
     7
 10
23.375000000220449
 20
120.12499999968711
 30
0.0
 11
23.375000000220449
 21
122.12499999968711
 31
0.0
  0
LINE
  5
118
  8
DATA
  6
CONTINUOUS
 62
     7
 10
24.07500000022047
 20
122.12499999968711
 30
0.0
 11
24.07500000022047
 21
120.12499999968711
 31
0.0
  0
LINE
  5
119
  8
DATA
  6
CONTINUOUS
 62
     7
 10
23.375000000220449
 20
122.12499999968711
 30
0.0
 11
24.07500000022047
 21
122.12499999968711
 31
0.0
  0
LINE
  5
11A
  8
DATA
  6
CONTINUOUS
 62
     7
 10
21.975000000220469
 20
120.12499999968711
 30
0.0
 11
21.975000000220469
 21
122.12499999968711
 31
0.0
  0
LINE
  5
11B
  8
DATA
  6
CONTINUOUS
 62
     7
 10
22.675000000220461
 20
122.12499999968711
 30
0.0
 11
22.675000000220461
 21
120.12499999968711
 31
0.0
  0
LINE
  5
11C
  8
DATA
  6
CONTINUOUS
 62
     7
 10
21.975000000220469
 20
122.12499999968711
 30
0.0
 11
22.675000000220461
 21
122.12499999968711
 31
0.0
  0
LINE
  5
11D
  8
DATA
  6
CONTINUOUS
 62
     7
 10
20.57500000022047
 20
120.12499999968711
 30
0.0
 11
20.57500000022047
 21
122.12499999968711
 31
0.0
  0
LINE
  5
11E
  8
DATA
  6
CONTINUOUS
 62
     7
 10
21.275000000220452
 20
122.12499999968711
 30
0.0
 11
21.275000000220452
 21
120.12499999968711
 31
0.0
  0
LINE
  5
11F
  8
DATA
  6
CONTINUOUS
 62
     7
 10
20.57500000022047
 20
122.12499999968711
 30
0.0
 11
21.275000000220452
 21
122.12499999968711
 31
0.0
  0
LINE
  5
120
  8
DATA
  6
CONTINUOUS
 62
     7
 10
19.175000000220461
 20
120.12499999968711
 30
0.0
 11
19.175000000220461
 21
122.12499999968711
 31
0.0
  0
LINE
  5
121
  8
DATA
  6
CONTINUOUS
 62
     7
 10
19.875000000220449
 20
122.12499999968711
 30
0.0
 11
19.875000000220449
 21
120.12499999968711
 31
0.0
  0
LINE
  5
122
  8
DATA
  6
CONTINUOUS
 62
     7
 10
19.175000000220461
 20
122.12499999968711
 30
0.0
 11
19.875000000220449
 21
122.12499999968711
 31
0.0
  0
LINE
  5
123
  8
DATA
  6
CONTINUOUS
 62
     7
 10
17.775000000220459
 20
120.12499999968711
 30
0.0
 11
17.775000000220459
 21
122.12499999968711
 31
0.0
  0
LINE
  5
124
  8
DATA
  6
CONTINUOUS
 62
     7
 10
18.475000000220462
 20
122.12499999968711
 30
0.0
 11
18.475000000220462
 21
120.12499999968711
 31
0.0
  0
LINE
  5
125
  8
DATA
  6
CONTINUOUS
 62
     7
 10
17.775000000220459
 20
122.12499999968711
 30
0.0
 11
18.475000000220462
 21
122.12499999968711
 31
0.0
  0
LINE
  5
126
  8
DATA
  6
CONTINUOUS
 62
     7
 10
16.375000000220449
 20
120.12499999968711
 30
0.0
 11
16.375000000220449
 21
122.12499999968711
 31
0.0
  0
LINE
  5
127
  8
DATA
  6
CONTINUOUS
 62
     7
 10
17.07500000022047
 20
122.12499999968711
 30
0.0
 11
17.07500000022047
 21
120.12499999968711
 31
0.0
  0
LINE
  5
128
  8
DATA
  6
CONTINUOUS
 62
     7
 10
16.375000000220449
 20
122.12499999968711
 30
0.0
 11
17.07500000022047
 21
122.12499999968711
 31
0.0
  0
LINE
  5
129
  8
DATA
  6
CONTINUOUS
 62
     7
 10
26.175000000220461
 20
120.12499999968711
 30
0.0
 11
26.175000000220461
 21
122.12499999968711
 31
0.0
  0
LINE
  5
12A
  8
DATA
  6
CONTINUOUS
 62
     7
 10
26.875000000220449
 20
122.12499999968711
 30
0.0
 11
26.875000000220449
 21
120.12499999968711
 31
0.0
  0
LINE
  5
12B
  8
DATA
  6
CONTINUOUS
 62
     7
 10
26.175000000220461
 20
122.12499999968711
 30
0.0
 11
26.875000000220449
 21
122.12499999968711
 31
0.0
  0
LINE
  5
12C
  8
DATA
  6
CONTINUOUS
 62
     7
 10
27.575000000220449
 20
120.12499999968711
 30
0.0
 11
27.575000000220449
 21
122.12499999968711
 31
0.0
  0
LINE
  5
12D
  8
DATA
  6
CONTINUOUS
 62
     7
 10
28.275000000220452
 20
122.12499999968711
 30
0.0
 11
28.275000000220452
 21
120.12499999968711
 31
0.0
  0
LINE
  5
12E
  8
DATA
  6
CONTINUOUS
 62
     7
 10
27.575000000220449
 20
122.12499999968711
 30
0.0
 11
28.275000000220452
 21
122.12499999968711
 31
0.0
  0
LINE
  5
12F
  8
DATA
  6
CONTINUOUS
 62
     7
 10
28.975000000220469
 20
120.12499999968711
 30
0.0
 11
28.975000000220469
 21
122.12499999968711
 31
0.0
  0
LINE
  5
130
  8
DATA
  6
CONTINUOUS
 62
     7
 10
29.675000000220471
 20
122.12499999968711
 30
0.0
 11
29.675000000220471
 21
120.12499999968711
 31
0.0
  0
LINE
  5
131
  8
DATA
  6
CONTINUOUS
 62
     7
 10
28.975000000220469
 20
122.12499999968711
 30
0.0
 11
29.675000000220471
 21
122.12499999968711
 31
0.0
  0
LINE
  5
132
  8
DATA
  6
CONTINUOUS
 62
     7
 10
30.37500000022046
 20
120.12499999968711
 30
0.0
 11
30.37500000022046
 21
122.12499999968711
 31
0.0
  0
LINE
  5
133
  8
DATA
  6
CONTINUOUS
 62
     7
 10
31.075000000220449
 20
122.12499999968711
 30
0.0
 11
31.075000000220449
 21
120.12499999968711
 31
0.0
  0
LINE
  5
134
  8
DATA
  6
CONTINUOUS
 62
     7
 10
30.37500000022046
 20
122.12499999968711
 30
0.0
 11
31.075000000220449
 21
122.12499999968711
 31
0.0
  0
LINE
  5
135
  8
DATA
  6
CONTINUOUS
 62
     7
 10
31.775000000220452
 20
120.12499999968711
 30
0.0
 11
31.775000000220452
 21
122.12499999968711
 31
0.0
  0
LINE
  5
136
  8
DATA
  6
CONTINUOUS
 62
     7
 10
32.475000000220469
 20
122.12499999968711
 30
0.0
 11
32.475000000220469
 21
120.12499999968711
 31
0.0
  0
LINE
  5
137
  8
DATA
  6
CONTINUOUS
 62
     7
 10
31.775000000220452
 20
122.12499999968711
 30
0.0
 11
32.475000000220469
 21
122.12499999968711
 31
0.0
  0
LINE
  5
138
  8
DATA
  6
CONTINUOUS
 62
     7
 10
33.17500000022045
 20
120.12499999968711
 30
0.0
 11
33.17500000022045
 21
122.12499999968711
 31
0.0
  0
LINE
  5
139
  8
DATA
  6
CONTINUOUS
 62
     7
 10
33.87500000022046
 20
122.12499999968711
 30
0.0
 11
33.87500000022046
 21
120.12499999968711
 31
0.0
  0
LINE
  5
13A
  8
DATA
  6
CONTINUOUS
 62
     7
 10
33.17500000022045
 20
122.12499999968711
 30
0.0
 11
33.87500000022046
 21
122.12499999968711
 31
0.0
  0
LINE
  5
13B
  8
DATA
  6
CONTINUOUS
 62
     7
 10
17.07500000022047
 20
120.12499999968711
 30
0.0
 11
17.775000000220459
 21
120.12499999968711
 31
0.0
  0
LINE
  5
13C
  8
DATA
  6
CONTINUOUS
 62
     7
 10
18.475000000220462
 20
120.12499999968711
 30
0.0
 11
19.175000000220461
 21
120.12499999968711
 31
0.0
  0
LINE
  5
13D
  8
DATA
  6
CONTINUOUS
 62
     7
 10
19.875000000220449
 20
120.12499999968711
 30
0.0
 11
20.57500000022047
 21
120.12499999968711
 31
0.0
  0
LINE
  5
13E
  8
DATA
  6
CONTINUOUS
 62
     7
 10
21.275000000220452
 20
120.12499999968711
 30
0.0
 11
21.975000000220469
 21
120.12499999968711
 31
0.0
  0
LINE
  5
13F
  8
DATA
  6
CONTINUOUS
 62
     7
 10
22.675000000220461
 20
120.12499999968711
 30
0.0
 11
23.375000000220449
 21
120.12499999968711
 31
0.0
  0
LINE
  5
140
  8
DATA
  6
CONTINUOUS
 62
     7
 10
24.07500000022047
 20
120.12499999968711
 30
0.0
 11
24.775000000220452
 21
120.12499999968711
 31
0.0
  0
LINE
  5
141
  8
DATA
  6
CONTINUOUS
 62
     7
 10
25.475000000220469
 20
120.12499999968711
 30
0.0
 11
26.175000000220461
 21
120.12499999968711
 31
0.0
  0
LINE
  5
142
  8
DATA
  6
CONTINUOUS
 62
     7
 10
26.875000000220449
 20
120.12499999968711
 30
0.0
 11
27.575000000220449
 21
120.12499999968711
 31
0.0
  0
LINE
  5
143
  8
DATA
  6
CONTINUOUS
 62
     7
 10
28.275000000220452
 20
120.12499999968711
 30
0.0
 11
28.975000000220469
 21
120.12499999968711
 31
0.0
  0
LINE
  5
144
  8
DATA
  6
CONTINUOUS
 62
     7
 10
29.675000000220471
 20
120.12499999968711
 30
0.0
 11
30.37500000022046
 21
120.12499999968711
 31
0.0
  0
LINE
  5
145
  8
DATA
  6
CONTINUOUS
 62
     7
 10
31.075000000220449
 20
120.12499999968711
 30
0.0
 11
31.775000000220452
 21
120.12499999968711
 31
0.0
  0
LINE
  5
146
  8
DATA
  6
CONTINUOUS
 62
     7
 10
32.475000000220469
 20
120.12499999968711
 30
0.0
 11
33.17500000022045
 21
120.12499999968711
 31
0.0
  0
LINE
  5
147
  8
DATA
  6
CONTINUOUS
 62
     7
 10
33.87500000022046
 20
120.12499999968711
 30
0.0
 11
34.625000000220453
 21
120.12499999968711
 31
0.0
  0
ARC
  5
148
  8
DATA
  6
CONTINUOUS
 62
     7
 10
25.125000000220481
 20
199.99499999968711
 30
0.0
 40
9.2499999999999911
 50
70.007125127732053
 51
90.007125127722915
  0
ARC
  5
149
  8
DATA
  6
CONTINUOUS
 62
     7
 10
25.125000000220481
 20
199.99499999968711
 30
0.0
 40
9.2499999999999822
 50
110.007125127732
 51
130.00712512773191
  0
ARC
  5
14A
  8
DATA
  6
CONTINUOUS
 62
     7
 10
25.125000000220481
 20
199.99499999968711
 30
0.0
 40
9.2499999999999822
 50
150.0071251277318
 51
170.0071251277316
  0
ARC
  5
14B
  8
DATA
  6
CONTINUOUS
 62
     7
 10
25.125000000220481
 20
199.99499999968711
 30
0.0
 40
9.2499999999999822
 50
190.00712512773151
 51
210.00712512773151
  0
ARC
  5
14C
  8
DATA
  6
CONTINUOUS
 62
     7
 10
25.125000000220481
 20
199.99499999968711
 30
0.0
 40
9.2499999999999716
 50
230.0071251277314
 51
250.00712512773131
  0
ARC
  5
14D
  8
DATA
  6
CONTINUOUS
 62
     7
 10
25.125000000220481
 20
199.99499999968711
 30
0.0
 40
9.249999999999968
 50
270.00712512772259
 51
290.0071251277314
  0
ARC
  5
14E
  8
DATA
  6
CONTINUOUS
 62
     7
 10
25.125000000220481
 20
199.99499999968711
 30
0.0
 40
9.2499999999999645
 50
310.00712512773129
 51
330.0071251277314
  0
ARC
  5
14F
  8
DATA
  6
CONTINUOUS
 62
     7
 10
25.125000000220481
 20
199.99499999968711
 30
0.0
 40
9.2499999999999662
 50
350.00712512773168
 51
10.00712598150511
  0
ARC
  5
150
  8
DATA
  6
CONTINUOUS
 62
     7
 10
25.125000000220481
 20
199.99499999968711
 30
0.0
 40
9.249999999999984
 50
30.007125127731879
 51
50.007125127732039
  0
LINE
  5
151
  8
DATA
  6
CONTINUOUS
 62
     7
 10
25.098772712995078
 20
203.79490948932039
 30
0.0
 11
25.12500000022046
 21
209.49499999968711
 31
0.0
  0
LINE
  5
152
  8
DATA
  6
CONTINUOUS
 62
     7
 10
26.400000000220452
 20
203.57471716728571
 30
0.0
 11
28.374191361814312
 21
208.9220798971532
 31
0.0
  0
LINE
  5
153
  8
DATA
  6
CONTINUOUS
 62
     7
 10
27.54744347044992
 20
202.92275812383991
 30
0.0
 11
31.231482292242561
 21
207.2724222093174
 31
0.0
  0
LINE
  5
154
  8
DATA
  6
CONTINUOUS
 62
     7
 10
28.402704506711721
 20
201.91766824151321
 30
0.0
 11
33.352241336172597
 21
204.74499999968711
 31
0.0
  0
LINE
  5
155
  8
DATA
  6
CONTINUOUS
 62
     7
 10
28.862626005724088
 20
200.68067619366121
 30
0.0
 11
34.480673653836391
 21
201.64465768752291
 31
0.0
  0
LINE
  5
156
  8
DATA
  6
CONTINUOUS
 62
     7
 10
28.871734646987768
 20
199.360981477313
 30
0.0
 11
34.480673653836377
 21
198.3453423118512
 31
0.0
  0
LINE
  5
157
  8
DATA
  6
CONTINUOUS
 62
     7
 10
28.428931793937089
 20
198.11775875187999
 30
0.0
 11
33.35224133617254
 21
195.24499999968711
 31
0.0
  0
LINE
  5
158
  8
DATA
  6
CONTINUOUS
 62
     7
 10
27.58762600572409
 20
197.1009590260627
 30
0.0
 11
31.23148229224249
 21
192.71757779005679
 31
0.0
  0
LINE
  5
159
  8
DATA
  6
CONTINUOUS
 62
     7
 10
26.449291176758312
 20
196.43322335316029
 30
0.0
 11
28.37419136181423
 21
191.067920102221
 31
0.0
  0
LINE
  5
15A
  8
DATA
  6
CONTINUOUS
 62
     7
 10
25.151227287445849
 20
196.1950905100538
 30
0.0
 11
25.12500000022046
 21
190.49499999968711
 31
0.0
  0
LINE
  5
15B
  8
DATA
  6
CONTINUOUS
 62
     7
 10
23.850000000220451
 20
196.41528283208851
 30
0.0
 11
21.87580863862653
 21
191.067920102221
 31
0.0
  0
LINE
  5
15C
  8
DATA
  6
CONTINUOUS
 62
     7
 10
22.702556529991
 20
197.06724187553431
 30
0.0
 11
19.018517708198271
 21
192.71757779005691
 31
0.0
  0
LINE
  5
15D
  8
DATA
  6
CONTINUOUS
 62
     7
 10
21.847295493729209
 20
198.07233175786089
 30
0.0
 11
16.897758664268238
 21
195.2449999996872
 31
0.0
  0
LINE
  5
15E
  8
DATA
  6
CONTINUOUS
 62
     7
 10
21.38737399471681
 20
199.30932380571289
 30
0.0
 11
15.769326346604441
 21
198.34534231185131
 31
0.0
  0
LINE
  5
15F
  8
DATA
  6
CONTINUOUS
 62
     7
 10
21.378265353453159
 20
200.62901852206119
 30
0.0
 11
15.769326346604471
 21
201.64465768752291
 31
0.0
  0
LINE
  5
160
  8
DATA
  6
CONTINUOUS
 62
     7
 10
21.821068206503821
 20
201.8722412474942
 30
0.0
 11
16.897758664268292
 21
204.7449999996872
 31
0.0
  0
LINE
  5
161
  8
DATA
  6
CONTINUOUS
 62
     7
 10
22.66237399471683
 20
202.88904097331161
 30
0.0
 11
19.018517708198331
 21
207.2724222093174
 31
0.0
  0
LINE
  5
162
  8
DATA
  6
CONTINUOUS
 62
     7
 10
23.800708823682609
 20
203.5567766462139
 30
0.0
 11
21.875808638626609
 21
208.92207989715331
 31
0.0
  0
LINE
  5
163
  8
DATA
  6
CONTINUOUS
 62
     7
 10
15.625000000220449
 20
-46.875000000312468
 30
0.0
 11
34.625000000220453
 21
-46.875000000312468
 31
0.0
  0
LINE
  5
164
  8
DATA
  6
CONTINUOUS
 62
     7
 10
15.625000000220449
 20
99.124999999687105
 30
0.0
 11
15.625000000220449
 21
-46.875000000312468
 31
0.0
  0
LINE
  5
165
  8
DATA
  6
CONTINUOUS
 62
     7
 10
34.625000000220453
 20
99.124999999687105
 30
0.0
 11
34.625000000220453
 21
-46.875000000312468
 31
0.0
  0
TEXT
  5
166
  8
DATA
 62
     7
 10
20.02064946120727
 20
-43.481133746408197
 30
0.0
 40
3.2576822916666659
  1
MMP-A
 41
0.7
 11
20.02064946120727
 21
-40.223451454741529
 31
0.0
 73
     3
  0
CIRCLE
  5
167
  8
DATA
  6
STYLE_01
 62
     7
 10
25.12500000022046
 20
199.99499999968711
 30
0.0
 40
31.0
  0
ARC
  5
168
  8
DATA
  6
STYLE_01
 62
     7
 10
25.12500000022046
 20
134.12499999968711
 30
0.0
 40
31.0
 50
0.0
 51
180.0
  0
ARC
  5
169
  8
DATA
  6
STYLE_01
 62
     7
 10
25.12500000022046
 20
102.0268204536528
 30
0.0
 40
31.0
 50
180.0
 51
252.15448225317479
  0
ARC
  5
16A
  8
DATA
  6
STYLE_01
 62
     7
 10
25.12500000022046
 20
102.0268204536528
 30
0.0
 40
31.0
 50
287.84551774682518
 51
0.0
  0
LINE
  5
16B
  8
DATA
  6
STYLE_01
 62
     7
 10
15.625000000220449
 20
72.518347094293773
 30
0.0
 11
34.62500000022041
 21
72.518347094293773
 31
0.0
  0
LINE
  5
16C
  8
DATA
  6
STYLE_01
 62
     7
 10
-5.874999999779547
 20
102.0268204536528
 30
0.0
 11
-5.874999999779547
 21
134.12499999968711
 31
0.0
  0
LINE
  5
16D
  8
DATA
  6
STYLE_01
 62
     7
 10
56.125000000220453
 20
102.0268204536527
 30
0.0
 11
56.125000000220453
 21
134.12499999968711
 31
0.0
  0
TEXT
  5
16E
  8
DATA
 62
     7
 10
78.461722761752014
 20
164.74833736805681
 30
0.0
 40
5.4294704861111107
  1
ウインドスクリーン(UA0896)
 41
0.7
 11
78.461722761752014
 21
170.1778078541679
 31
0.0
 73
     3
  0
LINE
  5
16F
  8
DATA
  6
CONTINUOUS
 62
     7
 10
75.0
 20
162.5
 30
0.0
 11
171.875
 21
162.5
 31
0.0
  0
LINE
  5
170
  8
DATA
  6
CONTINUOUS
 62
     7
 10
75.0
 20
162.5
 30
0.0
 11
52.668590452285649
 21
148.34999999999999
 31
0.0
  0
LINE
  5
171
  8
DATA
  6
CONTINUOUS
 62
     7
 10
52.668590452285649
 20
148.34999999999999
 30
0.0
 11
57.152050225832333
 21
153.1579219738058
 31
0.0
  0
LINE
  5
172
  8
DATA
  6
CONTINUOUS
 62
     7
 10
52.668590452285649
 20
148.34999999999999
 30
0.0
 11
58.955341499925602
 21
150.2720526819559
 31
0.0
  0
CIRCLE
  5
173
  8
DATA
  6
CONTINUOUS
 62
     7
 10
25.12500000022046
 20
-68.750000000156234
 30
0.0
 40
9.5
  0
ARC
  5
174
  8
DATA
  6
CONTINUOUS
 62
     7
 10
25.125000000220531
 20
-68.750000000156206
 30
0.0
 40
8.0000000000000728
 50
232.79368802197979
 51
218.89742555091959
  0
CIRCLE
  5
175
  8
DATA
  6
CONTINUOUS
 62
     7
 10
29.12500000022046
 20
-68.750000000156234
 30
0.0
 40
1.150000000000005
  0
CIRCLE
  5
176
  8
DATA
  6
CONTINUOUS
 62
     7
 10
21.125000000220449
 20
-68.750000000156234
 30
0.0
 40
1.150000000000005
  0
ARC
  5
177
  8
DATA
  6
CONTINUOUS
 62
     7
 10
20.025913896429071
 20
-74.00185377695442
 30
0.0
 40
1.150000000000003
 50
168.54291116051769
 51
283.14820241238237
  0
LINE
  5
178
  8
DATA
  6
CONTINUOUS
 62
     7
 10
75.0
 20
162.5
 30
0.0
 11
51.148950027273237
 21
183.15000000000001
 31
0.0
  0
LINE
  5
179
  8
DATA
  6
CONTINUOUS
 62
     7
 10
51.148950027273237
 20
183.15000000000001
 30
0.0
 11
57.107020813922261
 21
180.37170596435601
 31
0.0
  0
LINE
  5
17A
  8
DATA
  6
CONTINUOUS
 62
     7
 10
51.148950027273237
 20
183.15000000000001
 30
0.0
 11
54.919643668235217
 21
177.76489139262489
 31
0.0
  0
TEXT
  5
17B
  8
DATA
 62
     7
 10
194.38704848897851
 20
-86.196828500254711
 30
0.0
 40
3.2576822916666659
  1
無指向性マイクロホン
 41
0.7
 11
194.38704848897851
 21
-82.939146208588056
 31
0.0
 73
     3
  0
CIRCLE
  5
17C
  8
DATA
  6
CONTINUOUS
 62
     7
 10
25.12500000022046
 20
-64.618979381312244
 30
0.0
 40
1.150000000000005
  0
POLYLINE
  5
17D
  8
DATA
  6
CONTINUOUS
 62
     7
 66
     1
 10
0.0
 20
0.0
 30
0.0
 70
     1
  0
VERTEX
  5
26C
  8
DATA
  6
CONTINUOUS
 62
     7
 10
23.625000000220449
 20
-71.269045217916982
 30
0.0
  0
VERTEX
  5
26D
  8
DATA
  6
CONTINUOUS
 62
     7
 10
26.62500000022046
 20
-71.269045217916982
 30
0.0
  0
VERTEX
  5
26E
  8
DATA
  6
CONTINUOUS
 62
     7
 10
26.62500000022046
 20
-74.269045217916982
 30
0.0
  0
VERTEX
  5
26F
  8
DATA
  6
CONTINUOUS
 62
     7
 10
23.625000000220449
 20
-74.269045217916982
 30
0.0
  0
SEQEND
  5
270
  8
DATA
  6
CONTINUOUS
 62
     7
  0
CIRCLE
  5
184
  8
DATA
  6
CONTINUOUS
 62
     7
 10
25.125000000220531
 20
-68.750000000156206
 30
0.0
 40
7.0
  0
TEXT
  5
185
  8
DATA
 62
     7
 10
21.97407025812927
 20
-73.420611514471929
 30
0.0
 40
1.3030729166666659
  1
0
 41
0.7
 11
21.97407025812927
 21
-72.76907505613859
 31
0.0
 73
     2
  0
TEXT
  5
186
  8
DATA
 62
     7
 10
27.105655630923909
 20
-73.420611514471929
 30
0.0
 40
1.3030729166666659
  1
-20
 41
0.7
 11
27.105655630923909
 21
-72.76907505613859
 31
0.0
 73
     2
  0
TEXT
  5
187
  8
DATA
 62
     7
 10
-74.999999999999986
 20
-100.7137965495785
 30
0.0
 40
3.8006293402777769
  1
※仕様及び外観は予告なく変更されることがあります。
 41
0.7
 11
-74.999999999999986
 21
-96.913167209300767
 31
0.0
 73
     3
  0
TEXT
  5
188
  8
DATA
 62
     7
 10
-74.999999999999986
 20
-105.6526854384674
 30
0.0
 40
3.8006293402777769
  1
　また、同一商品でも若干の個体差があることがあります。ご了承ください。
 41
0.7
 11
-74.999999999999986
 21
-101.85205609818961
 31
0.0
 73
     3
  0
ENDSEC
  0
EOF
