  0
SECTION
  2
HEADER
  9
$ACADVER
  1
AC1015
  9
$ACADMAINTVER
 70
    20
  9
$DWGCODEPAGE
  3
ANSI_932
  9
$INSBASE
 10
0.0
 20
0.0
 30
0.0
  9
$EXTMIN
 10
-450.0274637257687
 20
-673.7417893208016
 30
-0.0015258207003583
  9
$EXTMAX
 10
450.02746791672
 20
664.0758878688388
 30
0.0000000349246037
  9
$LIMMIN
 10
0.0
 20
0.0
  9
$LIMMAX
 10
0.0
 20
0.0
  9
$ORTHOMODE
 70
     0
  9
$REGENMODE
 70
     1
  9
$FILLMODE
 70
     1
  9
$QTEXTMODE
 70
     0
  9
$MIRRTEXT
 70
     1
  9
$LTSCALE
 40
25.4
  9
$ATTMODE
 70
     1
  9
$TEXTSIZE
 40
0.0
  9
$TRACEWID
 40
1.0
  9
$TEXTSTYLE
  7
STANDARD
  9
$CLAYER
  8
DATA
  9
$CELTYPE
  6
ByLayer
  9
$CECOLOR
 62
   256
  9
$CELTSCALE
 40
1.0
  9
$DISPSILH
 70
     0
  9
$DIMSCALE
 40
1.0
  9
$DIMASZ
 40
0.18
  9
$DIMEXO
 40
0.0625
  9
$DIMDLI
 40
0.38
  9
$DIMRND
 40
0.0
  9
$DIMDLE
 40
0.0
  9
$DIMEXE
 40
0.18
  9
$DIMTP
 40
0.0
  9
$DIMTM
 40
0.0
  9
$DIMTXT
 40
0.18
  9
$DIMCEN
 40
0.09
  9
$DIMTSZ
 40
0.0
  9
$DIMTOL
 70
     0
  9
$DIMLIM
 70
     0
  9
$DIMTIH
 70
     1
  9
$DIMTOH
 70
     1
  9
$DIMSE1
 70
     0
  9
$DIMSE2
 70
     0
  9
$DIMTAD
 70
     0
  9
$DIMZIN
 70
     0
  9
$DIMBLK
  1

  9
$DIMASO
 70
     1
  9
$DIMSHO
 70
     1
  9
$DIMPOST
  1

  9
$DIMAPOST
  1

  9
$DIMALT
 70
     0
  9
$DIMALTD
 70
     2
  9
$DIMALTF
 40
25.4
  9
$DIMLFAC
 40
1.0
  9
$DIMTOFL
 70
     0
  9
$DIMTVP
 40
0.0
  9
$DIMTIX
 70
     0
  9
$DIMSOXD
 70
     0
  9
$DIMSAH
 70
     0
  9
$DIMBLK1
  1

  9
$DIMBLK2
  1

  9
$DIMSTYLE
  2
STANDARD
  9
$DIMCLRD
 70
     0
  9
$DIMCLRE
 70
     0
  9
$DIMCLRT
 70
     0
  9
$DIMTFAC
 40
1.0
  9
$DIMGAP
 40
0.09
  9
$DIMJUST
 70
     0
  9
$DIMSD1
 70
     0
  9
$DIMSD2
 70
     0
  9
$DIMTOLJ
 70
     1
  9
$DIMTZIN
 70
     0
  9
$DIMALTZ
 70
     0
  9
$DIMALTTZ
 70
     0
  9
$DIMUPT
 70
     0
  9
$DIMDEC
 70
     4
  9
$DIMTDEC
 70
     4
  9
$DIMALTU
 70
     2
  9
$DIMALTTD
 70
     2
  9
$DIMTXSTY
  7
STANDARD
  9
$DIMAUNIT
 70
     0
  9
$DIMADEC
 70
     0
  9
$DIMALTRND
 40
0.0
  9
$DIMAZIN
 70
     0
  9
$DIMDSEP
 70
    46
  9
$DIMATFIT
 70
     3
  9
$DIMFRAC
 70
     0
  9
$DIMLDRBLK
  1

  9
$DIMLUNIT
 70
     2
  9
$DIMLWD
 70
    -2
  9
$DIMLWE
 70
    -2
  9
$DIMTMOVE
 70
     0
  9
$LUNITS
 70
     2
  9
$LUPREC
 70
     4
  9
$SKETCHINC
 40
0.1
  9
$FILLETRAD
 40
0.0
  9
$AUNITS
 70
     0
  9
$AUPREC
 70
     0
  9
$MENU
  1
acad
  9
$ELEVATION
 40
0.0
  9
$PELEVATION
 40
0.0
  9
$THICKNESS
 40
0.0
  9
$LIMCHECK
 70
     0
  9
$CHAMFERA
 40
0.0
  9
$CHAMFERB
 40
0.0
  9
$CHAMFERC
 40
0.0
  9
$CHAMFERD
 40
0.0
  9
$SKPOLY
 70
     0
  9
$TDCREATE
 40
2458008.787638889
  9
$TDUCREATE
 40
2458008.412638889
  9
$TDUPDATE
 40
2458008.789907407
  9
$TDUUPDATE
 40
2458008.414907407
  9
$TDINDWG
 40
0.0004745370
  9
$TDUSRTIMER
 40
0.0004745370
  9
$USRTIMER
 70
     1
  9
$ANGBASE
 50
0.0
  9
$ANGDIR
 70
     0
  9
$PDMODE
 70
     1
  9
$PDSIZE
 40
-2.0
  9
$PLINEWID
 40
0.0
  9
$SPLFRAME
 70
     0
  9
$SPLINETYPE
 70
     6
  9
$SPLINESEGS
 70
     8
  9
$HANDSEED
  5
3F1
  9
$SURFTAB1
 70
     6
  9
$SURFTAB2
 70
     6
  9
$SURFTYPE
 70
     6
  9
$SURFU
 70
     6
  9
$SURFV
 70
     6
  9
$UCSBASE
  2

  9
$UCSNAME
  2

  9
$UCSORG
 10
0.0
 20
0.0
 30
0.0
  9
$UCSXDIR
 10
1.0
 20
0.0
 30
0.0
  9
$UCSYDIR
 10
0.0
 20
1.0
 30
0.0
  9
$UCSORTHOREF
  2

  9
$UCSORTHOVIEW
 70
     0
  9
$UCSORGTOP
 10
0.0
 20
0.0
 30
0.0
  9
$UCSORGBOTTOM
 10
0.0
 20
0.0
 30
0.0
  9
$UCSORGLEFT
 10
0.0
 20
0.0
 30
0.0
  9
$UCSORGRIGHT
 10
0.0
 20
0.0
 30
0.0
  9
$UCSORGFRONT
 10
0.0
 20
0.0
 30
0.0
  9
$UCSORGBACK
 10
0.0
 20
0.0
 30
0.0
  9
$PUCSBASE
  2

  9
$PUCSNAME
  2

  9
$PUCSORG
 10
0.0
 20
0.0
 30
0.0
  9
$PUCSXDIR
 10
1.0
 20
0.0
 30
0.0
  9
$PUCSYDIR
 10
0.0
 20
1.0
 30
0.0
  9
$PUCSORTHOREF
  2

  9
$PUCSORTHOVIEW
 70
     0
  9
$PUCSORGTOP
 10
0.0
 20
0.0
 30
0.0
  9
$PUCSORGBOTTOM
 10
0.0
 20
0.0
 30
0.0
  9
$PUCSORGLEFT
 10
0.0
 20
0.0
 30
0.0
  9
$PUCSORGRIGHT
 10
0.0
 20
0.0
 30
0.0
  9
$PUCSORGFRONT
 10
0.0
 20
0.0
 30
0.0
  9
$PUCSORGBACK
 10
0.0
 20
0.0
 30
0.0
  9
$USERI1
 70
     0
  9
$USERI2
 70
     0
  9
$USERI3
 70
     0
  9
$USERI4
 70
     0
  9
$USERI5
 70
     0
  9
$USERR1
 40
0.0
  9
$USERR2
 40
0.0
  9
$USERR3
 40
0.0
  9
$USERR4
 40
0.0
  9
$USERR5
 40
0.0
  9
$WORLDVIEW
 70
     1
  9
$SHADEDGE
 70
     3
  9
$SHADEDIF
 70
    70
  9
$TILEMODE
 70
     1
  9
$MAXACTVP
 70
    64
  9
$PINSBASE
 10
0.0
 20
0.0
 30
0.0
  9
$PLIMCHECK
 70
     0
  9
$PEXTMIN
 10
1.000000000000000E+20
 20
1.000000000000000E+20
 30
1.000000000000000E+20
  9
$PEXTMAX
 10
-1.000000000000000E+20
 20
-1.000000000000000E+20
 30
-1.000000000000000E+20
  9
$PLIMMIN
 10
0.0
 20
0.0
  9
$PLIMMAX
 10
12.0
 20
9.0
  9
$UNITMODE
 70
     0
  9
$VISRETAIN
 70
     0
  9
$PLINEGEN
 70
     1
  9
$PSLTSCALE
 70
     0
  9
$TREEDEPTH
 70
  3020
  9
$CMLSTYLE
  2
Standard
  9
$CMLJUST
 70
     0
  9
$CMLSCALE
 40
1.0
  9
$PROXYGRAPHICS
 70
     1
  9
$MEASUREMENT
 70
     0
  9
$CELWEIGHT
370
    -1
  9
$ENDCAPS
280
     0
  9
$JOINSTYLE
280
     0
  9
$LWDISPLAY
290
     0
  9
$INSUNITS
 70
     0
  9
$HYPERLINKBASE
  1

  9
$STYLESHEET
  1

  9
$XEDIT
290
     1
  9
$CEPSNTYPE
380
     0
  9
$PSTYLEMODE
290
     1
  9
$FINGERPRINTGUID
  2
{3B040D95-7797-2F43-BADA-DFB72CB4E6D1}
  9
$VERSIONGUID
  2
{347B8CF1-C2D4-264C-93C9-4846084C859A}
  9
$EXTNAMES
290
     1
  9
$PSVPSCALE
 40
0.0
  9
$OLESTARTUP
290
     0
  0
ENDSEC
  0
SECTION
  2
CLASSES
  0
CLASS
  1
ACDBDICTIONARYWDFLT
  2
AcDbDictionaryWithDefault
  3
ObjectDBX Classes
 90
        0
280
     0
281
     0
  0
CLASS
  1
MATERIAL
  2
AcDbMaterial
  3
ObjectDBX Classes
 90
     1153
280
     0
281
     0
  0
CLASS
  1
VISUALSTYLE
  2
AcDbVisualStyle
  3
ObjectDBX Classes
 90
     4095
280
     0
281
     0
  0
CLASS
  1
SCALE
  2
AcDbScale
  3
ObjectDBX Classes
 90
     1153
280
     0
281
     0
  0
CLASS
  1
TABLESTYLE
  2
AcDbTableStyle
  3
ObjectDBX Classes
 90
     4095
280
     0
281
     0
  0
CLASS
  1
MLEADERSTYLE
  2
AcDbMLeaderStyle
  3
ACDB_MLEADERSTYLE_CLASS
 90
     4095
280
     0
281
     0
  0
CLASS
  1
ACDBSECTIONVIEWSTYLE
  2
AcDbSectionViewStyle
  3
ObjectDBX Classes
 90
     1025
280
     0
281
     0
  0
CLASS
  1
ACDBDETAILVIEWSTYLE
  2
AcDbDetailViewStyle
  3
ObjectDBX Classes
 90
     1025
280
     0
281
     0
  0
CLASS
  1
DICTIONARYVAR
  2
AcDbDictionaryVar
  3
ObjectDBX Classes
 90
        0
280
     0
281
     0
  0
CLASS
  1
CELLSTYLEMAP
  2
AcDbCellStyleMap
  3
ObjectDBX Classes
 90
     1152
280
     0
281
     0
  0
CLASS
  1
ACDBPLACEHOLDER
  2
AcDbPlaceHolder
  3
ObjectDBX Classes
 90
        0
280
     0
281
     0
  0
CLASS
  1
LAYOUT
  2
AcDbLayout
  3
ObjectDBX Classes
 90
        0
280
     0
281
     0
  0
ENDSEC
  0
SECTION
  2
TABLES
  0
TABLE
  2
VPORT
  5
31B
330
0
100
AcDbSymbolTable
 70
     1
  0
VPORT
  5
387
330
31B
100
AcDbSymbolTableRecord
100
AcDbViewportTableRecord
  2
*ACTIVE
 70
     0
 10
0.0
 20
0.0
 11
1.0
 21
1.0
 12
0.0000020954755655
 22
-4.83295072598139
 13
0.0
 23
0.0
 14
1.0
 24
1.0
 15
0.0
 25
0.0
 16
0.0
 26
0.0
 36
1.0
 17
0.0
 27
0.0
 37
0.0
 40
1348.73863781976
 41
2.588555858310626
 42
50.0
 43
0.0
 44
0.0
 50
0.0
 51
0.0
 71
     0
 72
  2000
 73
     1
 74
     1
 75
     0
 76
     0
 77
     0
 78
     0
281
     0
 65
     1
110
0.0
120
0.0
130
0.0
111
1.0
121
0.0
131
0.0
112
0.0
122
1.0
132
0.0
 79
     0
146
0.0
1001
ACAD_NAV_VCDISPLAY
1070
     3
  0
ENDTAB
  0
TABLE
  2
LTYPE
  5
318
330
0
100
AcDbSymbolTable
 70
    11
  0
LTYPE
  5
36D
330
318
100
AcDbSymbolTableRecord
100
AcDbLinetypeTableRecord
  2
ByBlock
 70
     0
  3

 72
    65
 73
     0
 40
0.0
  0
LTYPE
  5
36E
330
318
100
AcDbSymbolTableRecord
100
AcDbLinetypeTableRecord
  2
ByLayer
 70
     0
  3

 72
    65
 73
     0
 40
0.0
  0
LTYPE
  5
36F
330
318
100
AcDbSymbolTableRecord
100
AcDbLinetypeTableRecord
  2
CONTINUOUS
 70
     0
  3
Solid line
 72
    65
 73
     0
 40
0.0
  0
ENDTAB
  0
TABLE
  2
LAYER
  5
315
330
0
100
AcDbSymbolTable
 70
     5
  0
LAYER
  5
367
102
{ACAD_XDICTIONARY
360
39B
102
}
330
315
100
AcDbSymbolTableRecord
100
AcDbLayerTableRecord
  2
0
 70
     0
 62
     7
  6
CONTINUOUS
370
    -3
390
322
  0
LAYER
  5
386
102
{ACAD_XDICTIONARY
360
39D
102
}
330
315
100
AcDbSymbolTableRecord
100
AcDbLayerTableRecord
  2
DATA
 70
     0
 62
     7
  6
CONTINUOUS
370
    -3
390
322
  0
LAYER
  5
392
102
{ACAD_XDICTIONARY
360
39F
102
}
330
315
100
AcDbSymbolTableRecord
100
AcDbLayerTableRecord
  2
HIBINO-BASE
 70
     0
 62
     7
  6
CONTINUOUS
370
    -3
390
322
  0
LAYER
  5
393
102
{ACAD_XDICTIONARY
360
3A1
102
}
330
315
100
AcDbSymbolTableRecord
100
AcDbLayerTableRecord
  2
SPEC
 70
     0
 62
     7
  6
CONTINUOUS
370
    -3
390
322
  0
LAYER
  5
394
102
{ACAD_XDICTIONARY
360
3A3
102
}
330
315
100
AcDbSymbolTableRecord
100
AcDbLayerTableRecord
  2
DIMNSIONS
 70
     0
 62
     7
  6
CONTINUOUS
370
    -3
390
322
  0
ENDTAB
  0
TABLE
  2
STYLE
  5
316
330
0
100
AcDbSymbolTable
 70
     3
  0
STYLE
  5
368
330
316
100
AcDbSymbolTableRecord
100
AcDbTextStyleTableRecord
  2
STANDARD
 70
     0
 40
0.0
 41
1.0
 50
0.0
 71
     0
 42
0.0
  3
txt
  4
BIGFONT.SHX
  0
ENDTAB
  0
TABLE
  2
VIEW
  5
319
330
0
100
AcDbSymbolTable
 70
     0
  0
ENDTAB
  0
TABLE
  2
UCS
  5
31A
330
0
100
AcDbSymbolTable
 70
     0
  0
ENDTAB
  0
TABLE
  2
APPID
  5
31C
330
0
100
AcDbSymbolTable
 70
     4
  0
APPID
  5
369
330
31C
100
AcDbSymbolTableRecord
100
AcDbRegAppTableRecord
  2
ACAD
 70
     0
  0
APPID
  5
370
330
31C
100
AcDbSymbolTableRecord
100
AcDbRegAppTableRecord
  2
AcadAnnotative
 70
     0
  0
APPID
  5
3AF
330
31C
100
AcDbSymbolTableRecord
100
AcDbRegAppTableRecord
  2
ACAD_NAV_VCDISPLAY
 70
     0
  0
APPID
  5
3E8
330
31C
100
AcDbSymbolTableRecord
100
AcDbRegAppTableRecord
  2
ACAD_MLEADERVER
 70
     0
  0
ENDTAB
  0
TABLE
  2
DIMSTYLE
  5
31D
330
0
100
AcDbSymbolTable
 70
     2
100
AcDbDimStyleTable
 71
     0
  0
DIMSTYLE
105
36A
330
31D
100
AcDbSymbolTableRecord
100
AcDbDimStyleTableRecord
  2
STANDARD
 70
     0
279
     2
340
368
  0
ENDTAB
  0
TABLE
  2
BLOCK_RECORD
  5
314
330
0
100
AcDbSymbolTable
 70
     0
  0
BLOCK_RECORD
  5
382
330
314
100
AcDbSymbolTableRecord
100
AcDbBlockTableRecord
  2
*Model_Space
340
385
  0
BLOCK_RECORD
  5
37E
330
314
100
AcDbSymbolTableRecord
100
AcDbBlockTableRecord
  2
*Paper_Space
340
381
  0
ENDTAB
  0
ENDSEC
  0
SECTION
  2
BLOCKS
  0
BLOCK
  5
383
330
382
100
AcDbEntity
  8
0
100
AcDbBlockBegin
  2
*Model_Space
 70
     0
 10
0.0
 20
0.0
 30
0.0
  3
*Model_Space
  1

  0
ENDBLK
  5
384
330
382
100
AcDbEntity
  8
0
100
AcDbBlockEnd
  0
BLOCK
  5
37F
330
37E
100
AcDbEntity
 67
     1
  8
0
100
AcDbBlockBegin
  2
*Paper_Space
 70
     0
 10
0.0
 20
0.0
 30
0.0
  3
*Paper_Space
  1

  0
ENDBLK
  5
380
330
37E
100
AcDbEntity
 67
     1
  8
0
100
AcDbBlockEnd
  0
ENDSEC
  0
SECTION
  2
ENTITIES
  0
LINE
  5
2C
330
382
100
AcDbEntity
  8
HIBINO-BASE
  6
Continuous
 62
     7
100
AcDbLine
 10
-450.0000000008999
 20
664.0351411124462
 30
0.0
 11
450.0000000008999
 21
664.0351411124462
 31
0.0
  0
LINE
  5
2D
330
382
100
AcDbEntity
  8
HIBINO-BASE
  6
Continuous
 62
     7
100
AcDbLine
 10
450.0000000008999
 20
-635.9648588901536
 30
0.0
 11
-450.0000000008999
 21
-635.9648588901536
 31
0.0
  0
LINE
  5
2E
330
382
100
AcDbEntity
  8
HIBINO-BASE
  6
Continuous
 62
     7
100
AcDbLine
 10
-450.0000000008999
 20
-635.9648588901536
 30
0.0
 11
-450.0000000008999
 21
664.0351411124462
 31
0.0
  0
LINE
  5
2F
330
382
100
AcDbEntity
  8
HIBINO-BASE
  6
Continuous
 62
     7
100
AcDbLine
 10
450.0000000008999
 20
664.0351411124462
 30
0.0
 11
450.0000000008999
 21
-635.9648588901536
 31
0.0
  0
LINE
  5
30
330
382
100
AcDbEntity
  8
HIBINO-BASE
  6
Continuous
 62
     7
100
AcDbLine
 10
0.0000000000000355
 20
-523.4648588899288
 30
0.0
 11
450.0000000008999
 21
-523.4648588899288
 31
0.0
  0
LINE
  5
31
330
382
100
AcDbEntity
  8
HIBINO-BASE
  6
Continuous
 62
     7
100
AcDbLine
 10
0.0000000000000355
 20
-635.9648588901536
 30
0.0
 11
0.0000000000000355
 21
-523.4648588899288
 31
0.0
  0
TEXT
  5
32
330
382
100
AcDbEntity
  8
HIBINO-BASE
 62
     7
100
AcDbText
 10
4.500000000009062
 20
-536.0083255566204
 30
0.0
 40
8.144205729182953
  1
NOTE
 41
0.7
 11
4.500000000009063
 21
-527.8641198274374
 31
0.0
100
AcDbText
 73
     3
  0
LINE
  5
33
330
382
100
AcDbEntity
  8
HIBINO-BASE
  6
Continuous
 62
     7
100
AcDbLine
 10
175.0000000003501
 20
-635.9648588901536
 30
0.0
 11
175.0000000003501
 21
-523.4648588899288
 31
0.0
  0
TEXT
  5
34
330
382
100
AcDbEntity
  8
HIBINO-BASE
 62
     7
100
AcDbText
 10
179.5000000003589
 20
-536.0083255566204
 30
0.0
 40
8.144205729182953
  1
TITLE
 41
0.7
 11
179.5000000003589
 21
-527.8641198274374
 31
0.0
100
AcDbText
 73
     3
  0
LINE
  5
35
330
382
100
AcDbEntity
  8
HIBINO-BASE
  6
Continuous
 62
     7
100
AcDbLine
 10
0.0000000000000355
 20
-585.9648588900536
 30
0.0
 11
450.0000000008999
 21
-585.9648588900536
 31
0.0
  0
TEXT
  5
36
330
382
100
AcDbEntity
  8
HIBINO-BASE
 62
     7
100
AcDbText
 10
242.000000000484
 20
-598.2267255567449
 30
0.0
 40
8.144205729182953
  1
DRAWN
 41
0.7
 11
242.000000000484
 21
-590.0825198275619
 31
0.0
100
AcDbText
 73
     3
  0
TEXT
  5
37
330
382
100
AcDbEntity
  8
HIBINO-BASE
 62
     7
100
AcDbText
 10
117.0000000002339
 20
-598.2267255567449
 30
0.0
 40
8.144205729182953
  1
DATE
 41
0.7
 11
117.0000000002339
 21
-590.0825198275619
 31
0.0
100
AcDbText
 73
     3
  0
TEXT
  5
38
330
382
100
AcDbEntity
  8
HIBINO-BASE
 62
     7
100
AcDbText
 10
67.00000000013396
 20
-598.2267255567449
 30
0.0
 40
8.144205729182953
  1
SCALE
 41
0.7
 11
67.00000000013396
 21
-590.0825198275619
 31
0.0
100
AcDbText
 73
     3
  0
TEXT
  5
39
330
382
100
AcDbEntity
  8
HIBINO-BASE
 62
     7
100
AcDbText
 10
179.5000000003589
 20
-598.2267255567449
 30
0.0
 40
8.144205729182953
  1
DESIGN
 41
0.7
 11
179.5000000003589
 21
-590.0825198275619
 31
0.0
100
AcDbText
 73
     3
  0
TEXT
  5
3A
330
382
100
AcDbEntity
  8
HIBINO-BASE
 62
     7
100
AcDbText
 10
367.000000000734
 20
-598.2267255567449
 30
0.0
 40
8.144205729182953
  1
DRAWING NO.
 41
0.7
 11
367.000000000734
 21
-590.0825198275619
 31
0.0
100
AcDbText
 73
     3
  0
TEXT
  5
3B
330
382
100
AcDbEntity
  8
HIBINO-BASE
 62
     7
100
AcDbText
 10
304.500000000609
 20
-598.2267255567449
 30
0.0
 40
8.144205729182953
  1
CHECK
 41
0.7
 11
304.500000000609
 21
-590.0825198275619
 31
0.0
100
AcDbText
 73
     3
  0
LINE
  5
3C
330
382
100
AcDbEntity
  8
HIBINO-BASE
  6
Continuous
 62
     7
100
AcDbLine
 10
71.87500000014378
 20
-629.7148588901412
 30
0.0
 11
90.62500000018134
 21
-610.9648588901036
 31
0.0
  0
TEXT
  5
3D
330
382
100
AcDbEntity
  8
HIBINO-BASE
 62
     7
100
AcDbText
 10
68.75000000013753
 20
-616.5095755567814
 30
0.0
 40
8.144205729182953
  1
1
 41
0.7
 11
68.75000000013753
 21
-608.3653698275984
 31
0.0
100
AcDbText
 73
     3
  0
LINE
  5
3E
330
382
100
AcDbEntity
  8
HIBINO-BASE
  6
Continuous
 62
     7
100
AcDbLine
 10
62.50000000012502
 20
-635.9648588901536
 30
0.0
 11
62.50000000012502
 21
-585.9648588900536
 31
0.0
  0
LINE
  5
3F
330
382
100
AcDbEntity
  8
HIBINO-BASE
  6
Continuous
 62
     7
100
AcDbLine
 10
112.5000000002249
 20
-635.9648588901536
 30
0.0
 11
112.5000000002249
 21
-585.9648588900536
 31
0.0
  0
LINE
  5
40
330
382
100
AcDbEntity
  8
HIBINO-BASE
  6
Continuous
 62
     7
100
AcDbLine
 10
237.5000000004749
 20
-585.9648588900536
 30
0.0
 11
237.5000000004749
 21
-635.9648588901536
 31
0.0
  0
LINE
  5
41
330
382
100
AcDbEntity
  8
HIBINO-BASE
  6
Continuous
 62
     7
100
AcDbLine
 10
362.5000000007249
 20
-585.9648588900536
 30
0.0
 11
362.5000000007249
 21
-635.9648588901536
 31
0.0
  0
LINE
  5
42
330
382
100
AcDbEntity
  8
HIBINO-BASE
  6
Continuous
 62
     7
100
AcDbLine
 10
300.0000000005999
 20
-635.9648588901536
 30
0.0
 11
300.0000000005999
 21
-585.9648588900536
 31
0.0
  0
TEXT
  5
43
330
382
100
AcDbEntity
  8
HIBINO-BASE
 62
     7
100
AcDbText
 10
116.7827000002336
 20
-621.6466255567915
 30
0.0
 40
8.144205729182953
  1
'17.09.
 41
0.7
 11
116.7827000002336
 21
-613.5024198276085
 31
0.0
100
AcDbText
 73
     3
  0
TEXT
  5
44
330
382
100
AcDbEntity
  8
HIBINO-BASE
 62
     7
100
AcDbText
 10
87.50000000017502
 20
-625.8845755568003
 30
0.0
 40
8.144205729182953
  1
3
 41
0.7
 11
87.50000000017502
 21
-617.7403698276172
 31
0.0
100
AcDbText
 73
     3
  0
TEXT
  5
45
330
382
100
AcDbEntity
  8
HIBINO-BASE
 62
     7
100
AcDbText
 10
245.0290500556632
 20
-621.6466255567915
 30
0.0
 40
8.144205729182953
  1
N.Sasaki
 41
0.7
 11
245.0290500556632
 21
-613.5024198276085
 31
0.0
100
AcDbText
 73
     3
  0
TEXT
  5
46
330
382
100
AcDbEntity
  8
HIBINO-BASE
 62
     7
100
AcDbText
 10
19.41666666670564
 20
-626.0848588901339
 30
0.0
 40
16.28841145836591
  1
A4
 41
0.7
 11
19.41666666670564
 21
-609.796447431768
 31
0.0
100
AcDbText
 73
     3
  0
TEXT
  5
47
330
382
100
AcDbEntity
  8
HIBINO-BASE
 62
     7
100
AcDbText
 10
4.79166666667626
 20
-599.0621338900799
 30
0.0
 40
8.144205729182953
  1
PAPER SIZE
 41
0.7
 11
4.791666666676261
 21
-590.9179281608969
 31
0.0
100
AcDbText
 73
     3
  0
TEXT
  5
48
330
382
100
AcDbEntity
  8
HIBINO-BASE
 62
     7
100
AcDbText
 10
-414.080000000828
 20
-667.8424338902174
 30
0.0
 40
17.64577907989639
  1
Hibino-Intersound Corporation
 41
0.7
 11
-414.080000000828
 21
-650.196654810321
 31
0.0
100
AcDbText
 73
     3
  0
TEXT
  5
49
330
382
100
AcDbEntity
  8
HIBINO-BASE
 62
     7
100
AcDbText
 10
70.12167083635588
 20
-667.8424338902174
 30
0.0
 40
17.64577907989639
  1
ヒビノインターサウンド株式会社
 41
0.7
 11
70.12167083635588
 21
-650.196654810321
 31
0.0
100
AcDbText
 73
     3
  0
TEXT
  5
4A
330
382
100
AcDbEntity
  8
SPEC
 62
     7
100
AcDbText
 10
-183.000000000366
 20
374.2247300007554
 30
0.0
 40
9.501573350713446
  1
0～＋50℃
 41
0.7
 11
-183.000000000366
 21
383.7263033514688
 31
0.0
100
AcDbText
 73
     3
  0
TEXT
  5
4B
330
382
100
AcDbEntity
  8
SPEC
 62
     7
100
AcDbText
 10
-408.0000000008159
 20
599.2247300012052
 30
0.0
 40
9.501573350713446
  1
最大ピクセルクロック
 41
0.7
 11
-408.0000000008159
 21
608.7263033519186
 31
0.0
100
AcDbText
 73
     3
  0
TEXT
  5
4C
330
382
100
AcDbEntity
  8
SPEC
 62
     7
100
AcDbText
 10
-183.000000000366
 20
599.2247300012052
 30
0.0
 40
9.501573350713446
  1
600MHz
 41
0.7
 11
-183.000000000366
 21
608.7263033519186
 31
0.0
100
AcDbText
 73
     3
  0
LINE
  5
4D
330
382
100
AcDbEntity
  8
SPEC
  6
Continuous
 62
     7
100
AcDbLine
 10
-412.5000000008247
 20
614.0351411123463
 30
0.0
 11
395.8333333341249
 21
614.0351411123463
 31
0.0
  0
LINE
  5
4E
330
382
100
AcDbEntity
  8
SPEC
  6
Continuous
 62
     7
100
AcDbLine
 10
-412.5000000008247
 20
595.2851411123084
 30
0.0
 11
395.8333333341249
 21
595.2851411123084
 31
0.0
  0
LINE
  5
4F
330
382
100
AcDbEntity
  8
SPEC
  6
Continuous
 62
     7
100
AcDbLine
 10
-412.5000000008247
 20
614.0351411123463
 30
0.0
 11
-412.5000000008247
 21
239.0351411115961
 31
0.0
  0
TEXT
  5
50
330
382
100
AcDbEntity
  8
SPEC
 62
     7
100
AcDbText
 10
-406.2500000008124
 20
621.0014911123598
 30
0.0
 40
12.21630859377443
  1
仕様
 41
0.7
 11
-406.2500000008124
 21
633.2177997061343
 31
0.0
100
AcDbText
 73
     3
  0
LINE
  5
51
330
382
100
AcDbEntity
  8
SPEC
  6
Continuous
 62
     7
100
AcDbLine
 10
-187.500000000375
 20
614.0351411123463
 30
0.0
 11
-187.500000000375
 21
239.0351411115961
 31
0.0
  0
LINE
  5
52
330
382
100
AcDbEntity
  8
SPEC
  6
Continuous
 62
     7
100
AcDbLine
 10
395.8333333341249
 20
614.0351411123463
 30
0.0
 11
395.8333333341249
 21
239.0351411115961
 31
0.0
  0
TEXT
  5
53
330
382
100
AcDbEntity
  8
SPEC
 62
     7
100
AcDbText
 10
-408.0000000008159
 20
336.7247300006803
 30
0.0
 40
9.501573350713446
  1
MTBF
 41
0.7
 11
-408.0000000008159
 21
346.2263033513937
 31
0.0
100
AcDbText
 73
     3
  0
TEXT
  5
54
330
382
100
AcDbEntity
  8
SPEC
 62
     7
100
AcDbText
 10
-408.0000000008159
 20
374.2247300007554
 30
0.0
 40
9.501573350713446
  1
動作温度
 41
0.7
 11
-408.0000000008159
 21
383.7263033514688
 31
0.0
100
AcDbText
 73
     3
  0
TEXT
  5
55
330
382
100
AcDbEntity
  8
SPEC
 62
     7
100
AcDbText
 10
-408.0000000008159
 20
355.4747300007177
 30
0.0
 40
9.501573350713446
  1
動作湿度範囲
 41
0.7
 11
-408.0000000008159
 21
364.9763033514312
 31
0.0
100
AcDbText
 73
     3
  0
TEXT
  5
56
330
382
100
AcDbEntity
  8
SPEC
 62
     7
100
AcDbText
 10
-183.000000000366
 20
355.4747300007177
 30
0.0
 40
9.501573350713446
  1
5%%%～90%%% RH(相対湿度)、結露なきこと
 41
0.7
 11
-183.000000000366
 21
364.9763033514312
 31
0.0
100
AcDbText
 73
     3
  0
LINE
  5
57
330
382
100
AcDbEntity
  8
SPEC
  6
Continuous
 62
     7
100
AcDbLine
 10
-412.5000000008247
 20
520.2851411121586
 30
0.0
 11
395.8333333341249
 21
520.2851411121586
 31
0.0
  0
LINE
  5
58
330
382
100
AcDbEntity
  8
SPEC
  6
Continuous
 62
     7
100
AcDbLine
 10
-412.5000000008247
 20
482.7851411120836
 30
0.0
 11
395.8333333341249
 21
482.7851411120836
 31
0.0
  0
LINE
  5
59
330
382
100
AcDbEntity
  8
SPEC
  6
Continuous
 62
     7
100
AcDbLine
 10
-412.5000000008247
 20
464.0351411120461
 30
0.0
 11
395.8333333341249
 21
464.0351411120461
 31
0.0
  0
LINE
  5
5A
330
382
100
AcDbEntity
  8
SPEC
  6
Continuous
 62
     7
100
AcDbLine
 10
-412.5000000008247
 20
426.5351411119712
 30
0.0
 11
395.8333333341249
 21
426.5351411119712
 31
0.0
  0
LINE
  5
5B
330
382
100
AcDbEntity
  8
SPEC
  6
Continuous
 62
     7
100
AcDbLine
 10
-412.5000000008247
 20
407.7851411119335
 30
0.0
 11
395.8333333341249
 21
407.7851411119335
 31
0.0
  0
LINE
  5
5C
330
382
100
AcDbEntity
  8
SPEC
  6
Continuous
 62
     7
100
AcDbLine
 10
-412.5000000008247
 20
389.035141111896
 30
0.0
 11
395.8333333341249
 21
389.035141111896
 31
0.0
  0
LINE
  5
5D
330
382
100
AcDbEntity
  8
SPEC
  6
Continuous
 62
     7
100
AcDbLine
 10
-412.5000000008247
 20
370.2851411118586
 30
0.0
 11
395.8333333341249
 21
370.2851411118586
 31
0.0
  0
LINE
  5
5E
330
382
100
AcDbEntity
  8
SPEC
  6
Continuous
 62
     7
100
AcDbLine
 10
-412.5000000008247
 20
351.5351411118212
 30
0.0
 11
395.8333333341249
 21
351.5351411118212
 31
0.0
  0
LINE
  5
5F
330
382
100
AcDbEntity
  8
SPEC
  6
Continuous
 62
     7
100
AcDbLine
 10
-412.5000000008247
 20
295.2851411117086
 30
0.0
 11
395.8333333341249
 21
295.2851411117086
 31
0.0
  0
TEXT
  5
60
330
382
100
AcDbEntity
  8
SPEC
 62
     7
100
AcDbText
 10
-183.000000000366
 20
580.4747300011676
 30
0.0
 40
9.501573350713446
  1
4K DCI:4096×2160@60Hz(4:4:4) 
 41
0.7
 11
-183.000000000366
 21
589.9763033518811
 31
0.0
100
AcDbText
 73
     3
  0
TEXT
  5
61
330
382
100
AcDbEntity
  8
SPEC
 62
     7
100
AcDbText
 10
-183.000000000366
 20
542.9747300010927
 30
0.0
 40
9.501573350713446
  1
1080pフルHD
 41
0.7
 11
-183.000000000366
 21
552.4763033518062
 31
0.0
100
AcDbText
 73
     3
  0
TEXT
  5
62
330
382
100
AcDbEntity
  8
SPEC
 62
     7
100
AcDbText
 10
-408.0000000008159
 20
580.4663966678345
 30
0.0
 40
9.501573350713446
  1
最大対応解像度
 41
0.7
 11
-408.0000000008159
 21
589.9679700185479
 31
0.0
100
AcDbText
 73
     3
  0
TEXT
  5
63
330
382
100
AcDbEntity
  8
SPEC
 62
     7
100
AcDbText
 10
-183.000000000366
 20
561.7247300011301
 30
0.0
 40
9.501573350713446
  1
4K UHD:3840×2160@60Hz(4:4:4) 
 41
0.7
 11
-183.000000000366
 21
571.2263033518436
 31
0.0
100
AcDbText
 73
     3
  0
TEXT
  5
64
330
382
100
AcDbEntity
  8
SPEC
 62
     7
100
AcDbText
 10
-183.000000000366
 20
524.2247300010553
 30
0.0
 40
9.501573350713446
  1
1920×1200 WUXGA
 41
0.7
 11
-183.000000000366
 21
533.7263033517687
 31
0.0
100
AcDbText
 73
     3
  0
TEXT
  5
65
330
382
100
AcDbEntity
  8
SPEC
 62
     7
100
AcDbText
 10
-408.0000000008159
 20
505.4663966676844
 30
0.0
 40
9.501573350713446
  1
対応音声形式
 41
0.7
 11
-408.0000000008159
 21
514.9679700183979
 31
0.0
100
AcDbText
 73
     3
  0
TEXT
  5
66
330
382
100
AcDbEntity
  8
SPEC
 62
     7
100
AcDbText
 10
-183.000000000366
 20
505.4747300010177
 30
0.0
 40
9.501573350713446
  1
LPCM7.1 Audio、DolbyAtmos、Dolby 
 41
0.7
 11
-183.000000000366
 21
514.9763033517311
 31
0.0
100
AcDbText
 73
     3
  0
TEXT
  5
67
330
382
100
AcDbEntity
  8
SPEC
 62
     7
100
AcDbText
 10
-183.000000000366
 20
486.7247300009802
 30
0.0
 40
9.501573350713446
  1
TrueHD、DTS:X、DTS-HD Master Audio
 41
0.7
 11
-183.000000000366
 21
496.2263033516937
 31
0.0
100
AcDbText
 73
     3
  0
TEXT
  5
68
330
382
100
AcDbEntity
  8
SPEC
 62
     7
100
AcDbText
 10
-183.000000000366
 20
467.9747300009427
 30
0.0
 40
9.501573350713446
  1
HDMI TypeA(19ピン、メス、MonoLOK)×1
 41
0.7
 11
-183.000000000366
 21
477.4763033516562
 31
0.0
100
AcDbText
 73
     3
  0
TEXT
  5
69
330
382
100
AcDbEntity
  8
SPEC
 62
     7
100
AcDbText
 10
-408.0000000008159
 20
467.9747300009427
 30
0.0
 40
9.501573350713446
  1
HDMI入力端子
 41
0.7
 11
-408.0000000008159
 21
477.4763033516562
 31
0.0
100
AcDbText
 73
     3
  0
TEXT
  5
6A
330
382
100
AcDbEntity
  8
SPEC
 62
     7
100
AcDbText
 10
-183.000000000366
 20
449.2247300009053
 30
0.0
 40
9.501573350713446
  1
HDMI TypeA(19ピン、メス、MonoLOK)×2
 41
0.7
 11
-183.000000000366
 21
458.7263033516188
 31
0.0
100
AcDbText
 73
     3
  0
TEXT
  5
6B
330
382
100
AcDbEntity
  8
SPEC
 62
     7
100
AcDbText
 10
-183.000000000366
 20
430.4747300008678
 30
0.0
 40
9.501573350713446
  1
※HDMI出力1と2の18ピンからは5V@500mAの電源を供給可能
 41
0.7
 11
-183.000000000366
 21
439.9763033515813
 31
0.0
100
AcDbText
 73
     3
  0
TEXT
  5
6C
330
382
100
AcDbEntity
  8
SPEC
 62
     7
100
AcDbText
 10
-408.0000000008159
 20
449.2247300009053
 30
0.0
 40
9.501573350713446
  1
HDMI出力端子
 41
0.7
 11
-408.0000000008159
 21
458.7263033516188
 31
0.0
100
AcDbText
 73
     3
  0
TEXT
  5
6D
330
382
100
AcDbEntity
  8
SPEC
 62
     7
100
AcDbText
 10
-408.0000000008159
 20
411.7247300008302
 30
0.0
 40
9.501573350713446
  1
USBポート
 41
0.7
 11
-408.0000000008159
 21
421.2263033515436
 31
0.0
100
AcDbText
 73
     3
  0
TEXT
  5
6E
330
382
100
AcDbEntity
  8
SPEC
 62
     7
100
AcDbText
 10
-183.000000000366
 20
411.7247300008302
 30
0.0
 40
9.501573350713446
  1
Mini-B
 41
0.7
 11
-183.000000000366
 21
421.2263033515436
 31
0.0
100
AcDbText
 73
     3
  0
TEXT
  5
6F
330
382
100
AcDbEntity
  8
SPEC
 62
     7
100
AcDbText
 10
-408.0000000008159
 20
392.974730000793
 30
0.0
 40
9.501573350713446
  1
電源
 41
0.7
 11
-408.0000000008159
 21
402.4763033515063
 31
0.0
100
AcDbText
 73
     3
  0
TEXT
  5
70
330
382
100
AcDbEntity
  8
SPEC
 62
     7
100
AcDbText
 10
-183.000000000366
 20
392.974730000793
 30
0.0
 40
9.501573350713446
  1
DC5V、6.5W 
 41
0.7
 11
-183.000000000366
 21
402.4763033515063
 31
0.0
100
AcDbText
 73
     3
  0
TEXT
  5
71
330
382
100
AcDbEntity
  8
SPEC
 62
     7
100
AcDbText
 10
-183.000000000366
 20
336.7247300006803
 30
0.0
 40
9.501573350713446
  1
300000時間 
 41
0.7
 11
-183.000000000366
 21
346.2263033513937
 31
0.0
100
AcDbText
 73
     3
  0
TEXT
  5
72
330
382
100
AcDbEntity
  8
SPEC
 62
     7
100
AcDbText
 10
-183.000000000366
 20
317.9747300006428
 30
0.0
 40
9.501573350713446
  1
214×26×93mm(除突起部)
 41
0.7
 11
-183.000000000366
 21
327.4763033513563
 31
0.0
100
AcDbText
 73
     3
  0
TEXT
  5
73
330
382
100
AcDbEntity
  8
SPEC
 62
     7
100
AcDbText
 10
-183.000000000366
 20
299.2247300006053
 30
0.0
 40
9.501573350713446
  1
0.30kg
 41
0.7
 11
-183.000000000366
 21
308.7263033513187
 31
0.0
100
AcDbText
 73
     3
  0
LINE
  5
74
330
382
100
AcDbEntity
  8
SPEC
  6
Continuous
 62
     7
100
AcDbLine
 10
-412.5000000008247
 20
332.7851411117836
 30
0.0
 11
395.8333333341249
 21
332.7851411117836
 31
0.0
  0
LINE
  5
75
330
382
100
AcDbEntity
  8
SPEC
  6
Continuous
 62
     7
100
AcDbLine
 10
-412.5000000008247
 20
314.0351411117462
 30
0.0
 11
395.8333333341249
 21
314.0351411117462
 31
0.0
  0
TEXT
  5
76
330
382
100
AcDbEntity
  8
SPEC
 62
     7
100
AcDbText
 10
-408.0000000008159
 20
317.9747300006428
 30
0.0
 40
9.501573350713446
  1
寸法(W×H×D)
 41
0.7
 11
-408.0000000008159
 21
327.4763033513563
 31
0.0
100
AcDbText
 73
     3
  0
TEXT
  5
77
330
382
100
AcDbEntity
  8
SPEC
 62
     7
100
AcDbText
 10
-408.0000000008159
 20
299.2247300006053
 30
0.0
 40
9.501573350713446
  1
質量
 41
0.7
 11
-408.0000000008159
 21
308.7263033513187
 31
0.0
100
AcDbText
 73
     3
  0
TEXT
  5
78
330
382
100
AcDbEntity
  8
SPEC
 62
     7
100
AcDbText
 10
-408.0000000008159
 20
280.4747300005678
 30
0.0
 40
9.501573350713446
  1
付属品
 41
0.7
 11
-408.0000000008159
 21
289.9763033512812
 31
0.0
100
AcDbText
 73
     3
  0
TEXT
  5
79
330
382
100
AcDbEntity
  8
SPEC
 62
     7
100
AcDbText
 10
-183.000000000366
 20
280.4747300005678
 30
0.0
 40
9.501573350713446
  1
HDMIケーブル(1.8m、MonoLOK)×1、L字型 ブラケット×2、L字型 ブラケット固定用ネジ(M3-6mm)×4、
 41
0.7
 11
-183.000000000366
 21
289.9763033512812
 31
0.0
100
AcDbText
 73
     3
  0
TEXT
  5
7A
330
382
100
AcDbEntity
  8
SPEC
 62
     7
100
AcDbText
 10
-183.000000000366
 20
261.7247300005303
 30
0.0
 40
9.501573350713446
  1
別売の1Uラックマウントトレイ(EXT-RACK-1U-GRY)への固定用ネジ(M6-32.5mm)×2、ゴム足×4、
 41
0.7
 11
-183.000000000366
 21
271.2263033512438
 31
0.0
100
AcDbText
 73
     3
  0
TEXT
  5
7B
330
382
100
AcDbEntity
  8
SPEC
 62
     7
100
AcDbText
 10
-183.000000000366
 20
242.9747300004928
 30
0.0
 40
9.501573350713446
  1
電源アダプター×1
 41
0.7
 11
-183.000000000366
 21
252.4763033512062
 31
0.0
100
AcDbText
 73
     3
  0
LINE
  5
7C
330
382
100
AcDbEntity
  8
SPEC
  6
Continuous
 62
     7
100
AcDbLine
 10
-412.5000000008247
 20
239.0351411115961
 30
0.0
 11
395.8333333341249
 21
239.0351411115961
 31
0.0
  0
TEXT
  5
7D
330
382
100
AcDbEntity
  8
DIMNSIONS
 62
     7
100
AcDbText
 10
-100.0000000001999
 20
-574.6174088900309
 30
0.0
 40
12.21630859377443
  1
(単位：mm)
 41
0.7
 11
-100.0000000001999
 21
-562.4011002962564
 31
0.0
100
AcDbText
 73
     3
  0
TEXT
  5
7E
330
382
100
AcDbEntity
  8
DIMNSIONS
 62
     7
100
AcDbText
 10
41.66666666675
 20
-504.0108098158157
 30
0.0
 40
13.57367621530492
  1
※センター振り分け
 41
0.7
 11
41.66666666675
 21
-490.4371336005107
 31
0.0
100
AcDbText
 73
     3
  0
LINE
  5
7F
330
382
100
AcDbEntity
  8
DIMNSIONS
  6
Continuous
 62
     7
100
AcDbLine
 10
-307.0
 20
-282.5
 30
0.0
 11
-307.0
 21
-311.25
 31
0.0
  0
LINE
  5
80
330
382
100
AcDbEntity
  8
DIMNSIONS
  6
Continuous
 62
     7
100
AcDbLine
 10
-93.0
 20
-282.5
 30
0.0
 11
-93.0
 21
-311.25
 31
0.0
  0
LINE
  5
81
330
382
100
AcDbEntity
  8
DIMNSIONS
  6
Continuous
 62
     7
100
AcDbLine
 10
-307.0
 20
-306.25
 30
0.0
 11
-93.0
 21
-306.25
 31
0.0
  0
LINE
  5
82
330
382
100
AcDbEntity
  8
DIMNSIONS
  6
Continuous
 62
     7
100
AcDbLine
 10
-307.0
 20
-306.25
 30
0.0
 11
-297.0006103515625
 21
-303.5706716188971
 31
0.0
  0
LINE
  5
83
330
382
100
AcDbEntity
  8
DIMNSIONS
  6
Continuous
 62
     7
100
AcDbLine
 10
-307.0
 20
-306.25
 30
0.0
 11
-297.0006103515625
 21
-308.9293283811029
 31
0.0
  0
LINE
  5
84
330
382
100
AcDbEntity
  8
DIMNSIONS
  6
Continuous
 62
     7
100
AcDbLine
 10
-93.0
 20
-306.25
 30
0.0
 11
-102.9993896484375
 21
-308.9293283811029
 31
0.0
  0
LINE
  5
85
330
382
100
AcDbEntity
  8
DIMNSIONS
  6
Continuous
 62
     7
100
AcDbLine
 10
-93.0
 20
-306.25
 30
0.0
 11
-102.9993896484375
 21
-303.5706716188971
 31
0.0
  0
TEXT
  5
86
330
382
100
AcDbEntity
  8
DIMNSIONS
 62
     7
100
AcDbText
 10
-213.2291666666666
 20
-301.2805555555555
 30
0.0
 40
13.57367621527778
  1
214
 41
0.7
 11
-213.2291666666666
 21
-287.7068793402777
 31
0.0
100
AcDbText
 73
     3
  0
LINE
  5
87
330
382
100
AcDbEntity
  8
DIMNSIONS
  6
Continuous
 62
     7
100
AcDbLine
 10
-314.5
 20
-249.0
 30
0.0
 11
-330.0
 21
-249.0
 31
0.0
  0
LINE
  5
88
330
382
100
AcDbEntity
  8
DIMNSIONS
  6
Continuous
 62
     7
100
AcDbLine
 10
-314.5
 20
-275.0
 30
0.0
 11
-330.0
 21
-275.0
 31
0.0
  0
LINE
  5
89
330
382
100
AcDbEntity
  8
DIMNSIONS
  6
Continuous
 62
     7
100
AcDbLine
 10
-325.0
 20
-249.0
 30
0.0
 11
-325.0
 21
-275.0
 31
0.0
  0
LINE
  5
8A
330
382
100
AcDbEntity
  8
DIMNSIONS
  6
Continuous
 62
     7
100
AcDbLine
 10
-325.0
 20
-249.0
 30
0.0
 11
-322.3206716188971
 21
-258.9993896484375
 31
0.0
  0
LINE
  5
8B
330
382
100
AcDbEntity
  8
DIMNSIONS
  6
Continuous
 62
     7
100
AcDbLine
 10
-325.0
 20
-249.0
 30
0.0
 11
-327.6793283811029
 21
-258.9993896484375
 31
0.0
  0
LINE
  5
8C
330
382
100
AcDbEntity
  8
DIMNSIONS
  6
Continuous
 62
     7
100
AcDbLine
 10
-325.0
 20
-275.0
 30
0.0
 11
-327.6793283811029
 21
-265.0006103515625
 31
0.0
  0
LINE
  5
8D
330
382
100
AcDbEntity
  8
DIMNSIONS
  6
Continuous
 62
     7
100
AcDbLine
 10
-325.0
 20
-275.0
 30
0.0
 11
-322.3206716188971
 21
-265.0006103515625
 31
0.0
  0
TEXT
  5
8E
330
382
100
AcDbEntity
  8
DIMNSIONS
 62
     7
100
AcDbText
 10
-332.4694444444444
 20
-279.6388888888889
 30
0.0
 40
13.57367621527778
  1
26.0
 50
90.0
 41
0.7
 11
-346.0431206597222
 21
-279.6388888888889
 31
0.0
100
AcDbText
 73
     3
  0
LINE
  5
8F
330
382
100
AcDbEntity
  8
DIMNSIONS
  6
Continuous
 62
     7
100
AcDbLine
 10
-235.0
 20
-389.5
 30
0.0
 11
-235.0
 21
-461.2499999999999
 31
0.0
  0
LINE
  5
90
330
382
100
AcDbEntity
  8
DIMNSIONS
  6
Continuous
 62
     7
100
AcDbLine
 10
-165.0
 20
-389.5
 30
0.0
 11
-165.0
 21
-461.2499999999999
 31
0.0
  0
LINE
  5
91
330
382
100
AcDbEntity
  8
DIMNSIONS
  6
Continuous
 62
     7
100
AcDbLine
 10
-235.0
 20
-456.25
 30
0.0
 11
-165.0
 21
-456.25
 31
0.0
  0
LINE
  5
92
330
382
100
AcDbEntity
  8
DIMNSIONS
  6
Continuous
 62
     7
100
AcDbLine
 10
-235.0
 20
-456.25
 30
0.0
 11
-225.0006103515625
 21
-453.5706716188971
 31
0.0
  0
LINE
  5
93
330
382
100
AcDbEntity
  8
DIMNSIONS
  6
Continuous
 62
     7
100
AcDbLine
 10
-235.0
 20
-456.25
 30
0.0
 11
-225.0006103515625
 21
-458.9293283811029
 31
0.0
  0
LINE
  5
94
330
382
100
AcDbEntity
  8
DIMNSIONS
  6
Continuous
 62
     7
100
AcDbLine
 10
-165.0
 20
-456.25
 30
0.0
 11
-174.9993896484375
 21
-458.9293283811029
 31
0.0
  0
LINE
  5
95
330
382
100
AcDbEntity
  8
DIMNSIONS
  6
Continuous
 62
     7
100
AcDbLine
 10
-165.0
 20
-456.25
 30
0.0
 11
-174.9993896484375
 21
-453.5706716188971
 31
0.0
  0
TEXT
  5
96
330
382
100
AcDbEntity
  8
DIMNSIONS
 62
     7
100
AcDbText
 10
-217.6388888888889
 20
-451.2805555555555
 30
0.0
 40
13.57367621527778
  1
70.0
 41
0.7
 11
-217.6388888888889
 21
-437.7068793402777
 31
0.0
100
AcDbText
 73
     3
  0
LINE
  5
97
330
382
100
AcDbEntity
  8
DIMNSIONS
  6
Continuous
 62
     7
100
AcDbLine
 10
-314.5
 20
-325.0
 30
0.0
 11
-330.0
 21
-325.0
 31
0.0
  0
LINE
  5
98
330
382
100
AcDbEntity
  8
DIMNSIONS
  6
Continuous
 62
     7
100
AcDbLine
 10
-242.5
 20
-382.0
 30
0.0
 11
-330.0
 21
-382.0
 31
0.0
  0
LINE
  5
99
330
382
100
AcDbEntity
  8
DIMNSIONS
  6
Continuous
 62
     7
100
AcDbLine
 10
-325.0
 20
-325.0
 30
0.0
 11
-325.0
 21
-382.0
 31
0.0
  0
LINE
  5
9A
330
382
100
AcDbEntity
  8
DIMNSIONS
  6
Continuous
 62
     7
100
AcDbLine
 10
-325.0
 20
-325.0
 30
0.0
 11
-322.3206716188971
 21
-334.9993896484375
 31
0.0
  0
LINE
  5
9B
330
382
100
AcDbEntity
  8
DIMNSIONS
  6
Continuous
 62
     7
100
AcDbLine
 10
-325.0
 20
-325.0
 30
0.0
 11
-327.6793283811029
 21
-334.9993896484375
 31
0.0
  0
LINE
  5
9C
330
382
100
AcDbEntity
  8
DIMNSIONS
  6
Continuous
 62
     7
100
AcDbLine
 10
-325.0
 20
-382.0
 30
0.0
 11
-327.6793283811029
 21
-372.0006103515625
 31
0.0
  0
LINE
  5
9D
330
382
100
AcDbEntity
  8
DIMNSIONS
  6
Continuous
 62
     7
100
AcDbLine
 10
-325.0
 20
-382.0
 30
0.0
 11
-322.3206716188971
 21
-372.0006103515625
 31
0.0
  0
TEXT
  5
9E
330
382
100
AcDbEntity
  8
DIMNSIONS
 62
     7
100
AcDbText
 10
-329.9694444444445
 20
-371.1388888888889
 30
0.0
 40
13.57367621527778
  1
57.0
 50
90.0
 41
0.7
 11
-343.5431206597223
 21
-371.1388888888889
 31
0.0
100
AcDbText
 73
     3
  0
LINE
  5
9F
330
382
100
AcDbEntity
  8
DIMNSIONS
  6
Continuous
 62
     7
100
AcDbLine
 10
-24.5
 20
-269.5
 30
0.0
 11
-24.5
 21
-311.25
 31
0.0
  0
LINE
  5
A0
330
382
100
AcDbEntity
  8
DIMNSIONS
  6
Continuous
 62
     7
100
AcDbLine
 10
-7.5
 20
-269.5
 30
0.0
 11
-7.5
 21
-311.25
 31
0.0
  0
LINE
  5
A1
330
382
100
AcDbEntity
  8
DIMNSIONS
  6
Continuous
 62
     7
100
AcDbLine
 10
-7.5
 20
-306.25
 30
0.0
 11
-24.5
 21
-306.25
 31
0.0
  0
LINE
  5
A2
330
382
100
AcDbEntity
  8
DIMNSIONS
  6
Continuous
 62
     7
100
AcDbLine
 10
-24.5
 20
-306.25
 30
0.0
 11
-72.77777777777777
 21
-306.25
 31
0.0
  0
LINE
  5
A3
330
382
100
AcDbEntity
  8
DIMNSIONS
  6
Continuous
 62
     7
100
AcDbLine
 10
-24.5
 20
-306.25
 30
0.0
 11
-34.4993896484375
 21
-308.9293283811029
 31
0.0
  0
LINE
  5
A4
330
382
100
AcDbEntity
  8
DIMNSIONS
  6
Continuous
 62
     7
100
AcDbLine
 10
-24.5
 20
-306.25
 30
0.0
 11
-34.4993896484375
 21
-303.5706716188971
 31
0.0
  0
LINE
  5
A5
330
382
100
AcDbEntity
  8
DIMNSIONS
  6
Continuous
 62
     7
100
AcDbLine
 10
-7.5
 20
-306.25
 30
0.0
 11
10.0
 21
-306.25
 31
0.0
  0
LINE
  5
A6
330
382
100
AcDbEntity
  8
DIMNSIONS
  6
Continuous
 62
     7
100
AcDbLine
 10
-7.5
 20
-306.25
 30
0.0
 11
2.4993896484375
 21
-303.5706716188971
 31
0.0
  0
LINE
  5
A7
330
382
100
AcDbEntity
  8
DIMNSIONS
  6
Continuous
 62
     7
100
AcDbLine
 10
-7.5
 20
-306.25
 30
0.0
 11
2.4993896484375
 21
-308.9293283811029
 31
0.0
  0
TEXT
  5
A8
330
382
100
AcDbEntity
  8
DIMNSIONS
 62
     7
100
AcDbText
 10
-72.77777777777777
 20
-301.2805555555555
 30
0.0
 40
13.57367621527778
  1
17.0
 41
0.7
 11
-72.77777777777777
 21
-287.7068793402777
 31
0.0
100
AcDbText
 73
     3
  0
LINE
  5
A9
330
382
100
AcDbEntity
  8
DIMNSIONS
  6
Continuous
 62
     7
100
AcDbLine
 10
-314.5
 20
-144.5
 30
0.0
 11
-330.0
 21
-144.5
 31
0.0
  0
LINE
  5
AA
330
382
100
AcDbEntity
  8
DIMNSIONS
  6
Continuous
 62
     7
100
AcDbLine
 10
-314.5
 20
-237.5
 30
0.0
 11
-330.0
 21
-237.5
 31
0.0
  0
LINE
  5
AB
330
382
100
AcDbEntity
  8
DIMNSIONS
  6
Continuous
 62
     7
100
AcDbLine
 10
-325.0
 20
-144.5
 30
0.0
 11
-325.0
 21
-237.5
 31
0.0
  0
LINE
  5
AC
330
382
100
AcDbEntity
  8
DIMNSIONS
  6
Continuous
 62
     7
100
AcDbLine
 10
-325.0
 20
-144.5
 30
0.0
 11
-322.3206716188971
 21
-154.4993896484375
 31
0.0
  0
LINE
  5
AD
330
382
100
AcDbEntity
  8
DIMNSIONS
  6
Continuous
 62
     7
100
AcDbLine
 10
-325.0
 20
-144.5
 30
0.0
 11
-327.6793283811029
 21
-154.4993896484375
 31
0.0
  0
LINE
  5
AE
330
382
100
AcDbEntity
  8
DIMNSIONS
  6
Continuous
 62
     7
100
AcDbLine
 10
-325.0
 20
-237.5
 30
0.0
 11
-327.6793283811029
 21
-227.5006103515625
 31
0.0
  0
LINE
  5
AF
330
382
100
AcDbEntity
  8
DIMNSIONS
  6
Continuous
 62
     7
100
AcDbLine
 10
-325.0
 20
-237.5
 30
0.0
 11
-322.3206716188971
 21
-227.5006103515625
 31
0.0
  0
TEXT
  5
B0
330
382
100
AcDbEntity
  8
DIMNSIONS
 62
     7
100
AcDbText
 10
-329.9694444444445
 20
-208.6388888888889
 30
0.0
 40
13.57367621527778
  1
93.0
 50
90.0
 41
0.7
 11
-343.5431206597223
 21
-208.6388888888889
 31
0.0
100
AcDbText
 73
     3
  0
LINE
  5
B1
330
382
100
AcDbEntity
  8
DIMNSIONS
  6
Continuous
 62
     7
100
AcDbLine
 10
-314.5
 20
-144.5
 30
0.0
 11
-330.0
 21
-144.5
 31
0.0
  0
LINE
  5
B2
330
382
100
AcDbEntity
  8
DIMNSIONS
  6
Continuous
 62
     7
100
AcDbLine
 10
-308.3998196368566
 20
-138.0
 30
0.0
 11
-330.0
 21
-138.0
 31
0.0
  0
LINE
  5
B3
330
382
100
AcDbEntity
  8
DIMNSIONS
  6
Continuous
 62
     7
100
AcDbLine
 10
-325.0
 20
-138.0
 30
0.0
 11
-325.0
 21
-144.5
 31
0.0
  0
LINE
  5
B4
330
382
100
AcDbEntity
  8
DIMNSIONS
  6
Continuous
 62
     7
100
AcDbLine
 10
-325.0
 20
-144.5
 30
0.0
 11
-325.0
 21
-162.0
 31
0.0
  0
LINE
  5
B5
330
382
100
AcDbEntity
  8
DIMNSIONS
  6
Continuous
 62
     7
100
AcDbLine
 10
-325.0
 20
-144.5
 30
0.0
 11
-322.3206716188971
 21
-154.4993896484375
 31
0.0
  0
LINE
  5
B6
330
382
100
AcDbEntity
  8
DIMNSIONS
  6
Continuous
 62
     7
100
AcDbLine
 10
-325.0
 20
-144.5
 30
0.0
 11
-327.6793283811029
 21
-154.4993896484375
 31
0.0
  0
LINE
  5
B7
330
382
100
AcDbEntity
  8
DIMNSIONS
  6
Continuous
 62
     7
100
AcDbLine
 10
-325.0
 20
-138.0
 30
0.0
 11
-325.0
 21
-120.5
 31
0.0
  0
LINE
  5
B8
330
382
100
AcDbEntity
  8
DIMNSIONS
  6
Continuous
 62
     7
100
AcDbLine
 10
-325.0
 20
-138.0
 30
0.0
 11
-327.6793283811029
 21
-128.0006103515625
 31
0.0
  0
LINE
  5
B9
330
382
100
AcDbEntity
  8
DIMNSIONS
  6
Continuous
 62
     7
100
AcDbLine
 10
-325.0
 20
-138.0
 30
0.0
 11
-322.3206716188971
 21
-128.0006103515625
 31
0.0
  0
TEXT
  5
BA
330
382
100
AcDbEntity
  8
DIMNSIONS
 62
     7
100
AcDbText
 10
-332.4694444444444
 20
-154.4791666666666
 30
0.0
 40
13.57367621527778
  1
6.5
 50
90.0
 41
0.7
 11
-346.0431206597222
 21
-154.4791666666666
 31
0.0
100
AcDbText
 73
     3
  0
LINE
  5
BB
330
382
100
AcDbEntity
  8
DIMNSIONS
  6
Continuous
 62
     7
100
AcDbLine
 10
-164.597573060339
 20
-383.420878259616
 30
0.0
 11
-150.0
 21
-437.5
 31
0.0
  0
LINE
  5
BC
330
382
100
AcDbEntity
  8
DIMNSIONS
  6
Continuous
 62
     7
100
AcDbLine
 10
-164.597573060339
 20
-383.420878259616
 30
0.0
 11
-159.2658319942651
 21
-392.2943855210883
 31
0.0
  0
LINE
  5
BD
330
382
100
AcDbEntity
  8
DIMNSIONS
  6
Continuous
 62
     7
100
AcDbLine
 10
-164.597573060339
 20
-383.420878259616
 30
0.0
 11
-164.4169034814544
 21
-393.7714315017536
 31
0.0
  0
LINE
  5
BE
330
382
100
AcDbEntity
  8
DIMNSIONS
  6
Continuous
 62
     7
100
AcDbLine
 10
-150.0
 20
-437.5
 30
0.0
 11
-139.9999999999999
 21
-437.5
 31
0.0
  0
TEXT
  5
BF
330
382
100
AcDbEntity
  8
DIMNSIONS
 62
     7
100
AcDbText
 10
-139.9999999999999
 20
-443.8499999999999
 30
0.0
 40
13.57367621527778
  1
別売EXT-RACK-1U-GRY
 41
0.7
 11
-139.9999999999999
 21
-430.2763237847222
 31
0.0
100
AcDbText
 73
     3
  0
TEXT
  5
C0
330
382
100
AcDbEntity
  8
DIMNSIONS
 62
     7
100
AcDbText
 10
-182.3611111111111
 20
-440.5561111111111
 30
0.0
 40
9.501573350694446
  1
※
 41
0.7
 11
-182.3611111111111
 21
-431.0545377604167
 31
0.0
100
AcDbText
 73
     3
  0
TEXT
  5
C1
330
382
100
AcDbEntity
  8
DIMNSIONS
 62
     7
100
AcDbText
 10
-37.5
 20
-290.5561111111111
 30
0.0
 40
9.501573350694446
  1
※
 41
0.7
 11
-37.5
 21
-281.0545377604167
 31
0.0
100
AcDbText
 73
     3
  0
LINE
  5
C2
330
382
100
AcDbEntity
  8
DIMNSIONS
  6
Continuous
 62
     7
100
AcDbLine
 10
0.0
 20
-262.0
 30
0.0
 11
52.5
 21
-262.0
 31
0.0
  0
LINE
  5
C3
330
382
100
AcDbEntity
  8
DIMNSIONS
  6
Continuous
 62
     7
100
AcDbLine
 10
36.79999999999996
 20
-275.0
 30
0.0
 11
52.5
 21
-275.0
 31
0.0
  0
LINE
  5
C4
330
382
100
AcDbEntity
  8
DIMNSIONS
  6
Continuous
 62
     7
100
AcDbLine
 10
47.5
 20
-275.0
 30
0.0
 11
47.5
 21
-262.0
 31
0.0
  0
LINE
  5
C5
330
382
100
AcDbEntity
  8
DIMNSIONS
  6
Continuous
 62
     7
100
AcDbLine
 10
47.5
 20
-262.0
 30
0.0
 11
47.5
 21
-244.5
 31
0.0
  0
LINE
  5
C6
330
382
100
AcDbEntity
  8
DIMNSIONS
  6
Continuous
 62
     7
100
AcDbLine
 10
47.5
 20
-262.0
 30
0.0
 11
44.82067161889704
 21
-252.0006103515625
 31
0.0
  0
LINE
  5
C7
330
382
100
AcDbEntity
  8
DIMNSIONS
  6
Continuous
 62
     7
100
AcDbLine
 10
47.5
 20
-262.0
 30
0.0
 11
50.17932838110296
 21
-252.0006103515625
 31
0.0
  0
LINE
  5
C8
330
382
100
AcDbEntity
  8
DIMNSIONS
  6
Continuous
 62
     7
100
AcDbLine
 10
47.5
 20
-275.0
 30
0.0
 11
47.5
 21
-316.5277777777778
 31
0.0
  0
LINE
  5
C9
330
382
100
AcDbEntity
  8
DIMNSIONS
  6
Continuous
 62
     7
100
AcDbLine
 10
47.5
 20
-275.0
 30
0.0
 11
50.17932838110296
 21
-284.9993896484375
 31
0.0
  0
LINE
  5
CA
330
382
100
AcDbEntity
  8
DIMNSIONS
  6
Continuous
 62
     7
100
AcDbLine
 10
47.5
 20
-275.0
 30
0.0
 11
44.82067161889704
 21
-284.9993896484375
 31
0.0
  0
TEXT
  5
CB
330
382
100
AcDbEntity
  8
DIMNSIONS
 62
     7
100
AcDbText
 10
42.53055555555556
 20
-316.5277777777778
 30
0.0
 40
13.57367621527778
  1
13.0
 50
90.0
 41
0.7
 11
28.95687934027778
 21
-316.5277777777778
 31
0.0
100
AcDbText
 73
     3
  0
LINE
  5
CC
330
382
100
AcDbEntity
  8
DIMNSIONS
  6
Continuous
 62
     7
100
AcDbLine
 10
-25.26654522032576
 20
-260.7007885970384
 30
0.0
 11
-50.0
 21
-212.5
 31
0.0
  0
LINE
  5
CD
330
382
100
AcDbEntity
  8
DIMNSIONS
  6
Continuous
 62
     7
100
AcDbLine
 10
-25.26654522032576
 20
-260.7007885970384
 30
0.0
 11
-32.19347219191613
 21
-253.0076568130822
 31
0.0
  0
LINE
  5
CE
330
382
100
AcDbEntity
  8
DIMNSIONS
  6
Continuous
 62
     7
100
AcDbLine
 10
-25.26654522032576
 20
-260.7007885970384
 30
0.0
 11
-27.41887405590455
 21
-250.5748775516757
 31
0.0
  0
LINE
  5
CF
330
382
100
AcDbEntity
  8
DIMNSIONS
  6
Continuous
 62
     7
100
AcDbLine
 10
-50.0
 20
-212.5
 30
0.0
 11
-40.0
 21
-212.5
 31
0.0
  0
TEXT
  5
D0
330
382
100
AcDbEntity
  8
DIMNSIONS
 62
     7
100
AcDbText
 10
-40.0
 20
-218.85
 30
0.0
 40
13.57367621527778
  1
L字型 ブラケット
 41
0.7
 11
-40.0
 21
-205.2763237847222
 31
0.0
100
AcDbText
 73
     3
  0
TEXT
  5
D1
330
382
100
AcDbEntity
  8
DIMNSIONS
 62
     7
100
AcDbText
 10
-139.9999999999999
 20
-461.4888888888889
 30
0.0
 40
13.57367621527778
  1
取付ポイント(2ヵ所)
 41
0.7
 11
-139.9999999999999
 21
-447.9152126736111
 31
0.0
100
AcDbText
 73
     3
  0
TEXT
  5
D2
330
382
100
AcDbEntity
  8
DIMNSIONS
 62
     7
100
AcDbText
 10
-36.26262335710753
 20
-236.4888888888889
 30
0.0
 40
13.57367621527778
  1
取付ポイント(4ヵ所)
 41
0.7
 11
-36.26262335710753
 21
-222.9152126736111
 31
0.0
100
AcDbText
 73
     3
  0
LINE
  5
D3
330
382
100
AcDbEntity
  8
DIMNSIONS
  6
Continuous
 62
     7
100
AcDbLine
 10
200.0000000000001
 20
-155.2499999999999
 30
0.0
 11
200.0000000000001
 21
-192.5
 31
0.0
  0
LINE
  5
D4
330
382
100
AcDbEntity
  8
DIMNSIONS
  6
Continuous
 62
     7
100
AcDbLine
 10
220.0000000000001
 20
-158.2499999999999
 30
0.0
 11
220.0000000000001
 21
-192.5
 31
0.0
  0
LINE
  5
D5
330
382
100
AcDbEntity
  8
DIMNSIONS
  6
Continuous
 62
     7
100
AcDbLine
 10
220.0000000000001
 20
-187.5
 30
0.0
 11
200.0000000000001
 21
-187.5
 31
0.0
  0
LINE
  5
D6
330
382
100
AcDbEntity
  8
DIMNSIONS
  6
Continuous
 62
     7
100
AcDbLine
 10
200.0000000000001
 20
-187.5
 30
0.0
 11
158.4722222222223
 21
-187.5
 31
0.0
  0
LINE
  5
D7
330
382
100
AcDbEntity
  8
DIMNSIONS
  6
Continuous
 62
     7
100
AcDbLine
 10
200.0000000000001
 20
-187.5
 30
0.0
 11
190.0006103515626
 21
-190.1793283811029
 31
0.0
  0
LINE
  5
D8
330
382
100
AcDbEntity
  8
DIMNSIONS
  6
Continuous
 62
     7
100
AcDbLine
 10
200.0000000000001
 20
-187.5
 30
0.0
 11
190.0006103515626
 21
-184.820671618897
 31
0.0
  0
LINE
  5
D9
330
382
100
AcDbEntity
  8
DIMNSIONS
  6
Continuous
 62
     7
100
AcDbLine
 10
220.0000000000001
 20
-187.5
 30
0.0
 11
237.5000000000001
 21
-187.5
 31
0.0
  0
LINE
  5
DA
330
382
100
AcDbEntity
  8
DIMNSIONS
  6
Continuous
 62
     7
100
AcDbLine
 10
220.0000000000001
 20
-187.5
 30
0.0
 11
229.9993896484376
 21
-184.820671618897
 31
0.0
  0
LINE
  5
DB
330
382
100
AcDbEntity
  8
DIMNSIONS
  6
Continuous
 62
     7
100
AcDbLine
 10
220.0000000000001
 20
-187.5
 30
0.0
 11
229.9993896484376
 21
-190.1793283811029
 31
0.0
  0
TEXT
  5
DC
330
382
100
AcDbEntity
  8
DIMNSIONS
 62
     7
100
AcDbText
 10
158.4722222222223
 20
-182.5305555555555
 30
0.0
 40
13.57367621527778
  1
20.0
 41
0.7
 11
158.4722222222223
 21
-168.9568793402777
 31
0.0
100
AcDbText
 73
     3
  0
LINE
  5
DD
330
382
100
AcDbEntity
  8
DIMNSIONS
  6
Continuous
 62
     7
100
AcDbLine
 10
195.5000000000001
 20
-150.7499999999999
 30
0.0
 11
176.2500000000001
 21
-150.7499999999999
 31
0.0
  0
LINE
  5
DE
330
382
100
AcDbEntity
  8
DIMNSIONS
  6
Continuous
 62
     7
100
AcDbLine
 10
192.5000000000001
 20
-125.7499999999999
 30
0.0
 11
176.2500000000001
 21
-125.7499999999999
 31
0.0
  0
LINE
  5
DF
330
382
100
AcDbEntity
  8
DIMNSIONS
  6
Continuous
 62
     7
100
AcDbLine
 10
181.2500000000001
 20
-150.7499999999999
 30
0.0
 11
181.2500000000001
 21
-125.7499999999999
 31
0.0
  0
LINE
  5
E0
330
382
100
AcDbEntity
  8
DIMNSIONS
  6
Continuous
 62
     7
100
AcDbLine
 10
181.2500000000001
 20
-150.7499999999999
 30
0.0
 11
178.5706716188971
 21
-140.7506103515624
 31
0.0
  0
LINE
  5
E1
330
382
100
AcDbEntity
  8
DIMNSIONS
  6
Continuous
 62
     7
100
AcDbLine
 10
181.2500000000001
 20
-150.7499999999999
 30
0.0
 11
183.929328381103
 21
-140.7506103515624
 31
0.0
  0
LINE
  5
E2
330
382
100
AcDbEntity
  8
DIMNSIONS
  6
Continuous
 62
     7
100
AcDbLine
 10
181.2500000000001
 20
-125.7499999999999
 30
0.0
 11
183.929328381103
 21
-135.7493896484374
 31
0.0
  0
LINE
  5
E3
330
382
100
AcDbEntity
  8
DIMNSIONS
  6
Continuous
 62
     7
100
AcDbLine
 10
181.2500000000001
 20
-125.7499999999999
 30
0.0
 11
178.5706716188971
 21
-135.7493896484374
 31
0.0
  0
TEXT
  5
E4
330
382
100
AcDbEntity
  8
DIMNSIONS
 62
     7
100
AcDbText
 10
173.7805555555556
 20
-155.8888888888888
 30
0.0
 40
13.57367621527778
  1
25.0
 50
90.0
 41
0.7
 11
160.2068793402778
 21
-155.8888888888888
 31
0.0
100
AcDbText
 73
     3
  0
LINE
  5
E5
330
382
100
AcDbEntity
  8
DIMNSIONS
  6
Continuous
 62
     7
100
AcDbLine
 10
192.5000000000001
 20
-113.2499999999999
 30
0.0
 11
176.2500000000001
 21
-113.2499999999999
 31
0.0
  0
LINE
  5
E6
330
382
100
AcDbEntity
  8
DIMNSIONS
  6
Continuous
 62
     7
100
AcDbLine
 10
192.5000000000001
 20
-83.2499999999999
 30
0.0
 11
176.2500000000001
 21
-83.2499999999999
 31
0.0
  0
LINE
  5
E7
330
382
100
AcDbEntity
  8
DIMNSIONS
  6
Continuous
 62
     7
100
AcDbLine
 10
181.2500000000001
 20
-113.2499999999999
 30
0.0
 11
181.2500000000001
 21
-83.2499999999999
 31
0.0
  0
LINE
  5
E8
330
382
100
AcDbEntity
  8
DIMNSIONS
  6
Continuous
 62
     7
100
AcDbLine
 10
181.2500000000001
 20
-113.2499999999999
 30
0.0
 11
178.5706716188971
 21
-103.2506103515624
 31
0.0
  0
LINE
  5
E9
330
382
100
AcDbEntity
  8
DIMNSIONS
  6
Continuous
 62
     7
100
AcDbLine
 10
181.2500000000001
 20
-113.2499999999999
 30
0.0
 11
183.929328381103
 21
-103.2506103515624
 31
0.0
  0
LINE
  5
EA
330
382
100
AcDbEntity
  8
DIMNSIONS
  6
Continuous
 62
     7
100
AcDbLine
 10
181.2500000000001
 20
-83.2499999999999
 30
0.0
 11
183.929328381103
 21
-93.2493896484374
 31
0.0
  0
LINE
  5
EB
330
382
100
AcDbEntity
  8
DIMNSIONS
  6
Continuous
 62
     7
100
AcDbLine
 10
181.2500000000001
 20
-83.2499999999999
 30
0.0
 11
178.5706716188971
 21
-93.2493896484374
 31
0.0
  0
TEXT
  5
EC
330
382
100
AcDbEntity
  8
DIMNSIONS
 62
     7
100
AcDbText
 10
173.7805555555556
 20
-115.8888888888888
 30
0.0
 40
13.57367621527778
  1
30.0
 50
90.0
 41
0.7
 11
160.2068793402778
 21
-115.8888888888888
 31
0.0
100
AcDbText
 73
     3
  0
LINE
  5
ED
330
382
100
AcDbEntity
  8
DIMNSIONS
  6
Continuous
 62
     7
100
AcDbLine
 10
221.0000000000012
 20
-89.2499999999999
 30
0.0
 11
255.0
 21
-89.2499999999999
 31
0.0
  0
LINE
  5
EE
330
382
100
AcDbEntity
  8
DIMNSIONS
  6
Continuous
 62
     7
100
AcDbLine
 10
221.0000000000012
 20
-107.2499999999999
 30
0.0
 11
255.0
 21
-107.2499999999999
 31
0.0
  0
LINE
  5
EF
330
382
100
AcDbEntity
  8
DIMNSIONS
  6
Continuous
 62
     7
100
AcDbLine
 10
250.0
 20
-107.2499999999999
 30
0.0
 11
250.0
 21
-89.2499999999999
 31
0.0
  0
LINE
  5
F0
330
382
100
AcDbEntity
  8
DIMNSIONS
  6
Continuous
 62
     7
100
AcDbLine
 10
250.0
 20
-89.2499999999999
 30
0.0
 11
250.0
 21
-52.97222222222213
 31
0.0
  0
LINE
  5
F1
330
382
100
AcDbEntity
  8
DIMNSIONS
  6
Continuous
 62
     7
100
AcDbLine
 10
250.0
 20
-89.2499999999999
 30
0.0
 11
247.320671618897
 21
-79.25061035156243
 31
0.0
  0
LINE
  5
F2
330
382
100
AcDbEntity
  8
DIMNSIONS
  6
Continuous
 62
     7
100
AcDbLine
 10
250.0
 20
-89.2499999999999
 30
0.0
 11
252.6793283811028
 21
-79.25061035156243
 31
0.0
  0
LINE
  5
F3
330
382
100
AcDbEntity
  8
DIMNSIONS
  6
Continuous
 62
     7
100
AcDbLine
 10
250.0
 20
-107.2499999999999
 30
0.0
 11
250.0
 21
-124.7499999999999
 31
0.0
  0
LINE
  5
F4
330
382
100
AcDbEntity
  8
DIMNSIONS
  6
Continuous
 62
     7
100
AcDbLine
 10
250.0
 20
-107.2499999999999
 30
0.0
 11
252.6793283811028
 21
-117.2493896484374
 31
0.0
  0
LINE
  5
F5
330
382
100
AcDbEntity
  8
DIMNSIONS
  6
Continuous
 62
     7
100
AcDbLine
 10
250.0
 20
-107.2499999999999
 30
0.0
 11
247.320671618897
 21
-117.2493896484374
 31
0.0
  0
TEXT
  5
F6
330
382
100
AcDbEntity
  8
DIMNSIONS
 62
     7
100
AcDbText
 10
245.0305555555555
 20
-88.2499999999999
 30
0.0
 40
13.57367621527778
  1
18.0
 50
90.0
 41
0.7
 11
231.4568793402777
 21
-88.2499999999999
 31
0.0
100
AcDbText
 73
     3
  0
LINE
  5
F7
330
382
100
AcDbEntity
  8
DIMNSIONS
  6
Continuous
 62
     7
100
AcDbLine
 10
200.0000000000001
 20
-75.7499999999999
 30
0.0
 11
200.0000000000001
 21
-63.74999999999997
 31
0.0
  0
LINE
  5
F8
330
382
100
AcDbEntity
  8
DIMNSIONS
  6
Continuous
 62
     7
100
AcDbLine
 10
212.5000000000001
 20
-79.79999999999993
 30
0.0
 11
212.5000000000001
 21
-63.74999999999997
 31
0.0
  0
LINE
  5
F9
330
382
100
AcDbEntity
  8
DIMNSIONS
  6
Continuous
 62
     7
100
AcDbLine
 10
212.5000000000001
 20
-68.74999999999997
 30
0.0
 11
200.0000000000001
 21
-68.74999999999997
 31
0.0
  0
LINE
  5
FA
330
382
100
AcDbEntity
  8
DIMNSIONS
  6
Continuous
 62
     7
100
AcDbLine
 10
200.0000000000001
 20
-68.74999999999997
 30
0.0
 11
158.4722222222223
 21
-68.74999999999997
 31
0.0
  0
LINE
  5
FB
330
382
100
AcDbEntity
  8
DIMNSIONS
  6
Continuous
 62
     7
100
AcDbLine
 10
200.0000000000001
 20
-68.74999999999997
 30
0.0
 11
190.0006103515626
 21
-71.42932838110294
 31
0.0
  0
LINE
  5
FC
330
382
100
AcDbEntity
  8
DIMNSIONS
  6
Continuous
 62
     7
100
AcDbLine
 10
200.0000000000001
 20
-68.74999999999997
 30
0.0
 11
190.0006103515626
 21
-66.07067161889701
 31
0.0
  0
LINE
  5
FD
330
382
100
AcDbEntity
  8
DIMNSIONS
  6
Continuous
 62
     7
100
AcDbLine
 10
212.5000000000001
 20
-68.74999999999997
 30
0.0
 11
230.0000000000001
 21
-68.74999999999997
 31
0.0
  0
LINE
  5
FE
330
382
100
AcDbEntity
  8
DIMNSIONS
  6
Continuous
 62
     7
100
AcDbLine
 10
212.5000000000001
 20
-68.74999999999997
 30
0.0
 11
222.4993896484376
 21
-66.07067161889701
 31
0.0
  0
LINE
  5
FF
330
382
100
AcDbEntity
  8
DIMNSIONS
  6
Continuous
 62
     7
100
AcDbLine
 10
212.5000000000001
 20
-68.74999999999997
 30
0.0
 11
222.4993896484376
 21
-71.42932838110294
 31
0.0
  0
TEXT
  5
100
330
382
100
AcDbEntity
  8
DIMNSIONS
 62
     7
100
AcDbText
 10
158.4722222222223
 20
-63.78055555555553
 30
0.0
 40
13.57367621527778
  1
12.5
 41
0.7
 11
158.4722222222223
 21
-50.20687934027775
 31
0.0
100
AcDbText
 73
     3
  0
LINE
  5
101
330
382
100
AcDbEntity
  8
DIMNSIONS
  6
Continuous
 62
     7
100
AcDbLine
 10
227.5000000000001
 20
-150.7499999999999
 30
0.0
 11
255.0000000000001
 21
-150.7499999999999
 31
0.0
  0
LINE
  5
102
330
382
100
AcDbEntity
  8
DIMNSIONS
  6
Continuous
 62
     7
100
AcDbLine
 10
227.5000000000001
 20
-149.1499999999999
 30
0.0
 11
255.0000000000001
 21
-149.1499999999999
 31
0.0
  0
LINE
  5
103
330
382
100
AcDbEntity
  8
DIMNSIONS
  6
Continuous
 62
     7
100
AcDbLine
 10
250.0000000000001
 20
-149.1499999999999
 30
0.0
 11
250.0000000000001
 21
-150.7499999999999
 31
0.0
  0
LINE
  5
104
330
382
100
AcDbEntity
  8
DIMNSIONS
  6
Continuous
 62
     7
100
AcDbLine
 10
250.0000000000001
 20
-150.7499999999999
 30
0.0
 11
250.0000000000001
 21
-183.4583333333332
 31
0.0
  0
LINE
  5
105
330
382
100
AcDbEntity
  8
DIMNSIONS
  6
Continuous
 62
     7
100
AcDbLine
 10
250.0000000000001
 20
-150.7499999999999
 30
0.0
 11
252.679328381103
 21
-160.7493896484374
 31
0.0
  0
LINE
  5
106
330
382
100
AcDbEntity
  8
DIMNSIONS
  6
Continuous
 62
     7
100
AcDbLine
 10
250.0000000000001
 20
-150.7499999999999
 30
0.0
 11
247.3206716188971
 21
-160.7493896484374
 31
0.0
  0
LINE
  5
107
330
382
100
AcDbEntity
  8
DIMNSIONS
  6
Continuous
 62
     7
100
AcDbLine
 10
250.0000000000001
 20
-149.1499999999999
 30
0.0
 11
250.0000000000001
 21
-131.6499999999999
 31
0.0
  0
LINE
  5
108
330
382
100
AcDbEntity
  8
DIMNSIONS
  6
Continuous
 62
     7
100
AcDbLine
 10
250.0000000000001
 20
-149.1499999999999
 30
0.0
 11
247.3206716188971
 21
-139.1506103515624
 31
0.0
  0
LINE
  5
109
330
382
100
AcDbEntity
  8
DIMNSIONS
  6
Continuous
 62
     7
100
AcDbLine
 10
250.0000000000001
 20
-149.1499999999999
 30
0.0
 11
252.679328381103
 21
-139.1506103515624
 31
0.0
  0
TEXT
  5
10A
330
382
100
AcDbEntity
  8
DIMNSIONS
 62
     7
100
AcDbText
 10
245.0305555555556
 20
-183.4583333333332
 30
0.0
 40
13.57367621527778
  1
1.6
 50
90.0
 41
0.7
 11
231.4568793402778
 21
-183.4583333333332
 31
0.0
100
AcDbText
 73
     3
  0
LINE
  5
10B
330
382
100
AcDbEntity
  8
DIMNSIONS
  6
Continuous
 62
     7
100
AcDbLine
 10
293.4999999999577
 20
-137.7500000000063
 30
0.0
 11
336.2500000000001
 21
-137.7500000000063
 31
0.0
  0
LINE
  5
10C
330
382
100
AcDbEntity
  8
DIMNSIONS
  6
Continuous
 62
     7
100
AcDbLine
 10
300.0
 20
-150.7499999999999
 30
0.0
 11
336.2500000000001
 21
-150.7499999999999
 31
0.0
  0
LINE
  5
10D
330
382
100
AcDbEntity
  8
DIMNSIONS
  6
Continuous
 62
     7
100
AcDbLine
 10
331.25
 20
-150.7499999999999
 30
0.0
 11
331.25
 21
-137.7500000000063
 31
0.0
  0
LINE
  5
10E
330
382
100
AcDbEntity
  8
DIMNSIONS
  6
Continuous
 62
     7
100
AcDbLine
 10
331.25
 20
-137.7500000000063
 30
0.0
 11
331.25
 21
-89.72222222222219
 31
0.0
  0
LINE
  5
10F
330
382
100
AcDbEntity
  8
DIMNSIONS
  6
Continuous
 62
     7
100
AcDbLine
 10
331.25
 20
-137.7500000000063
 30
0.0
 11
328.5706716188971
 21
-127.7506103515688
 31
0.0
  0
LINE
  5
110
330
382
100
AcDbEntity
  8
DIMNSIONS
  6
Continuous
 62
     7
100
AcDbLine
 10
331.25
 20
-137.7500000000063
 30
0.0
 11
333.929328381103
 21
-127.7506103515688
 31
0.0
  0
LINE
  5
111
330
382
100
AcDbEntity
  8
DIMNSIONS
  6
Continuous
 62
     7
100
AcDbLine
 10
331.25
 20
-150.7499999999999
 30
0.0
 11
331.25
 21
-168.2499999999999
 31
0.0
  0
LINE
  5
112
330
382
100
AcDbEntity
  8
DIMNSIONS
  6
Continuous
 62
     7
100
AcDbLine
 10
331.25
 20
-150.7499999999999
 30
0.0
 11
333.929328381103
 21
-160.7493896484374
 31
0.0
  0
LINE
  5
113
330
382
100
AcDbEntity
  8
DIMNSIONS
  6
Continuous
 62
     7
100
AcDbLine
 10
331.25
 20
-150.7499999999999
 30
0.0
 11
328.5706716188971
 21
-160.7493896484374
 31
0.0
  0
TEXT
  5
114
330
382
100
AcDbEntity
  8
DIMNSIONS
 62
     7
100
AcDbText
 10
326.2805555555555
 20
-124.9999999999999
 30
0.0
 40
13.57367621527778
  1
13.0
 50
90.0
 41
0.7
 11
312.7068793402778
 21
-124.9999999999999
 31
0.0
100
AcDbText
 73
     3
  0
LINE
  5
115
330
382
100
AcDbEntity
  8
DIMNSIONS
  6
Continuous
 62
     7
100
AcDbLine
 10
269.0000000000424
 20
-130.2499999999935
 30
0.0
 11
269.0000000000424
 21
-113.7499999999999
 31
0.0
  0
LINE
  5
116
330
382
100
AcDbEntity
  8
DIMNSIONS
  6
Continuous
 62
     7
100
AcDbLine
 10
286.0000000000001
 20
-130.2499999999999
 30
0.0
 11
286.0000000000001
 21
-113.7499999999999
 31
0.0
  0
LINE
  5
117
330
382
100
AcDbEntity
  8
DIMNSIONS
  6
Continuous
 62
     7
100
AcDbLine
 10
286.0000000000001
 20
-118.7499999999999
 30
0.0
 11
269.0000000000424
 21
-118.7499999999999
 31
0.0
  0
LINE
  5
118
330
382
100
AcDbEntity
  8
DIMNSIONS
  6
Continuous
 62
     7
100
AcDbLine
 10
269.0000000000424
 20
-118.7499999999999
 30
0.0
 11
251.5000000000424
 21
-118.7499999999999
 31
0.0
  0
LINE
  5
119
330
382
100
AcDbEntity
  8
DIMNSIONS
  6
Continuous
 62
     7
100
AcDbLine
 10
269.0000000000424
 20
-118.7499999999999
 30
0.0
 11
259.0006103516048
 21
-121.4293283811029
 31
0.0
  0
LINE
  5
11A
330
382
100
AcDbEntity
  8
DIMNSIONS
  6
Continuous
 62
     7
100
AcDbLine
 10
269.0000000000424
 20
-118.7499999999999
 30
0.0
 11
259.0006103516048
 21
-116.070671618897
 31
0.0
  0
LINE
  5
11B
330
382
100
AcDbEntity
  8
DIMNSIONS
  6
Continuous
 62
     7
100
AcDbLine
 10
286.0000000000001
 20
-118.7499999999999
 30
0.0
 11
303.5000000000001
 21
-118.7499999999999
 31
0.0
  0
LINE
  5
11C
330
382
100
AcDbEntity
  8
DIMNSIONS
  6
Continuous
 62
     7
100
AcDbLine
 10
286.0000000000001
 20
-118.7499999999999
 30
0.0
 11
295.9993896484376
 21
-116.070671618897
 31
0.0
  0
LINE
  5
11D
330
382
100
AcDbEntity
  8
DIMNSIONS
  6
Continuous
 62
     7
100
AcDbLine
 10
286.0000000000001
 20
-118.7499999999999
 30
0.0
 11
295.9993896484376
 21
-121.4293283811029
 31
0.0
  0
TEXT
  5
11E
330
382
100
AcDbEntity
  8
DIMNSIONS
 62
     7
100
AcDbText
 10
259.8611111111323
 20
-111.2805555555555
 30
0.0
 40
13.57367621527778
  1
17.0
 41
0.7
 11
259.8611111111323
 21
-97.70687934027776
 31
0.0
100
AcDbText
 73
     3
  0
TEXT
  5
11F
330
382
100
AcDbEntity
  8
DIMNSIONS
 62
     7
100
AcDbText
 10
235.3061111111112
 20
-52.97222222222213
 30
0.0
 40
9.501573350694446
  1
※
 50
90.0
 41
0.7
 11
225.8045377604168
 21
-52.97222222222213
 31
0.0
100
AcDbText
 73
     3
  0
LINE
  5
120
330
382
100
AcDbEntity
  8
DIMNSIONS
  6
Continuous
 62
     7
100
AcDbLine
 10
215.1288624474967
 20
-106.1779425728217
 30
0.0
 11
262.5
 21
-74.99999999999996
 31
0.0
  0
LINE
  5
121
330
382
100
AcDbEntity
  8
DIMNSIONS
  6
Continuous
 62
     7
100
AcDbLine
 10
215.1288624474967
 20
-106.1779425728217
 30
0.0
 11
222.0557894190871
 21
-98.48481078886557
 31
0.0
  0
LINE
  5
122
330
382
100
AcDbEntity
  8
DIMNSIONS
  6
Continuous
 62
     7
100
AcDbLine
 10
215.1288624474967
 20
-106.1779425728217
 30
0.0
 11
224.9743230670317
 21
-102.9789584990494
 31
0.0
  0
LINE
  5
123
330
382
100
AcDbEntity
  8
DIMNSIONS
  6
Continuous
 62
     7
100
AcDbLine
 10
262.5
 20
-74.99999999999996
 30
0.0
 11
272.5
 21
-74.99999999999996
 31
0.0
  0
TEXT
  5
124
330
382
100
AcDbEntity
  8
DIMNSIONS
 62
     7
100
AcDbText
 10
272.5
 20
-81.34999999999996
 30
0.0
 40
13.57367621527778
  1
5.9×3.9長穴(2ヵ所)
 41
0.7
 11
272.5
 21
-67.77632378472218
 31
0.0
100
AcDbText
 73
     3
  0
LINE
  5
125
330
382
100
AcDbEntity
  8
DIMNSIONS
  6
Continuous
 62
     7
100
AcDbLine
 10
268.7192093833681
 20
-139.6291372036132
 30
0.0
 11
262.5
 21
-181.25
 31
0.0
  0
LINE
  5
126
330
382
100
AcDbEntity
  8
DIMNSIONS
  6
Continuous
 62
     7
100
AcDbLine
 10
268.7192093833681
 20
-139.6291372036132
 30
0.0
 11
269.9808166597664
 21
-149.9041039186543
 31
0.0
  0
LINE
  5
127
330
382
100
AcDbEntity
  8
DIMNSIONS
  6
Continuous
 62
     7
100
AcDbLine
 10
268.7192093833681
 20
-139.6291372036132
 30
0.0
 11
264.6743099768078
 21
-149.1583230400775
 31
0.0
  0
LINE
  5
128
330
382
100
AcDbEntity
  8
DIMNSIONS
  6
Continuous
 62
     7
100
AcDbLine
 10
262.5
 20
-181.25
 30
0.0
 11
272.5
 21
-181.25
 31
0.0
  0
TEXT
  5
129
330
382
100
AcDbEntity
  8
DIMNSIONS
 62
     7
100
AcDbText
 10
272.5
 20
-187.5999999999999
 30
0.0
 40
13.57367621527778
  1
本体取付穴(2ヵ所)
 41
0.7
 11
272.5
 21
-174.0263237847221
 31
0.0
100
AcDbText
 73
     3
  0
TEXT
  5
12A
330
382
100
AcDbEntity
  8
DIMNSIONS
 62
     7
100
AcDbText
 10
295.1388888889101
 20
-100.5561111111111
 30
0.0
 40
9.501573350694446
  1
※
 41
0.7
 11
295.1388888889101
 21
-91.05453776041663
 31
0.0
100
AcDbText
 73
     3
  0
TEXT
  5
12B
330
382
100
AcDbEntity
  8
DATA
 62
     7
100
AcDbText
 10
250.0000000004999
 20
-580.3104088900422
 30
0.0
 40
12.21630859377443
  1
EXT-UHD600-12
 41
0.7
 11
250.0000000004999
 21
-568.0941002962677
 31
0.0
100
AcDbText
 73
     3
  0
TEXT
  5
12C
330
382
100
AcDbEntity
  8
DATA
 62
     7
100
AcDbText
 10
250.0000000004999
 20
-542.8298176155156
 30
0.0
 40
12.21630859377443
  1
GEFEN
 41
0.7
 11
250.0000000004999
 21
-530.6135090217411
 31
0.0
100
AcDbText
 73
     3
  0
TEXT
  5
12D
330
382
100
AcDbEntity
  8
DATA
 62
     7
100
AcDbText
 10
-437.5000000008748
 20
-596.5834700011861
 30
0.0
 40
9.501573350713446
  1
※仕様及び外観は予告なく変更されることがあります。
 41
0.7
 11
-437.5000000008748
 21
-587.0818966504726
 31
0.0
100
AcDbText
 73
     3
  0
TEXT
  5
12E
330
382
100
AcDbEntity
  8
DATA
 62
     7
100
AcDbText
 10
-437.5000000008748
 20
-608.9306922234329
 30
0.0
 40
9.501573350713446
  1
　また、同一商品でも若干の個体差があることがあります。ご了承ください。
 41
0.7
 11
-437.5000000008748
 21
-599.4291188727195
 31
0.0
100
AcDbText
 73
     3
  0
TEXT
  5
12F
330
382
100
AcDbEntity
  8
DATA
 62
     7
100
AcDbText
 10
237.5000000004749
 20
-559.0037058872431
 30
0.0
 40
9.501573350713446
  1
HDMI分配器
 41
0.7
 11
237.5000000004749
 21
-549.5021325365296
 31
0.0
100
AcDbText
 73
     3
  0
LINE
  5
130
330
382
100
AcDbEntity
  8
DATA
  6
Continuous
 62
     7
100
AcDbLine
 10
-307.0
 20
-237.5
 30
0.0
 11
-307.0
 21
-144.5
 31
0.0
  0
LINE
  5
131
330
382
100
AcDbEntity
  8
DATA
  6
Continuous
 62
     7
100
AcDbLine
 10
-93.0
 20
-237.5
 30
0.0
 11
-307.0
 21
-237.5
 31
0.0
  0
LINE
  5
132
330
382
100
AcDbEntity
  8
DATA
  6
Continuous
 62
     7
100
AcDbLine
 10
-93.0
 20
-144.5
 30
0.0
 11
-93.0
 21
-237.5
 31
0.0
  0
LINE
  5
133
330
382
100
AcDbEntity
  8
DATA
  6
Continuous
 62
     7
100
AcDbLine
 10
-307.0
 20
-144.5
 30
0.0
 11
-93.0
 21
-144.5
 31
0.0
  0
LINE
  5
134
330
382
100
AcDbEntity
  8
DATA
  6
Continuous
 62
     7
100
AcDbLine
 10
-307.0
 20
-275.0
 30
0.0
 11
-307.0
 21
-249.0
 31
0.0
  0
LINE
  5
135
330
382
100
AcDbEntity
  8
DATA
  6
Continuous
 62
     7
100
AcDbLine
 10
-93.0
 20
-275.0
 30
0.0
 11
-307.0
 21
-275.0
 31
0.0
  0
LINE
  5
136
330
382
100
AcDbEntity
  8
DATA
  6
Continuous
 62
     7
100
AcDbLine
 10
-93.0
 20
-249.0
 30
0.0
 11
-93.0
 21
-275.0
 31
0.0
  0
LINE
  5
137
330
382
100
AcDbEntity
  8
DATA
  6
Continuous
 62
     7
100
AcDbLine
 10
-307.0
 20
-249.0
 30
0.0
 11
-93.0
 21
-249.0
 31
0.0
  0
CIRCLE
  5
138
330
382
100
AcDbEntity
  8
DATA
  6
Continuous
 62
     7
100
AcDbCircle
 10
-253.0
 20
-262.5
 30
0.0
 40
1.75
  0
CIRCLE
  5
139
330
382
100
AcDbEntity
  8
DATA
  6
Continuous
 62
     7
100
AcDbCircle
 10
-233.0
 20
-262.5
 30
0.0
 40
1.75
  0
CIRCLE
  5
13A
330
382
100
AcDbEntity
  8
DATA
  6
Continuous
 62
     7
100
AcDbCircle
 10
-223.0
 20
-262.5
 30
0.0
 40
1.75
  0
CIRCLE
  5
13B
330
382
100
AcDbEntity
  8
DATA
  6
Continuous
 62
     7
100
AcDbCircle
 10
-148.0
 20
-262.5
 30
0.0
 40
1.75
  0
CIRCLE
  5
13C
330
382
100
AcDbEntity
  8
DATA
  6
Continuous
 62
     7
100
AcDbCircle
 10
-158.0
 20
-262.5
 30
0.0
 40
1.75
  0
CIRCLE
  5
13D
330
382
100
AcDbEntity
  8
DATA
  6
Continuous
 62
     7
100
AcDbCircle
 10
-168.0
 20
-262.5
 30
0.0
 40
1.75
  0
CIRCLE
  5
13E
330
382
100
AcDbEntity
  8
DATA
  6
Continuous
 62
     7
100
AcDbCircle
 10
-178.0
 20
-262.5
 30
0.0
 40
1.75
  0
CIRCLE
  5
13F
330
382
100
AcDbEntity
  8
DATA
  6
Continuous
 62
     7
100
AcDbCircle
 10
-188.0
 20
-263.5
 30
0.0
 40
1.0
  0
CIRCLE
  5
140
330
382
100
AcDbEntity
  8
DATA
  6
Continuous
 62
     7
100
AcDbCircle
 10
-108.0
 20
-262.5
 30
0.0
 40
1.75
  0
LWPOLYLINE
  5
141
330
382
100
AcDbEntity
  8
DATA
  6
Continuous
 62
     7
100
AcDbPolyline
 90
        6
 70
     1
 43
0.0
 10
-132.5016522944211
 20
-120.8774344562833
 10
-130.0016522944211
 20
-122.3208101292574
 10
-127.501652294421
 20
-120.8774344562834
 10
-127.501652294421
 20
-117.9906831103352
 10
-130.0016522944211
 20
-116.5473074373612
 10
-132.5016522944211
 20
-117.9906831103352
  0
CIRCLE
  5
14A
330
382
100
AcDbEntity
  8
DATA
  6
Continuous
 62
     7
100
AcDbCircle
 10
-130.0016522944211
 20
-119.4340587833093
 30
0.0
 40
1.25
  0
LWPOLYLINE
  5
14B
330
382
100
AcDbEntity
  8
DATA
  6
Continuous
 62
     7
100
AcDbPolyline
 90
        4
 70
     0
 43
0.0
 10
-138.01
 20
-109.4
 10
-138.01
 20
-113.4000000000003
 10
-122.01
 20
-113.4000000000003
 10
-122.01
 20
-109.4
  0
LINE
  5
152
330
382
100
AcDbEntity
  8
DATA
  6
Continuous
 62
     7
100
AcDbLine
 10
-124.5100000000003
 20
-107.4
 30
0.0
 11
-135.5099999999996
 21
-107.4
 31
0.0
  0
ARC
  5
153
330
382
100
AcDbEntity
  8
DATA
  6
Continuous
 62
     7
100
AcDbCircle
 10
-139.2791836734693
 20
-105.2510204081633
 30
0.0
 40
4.338762363909595
100
AcDbArc
 50
287.0090081320969
 51
330.3106083760832
  0
ARC
  5
154
330
382
100
AcDbEntity
  8
DATA
  6
Continuous
 62
     7
100
AcDbCircle
 10
-120.7408163265305
 20
-105.2510204081633
 30
0.0
 40
4.338762363909694
100
AcDbArc
 50
209.689391623916
 51
252.9909918679017
  0
LINE
  5
155
330
382
100
AcDbEntity
  8
DATA
  6
Continuous
 62
     7
100
AcDbLine
 10
-135.5016522944211
 20
-111.6500000000001
 30
0.0
 11
-135.5016522944211
 21
-111.1500000000001
 31
0.0
  0
LINE
  5
156
330
382
100
AcDbEntity
  8
DATA
  6
Continuous
 62
     7
100
AcDbLine
 10
-124.501652294421
 20
-111.6500000000001
 30
0.0
 11
-135.5016522944211
 21
-111.6500000000001
 31
0.0
  0
LINE
  5
157
330
382
100
AcDbEntity
  8
DATA
  6
Continuous
 62
     7
100
AcDbLine
 10
-124.501652294421
 20
-111.1500000000001
 30
0.0
 11
-124.501652294421
 21
-111.6500000000001
 31
0.0
  0
LINE
  5
158
330
382
100
AcDbEntity
  8
DATA
  6
Continuous
 62
     7
100
AcDbLine
 10
-135.5016522944211
 20
-111.1500000000001
 30
0.0
 11
-124.501652294421
 21
-111.1500000000001
 31
0.0
  0
TEXT
  5
159
330
382
100
AcDbEntity
  8
DATA
 62
     7
100
AcDbText
 10
-127.6576643729258
 20
-101.4946257773385
 30
0.0
 40
1.548050625000001
  1
Input
 50
180.0
 41
0.7
 72
     1
 11
-130.0055411541758
 21
-102.2686510898385
 31
0.0
100
AcDbText
 73
     2
  0
ARC
  5
15A
330
382
100
AcDbEntity
  8
DATA
  6
Continuous
 62
     7
100
AcDbCircle
 10
-297.0375073324642
 20
-115.0000000000011
 30
0.0
 40
3.900000000000152
100
AcDbArc
 50
111.3023991911731
 51
68.69760080882375
  0
ARC
  5
15B
330
382
100
AcDbEntity
  8
DATA
  6
Continuous
 62
     7
100
AcDbCircle
 10
-297.0375073324646
 20
-114.9999999999999
 30
0.0
 40
5.299999999998902
100
AcDbArc
 50
123.0635387844293
 51
176.9364612155717
  0
ARC
  5
15C
330
382
100
AcDbEntity
  8
DATA
  6
Continuous
 62
     7
100
AcDbCircle
 10
-297.0375073324646
 20
-114.9999999999999
 30
0.0
 40
5.299999999998991
100
AcDbArc
 50
183.0635387844521
 51
236.936461215547
  0
ARC
  5
15D
330
382
100
AcDbEntity
  8
DATA
  6
Continuous
 62
     7
100
AcDbCircle
 10
-297.0375073324646
 20
-114.9999999999999
 30
0.0
 40
5.299999999998952
100
AcDbArc
 50
243.063538784474
 51
296.9364612155238
  0
ARC
  5
15E
330
382
100
AcDbEntity
  8
DATA
  6
Continuous
 62
     7
100
AcDbCircle
 10
-297.0375073324646
 20
-114.9999999999999
 30
0.0
 40
5.299999999998786
100
AcDbArc
 50
303.0635387844743
 51
356.9364612155246
  0
ARC
  5
15F
330
382
100
AcDbEntity
  8
DATA
  6
Continuous
 62
     7
100
AcDbCircle
 10
-297.0375073324646
 20
-114.9999999999999
 30
0.0
 40
5.299999999998759
100
AcDbArc
 50
3.063538784451408
 51
56.93646121554936
  0
ARC
  5
160
330
382
100
AcDbEntity
  8
DATA
  6
Continuous
 62
     7
100
AcDbCircle
 10
-297.0375073324646
 20
-114.9999999999999
 30
0.0
 40
5.299999999998801
100
AcDbArc
 50
63.0635387844291
 51
116.9364612155731
  0
ARC
  5
161
330
382
100
AcDbEntity
  8
DATA
  6
Continuous
 62
     7
100
AcDbCircle
 10
-297.0375073324644
 20
-115.0000000000007
 30
0.0
 40
0.9999999999996491
100
AcDbArc
 50
138.3449773820093
 51
311.6550226179912
  0
ARC
  5
162
330
382
100
AcDbEntity
  8
DATA
  6
Continuous
 62
     7
100
AcDbCircle
 10
-297.0375073324644
 20
-115.0000000000007
 30
0.0
 40
0.9999999999997791
100
AcDbArc
 50
318.0405886770678
 51
131.9594113229365
  0
CIRCLE
  5
163
330
382
100
AcDbEntity
  8
DATA
  6
Continuous
 62
     7
100
AcDbCircle
 10
-297.0375073324642
 20
-115.000000000001
 30
0.0
 40
2.849999999999908
  0
LWPOLYLINE
  5
164
330
382
100
AcDbEntity
  8
DATA
  6
Continuous
 62
     7
100
AcDbPolyline
 90
        6
 70
     1
 43
0.0
 10
-299.7654873543852
 20
-110.2750000000009
 10
-302.4934673763062
 20
-115.000000000001
 10
-299.7654873543852
 20
-119.7250000000009
 10
-294.3095273105432
 20
-119.7250000000009
 10
-291.5815472886222
 20
-115.000000000001
 10
-294.3095273105432
 20
-110.2750000000009
  0
LINE
  5
16D
330
382
100
AcDbEntity
  8
DATA
  6
Continuous
 62
     7
100
AcDbLine
 10
-298.4543392824769
 20
-111.3664635373488
 30
0.0
 11
-295.6206753824512
 21
-111.3664635373488
 31
0.0
  0
LINE
  5
16E
330
382
100
AcDbEntity
  8
DATA
  6
Continuous
 62
     7
100
AcDbLine
 10
-297.7846674927389
 20
-114.3353559637694
 30
0.0
 11
-296.3728632962329
 21
-115.7471601602753
 31
0.0
  0
LINE
  5
16F
330
382
100
AcDbEntity
  8
DATA
  6
Continuous
 62
     7
100
AcDbLine
 10
-297.706111322676
 20
-114.2563813448605
 30
0.0
 11
-296.293888677324
 21
-115.6686039902123
 31
0.0
  0
TEXT
  5
170
330
382
100
AcDbEntity
  8
DATA
 62
     7
100
AcDbText
 10
-294.4745608631713
 20
-102.5511258227773
 30
0.0
 40
1.548050625000001
  1
5V DC
 50
180.0
 41
0.7
 72
     1
 11
-296.9669223694213
 21
-103.3251511352773
 31
0.0
100
AcDbText
 73
     2
  0
LINE
  5
171
330
382
100
AcDbEntity
  8
DATA
  6
Continuous
 62
     7
100
AcDbLine
 10
-293.1001803631432
 20
-138.0
 30
0.0
 11
-300.8998196368566
 21
-138.0
 31
0.0
  0
LINE
  5
172
330
382
100
AcDbEntity
  8
DATA
  6
Continuous
 62
     7
100
AcDbLine
 10
-302.455960043842
 20
-142.0
 30
0.0
 11
-302.455960043842
 21
-144.5
 31
0.0
  0
LINE
  5
173
330
382
100
AcDbEntity
  8
DATA
  6
Continuous
 62
     7
100
AcDbLine
 10
-291.5440399561581
 20
-142.0
 30
0.0
 11
-291.5440399561581
 21
-144.5
 31
0.0
  0
LINE
  5
174
330
382
100
AcDbEntity
  8
DATA
  6
Continuous
 62
     7
100
AcDbLine
 10
-299.7279800219209
 20
-142.0
 30
0.0
 11
-299.7279800219209
 21
-144.5
 31
0.0
  0
LINE
  5
175
330
382
100
AcDbEntity
  8
DATA
  6
Continuous
 62
     7
100
AcDbLine
 10
-294.272019978079
 20
-142.0
 30
0.0
 11
-294.272019978079
 21
-144.5
 31
0.0
  0
LINE
  5
176
330
382
100
AcDbEntity
  8
DATA
  6
Continuous
 62
     7
100
AcDbLine
 10
-302.455960043842
 20
-142.0
 30
0.0
 11
-291.5440399561581
 21
-142.0
 31
0.0
  0
LINE
  5
177
330
382
100
AcDbEntity
  8
DATA
  6
Continuous
 62
     7
100
AcDbLine
 10
-300.8998196368566
 20
-138.0
 30
0.0
 11
-300.8998196368566
 21
-142.0
 31
0.0
  0
LINE
  5
178
330
382
100
AcDbEntity
  8
DATA
  6
Continuous
 62
     7
100
AcDbLine
 10
-293.1001803631432
 20
-138.0
 30
0.0
 11
-293.1001803631432
 21
-142.0
 31
0.0
  0
LINE
  5
179
330
382
100
AcDbEntity
  8
DATA
  6
Continuous
 62
     7
100
AcDbLine
 10
-300.8998196368566
 20
-142.0
 30
0.0
 11
-293.1001803631432
 21
-141.5308424031865
 31
0.0
  0
LINE
  5
17A
330
382
100
AcDbEntity
  8
DATA
  6
Continuous
 62
     7
100
AcDbLine
 10
-300.8998196368566
 20
-140.5
 30
0.0
 11
-293.1001803631432
 21
-140.0308424031865
 31
0.0
  0
LINE
  5
17B
330
382
100
AcDbEntity
  8
DATA
  6
Continuous
 62
     7
100
AcDbLine
 10
-300.8998196368566
 20
-139.0
 30
0.0
 11
-293.1001803631432
 21
-138.5308424031865
 31
0.0
  0
LINE
  5
17C
330
382
100
AcDbEntity
  8
DATA
  6
Continuous
 62
     7
100
AcDbLine
 10
-197.5
 20
-138.5
 30
0.0
 11
-202.5
 21
-138.5
 31
0.0
  0
LINE
  5
17D
330
382
100
AcDbEntity
  8
DATA
  6
Continuous
 62
     7
100
AcDbLine
 10
-202.5
 20
-138.5
 30
0.0
 11
-202.5
 21
-144.5
 31
0.0
  0
LINE
  5
17E
330
382
100
AcDbEntity
  8
DATA
  6
Continuous
 62
     7
100
AcDbLine
 10
-197.5
 20
-138.5
 30
0.0
 11
-197.5
 21
-144.5
 31
0.0
  0
LINE
  5
17F
330
382
100
AcDbEntity
  8
DATA
  6
Continuous
 62
     7
100
AcDbLine
 10
-200.0
 20
-138.5
 30
0.0
 11
-200.0
 21
-144.5
 31
0.0
  0
LINE
  5
180
330
382
100
AcDbEntity
  8
DATA
  6
Continuous
 62
     7
100
AcDbLine
 10
-172.491652294421
 20
-138.5
 30
0.0
 11
-177.491652294421
 21
-138.5
 31
0.0
  0
LINE
  5
181
330
382
100
AcDbEntity
  8
DATA
  6
Continuous
 62
     7
100
AcDbLine
 10
-177.491652294421
 20
-138.5
 30
0.0
 11
-177.491652294421
 21
-144.5
 31
0.0
  0
LINE
  5
182
330
382
100
AcDbEntity
  8
DATA
  6
Continuous
 62
     7
100
AcDbLine
 10
-172.491652294421
 20
-138.5
 30
0.0
 11
-172.491652294421
 21
-144.5
 31
0.0
  0
LINE
  5
183
330
382
100
AcDbEntity
  8
DATA
  6
Continuous
 62
     7
100
AcDbLine
 10
-174.9916522944211
 20
-138.5
 30
0.0
 11
-174.9916522944211
 21
-144.5
 31
0.0
  0
LINE
  5
184
330
382
100
AcDbEntity
  8
DATA
  6
Continuous
 62
     7
100
AcDbLine
 10
-127.4916522944211
 20
-138.5
 30
0.0
 11
-132.4916522944211
 21
-138.5
 31
0.0
  0
LINE
  5
185
330
382
100
AcDbEntity
  8
DATA
  6
Continuous
 62
     7
100
AcDbLine
 10
-132.4916522944211
 20
-138.5
 30
0.0
 11
-132.4916522944211
 21
-144.5
 31
0.0
  0
LINE
  5
186
330
382
100
AcDbEntity
  8
DATA
  6
Continuous
 62
     7
100
AcDbLine
 10
-127.4916522944211
 20
-138.5
 30
0.0
 11
-127.4916522944211
 21
-144.5
 31
0.0
  0
LINE
  5
187
330
382
100
AcDbEntity
  8
DATA
  6
Continuous
 62
     7
100
AcDbLine
 10
-129.9916522944211
 20
-138.5
 30
0.0
 11
-129.9916522944211
 21
-144.5
 31
0.0
  0
LINE
  5
188
330
382
100
AcDbEntity
  8
DATA
  6
Continuous
 62
     7
100
AcDbLine
 10
-131.7444427130277
 20
-267.4
 30
0.0
 11
-137.7652245752614
 21
-267.4
 31
0.0
  0
LINE
  5
189
330
382
100
AcDbEntity
  8
DATA
  6
Continuous
 62
     7
100
AcDbLine
 10
-138.009673690726
 20
-263.5
 30
0.0
 11
-131.4999935975631
 21
-263.5
 31
0.0
  0
LINE
  5
18A
330
382
100
AcDbEntity
  8
DATA
  6
Continuous
 62
     7
100
AcDbLine
 10
-138.0651434832204
 20
-267.1069748583246
 30
0.0
 11
-138.089288375185
 21
-266.0687445038507
 31
0.0
  0
ARC
  5
18B
330
382
100
AcDbEntity
  8
DATA
  6
Continuous
 62
     7
100
AcDbCircle
 10
-137.7652245752614
 20
-267.1
 30
0.0
 40
0.3000000000000136
100
AcDbArc
 50
181.332219853866
 51
270.0
  0
LINE
  5
18C
330
382
100
AcDbEntity
  8
DATA
  6
Continuous
 62
     7
100
AcDbLine
 10
-136.6641455902763
 20
-264.6421857271245
 30
0.0
 11
-132.8850870173232
 21
-264.6421857271245
 31
0.0
  0
LINE
  5
18D
330
382
100
AcDbEntity
  8
DATA
  6
Continuous
 62
     7
100
AcDbLine
 10
-133.0512827739121
 20
-266.1421857271244
 30
0.0
 11
-136.4979498336875
 21
-266.1421857271244
 31
0.0
  0
LINE
  5
18E
330
382
100
AcDbEntity
  8
DATA
  6
Continuous
 62
     7
100
AcDbLine
 10
-136.9591577914624
 20
-264.9966632559901
 30
0.0
 11
-136.7929620348735
 21
-265.8966632559901
 31
0.0
  0
LINE
  5
18F
330
382
100
AcDbEntity
  8
DATA
  6
Continuous
 62
     7
100
AcDbLine
 10
-132.590074816137
 20
-264.9966632559901
 30
0.0
 11
-132.7562705727259
 21
-265.8966632559901
 31
0.0
  0
ARC
  5
190
330
382
100
AcDbEntity
  8
DATA
  6
Continuous
 62
     7
100
AcDbCircle
 10
-136.4979498336873
 20
-265.8421857271244
 30
0.0
 40
0.3000000000000448
100
AcDbArc
 50
190.4624892333957
 51
269.9999999999783
  0
ARC
  5
191
330
382
100
AcDbEntity
  8
DATA
  6
Continuous
 62
     7
100
AcDbCircle
 10
-133.0512827739121
 20
-265.8421857271244
 30
0.0
 40
0.3000000000000114
100
AcDbArc
 50
270.0
 51
349.5375107666149
  0
ARC
  5
192
330
382
100
AcDbEntity
  8
DATA
  6
Continuous
 62
     7
100
AcDbCircle
 10
-136.6641455902763
 20
-264.9421857271244
 30
0.0
 40
0.2999999999999545
100
AcDbArc
 50
90.0
 51
190.4624892333997
  0
ARC
  5
193
330
382
100
AcDbEntity
  8
DATA
  6
Continuous
 62
     7
100
AcDbCircle
 10
-132.8850870173232
 20
-264.9421857271244
 30
0.0
 40
0.3000000000000448
100
AcDbArc
 50
349.5375107666041
 51
90.0
  0
LWPOLYLINE
  5
194
330
382
100
AcDbEntity
  8
DATA
  6
Continuous
 62
     7
100
AcDbPolyline
 90
        4
 70
     1
 43
0.0
 10
-134.9048336441445
 20
-265.1421857271245
 10
-134.6048336441446
 20
-265.1421857271245
 10
-134.6048336441446
 20
-265.6421857271245
 10
-134.9048336441445
 20
-265.6421857271245
  0
LWPOLYLINE
  5
19B
330
382
100
AcDbEntity
  8
DATA
  6
Continuous
 62
     7
100
AcDbPolyline
 90
        4
 70
     1
 43
0.0
 10
-134.2548336441446
 20
-265.1421857271245
 10
-133.9548336441446
 20
-265.1421857271245
 10
-133.9548336441446
 20
-265.6421857271245
 10
-134.2548336441446
 20
-265.6421857271245
  0
LWPOLYLINE
  5
1A2
330
382
100
AcDbEntity
  8
DATA
  6
Continuous
 62
     7
100
AcDbPolyline
 90
        4
 70
     1
 43
0.0
 10
-133.6048336441446
 20
-265.1421857271245
 10
-133.3048336441445
 20
-265.1421857271245
 10
-133.3048336441445
 20
-265.6421857271245
 10
-133.6048336441446
 20
-265.6421857271245
  0
LWPOLYLINE
  5
1A9
330
382
100
AcDbEntity
  8
DATA
  6
Continuous
 62
     7
100
AcDbPolyline
 90
        4
 70
     1
 43
0.0
 10
-135.5943989634549
 20
-265.1421857271245
 10
-135.2943989634549
 20
-265.1421857271245
 10
-135.2943989634549
 20
-265.6421857271245
 10
-135.5943989634549
 20
-265.6421857271245
  0
LWPOLYLINE
  5
1B0
330
382
100
AcDbEntity
  8
DATA
  6
Continuous
 62
     7
100
AcDbPolyline
 90
        4
 70
     1
 43
0.0
 10
-136.2443989634549
 20
-265.1421857271245
 10
-135.944398963455
 20
-265.1421857271245
 10
-135.944398963455
 20
-265.6421857271245
 10
-136.2443989634549
 20
-265.6421857271245
  0
LINE
  5
1B7
330
382
100
AcDbEntity
  8
DATA
  6
Continuous
 62
     7
100
AcDbLine
 10
-138.089288375185
 20
-266.0687445038507
 30
0.0
 11
-138.4991573241011
 21
-264.1020086891292
 31
0.0
  0
ARC
  5
1B8
330
382
100
AcDbEntity
  8
DATA
  6
Continuous
 62
     7
100
AcDbCircle
 10
-138.009673690726
 20
-264.0
 30
0.0
 40
0.5
100
AcDbArc
 50
90.0
 51
191.7719833587847
  0
LINE
  5
1B9
330
382
100
AcDbEntity
  8
DATA
  6
Continuous
 62
     7
100
AcDbLine
 10
-131.4445238050687
 20
-267.1069748583246
 30
0.0
 11
-131.4203789131041
 21
-266.0687445038507
 31
0.0
  0
ARC
  5
1BA
330
382
100
AcDbEntity
  8
DATA
  6
Continuous
 62
     7
100
AcDbCircle
 10
-131.7444427130277
 20
-267.1
 30
0.0
 40
0.2999999999999545
100
AcDbArc
 50
270.0
 51
358.6677801461338
  0
LINE
  5
1BB
330
382
100
AcDbEntity
  8
DATA
  6
Continuous
 62
     7
100
AcDbLine
 10
-131.4203789131041
 20
-266.0687445038507
 30
0.0
 11
-131.010509964188
 21
-264.1020086891292
 31
0.0
  0
ARC
  5
1BC
330
382
100
AcDbEntity
  8
DATA
  6
Continuous
 62
     7
100
AcDbCircle
 10
-131.4999935975631
 20
-264.0
 30
0.0
 40
0.4999999999999662
100
AcDbArc
 50
348.2280166412153
 51
90.0
  0
TEXT
  5
1BD
330
382
100
AcDbEntity
  8
DATA
 62
     7
100
AcDbText
 10
-129.1785112536359
 20
-266.6138165864995
 30
0.0
 40
2.443261718750002
  1
USB
 41
0.7
 72
     1
 11
-126.8981336494693
 21
-265.3921857271245
 31
0.0
100
AcDbText
 73
     2
  0
LINE
  5
1BE
330
382
100
AcDbEntity
  8
DATA
  6
Continuous
 62
     7
100
AcDbLine
 10
-93.0
 20
-226.5
 30
0.0
 11
-162.0
 21
-226.5
 31
0.0
  0
LINE
  5
1BF
330
382
100
AcDbEntity
  8
DATA
  6
Continuous
 62
     7
100
AcDbLine
 10
-163.0
 20
-226.5
 30
0.0
 11
-237.0
 21
-226.5
 31
0.0
  0
LINE
  5
1C0
330
382
100
AcDbEntity
  8
DATA
  6
Continuous
 62
     7
100
AcDbLine
 10
-238.0
 20
-226.5
 30
0.0
 11
-307.0
 21
-226.5
 31
0.0
  0
LINE
  5
1C1
330
382
100
AcDbEntity
  8
DATA
  6
Continuous
 62
     7
100
AcDbLine
 10
-114.0
 20
-226.5
 30
0.0
 11
-114.0
 21
-227.5
 31
0.0
  0
LINE
  5
1C2
330
382
100
AcDbEntity
  8
DATA
  6
Continuous
 62
     7
100
AcDbLine
 10
-115.0
 20
-226.5
 30
0.0
 11
-115.0
 21
-227.5
 31
0.0
  0
LINE
  5
1C3
330
382
100
AcDbEntity
  8
DATA
  6
Continuous
 62
     7
100
AcDbLine
 10
-162.0
 20
-225.5
 30
0.0
 11
-162.0
 21
-227.5
 31
0.0
  0
LINE
  5
1C4
330
382
100
AcDbEntity
  8
DATA
  6
Continuous
 62
     7
100
AcDbLine
 10
-163.0
 20
-225.5
 30
0.0
 11
-163.0
 21
-227.5
 31
0.0
  0
LINE
  5
1C5
330
382
100
AcDbEntity
  8
DATA
  6
Continuous
 62
     7
100
AcDbLine
 10
-163.0
 20
-227.5
 30
0.0
 11
-114.0
 21
-227.5
 31
0.0
  0
LINE
  5
1C6
330
382
100
AcDbEntity
  8
DATA
  6
Continuous
 62
     7
100
AcDbLine
 10
-286.0
 20
-226.5
 30
0.0
 11
-286.0
 21
-227.5
 31
0.0
  0
LINE
  5
1C7
330
382
100
AcDbEntity
  8
DATA
  6
Continuous
 62
     7
100
AcDbLine
 10
-285.0
 20
-226.5
 30
0.0
 11
-285.0
 21
-227.5
 31
0.0
  0
LINE
  5
1C8
330
382
100
AcDbEntity
  8
DATA
  6
Continuous
 62
     7
100
AcDbLine
 10
-237.0
 20
-227.5
 30
0.0
 11
-286.0
 21
-227.5
 31
0.0
  0
LINE
  5
1C9
330
382
100
AcDbEntity
  8
DATA
  6
Continuous
 62
     7
100
AcDbLine
 10
-238.0
 20
-225.5
 30
0.0
 11
-238.0
 21
-227.5
 31
0.0
  0
LINE
  5
1CA
330
382
100
AcDbEntity
  8
DATA
  6
Continuous
 62
     7
100
AcDbLine
 10
-237.0
 20
-225.5
 30
0.0
 11
-237.0
 21
-227.5
 31
0.0
  0
LINE
  5
1CB
330
382
100
AcDbEntity
  8
DATA
  6
Continuous
 62
     7
100
AcDbLine
 10
-162.0
 20
-225.5
 30
0.0
 11
-238.0
 21
-225.5
 31
0.0
  0
LINE
  5
1CC
330
382
100
AcDbEntity
  8
DATA
  6
Continuous
 62
     7
100
AcDbLine
 10
-307.0
 20
-99.0
 30
0.0
 11
-307.0
 21
-125.0
 31
0.0
  0
LINE
  5
1CD
330
382
100
AcDbEntity
  8
DATA
  6
Continuous
 62
     7
100
AcDbLine
 10
-93.0
 20
-99.0
 30
0.0
 11
-307.0
 21
-99.0
 31
0.0
  0
LINE
  5
1CE
330
382
100
AcDbEntity
  8
DATA
  6
Continuous
 62
     7
100
AcDbLine
 10
-93.0
 20
-125.0
 30
0.0
 11
-93.0
 21
-99.0
 31
0.0
  0
LINE
  5
1CF
330
382
100
AcDbEntity
  8
DATA
  6
Continuous
 62
     7
100
AcDbLine
 10
-307.0
 20
-125.0
 30
0.0
 11
-93.0
 21
-125.0
 31
0.0
  0
LWPOLYLINE
  5
1D0
330
382
100
AcDbEntity
  8
DATA
  6
Continuous
 62
     7
100
AcDbPolyline
 90
        6
 70
     1
 43
0.0
 10
-177.5016522944211
 20
-120.8774344562833
 10
-175.0016522944211
 20
-122.3208101292574
 10
-172.5016522944211
 20
-120.8774344562834
 10
-172.5016522944211
 20
-117.9906831103352
 10
-175.0016522944211
 20
-116.5473074373612
 10
-177.5016522944211
 20
-117.9906831103352
  0
CIRCLE
  5
1D9
330
382
100
AcDbEntity
  8
DATA
  6
Continuous
 62
     7
100
AcDbCircle
 10
-175.0016522944211
 20
-119.4340587833093
 30
0.0
 40
1.25
  0
LWPOLYLINE
  5
1DA
330
382
100
AcDbEntity
  8
DATA
  6
Continuous
 62
     7
100
AcDbPolyline
 90
        4
 70
     0
 43
0.0
 10
-183.01
 20
-109.4
 10
-183.01
 20
-113.4000000000003
 10
-167.01
 20
-113.4000000000003
 10
-167.01
 20
-109.4
  0
LINE
  5
1E1
330
382
100
AcDbEntity
  8
DATA
  6
Continuous
 62
     7
100
AcDbLine
 10
-169.5100000000003
 20
-107.4
 30
0.0
 11
-180.5099999999996
 21
-107.4
 31
0.0
  0
ARC
  5
1E2
330
382
100
AcDbEntity
  8
DATA
  6
Continuous
 62
     7
100
AcDbCircle
 10
-184.2791836734693
 20
-105.2510204081633
 30
0.0
 40
4.338762363909595
100
AcDbArc
 50
287.0090081320969
 51
330.3106083760832
  0
ARC
  5
1E3
330
382
100
AcDbEntity
  8
DATA
  6
Continuous
 62
     7
100
AcDbCircle
 10
-165.7408163265305
 20
-105.2510204081633
 30
0.0
 40
4.338762363909694
100
AcDbArc
 50
209.689391623916
 51
252.9909918679017
  0
LINE
  5
1E4
330
382
100
AcDbEntity
  8
DATA
  6
Continuous
 62
     7
100
AcDbLine
 10
-180.5016522944211
 20
-111.6500000000001
 30
0.0
 11
-180.5016522944211
 21
-111.1500000000001
 31
0.0
  0
LINE
  5
1E5
330
382
100
AcDbEntity
  8
DATA
  6
Continuous
 62
     7
100
AcDbLine
 10
-169.5016522944211
 20
-111.6500000000001
 30
0.0
 11
-180.5016522944211
 21
-111.6500000000001
 31
0.0
  0
LINE
  5
1E6
330
382
100
AcDbEntity
  8
DATA
  6
Continuous
 62
     7
100
AcDbLine
 10
-169.5016522944211
 20
-111.1500000000001
 30
0.0
 11
-169.5016522944211
 21
-111.6500000000001
 31
0.0
  0
LINE
  5
1E7
330
382
100
AcDbEntity
  8
DATA
  6
Continuous
 62
     7
100
AcDbLine
 10
-180.5016522944211
 20
-111.1500000000001
 30
0.0
 11
-169.5016522944211
 21
-111.1500000000001
 31
0.0
  0
TEXT
  5
1E8
330
382
100
AcDbEntity
  8
DATA
 62
     7
100
AcDbText
 10
-173.1994820916758
 20
-101.4946257773385
 30
0.0
 40
1.548050625000001
  1
Out1
 50
180.0
 41
0.7
 72
     1
 11
-175.0055411541758
 21
-102.2686510898385
 31
0.0
100
AcDbText
 73
     2
  0
LWPOLYLINE
  5
1E9
330
382
100
AcDbEntity
  8
DATA
  6
Continuous
 62
     7
100
AcDbPolyline
 90
        6
 70
     1
 43
0.0
 10
-202.5016522944211
 20
-120.8774344562833
 10
-200.0016522944211
 20
-122.3208101292574
 10
-197.5016522944211
 20
-120.8774344562834
 10
-197.5016522944211
 20
-117.9906831103352
 10
-200.0016522944211
 20
-116.5473074373612
 10
-202.5016522944211
 20
-117.9906831103352
  0
CIRCLE
  5
1F2
330
382
100
AcDbEntity
  8
DATA
  6
Continuous
 62
     7
100
AcDbCircle
 10
-200.0016522944211
 20
-119.4340587833093
 30
0.0
 40
1.25
  0
LWPOLYLINE
  5
1F3
330
382
100
AcDbEntity
  8
DATA
  6
Continuous
 62
     7
100
AcDbPolyline
 90
        4
 70
     0
 43
0.0
 10
-208.01
 20
-109.4
 10
-208.01
 20
-113.4000000000003
 10
-192.01
 20
-113.4000000000003
 10
-192.01
 20
-109.4
  0
LINE
  5
1FA
330
382
100
AcDbEntity
  8
DATA
  6
Continuous
 62
     7
100
AcDbLine
 10
-194.5100000000003
 20
-107.4
 30
0.0
 11
-205.5099999999996
 21
-107.4
 31
0.0
  0
ARC
  5
1FB
330
382
100
AcDbEntity
  8
DATA
  6
Continuous
 62
     7
100
AcDbCircle
 10
-209.2791836734693
 20
-105.2510204081633
 30
0.0
 40
4.338762363909595
100
AcDbArc
 50
287.0090081320969
 51
330.3106083760832
  0
ARC
  5
1FC
330
382
100
AcDbEntity
  8
DATA
  6
Continuous
 62
     7
100
AcDbCircle
 10
-190.7408163265305
 20
-105.2510204081633
 30
0.0
 40
4.338762363909694
100
AcDbArc
 50
209.689391623916
 51
252.9909918679017
  0
LINE
  5
1FD
330
382
100
AcDbEntity
  8
DATA
  6
Continuous
 62
     7
100
AcDbLine
 10
-205.5016522944211
 20
-111.6500000000001
 30
0.0
 11
-205.5016522944211
 21
-111.1500000000001
 31
0.0
  0
LINE
  5
1FE
330
382
100
AcDbEntity
  8
DATA
  6
Continuous
 62
     7
100
AcDbLine
 10
-194.5016522944211
 20
-111.6500000000001
 30
0.0
 11
-205.5016522944211
 21
-111.6500000000001
 31
0.0
  0
LINE
  5
1FF
330
382
100
AcDbEntity
  8
DATA
  6
Continuous
 62
     7
100
AcDbLine
 10
-194.5016522944211
 20
-111.1500000000001
 30
0.0
 11
-194.5016522944211
 21
-111.6500000000001
 31
0.0
  0
LINE
  5
200
330
382
100
AcDbEntity
  8
DATA
  6
Continuous
 62
     7
100
AcDbLine
 10
-205.5016522944211
 20
-111.1500000000001
 30
0.0
 11
-194.5016522944211
 21
-111.1500000000001
 31
0.0
  0
TEXT
  5
201
330
382
100
AcDbEntity
  8
DATA
 62
     7
100
AcDbText
 10
-198.0188761854258
 20
-101.4946257773385
 30
0.0
 40
1.548050625000001
  1
Out2
 50
180.0
 41
0.7
 72
     1
 11
-200.0055411541758
 21
-102.2686510898385
 31
0.0
100
AcDbText
 73
     2
  0
TEXT
  5
202
330
382
100
AcDbEntity
  8
DATA
 62
     7
100
AcDbText
 10
-302.0
 20
-271.5391424
 30
0.0
 40
2.533173750000002
  1
4K 60 Hz 4:4:4 HDMI2.0、HDCP 2.2
 41
0.7
 11
-302.0
 21
-269.00596865
 31
0.0
100
AcDbText
 73
     3
  0
TEXT
  5
203
330
382
100
AcDbEntity
  8
DATA
 62
     7
100
AcDbText
 10
-297.3855912175889
 20
-256.2014658250795
 30
0.0
 40
5.130849609374999
  1
GEFEN
 41
0.7
 11
-297.3855912175889
 21
-251.0706162157045
 31
0.0
100
AcDbText
 73
     3
  0
TEXT
  5
204
330
382
100
AcDbEntity
  8
DATA
 62
     7
100
AcDbText
 10
-223.328374375
 20
-267.868059375
 30
0.0
 40
1.407318750000001
  1
2
 41
0.7
 72
     1
 11
-223.0
 21
-267.1644
 31
0.0
100
AcDbText
 73
     2
  0
TEXT
  5
205
330
382
100
AcDbEntity
  8
DATA
 62
     7
100
AcDbText
 10
-233.1641871875
 20
-267.868059375
 30
0.0
 40
1.407318750000001
  1
1
 41
0.7
 72
     1
 11
-233.0
 21
-267.1644
 31
0.0
100
AcDbText
 73
     2
  0
TEXT
  5
206
330
382
100
AcDbEntity
  8
DATA
 62
     7
100
AcDbText
 10
-255.1344334375
 20
-258.539259375
 30
0.0
 40
1.407318750000001
  1
Input
 41
0.7
 72
     1
 11
-253.0
 21
-257.8356
 31
0.0
100
AcDbText
 73
     2
  0
TEXT
  5
207
330
382
100
AcDbEntity
  8
DATA
 62
     7
100
AcDbText
 10
-231.28374375
 20
-258.539259375
 30
0.0
 40
1.407318750000001
  1
Outputs
 41
0.7
 72
     1
 11
-228.0
 21
-257.8356
 31
0.0
100
AcDbText
 73
     2
  0
TEXT
  5
208
330
382
100
AcDbEntity
  8
DATA
 62
     7
100
AcDbText
 10
-189.641871875
 20
-258.539259375
 30
0.0
 40
1.407318750000001
  1
EDID
 41
0.7
 72
     1
 11
-188.0
 21
-257.8356
 31
0.0
100
AcDbText
 73
     2
  0
TEXT
  5
209
330
382
100
AcDbEntity
  8
DATA
 62
     7
100
AcDbText
 10
-176.36583734375
 20
-258.539259375
 30
0.0
 40
1.407318750000001
  1
Internal
 41
0.7
 72
     1
 11
-173.0
 21
-257.8356
 31
0.0
100
AcDbText
 73
     2
  0
TEXT
  5
20A
330
382
100
AcDbEntity
  8
DATA
 62
     7
100
AcDbText
 10
-159.3134975
 20
-258.539259375
 30
0.0
 40
1.407318750000001
  1
Ext
 41
0.7
 72
     1
 11
-158.0
 21
-257.8356
 31
0.0
100
AcDbText
 73
     2
  0
TEXT
  5
20B
330
382
100
AcDbEntity
  8
DATA
 62
     7
100
AcDbText
 10
-149.8060590625
 20
-258.539259375
 30
0.0
 40
1.407318750000001
  1
Cust
 41
0.7
 72
     1
 11
-148.0
 21
-257.8356
 31
0.0
100
AcDbText
 73
     2
  0
TEXT
  5
20C
330
382
100
AcDbEntity
  8
DATA
 62
     7
100
AcDbText
 10
-155.2531217892965
 20
-253.8309824
 30
0.0
 40
2.533173750000002
  1
Ultra HD 600 MHz 1:2 Splitter w/HDR
 41
0.7
 11
-155.2531217892965
 21
-251.29780865
 31
0.0
100
AcDbText
 73
     3
  0
TEXT
  5
20D
330
382
100
AcDbEntity
  8
DATA
 62
     7
100
AcDbText
 10
-179.8060590625
 20
-268.868059375
 30
0.0
 40
1.407318750000001
  1
2-Ch
 41
0.7
 72
     1
 11
-178.0
 21
-268.1644
 31
0.0
100
AcDbText
 73
     2
  0
TEXT
  5
20E
330
382
100
AcDbEntity
  8
DATA
 62
     7
100
AcDbText
 10
-170.21652703125
 20
-268.8658168019302
 30
0.0
 40
1.407318750000001
  1
Multi-
 41
0.7
 72
     1
 11
-168.0
 21
-268.1621574269302
 31
0.0
100
AcDbText
 73
     2
  0
TEXT
  5
20F
330
382
100
AcDbEntity
  8
DATA
 62
     7
100
AcDbText
 10
-168.8209359375
 20
-270.6946168019302
 30
0.0
 40
1.407318750000001
  1
Ch
 41
0.7
 72
     1
 11
-168.0
 21
-269.9909574269302
 31
0.0
100
AcDbText
 73
     2
  0
TEXT
  5
210
330
382
100
AcDbEntity
  8
DATA
 62
     7
100
AcDbText
 10
-110.298620625
 20
-268.868059375
 30
0.0
 40
1.407318750000001
  1
Power
 41
0.7
 72
     1
 11
-108.0
 21
-268.1644
 31
0.0
100
AcDbText
 73
     2
  0
TEXT
  5
211
330
382
100
AcDbEntity
  8
DATA
 62
     7
100
AcDbText
 10
-186.0606939041758
 20
-101.4946257773385
 30
0.0
 40
1.548050625000001
  1
LRP
 50
180.0
 41
0.7
 72
     1
 11
-187.5055411541758
 21
-102.2686510898385
 31
0.0
100
AcDbText
 73
     2
  0
LINE
  5
212
330
382
100
AcDbEntity
  8
DATA
  6
Continuous
 62
     7
100
AcDbLine
 10
-196.9943010829189
 20
-102.2686510898385
 30
0.0
 11
-190.0143010829189
 21
-102.2686510898385
 31
0.0
  0
LINE
  5
213
330
382
100
AcDbEntity
  8
DATA
  6
Continuous
 62
     7
100
AcDbLine
 10
-184.9967812254328
 20
-102.2686510898385
 30
0.0
 11
-178.0167812254328
 21
-102.2686510898385
 31
0.0
  0
TEXT
  5
214
330
382
100
AcDbEntity
  8
DATA
 62
     7
100
AcDbText
 10
-95.0
 20
-120.4049328
 30
0.0
 40
2.322075937500002
  1
EXT-UHD600-12
 50
180.0
 41
0.7
 11
-95.0
 21
-122.7270087375
 31
0.0
100
AcDbText
 73
     3
  0
LINE
  5
215
330
382
100
AcDbEntity
  8
DATA
  6
Continuous
 62
     7
100
AcDbLine
 10
-93.0
 20
-325.0
 30
0.0
 11
-307.0
 21
-325.0
 31
0.0
  0
LINE
  5
216
330
382
100
AcDbEntity
  8
DATA
  6
Continuous
 62
     7
100
AcDbLine
 10
-307.0
 20
-325.0
 30
0.0
 11
-307.0
 21
-418.0
 31
0.0
  0
LINE
  5
217
330
382
100
AcDbEntity
  8
DATA
  6
Continuous
 62
     7
100
AcDbLine
 10
-93.0
 20
-325.0
 30
0.0
 11
-93.0
 21
-418.0
 31
0.0
  0
LINE
  5
218
330
382
100
AcDbEntity
  8
DATA
  6
Continuous
 62
     7
100
AcDbLine
 10
-93.0
 20
-418.0
 30
0.0
 11
-307.0
 21
-418.0
 31
0.0
  0
LINE
  5
219
330
382
100
AcDbEntity
  8
DATA
  6
Continuous
 62
     7
100
AcDbLine
 10
-286.85
 20
-418.2000000000001
 30
0.0
 11
-271.15
 21
-418.2000000000001
 31
0.0
  0
LINE
  5
21A
330
382
100
AcDbEntity
  8
DATA
  6
Continuous
 62
     7
100
AcDbLine
 10
-307.0
 20
-407.0
 30
0.0
 11
-93.0
 21
-407.0
 31
0.0
  0
CIRCLE
  5
21B
330
382
100
AcDbEntity
  8
DATA
  6
Continuous
 62
     7
100
AcDbCircle
 10
-200.0
 20
-412.5
 30
0.0
 40
2.350000000000022
  0
LINE
  5
21C
330
382
100
AcDbEntity
  8
DATA
  6
Continuous
 62
     7
100
AcDbLine
 10
-200.0
 20
-413.8124404747931
 30
0.0
 11
-200.0
 21
-411.1875595252069
 31
0.0
  0
LINE
  5
21D
330
382
100
AcDbEntity
  8
DATA
  6
Continuous
 62
     7
100
AcDbLine
 10
-201.3124404747931
 20
-412.5
 30
0.0
 11
-198.6875595252069
 21
-412.5
 31
0.0
  0
CIRCLE
  5
21E
330
382
100
AcDbEntity
  8
DATA
  6
Continuous
 62
     7
100
AcDbCircle
 10
-105.0
 20
-412.5
 30
0.0
 40
2.350000000000022
  0
LINE
  5
21F
330
382
100
AcDbEntity
  8
DATA
  6
Continuous
 62
     7
100
AcDbLine
 10
-105.0
 20
-413.8124404747931
 30
0.0
 11
-105.0
 21
-411.1875595252069
 31
0.0
  0
LINE
  5
220
330
382
100
AcDbEntity
  8
DATA
  6
Continuous
 62
     7
100
AcDbLine
 10
-106.3124404747931
 20
-412.5
 30
0.0
 11
-103.6875595252068
 21
-412.5
 31
0.0
  0
CIRCLE
  5
221
330
382
100
AcDbEntity
  8
DATA
  6
Continuous
 62
     7
100
AcDbCircle
 10
-295.0
 20
-412.5
 30
0.0
 40
2.350000000000022
  0
LINE
  5
222
330
382
100
AcDbEntity
  8
DATA
  6
Continuous
 62
     7
100
AcDbLine
 10
-295.0
 20
-413.8124404747931
 30
0.0
 11
-295.0
 21
-411.1875595252069
 31
0.0
  0
LINE
  5
223
330
382
100
AcDbEntity
  8
DATA
  6
Continuous
 62
     7
100
AcDbLine
 10
-293.6875595252069
 20
-412.5
 30
0.0
 11
-296.3124404747931
 21
-412.5
 31
0.0
  0
CIRCLE
  5
224
330
382
100
AcDbEntity
  8
DATA
  6
Continuous
 62
     7
100
AcDbCircle
 10
-235.0
 20
-382.0
 30
0.0
 40
1.5
  0
CIRCLE
  5
225
330
382
100
AcDbEntity
  8
DATA
  6
Continuous
 62
     7
100
AcDbCircle
 10
-165.0
 20
-382.0
 30
0.0
 40
1.5
  0
ARC
  5
226
330
382
100
AcDbEntity
  8
DATA
  6
Continuous
 62
     7
100
AcDbCircle
 10
-255.6
 20
-388.1000000000001
 30
0.0
 40
0.9000000000000341
100
AcDbArc
 50
90.0
 51
270.0
  0
ARC
  5
227
330
382
100
AcDbEntity
  8
DATA
  6
Continuous
 62
     7
100
AcDbCircle
 10
-242.4
 20
-388.1000000000001
 30
0.0
 40
0.8999999999999772
100
AcDbArc
 50
270.0
 51
90.0
  0
LINE
  5
228
330
382
100
AcDbEntity
  8
DATA
  6
Continuous
 62
     7
100
AcDbLine
 10
-255.6
 20
-387.2000000000001
 30
0.0
 11
-242.4
 21
-387.2000000000001
 31
0.0
  0
LINE
  5
229
330
382
100
AcDbEntity
  8
DATA
  6
Continuous
 62
     7
100
AcDbLine
 10
-242.4
 20
-389.0
 30
0.0
 11
-255.6
 21
-389.0
 31
0.0
  0
ARC
  5
22A
330
382
100
AcDbEntity
  8
DATA
  6
Continuous
 62
     7
100
AcDbCircle
 10
-255.6
 20
-384.1
 30
0.0
 40
0.8999999999999772
100
AcDbArc
 50
90.0
 51
270.0
  0
ARC
  5
22B
330
382
100
AcDbEntity
  8
DATA
  6
Continuous
 62
     7
100
AcDbCircle
 10
-242.4
 20
-384.1
 30
0.0
 40
0.9000000000000341
100
AcDbArc
 50
270.0
 51
90.0
  0
LINE
  5
22C
330
382
100
AcDbEntity
  8
DATA
  6
Continuous
 62
     7
100
AcDbLine
 10
-255.6
 20
-383.2000000000001
 30
0.0
 11
-242.4
 21
-383.2000000000001
 31
0.0
  0
LINE
  5
22D
330
382
100
AcDbEntity
  8
DATA
  6
Continuous
 62
     7
100
AcDbLine
 10
-242.4
 20
-385.0000000000001
 30
0.0
 11
-255.6
 21
-385.0000000000001
 31
0.0
  0
ARC
  5
22E
330
382
100
AcDbEntity
  8
DATA
  6
Continuous
 62
     7
100
AcDbCircle
 10
-255.6
 20
-380.1
 30
0.0
 40
0.8999999999999772
100
AcDbArc
 50
90.0
 51
270.0
  0
ARC
  5
22F
330
382
100
AcDbEntity
  8
DATA
  6
Continuous
 62
     7
100
AcDbCircle
 10
-242.4
 20
-380.1
 30
0.0
 40
0.9000000000000341
100
AcDbArc
 50
270.0
 51
90.0
  0
LINE
  5
230
330
382
100
AcDbEntity
  8
DATA
  6
Continuous
 62
     7
100
AcDbLine
 10
-255.6
 20
-379.2000000000001
 30
0.0
 11
-242.4
 21
-379.2000000000001
 31
0.0
  0
LINE
  5
231
330
382
100
AcDbEntity
  8
DATA
  6
Continuous
 62
     7
100
AcDbLine
 10
-242.4
 20
-381.0
 30
0.0
 11
-255.6
 21
-381.0
 31
0.0
  0
ARC
  5
232
330
382
100
AcDbEntity
  8
DATA
  6
Continuous
 62
     7
100
AcDbCircle
 10
-255.6
 20
-376.1
 30
0.0
 40
0.8999999999999772
100
AcDbArc
 50
90.0
 51
270.0
  0
ARC
  5
233
330
382
100
AcDbEntity
  8
DATA
  6
Continuous
 62
     7
100
AcDbCircle
 10
-242.4
 20
-376.1
 30
0.0
 40
0.9000000000000341
100
AcDbArc
 50
270.0
 51
90.0
  0
LINE
  5
234
330
382
100
AcDbEntity
  8
DATA
  6
Continuous
 62
     7
100
AcDbLine
 10
-255.6
 20
-375.2000000000001
 30
0.0
 11
-242.4
 21
-375.2000000000001
 31
0.0
  0
LINE
  5
235
330
382
100
AcDbEntity
  8
DATA
  6
Continuous
 62
     7
100
AcDbLine
 10
-242.4
 20
-377.0
 30
0.0
 11
-255.6
 21
-377.0
 31
0.0
  0
ARC
  5
236
330
382
100
AcDbEntity
  8
DATA
  6
Continuous
 62
     7
100
AcDbCircle
 10
-255.6
 20
-372.1
 30
0.0
 40
0.8999999999999772
100
AcDbArc
 50
90.0
 51
270.0
  0
ARC
  5
237
330
382
100
AcDbEntity
  8
DATA
  6
Continuous
 62
     7
100
AcDbCircle
 10
-242.4
 20
-372.1
 30
0.0
 40
0.9000000000000341
100
AcDbArc
 50
270.0
 51
90.0
  0
LINE
  5
238
330
382
100
AcDbEntity
  8
DATA
  6
Continuous
 62
     7
100
AcDbLine
 10
-255.6
 20
-371.2000000000001
 30
0.0
 11
-242.4
 21
-371.2000000000001
 31
0.0
  0
LINE
  5
239
330
382
100
AcDbEntity
  8
DATA
  6
Continuous
 62
     7
100
AcDbLine
 10
-242.4
 20
-373.0
 30
0.0
 11
-255.6
 21
-373.0
 31
0.0
  0
ARC
  5
23A
330
382
100
AcDbEntity
  8
DATA
  6
Continuous
 62
     7
100
AcDbCircle
 10
-255.6
 20
-368.1
 30
0.0
 40
0.8999999999999772
100
AcDbArc
 50
90.0
 51
270.0
  0
ARC
  5
23B
330
382
100
AcDbEntity
  8
DATA
  6
Continuous
 62
     7
100
AcDbCircle
 10
-242.4
 20
-368.1
 30
0.0
 40
0.9000000000000341
100
AcDbArc
 50
270.0
 51
90.0
  0
LINE
  5
23C
330
382
100
AcDbEntity
  8
DATA
  6
Continuous
 62
     7
100
AcDbLine
 10
-255.6
 20
-367.2000000000001
 30
0.0
 11
-242.4
 21
-367.2000000000001
 31
0.0
  0
LINE
  5
23D
330
382
100
AcDbEntity
  8
DATA
  6
Continuous
 62
     7
100
AcDbLine
 10
-242.4
 20
-369.0000000000001
 30
0.0
 11
-255.6
 21
-369.0000000000001
 31
0.0
  0
ARC
  5
23E
330
382
100
AcDbEntity
  8
DATA
  6
Continuous
 62
     7
100
AcDbCircle
 10
-255.6
 20
-364.1
 30
0.0
 40
0.8999999999999772
100
AcDbArc
 50
90.0
 51
270.0
  0
ARC
  5
23F
330
382
100
AcDbEntity
  8
DATA
  6
Continuous
 62
     7
100
AcDbCircle
 10
-242.4
 20
-364.1
 30
0.0
 40
0.9000000000000341
100
AcDbArc
 50
270.0
 51
90.0
  0
LINE
  5
240
330
382
100
AcDbEntity
  8
DATA
  6
Continuous
 62
     7
100
AcDbLine
 10
-255.6
 20
-363.2000000000001
 30
0.0
 11
-242.4
 21
-363.2000000000001
 31
0.0
  0
LINE
  5
241
330
382
100
AcDbEntity
  8
DATA
  6
Continuous
 62
     7
100
AcDbLine
 10
-242.4
 20
-365.0000000000001
 30
0.0
 11
-255.6
 21
-365.0000000000001
 31
0.0
  0
ARC
  5
242
330
382
100
AcDbEntity
  8
DATA
  6
Continuous
 62
     7
100
AcDbCircle
 10
-144.3999999999999
 20
-388.1000000000001
 30
0.0
 40
0.8999999999999772
100
AcDbArc
 50
270.0
 51
90.0
  0
ARC
  5
243
330
382
100
AcDbEntity
  8
DATA
  6
Continuous
 62
     7
100
AcDbCircle
 10
-157.6
 20
-388.1000000000001
 30
0.0
 40
0.9000000000000341
100
AcDbArc
 50
90.0
 51
270.0
  0
LINE
  5
244
330
382
100
AcDbEntity
  8
DATA
  6
Continuous
 62
     7
100
AcDbLine
 10
-144.3999999999999
 20
-387.2000000000001
 30
0.0
 11
-157.6
 21
-387.2000000000001
 31
0.0
  0
LINE
  5
245
330
382
100
AcDbEntity
  8
DATA
  6
Continuous
 62
     7
100
AcDbLine
 10
-157.6
 20
-389.0
 30
0.0
 11
-144.3999999999999
 21
-389.0
 31
0.0
  0
ARC
  5
246
330
382
100
AcDbEntity
  8
DATA
  6
Continuous
 62
     7
100
AcDbCircle
 10
-144.3999999999999
 20
-384.1
 30
0.0
 40
0.9000000000000341
100
AcDbArc
 50
270.0
 51
90.0
  0
ARC
  5
247
330
382
100
AcDbEntity
  8
DATA
  6
Continuous
 62
     7
100
AcDbCircle
 10
-157.6
 20
-384.1
 30
0.0
 40
0.8999999999999772
100
AcDbArc
 50
90.0
 51
270.0
  0
LINE
  5
248
330
382
100
AcDbEntity
  8
DATA
  6
Continuous
 62
     7
100
AcDbLine
 10
-144.3999999999999
 20
-383.2000000000001
 30
0.0
 11
-157.6
 21
-383.2000000000001
 31
0.0
  0
LINE
  5
249
330
382
100
AcDbEntity
  8
DATA
  6
Continuous
 62
     7
100
AcDbLine
 10
-157.6
 20
-385.0000000000001
 30
0.0
 11
-144.3999999999999
 21
-385.0000000000001
 31
0.0
  0
ARC
  5
24A
330
382
100
AcDbEntity
  8
DATA
  6
Continuous
 62
     7
100
AcDbCircle
 10
-144.3999999999999
 20
-380.1
 30
0.0
 40
0.9000000000000341
100
AcDbArc
 50
270.0
 51
90.0
  0
ARC
  5
24B
330
382
100
AcDbEntity
  8
DATA
  6
Continuous
 62
     7
100
AcDbCircle
 10
-157.6
 20
-380.1
 30
0.0
 40
0.8999999999999772
100
AcDbArc
 50
90.0
 51
270.0
  0
LINE
  5
24C
330
382
100
AcDbEntity
  8
DATA
  6
Continuous
 62
     7
100
AcDbLine
 10
-144.3999999999999
 20
-379.2000000000001
 30
0.0
 11
-157.6
 21
-379.2000000000001
 31
0.0
  0
LINE
  5
24D
330
382
100
AcDbEntity
  8
DATA
  6
Continuous
 62
     7
100
AcDbLine
 10
-157.6
 20
-381.0
 30
0.0
 11
-144.3999999999999
 21
-381.0
 31
0.0
  0
ARC
  5
24E
330
382
100
AcDbEntity
  8
DATA
  6
Continuous
 62
     7
100
AcDbCircle
 10
-144.3999999999999
 20
-376.1
 30
0.0
 40
0.9000000000000341
100
AcDbArc
 50
270.0
 51
90.0
  0
ARC
  5
24F
330
382
100
AcDbEntity
  8
DATA
  6
Continuous
 62
     7
100
AcDbCircle
 10
-157.6
 20
-376.1
 30
0.0
 40
0.8999999999999772
100
AcDbArc
 50
90.0
 51
270.0
  0
LINE
  5
250
330
382
100
AcDbEntity
  8
DATA
  6
Continuous
 62
     7
100
AcDbLine
 10
-144.3999999999999
 20
-375.2000000000001
 30
0.0
 11
-157.6
 21
-375.2000000000001
 31
0.0
  0
LINE
  5
251
330
382
100
AcDbEntity
  8
DATA
  6
Continuous
 62
     7
100
AcDbLine
 10
-157.6
 20
-377.0
 30
0.0
 11
-144.3999999999999
 21
-377.0
 31
0.0
  0
ARC
  5
252
330
382
100
AcDbEntity
  8
DATA
  6
Continuous
 62
     7
100
AcDbCircle
 10
-144.3999999999999
 20
-372.1
 30
0.0
 40
0.9000000000000341
100
AcDbArc
 50
270.0
 51
90.0
  0
ARC
  5
253
330
382
100
AcDbEntity
  8
DATA
  6
Continuous
 62
     7
100
AcDbCircle
 10
-157.6
 20
-372.1
 30
0.0
 40
0.8999999999999772
100
AcDbArc
 50
90.0
 51
270.0
  0
LINE
  5
254
330
382
100
AcDbEntity
  8
DATA
  6
Continuous
 62
     7
100
AcDbLine
 10
-144.3999999999999
 20
-371.2000000000001
 30
0.0
 11
-157.6
 21
-371.2000000000001
 31
0.0
  0
LINE
  5
255
330
382
100
AcDbEntity
  8
DATA
  6
Continuous
 62
     7
100
AcDbLine
 10
-157.6
 20
-373.0
 30
0.0
 11
-144.3999999999999
 21
-373.0
 31
0.0
  0
ARC
  5
256
330
382
100
AcDbEntity
  8
DATA
  6
Continuous
 62
     7
100
AcDbCircle
 10
-144.3999999999999
 20
-368.1
 30
0.0
 40
0.9000000000000341
100
AcDbArc
 50
270.0
 51
90.0
  0
ARC
  5
257
330
382
100
AcDbEntity
  8
DATA
  6
Continuous
 62
     7
100
AcDbCircle
 10
-157.6
 20
-368.1
 30
0.0
 40
0.8999999999999772
100
AcDbArc
 50
90.0
 51
270.0
  0
LINE
  5
258
330
382
100
AcDbEntity
  8
DATA
  6
Continuous
 62
     7
100
AcDbLine
 10
-144.3999999999999
 20
-367.2000000000001
 30
0.0
 11
-157.6
 21
-367.2000000000001
 31
0.0
  0
LINE
  5
259
330
382
100
AcDbEntity
  8
DATA
  6
Continuous
 62
     7
100
AcDbLine
 10
-157.6
 20
-369.0000000000001
 30
0.0
 11
-144.3999999999999
 21
-369.0000000000001
 31
0.0
  0
ARC
  5
25A
330
382
100
AcDbEntity
  8
DATA
  6
Continuous
 62
     7
100
AcDbCircle
 10
-144.3999999999999
 20
-364.1
 30
0.0
 40
0.9000000000000341
100
AcDbArc
 50
270.0
 51
90.0
  0
ARC
  5
25B
330
382
100
AcDbEntity
  8
DATA
  6
Continuous
 62
     7
100
AcDbCircle
 10
-157.6
 20
-364.1
 30
0.0
 40
0.8999999999999772
100
AcDbArc
 50
90.0
 51
270.0
  0
LINE
  5
25C
330
382
100
AcDbEntity
  8
DATA
  6
Continuous
 62
     7
100
AcDbLine
 10
-144.3999999999999
 20
-363.2000000000001
 30
0.0
 11
-157.6
 21
-363.2000000000001
 31
0.0
  0
LINE
  5
25D
330
382
100
AcDbEntity
  8
DATA
  6
Continuous
 62
     7
100
AcDbLine
 10
-157.6
 20
-365.0000000000001
 30
0.0
 11
-144.3999999999999
 21
-365.0000000000001
 31
0.0
  0
ARC
  5
25E
330
382
100
AcDbEntity
  8
DATA
  6
Continuous
 62
     7
100
AcDbCircle
 10
-119.3999999999999
 20
-388.1000000000001
 30
0.0
 40
0.8999999999999772
100
AcDbArc
 50
270.0
 51
90.0
  0
ARC
  5
25F
330
382
100
AcDbEntity
  8
DATA
  6
Continuous
 62
     7
100
AcDbCircle
 10
-132.6
 20
-388.1000000000001
 30
0.0
 40
0.9000000000000341
100
AcDbArc
 50
90.0
 51
270.0
  0
LINE
  5
260
330
382
100
AcDbEntity
  8
DATA
  6
Continuous
 62
     7
100
AcDbLine
 10
-119.3999999999999
 20
-387.2000000000001
 30
0.0
 11
-132.6
 21
-387.2000000000001
 31
0.0
  0
LINE
  5
261
330
382
100
AcDbEntity
  8
DATA
  6
Continuous
 62
     7
100
AcDbLine
 10
-132.6
 20
-389.0
 30
0.0
 11
-119.3999999999999
 21
-389.0
 31
0.0
  0
ARC
  5
262
330
382
100
AcDbEntity
  8
DATA
  6
Continuous
 62
     7
100
AcDbCircle
 10
-119.3999999999999
 20
-384.1
 30
0.0
 40
0.9000000000000341
100
AcDbArc
 50
270.0
 51
90.0
  0
ARC
  5
263
330
382
100
AcDbEntity
  8
DATA
  6
Continuous
 62
     7
100
AcDbCircle
 10
-132.6
 20
-384.1
 30
0.0
 40
0.8999999999999772
100
AcDbArc
 50
90.0
 51
270.0
  0
LINE
  5
264
330
382
100
AcDbEntity
  8
DATA
  6
Continuous
 62
     7
100
AcDbLine
 10
-119.3999999999999
 20
-383.2000000000001
 30
0.0
 11
-132.6
 21
-383.2000000000001
 31
0.0
  0
LINE
  5
265
330
382
100
AcDbEntity
  8
DATA
  6
Continuous
 62
     7
100
AcDbLine
 10
-132.6
 20
-385.0000000000001
 30
0.0
 11
-119.3999999999999
 21
-385.0000000000001
 31
0.0
  0
ARC
  5
266
330
382
100
AcDbEntity
  8
DATA
  6
Continuous
 62
     7
100
AcDbCircle
 10
-119.3999999999999
 20
-380.1
 30
0.0
 40
0.9000000000000341
100
AcDbArc
 50
270.0
 51
90.0
  0
ARC
  5
267
330
382
100
AcDbEntity
  8
DATA
  6
Continuous
 62
     7
100
AcDbCircle
 10
-132.6
 20
-380.1
 30
0.0
 40
0.8999999999999772
100
AcDbArc
 50
90.0
 51
270.0
  0
LINE
  5
268
330
382
100
AcDbEntity
  8
DATA
  6
Continuous
 62
     7
100
AcDbLine
 10
-119.3999999999999
 20
-379.2000000000001
 30
0.0
 11
-132.6
 21
-379.2000000000001
 31
0.0
  0
LINE
  5
269
330
382
100
AcDbEntity
  8
DATA
  6
Continuous
 62
     7
100
AcDbLine
 10
-132.6
 20
-381.0
 30
0.0
 11
-119.3999999999999
 21
-381.0
 31
0.0
  0
ARC
  5
26A
330
382
100
AcDbEntity
  8
DATA
  6
Continuous
 62
     7
100
AcDbCircle
 10
-119.3999999999999
 20
-376.1
 30
0.0
 40
0.9000000000000341
100
AcDbArc
 50
270.0
 51
90.0
  0
ARC
  5
26B
330
382
100
AcDbEntity
  8
DATA
  6
Continuous
 62
     7
100
AcDbCircle
 10
-132.6
 20
-376.1
 30
0.0
 40
0.8999999999999772
100
AcDbArc
 50
90.0
 51
270.0
  0
LINE
  5
26C
330
382
100
AcDbEntity
  8
DATA
  6
Continuous
 62
     7
100
AcDbLine
 10
-119.3999999999999
 20
-375.2000000000001
 30
0.0
 11
-132.6
 21
-375.2000000000001
 31
0.0
  0
LINE
  5
26D
330
382
100
AcDbEntity
  8
DATA
  6
Continuous
 62
     7
100
AcDbLine
 10
-132.6
 20
-377.0
 30
0.0
 11
-119.3999999999999
 21
-377.0
 31
0.0
  0
ARC
  5
26E
330
382
100
AcDbEntity
  8
DATA
  6
Continuous
 62
     7
100
AcDbCircle
 10
-119.3999999999999
 20
-372.1
 30
0.0
 40
0.9000000000000341
100
AcDbArc
 50
270.0
 51
90.0
  0
ARC
  5
26F
330
382
100
AcDbEntity
  8
DATA
  6
Continuous
 62
     7
100
AcDbCircle
 10
-132.6
 20
-372.1
 30
0.0
 40
0.8999999999999772
100
AcDbArc
 50
90.0
 51
270.0
  0
LINE
  5
270
330
382
100
AcDbEntity
  8
DATA
  6
Continuous
 62
     7
100
AcDbLine
 10
-119.3999999999999
 20
-371.2000000000001
 30
0.0
 11
-132.6
 21
-371.2000000000001
 31
0.0
  0
LINE
  5
271
330
382
100
AcDbEntity
  8
DATA
  6
Continuous
 62
     7
100
AcDbLine
 10
-132.6
 20
-373.0
 30
0.0
 11
-119.3999999999999
 21
-373.0
 31
0.0
  0
ARC
  5
272
330
382
100
AcDbEntity
  8
DATA
  6
Continuous
 62
     7
100
AcDbCircle
 10
-119.3999999999999
 20
-368.1
 30
0.0
 40
0.9000000000000341
100
AcDbArc
 50
270.0
 51
90.0
  0
ARC
  5
273
330
382
100
AcDbEntity
  8
DATA
  6
Continuous
 62
     7
100
AcDbCircle
 10
-132.6
 20
-368.1
 30
0.0
 40
0.8999999999999772
100
AcDbArc
 50
90.0
 51
270.0
  0
LINE
  5
274
330
382
100
AcDbEntity
  8
DATA
  6
Continuous
 62
     7
100
AcDbLine
 10
-119.3999999999999
 20
-367.2000000000001
 30
0.0
 11
-132.6
 21
-367.2000000000001
 31
0.0
  0
LINE
  5
275
330
382
100
AcDbEntity
  8
DATA
  6
Continuous
 62
     7
100
AcDbLine
 10
-132.6
 20
-369.0000000000001
 30
0.0
 11
-119.3999999999999
 21
-369.0000000000001
 31
0.0
  0
ARC
  5
276
330
382
100
AcDbEntity
  8
DATA
  6
Continuous
 62
     7
100
AcDbCircle
 10
-119.3999999999999
 20
-364.1
 30
0.0
 40
0.9000000000000341
100
AcDbArc
 50
270.0
 51
90.0
  0
ARC
  5
277
330
382
100
AcDbEntity
  8
DATA
  6
Continuous
 62
     7
100
AcDbCircle
 10
-132.6
 20
-364.1
 30
0.0
 40
0.8999999999999772
100
AcDbArc
 50
90.0
 51
270.0
  0
LINE
  5
278
330
382
100
AcDbEntity
  8
DATA
  6
Continuous
 62
     7
100
AcDbLine
 10
-119.3999999999999
 20
-363.2000000000001
 30
0.0
 11
-132.6
 21
-363.2000000000001
 31
0.0
  0
LINE
  5
279
330
382
100
AcDbEntity
  8
DATA
  6
Continuous
 62
     7
100
AcDbLine
 10
-132.6
 20
-365.0000000000001
 30
0.0
 11
-119.3999999999999
 21
-365.0000000000001
 31
0.0
  0
ARC
  5
27A
330
382
100
AcDbEntity
  8
DATA
  6
Continuous
 62
     7
100
AcDbCircle
 10
-280.6
 20
-388.1000000000001
 30
0.0
 40
0.9000000000000341
100
AcDbArc
 50
90.0
 51
270.0
  0
ARC
  5
27B
330
382
100
AcDbEntity
  8
DATA
  6
Continuous
 62
     7
100
AcDbCircle
 10
-267.4
 20
-388.1000000000001
 30
0.0
 40
0.8999999999999772
100
AcDbArc
 50
270.0
 51
90.0
  0
LINE
  5
27C
330
382
100
AcDbEntity
  8
DATA
  6
Continuous
 62
     7
100
AcDbLine
 10
-280.6
 20
-387.2000000000001
 30
0.0
 11
-267.4
 21
-387.2000000000001
 31
0.0
  0
LINE
  5
27D
330
382
100
AcDbEntity
  8
DATA
  6
Continuous
 62
     7
100
AcDbLine
 10
-267.4
 20
-389.0
 30
0.0
 11
-280.6
 21
-389.0
 31
0.0
  0
ARC
  5
27E
330
382
100
AcDbEntity
  8
DATA
  6
Continuous
 62
     7
100
AcDbCircle
 10
-280.6
 20
-384.1
 30
0.0
 40
0.8999999999999772
100
AcDbArc
 50
90.0
 51
270.0
  0
ARC
  5
27F
330
382
100
AcDbEntity
  8
DATA
  6
Continuous
 62
     7
100
AcDbCircle
 10
-267.4
 20
-384.1
 30
0.0
 40
0.9000000000000341
100
AcDbArc
 50
270.0
 51
90.0
  0
LINE
  5
280
330
382
100
AcDbEntity
  8
DATA
  6
Continuous
 62
     7
100
AcDbLine
 10
-280.6
 20
-383.2000000000001
 30
0.0
 11
-267.4
 21
-383.2000000000001
 31
0.0
  0
LINE
  5
281
330
382
100
AcDbEntity
  8
DATA
  6
Continuous
 62
     7
100
AcDbLine
 10
-267.4
 20
-385.0000000000001
 30
0.0
 11
-280.6
 21
-385.0000000000001
 31
0.0
  0
ARC
  5
282
330
382
100
AcDbEntity
  8
DATA
  6
Continuous
 62
     7
100
AcDbCircle
 10
-280.6
 20
-380.1
 30
0.0
 40
0.8999999999999772
100
AcDbArc
 50
90.0
 51
270.0
  0
ARC
  5
283
330
382
100
AcDbEntity
  8
DATA
  6
Continuous
 62
     7
100
AcDbCircle
 10
-267.4
 20
-380.1
 30
0.0
 40
0.9000000000000341
100
AcDbArc
 50
270.0
 51
90.0
  0
LINE
  5
284
330
382
100
AcDbEntity
  8
DATA
  6
Continuous
 62
     7
100
AcDbLine
 10
-280.6
 20
-379.2000000000001
 30
0.0
 11
-267.4
 21
-379.2000000000001
 31
0.0
  0
LINE
  5
285
330
382
100
AcDbEntity
  8
DATA
  6
Continuous
 62
     7
100
AcDbLine
 10
-267.4
 20
-381.0
 30
0.0
 11
-280.6
 21
-381.0
 31
0.0
  0
ARC
  5
286
330
382
100
AcDbEntity
  8
DATA
  6
Continuous
 62
     7
100
AcDbCircle
 10
-280.6
 20
-376.1
 30
0.0
 40
0.8999999999999772
100
AcDbArc
 50
90.0
 51
270.0
  0
ARC
  5
287
330
382
100
AcDbEntity
  8
DATA
  6
Continuous
 62
     7
100
AcDbCircle
 10
-267.4
 20
-376.1
 30
0.0
 40
0.9000000000000341
100
AcDbArc
 50
270.0
 51
90.0
  0
LINE
  5
288
330
382
100
AcDbEntity
  8
DATA
  6
Continuous
 62
     7
100
AcDbLine
 10
-280.6
 20
-375.2000000000001
 30
0.0
 11
-267.4
 21
-375.2000000000001
 31
0.0
  0
LINE
  5
289
330
382
100
AcDbEntity
  8
DATA
  6
Continuous
 62
     7
100
AcDbLine
 10
-267.4
 20
-377.0
 30
0.0
 11
-280.6
 21
-377.0
 31
0.0
  0
ARC
  5
28A
330
382
100
AcDbEntity
  8
DATA
  6
Continuous
 62
     7
100
AcDbCircle
 10
-280.6
 20
-372.1
 30
0.0
 40
0.8999999999999772
100
AcDbArc
 50
90.0
 51
270.0
  0
ARC
  5
28B
330
382
100
AcDbEntity
  8
DATA
  6
Continuous
 62
     7
100
AcDbCircle
 10
-267.4
 20
-372.1
 30
0.0
 40
0.9000000000000341
100
AcDbArc
 50
270.0
 51
90.0
  0
LINE
  5
28C
330
382
100
AcDbEntity
  8
DATA
  6
Continuous
 62
     7
100
AcDbLine
 10
-280.6
 20
-371.2000000000001
 30
0.0
 11
-267.4
 21
-371.2000000000001
 31
0.0
  0
LINE
  5
28D
330
382
100
AcDbEntity
  8
DATA
  6
Continuous
 62
     7
100
AcDbLine
 10
-267.4
 20
-373.0
 30
0.0
 11
-280.6
 21
-373.0
 31
0.0
  0
ARC
  5
28E
330
382
100
AcDbEntity
  8
DATA
  6
Continuous
 62
     7
100
AcDbCircle
 10
-280.6
 20
-368.1
 30
0.0
 40
0.8999999999999772
100
AcDbArc
 50
90.0
 51
270.0
  0
ARC
  5
28F
330
382
100
AcDbEntity
  8
DATA
  6
Continuous
 62
     7
100
AcDbCircle
 10
-267.4
 20
-368.1
 30
0.0
 40
0.9000000000000341
100
AcDbArc
 50
270.0
 51
90.0
  0
LINE
  5
290
330
382
100
AcDbEntity
  8
DATA
  6
Continuous
 62
     7
100
AcDbLine
 10
-280.6
 20
-367.2000000000001
 30
0.0
 11
-267.4
 21
-367.2000000000001
 31
0.0
  0
LINE
  5
291
330
382
100
AcDbEntity
  8
DATA
  6
Continuous
 62
     7
100
AcDbLine
 10
-267.4
 20
-369.0000000000001
 30
0.0
 11
-280.6
 21
-369.0000000000001
 31
0.0
  0
ARC
  5
292
330
382
100
AcDbEntity
  8
DATA
  6
Continuous
 62
     7
100
AcDbCircle
 10
-280.6
 20
-364.1
 30
0.0
 40
0.8999999999999772
100
AcDbArc
 50
90.0
 51
270.0
  0
ARC
  5
293
330
382
100
AcDbEntity
  8
DATA
  6
Continuous
 62
     7
100
AcDbCircle
 10
-267.4
 20
-364.1
 30
0.0
 40
0.9000000000000341
100
AcDbArc
 50
270.0
 51
90.0
  0
LINE
  5
294
330
382
100
AcDbEntity
  8
DATA
  6
Continuous
 62
     7
100
AcDbLine
 10
-280.6
 20
-363.2000000000001
 30
0.0
 11
-267.4
 21
-363.2000000000001
 31
0.0
  0
LINE
  5
295
330
382
100
AcDbEntity
  8
DATA
  6
Continuous
 62
     7
100
AcDbLine
 10
-267.4
 20
-365.0000000000001
 30
0.0
 11
-280.6
 21
-365.0000000000001
 31
0.0
  0
LINE
  5
296
330
382
100
AcDbEntity
  8
DATA
  6
Continuous
 62
     7
100
AcDbLine
 10
-305.7999999999999
 20
-330.0
 30
0.0
 11
-305.7999999999999
 21
-407.0
 31
0.0
  0
LINE
  5
297
330
382
100
AcDbEntity
  8
DATA
  6
Continuous
 62
     7
100
AcDbLine
 10
-305.7999999999999
 20
-330.0
 30
0.0
 11
-307.0
 21
-330.0
 31
0.0
  0
LINE
  5
298
330
382
100
AcDbEntity
  8
DATA
  6
Continuous
 62
     7
100
AcDbLine
 10
-94.20000000000003
 20
-330.0
 30
0.0
 11
-94.20000000000003
 21
-407.0
 31
0.0
  0
LINE
  5
299
330
382
100
AcDbEntity
  8
DATA
  6
Continuous
 62
     7
100
AcDbLine
 10
-94.20000000000003
 20
-330.0
 30
0.0
 11
-93.0
 21
-330.0
 31
0.0
  0
ARC
  5
29A
330
382
100
AcDbEntity
  8
DATA
  6
Continuous
 62
     7
100
AcDbCircle
 10
-253.0
 20
-326.03125
 30
0.0
 40
2.03125
100
AcDbArc
 50
30.51023740611555
 51
149.4897625938845
  0
ARC
  5
29B
330
382
100
AcDbEntity
  8
DATA
  6
Continuous
 62
     7
100
AcDbCircle
 10
-233.0
 20
-326.03125
 30
0.0
 40
2.03125
100
AcDbArc
 50
30.51023740611555
 51
149.4897625938845
  0
ARC
  5
29C
330
382
100
AcDbEntity
  8
DATA
  6
Continuous
 62
     7
100
AcDbCircle
 10
-223.0
 20
-326.03125
 30
0.0
 40
2.03125
100
AcDbArc
 50
30.51023740611555
 51
149.4897625938845
  0
ARC
  5
29D
330
382
100
AcDbEntity
  8
DATA
  6
Continuous
 62
     7
100
AcDbCircle
 10
-178.0
 20
-326.03125
 30
0.0
 40
2.03125
100
AcDbArc
 50
30.51023740611555
 51
149.4897625938845
  0
ARC
  5
29E
330
382
100
AcDbEntity
  8
DATA
  6
Continuous
 62
     7
100
AcDbCircle
 10
-168.0
 20
-326.03125
 30
0.0
 40
2.03125
100
AcDbArc
 50
30.51023740611555
 51
149.4897625938845
  0
ARC
  5
29F
330
382
100
AcDbEntity
  8
DATA
  6
Continuous
 62
     7
100
AcDbCircle
 10
-158.0
 20
-326.03125
 30
0.0
 40
2.03125
100
AcDbArc
 50
30.51023740611555
 51
149.4897625938845
  0
ARC
  5
2A0
330
382
100
AcDbEntity
  8
DATA
  6
Continuous
 62
     7
100
AcDbCircle
 10
-148.0
 20
-326.03125
 30
0.0
 40
2.03125
100
AcDbArc
 50
30.51023740611555
 51
149.4897625938845
  0
ARC
  5
2A1
330
382
100
AcDbEntity
  8
DATA
  6
Continuous
 62
     7
100
AcDbCircle
 10
-108.0
 20
-326.03125
 30
0.0
 40
2.03125
100
AcDbArc
 50
30.51023740611555
 51
149.4897625938845
  0
ARC
  5
2A2
330
382
100
AcDbEntity
  8
DATA
  6
Continuous
 62
     7
100
AcDbCircle
 10
-253.0
 20
-236.46875
 30
0.0
 40
2.03125
100
AcDbArc
 50
210.5102374061156
 51
329.4897625938845
  0
ARC
  5
2A3
330
382
100
AcDbEntity
  8
DATA
  6
Continuous
 62
     7
100
AcDbCircle
 10
-233.0
 20
-236.46875
 30
0.0
 40
2.03125
100
AcDbArc
 50
210.5102374061156
 51
329.4897625938845
  0
ARC
  5
2A4
330
382
100
AcDbEntity
  8
DATA
  6
Continuous
 62
     7
100
AcDbCircle
 10
-223.0
 20
-236.46875
 30
0.0
 40
2.03125
100
AcDbArc
 50
210.5102374061156
 51
329.4897625938845
  0
ARC
  5
2A5
330
382
100
AcDbEntity
  8
DATA
  6
Continuous
 62
     7
100
AcDbCircle
 10
-178.0
 20
-236.46875
 30
0.0
 40
2.03125
100
AcDbArc
 50
210.5102374061156
 51
329.4897625938845
  0
ARC
  5
2A6
330
382
100
AcDbEntity
  8
DATA
  6
Continuous
 62
     7
100
AcDbCircle
 10
-168.0
 20
-236.46875
 30
0.0
 40
2.03125
100
AcDbArc
 50
210.5102374061156
 51
329.4897625938845
  0
ARC
  5
2A7
330
382
100
AcDbEntity
  8
DATA
  6
Continuous
 62
     7
100
AcDbCircle
 10
-158.0
 20
-236.46875
 30
0.0
 40
2.03125
100
AcDbArc
 50
210.5102374061156
 51
329.4897625938845
  0
ARC
  5
2A8
330
382
100
AcDbEntity
  8
DATA
  6
Continuous
 62
     7
100
AcDbCircle
 10
-148.0
 20
-236.46875
 30
0.0
 40
2.03125
100
AcDbArc
 50
210.5102374061156
 51
329.4897625938845
  0
ARC
  5
2A9
330
382
100
AcDbEntity
  8
DATA
  6
Continuous
 62
     7
100
AcDbCircle
 10
-108.0
 20
-236.46875
 30
0.0
 40
2.03125
100
AcDbArc
 50
210.5102374061156
 51
329.4897625938845
  0
LINE
  5
2AA
330
382
100
AcDbEntity
  8
DATA
  6
Continuous
 62
     7
100
AcDbLine
 10
-293.1001803631432
 20
-424.5
 30
0.0
 11
-300.8998196368566
 21
-424.5
 31
0.0
  0
LINE
  5
2AB
330
382
100
AcDbEntity
  8
DATA
  6
Continuous
 62
     7
100
AcDbLine
 10
-302.455960043842
 20
-420.5
 30
0.0
 11
-302.455960043842
 21
-418.0
 31
0.0
  0
LINE
  5
2AC
330
382
100
AcDbEntity
  8
DATA
  6
Continuous
 62
     7
100
AcDbLine
 10
-291.5440399561581
 20
-420.5
 30
0.0
 11
-291.5440399561581
 21
-418.0
 31
0.0
  0
LINE
  5
2AD
330
382
100
AcDbEntity
  8
DATA
  6
Continuous
 62
     7
100
AcDbLine
 10
-299.7279800219209
 20
-420.5
 30
0.0
 11
-299.7279800219209
 21
-418.0
 31
0.0
  0
LINE
  5
2AE
330
382
100
AcDbEntity
  8
DATA
  6
Continuous
 62
     7
100
AcDbLine
 10
-294.272019978079
 20
-420.5
 30
0.0
 11
-294.272019978079
 21
-418.0
 31
0.0
  0
LINE
  5
2AF
330
382
100
AcDbEntity
  8
DATA
  6
Continuous
 62
     7
100
AcDbLine
 10
-302.455960043842
 20
-420.5
 30
0.0
 11
-291.5440399561581
 21
-420.5
 31
0.0
  0
LINE
  5
2B0
330
382
100
AcDbEntity
  8
DATA
  6
Continuous
 62
     7
100
AcDbLine
 10
-300.8998196368566
 20
-424.5
 30
0.0
 11
-300.8998196368566
 21
-420.5
 31
0.0
  0
LINE
  5
2B1
330
382
100
AcDbEntity
  8
DATA
  6
Continuous
 62
     7
100
AcDbLine
 10
-293.1001803631432
 20
-424.5
 30
0.0
 11
-293.1001803631432
 21
-420.5
 31
0.0
  0
LINE
  5
2B2
330
382
100
AcDbEntity
  8
DATA
  6
Continuous
 62
     7
100
AcDbLine
 10
-300.8998196368566
 20
-420.5
 30
0.0
 11
-293.1001803631432
 21
-420.9691575968134
 31
0.0
  0
LINE
  5
2B3
330
382
100
AcDbEntity
  8
DATA
  6
Continuous
 62
     7
100
AcDbLine
 10
-300.8998196368566
 20
-422.0
 30
0.0
 11
-293.1001803631432
 21
-422.4691575968135
 31
0.0
  0
LINE
  5
2B4
330
382
100
AcDbEntity
  8
DATA
  6
Continuous
 62
     7
100
AcDbLine
 10
-300.8998196368566
 20
-423.5
 30
0.0
 11
-293.1001803631432
 21
-423.9691575968135
 31
0.0
  0
LINE
  5
2B5
330
382
100
AcDbEntity
  8
DATA
  6
Continuous
 62
     7
100
AcDbLine
 10
-197.5
 20
-424.0
 30
0.0
 11
-202.5
 21
-424.0
 31
0.0
  0
LINE
  5
2B6
330
382
100
AcDbEntity
  8
DATA
  6
Continuous
 62
     7
100
AcDbLine
 10
-202.5
 20
-424.0
 30
0.0
 11
-202.5
 21
-418.0
 31
0.0
  0
LINE
  5
2B7
330
382
100
AcDbEntity
  8
DATA
  6
Continuous
 62
     7
100
AcDbLine
 10
-197.5
 20
-424.0
 30
0.0
 11
-197.5
 21
-418.0
 31
0.0
  0
LINE
  5
2B8
330
382
100
AcDbEntity
  8
DATA
  6
Continuous
 62
     7
100
AcDbLine
 10
-200.0
 20
-424.0
 30
0.0
 11
-200.0
 21
-418.0
 31
0.0
  0
LINE
  5
2B9
330
382
100
AcDbEntity
  8
DATA
  6
Continuous
 62
     7
100
AcDbLine
 10
-172.491652294421
 20
-424.0
 30
0.0
 11
-177.491652294421
 21
-424.0
 31
0.0
  0
LINE
  5
2BA
330
382
100
AcDbEntity
  8
DATA
  6
Continuous
 62
     7
100
AcDbLine
 10
-177.491652294421
 20
-424.0
 30
0.0
 11
-177.491652294421
 21
-418.0
 31
0.0
  0
LINE
  5
2BB
330
382
100
AcDbEntity
  8
DATA
  6
Continuous
 62
     7
100
AcDbLine
 10
-172.491652294421
 20
-424.0
 30
0.0
 11
-172.491652294421
 21
-418.0
 31
0.0
  0
LINE
  5
2BC
330
382
100
AcDbEntity
  8
DATA
  6
Continuous
 62
     7
100
AcDbLine
 10
-174.9916522944211
 20
-424.0
 30
0.0
 11
-174.9916522944211
 21
-418.0
 31
0.0
  0
LINE
  5
2BD
330
382
100
AcDbEntity
  8
DATA
  6
Continuous
 62
     7
100
AcDbLine
 10
-127.4916522944211
 20
-424.0
 30
0.0
 11
-132.4916522944211
 21
-424.0
 31
0.0
  0
LINE
  5
2BE
330
382
100
AcDbEntity
  8
DATA
  6
Continuous
 62
     7
100
AcDbLine
 10
-132.4916522944211
 20
-424.0
 30
0.0
 11
-132.4916522944211
 21
-418.0
 31
0.0
  0
LINE
  5
2BF
330
382
100
AcDbEntity
  8
DATA
  6
Continuous
 62
     7
100
AcDbLine
 10
-127.4916522944211
 20
-424.0
 30
0.0
 11
-127.4916522944211
 21
-418.0
 31
0.0
  0
LINE
  5
2C0
330
382
100
AcDbEntity
  8
DATA
  6
Continuous
 62
     7
100
AcDbLine
 10
-129.9916522944211
 20
-424.0
 30
0.0
 11
-129.9916522944211
 21
-418.0
 31
0.0
  0
LINE
  5
2C1
330
382
100
AcDbEntity
  8
DATA
  6
Continuous
 62
     7
100
AcDbLine
 10
-61.29999999999996
 20
-249.0
 30
0.0
 11
30.5
 21
-249.0
 31
0.0
  0
LINE
  5
2C2
330
382
100
AcDbEntity
  8
DATA
  6
Continuous
 62
     7
100
AcDbLine
 10
-61.29999999999996
 20
-275.0
 30
0.0
 11
29.29999999999995
 21
-275.0
 31
0.0
  0
LINE
  5
2C3
330
382
100
AcDbEntity
  8
DATA
  6
Continuous
 62
     7
100
AcDbLine
 10
-62.5
 20
-250.2
 30
0.0
 11
-62.5
 21
-273.8
 31
0.0
  0
LINE
  5
2C4
330
382
100
AcDbEntity
  8
DATA
  6
Continuous
 62
     7
100
AcDbLine
 10
30.5
 20
-249.0
 30
0.0
 11
30.5
 21
-273.8
 31
0.0
  0
LINE
  5
2C5
330
382
100
AcDbEntity
  8
DATA
  6
Continuous
 62
     7
100
AcDbLine
 10
-51.5
 20
-249.0
 30
0.0
 11
-51.5
 21
-250.2
 31
0.0
  0
LINE
  5
2C6
330
382
100
AcDbEntity
  8
DATA
  6
Continuous
 62
     7
100
AcDbLine
 10
-57.5
 20
-273.8
 30
0.0
 11
-57.5
 21
-275.0
 31
0.0
  0
LINE
  5
2C7
330
382
100
AcDbEntity
  8
DATA
  6
Continuous
 62
     7
100
AcDbLine
 10
-61.29999999999996
 20
-251.4
 30
0.0
 11
-61.29999999999996
 21
-272.6
 31
0.0
  0
LINE
  5
2C8
330
382
100
AcDbEntity
  8
DATA
  6
Continuous
 62
     7
100
AcDbLine
 10
-60.10000000000001
 20
-250.2
 30
0.0
 11
-51.5
 21
-250.2
 31
0.0
  0
LINE
  5
2C9
330
382
100
AcDbEntity
  8
DATA
  6
Continuous
 62
     7
100
AcDbLine
 10
-57.5
 20
-273.8
 30
0.0
 11
-60.10000000000001
 21
-273.8
 31
0.0
  0
ARC
  5
2CA
330
382
100
AcDbEntity
  8
DATA
  6
Continuous
 62
     7
100
AcDbCircle
 10
-61.29999999999996
 20
-250.2
 30
0.0
 40
1.199999999999931
100
AcDbArc
 50
90.0
 51
180.0000000000027
  0
ARC
  5
2CB
330
382
100
AcDbEntity
  8
DATA
  6
Continuous
 62
     7
100
AcDbCircle
 10
-61.29999999999996
 20
-273.8
 30
0.0
 40
1.200000000000045
100
AcDbArc
 50
180.0
 51
270.0
  0
ARC
  5
2CC
330
382
100
AcDbEntity
  8
DATA
  6
Continuous
 62
     7
100
AcDbCircle
 10
-60.10000000000001
 20
-272.6
 30
0.0
 40
1.199999999999931
100
AcDbArc
 50
180.0
 51
270.0
  0
ARC
  5
2CD
330
382
100
AcDbEntity
  8
DATA
  6
Continuous
 62
     7
100
AcDbCircle
 10
-60.10000000000001
 20
-251.4
 30
0.0
 40
1.199999999999988
100
AcDbArc
 50
90.0
 51
180.0
  0
LINE
  5
2CE
330
382
100
AcDbEntity
  8
DATA
  6
Continuous
 62
     7
100
AcDbLine
 10
19.5
 20
-273.8
 30
0.0
 11
19.5
 21
-275.0
 31
0.0
  0
LINE
  5
2CF
330
382
100
AcDbEntity
  8
DATA
  6
Continuous
 62
     7
100
AcDbLine
 10
29.29999999999995
 20
-250.2
 30
0.0
 11
29.29999999999995
 21
-272.6
 31
0.0
  0
LINE
  5
2D0
330
382
100
AcDbEntity
  8
DATA
  6
Continuous
 62
     7
100
AcDbLine
 10
19.5
 20
-273.8
 30
0.0
 11
28.10000000000002
 21
-273.8
 31
0.0
  0
ARC
  5
2D1
330
382
100
AcDbEntity
  8
DATA
  6
Continuous
 62
     7
100
AcDbCircle
 10
28.10000000000002
 20
-272.6
 30
0.0
 40
1.200000000000045
100
AcDbArc
 50
270.0
 51
359.9999999999973
  0
ARC
  5
2D2
330
382
100
AcDbEntity
  8
DATA
  6
Continuous
 62
     7
100
AcDbCircle
 10
29.29999999999995
 20
-273.8
 30
0.0
 40
1.199999999999988
100
AcDbArc
 50
270.0
 51
0.0
  0
CIRCLE
  5
2D3
330
382
100
AcDbEntity
  8
DATA
  6
Continuous
 62
     7
100
AcDbCircle
 10
-48.5
 20
-269.0
 30
0.0
 40
2.350000000000022
  0
LINE
  5
2D4
330
382
100
AcDbEntity
  8
DATA
  6
Continuous
 62
     7
100
AcDbLine
 10
-48.5
 20
-270.3124404747931
 30
0.0
 11
-48.5
 21
-267.6875595252069
 31
0.0
  0
LINE
  5
2D5
330
382
100
AcDbEntity
  8
DATA
  6
Continuous
 62
     7
100
AcDbLine
 10
-49.81244047479311
 20
-269.0
 30
0.0
 11
-47.18755952520689
 21
-269.0
 31
0.0
  0
CIRCLE
  5
2D6
330
382
100
AcDbEntity
  8
DATA
  6
Continuous
 62
     7
100
AcDbCircle
 10
-48.5
 20
-255.5
 30
0.0
 40
2.350000000000022
  0
LINE
  5
2D7
330
382
100
AcDbEntity
  8
DATA
  6
Continuous
 62
     7
100
AcDbLine
 10
-48.5
 20
-256.8124404747931
 30
0.0
 11
-48.5
 21
-254.1875595252069
 31
0.0
  0
LINE
  5
2D8
330
382
100
AcDbEntity
  8
DATA
  6
Continuous
 62
     7
100
AcDbLine
 10
-49.81244047479311
 20
-255.5
 30
0.0
 11
-47.18755952520689
 21
-255.5
 31
0.0
  0
CIRCLE
  5
2D9
330
382
100
AcDbEntity
  8
DATA
  6
Continuous
 62
     7
100
AcDbCircle
 10
10.5
 20
-269.0
 30
0.0
 40
2.350000000000022
  0
LINE
  5
2DA
330
382
100
AcDbEntity
  8
DATA
  6
Continuous
 62
     7
100
AcDbLine
 10
10.5
 20
-270.3124404747931
 30
0.0
 11
10.5
 21
-267.6875595252069
 31
0.0
  0
LINE
  5
2DB
330
382
100
AcDbEntity
  8
DATA
  6
Continuous
 62
     7
100
AcDbLine
 10
9.187559525206893
 20
-269.0
 30
0.0
 11
11.8124404747931
 21
-269.0
 31
0.0
  0
CIRCLE
  5
2DC
330
382
100
AcDbEntity
  8
DATA
  6
Continuous
 62
     7
100
AcDbCircle
 10
-24.5
 20
-262.0
 30
0.0
 40
1.5
  0
CIRCLE
  5
2DD
330
382
100
AcDbEntity
  8
DATA
  6
Continuous
 62
     7
100
AcDbCircle
 10
-7.5
 20
-262.0
 30
0.0
 40
1.5
  0
LINE
  5
2DE
330
382
100
AcDbEntity
  8
DATA
  6
Continuous
 62
     7
100
AcDbLine
 10
36.5
 20
-257.0
 30
0.0
 11
36.5
 21
-252.0
 31
0.0
  0
LINE
  5
2DF
330
382
100
AcDbEntity
  8
DATA
  6
Continuous
 62
     7
100
AcDbLine
 10
36.5
 20
-252.0
 30
0.0
 11
30.5
 21
-252.0
 31
0.0
  0
LINE
  5
2E0
330
382
100
AcDbEntity
  8
DATA
  6
Continuous
 62
     7
100
AcDbLine
 10
36.5
 20
-257.0
 30
0.0
 11
30.5
 21
-257.0
 31
0.0
  0
LINE
  5
2E1
330
382
100
AcDbEntity
  8
DATA
  6
Continuous
 62
     7
100
AcDbLine
 10
36.5
 20
-254.5
 30
0.0
 11
30.5
 21
-254.5
 31
0.0
  0
LINE
  5
2E2
330
382
100
AcDbEntity
  8
DATA
  6
Continuous
 62
     7
100
AcDbLine
 10
37.0
 20
-263.8998196368567
 30
0.0
 11
37.0
 21
-256.1001803631433
 31
0.0
  0
LINE
  5
2E3
330
382
100
AcDbEntity
  8
DATA
  6
Continuous
 62
     7
100
AcDbLine
 10
33.0
 20
-265.4559600438418
 30
0.0
 11
30.5
 21
-265.4559600438418
 31
0.0
  0
LINE
  5
2E4
330
382
100
AcDbEntity
  8
DATA
  6
Continuous
 62
     7
100
AcDbLine
 10
33.0
 20
-257.2720199780789
 30
0.0
 11
30.5
 21
-257.2720199780789
 31
0.0
  0
LINE
  5
2E5
330
382
100
AcDbEntity
  8
DATA
  6
Continuous
 62
     7
100
AcDbLine
 10
33.0
 20
-262.7279800219209
 30
0.0
 11
30.5
 21
-262.7279800219209
 31
0.0
  0
LINE
  5
2E6
330
382
100
AcDbEntity
  8
DATA
  6
Continuous
 62
     7
100
AcDbLine
 10
33.0
 20
-257.0
 30
0.0
 11
33.0
 21
-265.4559600438418
 31
0.0
  0
LINE
  5
2E7
330
382
100
AcDbEntity
  8
DATA
  6
Continuous
 62
     7
100
AcDbLine
 10
37.0
 20
-256.1001803631433
 30
0.0
 11
36.5
 21
-256.1001803631433
 31
0.0
  0
LINE
  5
2E8
330
382
100
AcDbEntity
  8
DATA
  6
Continuous
 62
     7
100
AcDbLine
 10
37.0
 20
-263.8998196368567
 30
0.0
 11
33.0
 21
-263.8998196368567
 31
0.0
  0
LINE
  5
2E9
330
382
100
AcDbEntity
  8
DATA
  6
Continuous
 62
     7
100
AcDbLine
 10
33.05412522343386
 20
-257.0
 30
0.0
 11
33.46915759681349
 21
-263.8998196368567
 31
0.0
  0
LINE
  5
2EA
330
382
100
AcDbEntity
  8
DATA
  6
Continuous
 62
     7
100
AcDbLine
 10
34.55412522343386
 20
-257.0
 30
0.0
 11
34.96915759681349
 21
-263.8998196368567
 31
0.0
  0
LINE
  5
2EB
330
382
100
AcDbEntity
  8
DATA
  6
Continuous
 62
     7
100
AcDbLine
 10
36.05412522343385
 20
-257.0
 30
0.0
 11
36.4691575968135
 21
-263.8998196368567
 31
0.0
  0
LINE
  5
2EC
330
382
100
AcDbEntity
  8
DATA
  6
Continuous
 62
     7
100
AcDbLine
 10
-45.0
 20
-249.0
 30
0.0
 11
-45.0
 21
-275.0
 31
0.0
  0
ARC
  5
2ED
330
382
100
AcDbEntity
  8
DATA
  6
Continuous
 62
     7
100
AcDbCircle
 10
-61.46875
 20
-262.5
 30
0.0
 40
2.03125
100
AcDbArc
 50
120.5102374061155
 51
239.4897625938844
  0
LINE
  5
2EE
330
382
100
AcDbEntity
  8
DATA
  6
Continuous
 62
     7
100
AcDbLine
 10
217.0000000000001
 20
-113.2499999999999
 30
0.0
 11
200.0000000000001
 21
-113.2499999999999
 31
0.0
  0
LINE
  5
2EF
330
382
100
AcDbEntity
  8
DATA
  6
Continuous
 62
     7
100
AcDbLine
 10
220.0000000000001
 20
-86.24999999999991
 30
0.0
 11
220.0000000000001
 21
-110.2499999999999
 31
0.0
  0
LINE
  5
2F0
330
382
100
AcDbEntity
  8
DATA
  6
Continuous
 62
     7
100
AcDbLine
 10
200.0000000000001
 20
-83.2499999999999
 30
0.0
 11
217.0000000000001
 21
-83.2499999999999
 31
0.0
  0
LINE
  5
2F1
330
382
100
AcDbEntity
  8
DATA
  6
Continuous
 62
     7
100
AcDbLine
 10
200.0000000000001
 20
-113.2499999999999
 30
0.0
 11
200.0000000000001
 21
-83.2499999999999
 31
0.0
  0
LINE
  5
2F2
330
382
100
AcDbEntity
  8
DATA
  6
Continuous
 62
     7
100
AcDbLine
 10
201.6
 20
-113.2499999999999
 30
0.0
 11
201.6
 21
-83.2499999999999
 31
0.0
  0
LINE
  5
2F3
330
382
100
AcDbEntity
  8
DATA
  6
Continuous
 62
     7
100
AcDbLine
 10
262.5
 20
-150.7499999999999
 30
0.0
 11
292.5000000000001
 21
-150.7499999999999
 31
0.0
  0
LINE
  5
2F4
330
382
100
AcDbEntity
  8
DATA
  6
Continuous
 62
     7
100
AcDbLine
 10
262.5
 20
-150.7499999999999
 30
0.0
 11
262.5
 21
-127.7499999999999
 31
0.0
  0
LINE
  5
2F5
330
382
100
AcDbEntity
  8
DATA
  6
Continuous
 62
     7
100
AcDbLine
 10
292.5000000000001
 20
-150.7499999999999
 30
0.0
 11
292.5000000000001
 21
-127.7499999999999
 31
0.0
  0
LINE
  5
2F6
330
382
100
AcDbEntity
  8
DATA
  6
Continuous
 62
     7
100
AcDbLine
 10
264.5
 20
-125.7499999999999
 30
0.0
 11
290.5000000000001
 21
-125.7499999999999
 31
0.0
  0
LINE
  5
2F7
330
382
100
AcDbEntity
  8
DATA
  6
Continuous
 62
     7
100
AcDbLine
 10
262.5
 20
-149.1499999999999
 30
0.0
 11
292.5000000000001
 21
-149.1499999999999
 31
0.0
  0
ARC
  5
2F8
330
382
100
AcDbEntity
  8
DATA
  6
Continuous
 62
     7
100
AcDbCircle
 10
217.0000000000001
 20
-110.2499999999999
 30
0.0
 40
3.0
100
AcDbArc
 50
270.0
 51
0.0
  0
ARC
  5
2F9
330
382
100
AcDbEntity
  8
DATA
  6
Continuous
 62
     7
100
AcDbCircle
 10
217.0000000000001
 20
-86.24999999999991
 30
0.0
 40
3.0
100
AcDbArc
 50
0.0
 51
90.0
  0
ARC
  5
2FA
330
382
100
AcDbEntity
  8
DATA
  6
Continuous
 62
     7
100
AcDbCircle
 10
264.5
 20
-127.7499999999999
 30
0.0
 40
2.0
100
AcDbArc
 50
90.0
 51
180.0
  0
ARC
  5
2FB
330
382
100
AcDbEntity
  8
DATA
  6
Continuous
 62
     7
100
AcDbCircle
 10
290.5000000000001
 20
-127.7499999999999
 30
0.0
 40
2.0
100
AcDbArc
 50
0.0
 51
90.0
  0
LINE
  5
2FC
330
382
100
AcDbEntity
  8
DATA
  6
Continuous
 62
     7
100
AcDbLine
 10
200.0000000000001
 20
-125.7499999999999
 30
0.0
 11
200.0000000000001
 21
-147.7499999999999
 31
0.0
  0
LINE
  5
2FD
330
382
100
AcDbEntity
  8
DATA
  6
Continuous
 62
     7
100
AcDbLine
 10
200.0000000000001
 20
-125.7499999999999
 30
0.0
 11
201.6
 21
-125.7499999999999
 31
0.0
  0
LINE
  5
2FE
330
382
100
AcDbEntity
  8
DATA
  6
Continuous
 62
     7
100
AcDbLine
 10
203.0000000000001
 20
-150.7499999999999
 30
0.0
 11
220.0000000000001
 21
-150.7499999999999
 31
0.0
  0
LINE
  5
2FF
330
382
100
AcDbEntity
  8
DATA
  6
Continuous
 62
     7
100
AcDbLine
 10
220.0000000000001
 20
-149.1499999999999
 30
0.0
 11
220.0000000000001
 21
-150.7499999999999
 31
0.0
  0
LINE
  5
300
330
382
100
AcDbEntity
  8
DATA
  6
Continuous
 62
     7
100
AcDbLine
 10
201.6
 20
-125.7499999999999
 30
0.0
 11
201.6
 21
-147.7499999999999
 31
0.0
  0
LINE
  5
301
330
382
100
AcDbEntity
  8
DATA
  6
Continuous
 62
     7
100
AcDbLine
 10
203.0000000000001
 20
-149.1499999999999
 30
0.0
 11
220.0000000000001
 21
-149.1499999999999
 31
0.0
  0
LINE
  5
302
330
382
100
AcDbEntity
  8
DATA
  6
Continuous
 62
     7
100
AcDbLine
 10
213.5000000000012
 20
-91.1999999999999
 30
0.0
 11
211.4999999999987
 21
-91.1999999999999
 31
0.0
  0
LINE
  5
303
330
382
100
AcDbEntity
  8
DATA
  6
Continuous
 62
     7
100
AcDbLine
 10
211.4999999999987
 20
-87.29999999999993
 30
0.0
 11
213.5000000000012
 21
-87.29999999999993
 31
0.0
  0
ARC
  5
304
330
382
100
AcDbEntity
  8
DATA
  6
Continuous
 62
     7
100
AcDbCircle
 10
211.4999999999987
 20
-89.2499999999999
 30
0.0
 40
1.949999999999988
100
AcDbArc
 50
90.0
 51
270.0
  0
ARC
  5
305
330
382
100
AcDbEntity
  8
DATA
  6
Continuous
 62
     7
100
AcDbCircle
 10
213.5000000000012
 20
-89.2499999999999
 30
0.0
 40
1.949999999999988
100
AcDbArc
 50
270.0
 51
90.0
  0
LINE
  5
306
330
382
100
AcDbEntity
  8
DATA
  6
Continuous
 62
     7
100
AcDbLine
 10
213.5000000000012
 20
-105.2999999999999
 30
0.0
 11
211.4999999999987
 21
-105.2999999999999
 31
0.0
  0
LINE
  5
307
330
382
100
AcDbEntity
  8
DATA
  6
Continuous
 62
     7
100
AcDbLine
 10
211.4999999999987
 20
-109.1999999999999
 30
0.0
 11
213.5000000000012
 21
-109.1999999999999
 31
0.0
  0
ARC
  5
308
330
382
100
AcDbEntity
  8
DATA
  6
Continuous
 62
     7
100
AcDbCircle
 10
211.4999999999987
 20
-107.2499999999999
 30
0.0
 40
1.949999999999988
100
AcDbArc
 50
90.0
 51
270.0
  0
ARC
  5
309
330
382
100
AcDbEntity
  8
DATA
  6
Continuous
 62
     7
100
AcDbCircle
 10
213.5000000000012
 20
-107.2499999999999
 30
0.0
 40
1.949999999999988
100
AcDbArc
 50
270.0
 51
90.0
  0
CIRCLE
  5
30A
330
382
100
AcDbEntity
  8
DATA
  6
Continuous
 62
     7
100
AcDbCircle
 10
269.0000000000001
 20
-137.7499999999999
 30
0.0
 40
1.90000000000009
  0
CIRCLE
  5
30B
330
382
100
AcDbEntity
  8
DATA
  6
Continuous
 62
     7
100
AcDbCircle
 10
269.0000000000424
 20
-137.7499999999935
 30
0.0
 40
3.149999999999977
  0
CIRCLE
  5
30C
330
382
100
AcDbEntity
  8
DATA
  6
Continuous
 62
     7
100
AcDbCircle
 10
285.9999999999577
 20
-137.7500000000063
 30
0.0
 40
1.90000000000009
  0
CIRCLE
  5
30D
330
382
100
AcDbEntity
  8
DATA
  6
Continuous
 62
     7
100
AcDbCircle
 10
286.0000000000001
 20
-137.7499999999999
 30
0.0
 40
3.149999999999977
  0
ARC
  5
30E
330
382
100
AcDbEntity
  8
DATA
  6
Continuous
 62
     7
100
AcDbCircle
 10
203.0000000000001
 20
-147.7499999999999
 30
0.0
 40
3.0
100
AcDbArc
 50
180.0
 51
270.0
  0
ARC
  5
30F
330
382
100
AcDbEntity
  8
DATA
  6
Continuous
 62
     7
100
AcDbCircle
 10
203.0000000000001
 20
-147.7499999999999
 30
0.0
 40
1.40000000000009
100
AcDbArc
 50
180.0
 51
270.0
  0
TEXT
  5
310
330
382
100
AcDbEntity
  8
DATA
 62
     7
100
AcDbText
 10
204.7091670283566
 20
-219.2868381076389
 30
0.0
 40
13.57367621527778
  1
L字型 ブラケット
 41
0.7
 72
     1
 11
250.0000000000001
 21
-212.5
 31
0.0
100
AcDbText
 73
     2
  0
LINE
  5
311
330
382
100
AcDbEntity
  8
DATA
  6
Continuous
 62
     7
100
AcDbLine
 10
181.2500000000001
 20
-225.0
 30
0.0
 11
318.75
 21
-225.0
 31
0.0
  0
ENDSEC
  0
SECTION
  2
OBJECTS
  0
DICTIONARY
  5
31F
330
0
100
AcDbDictionary
281
     1
  3
ACAD_CIP_PREVIOUS_PRODUCT_INFO
350
39A
  3
ACAD_COLOR
350
375
  3
ACAD_DETAILVIEWSTYLE
350
37C
  3
ACAD_GROUP
350
320
  3
ACAD_LAYOUT
350
374
  3
ACAD_MATERIAL
350
323
  3
ACAD_MLEADERSTYLE
350
378
  3
ACAD_MLINESTYLE
350
371
  3
ACAD_PLOTSETTINGS
350
373
  3
ACAD_PLOTSTYLENAME
350
321
  3
ACAD_SCALELIST
350
355
  3
ACAD_SECTIONVIEWSTYLE
350
37A
  3
ACAD_TABLESTYLE
350
376
  3
ACAD_VISUALSTYLE
350
33C
  3
ACDB_RECOMPOSE_DATA
350
3B2
  3
AcDbVariableDictionary
350
3A5
  3
DWGPROPS
350
3B3
  0
DICTIONARY
  5
39B
330
367
100
AcDbDictionary
280
     1
281
     1
  3
ADSK_XREC_LAYER_RECONCILED
360
39C
  0
DICTIONARY
  5
39D
330
386
100
AcDbDictionary
280
     1
281
     1
  3
ADSK_XREC_LAYER_RECONCILED
360
39E
  0
DICTIONARY
  5
39F
330
392
100
AcDbDictionary
280
     1
281
     1
  3
ADSK_XREC_LAYER_RECONCILED
360
3A0
  0
DICTIONARY
  5
3A1
330
393
100
AcDbDictionary
280
     1
281
     1
  3
ADSK_XREC_LAYER_RECONCILED
360
3A2
  0
DICTIONARY
  5
3A3
330
394
100
AcDbDictionary
280
     1
281
     1
  3
ADSK_XREC_LAYER_RECONCILED
360
3A4
  0
XRECORD
  5
39A
102
{ACAD_REACTORS
330
31F
102
}
330
31F
100
AcDbXrecord
280
     1
300
ACDLT
300
2018
300

  0
DICTIONARY
  5
375
102
{ACAD_REACTORS
330
31F
102
}
330
31F
100
AcDbDictionary
281
     1
  0
DICTIONARY
  5
37C
102
{ACAD_REACTORS
330
31F
102
}
330
31F
100
AcDbDictionary
281
     1
  3
Imperial24
350
37D
  0
DICTIONARY
  5
320
102
{ACAD_REACTORS
330
31F
102
}
330
31F
100
AcDbDictionary
281
     1
  0
DICTIONARY
  5
374
102
{ACAD_REACTORS
330
31F
102
}
330
31F
100
AcDbDictionary
281
     1
  3
Model
350
385
  3
レイアウト1
350
381
  0
DICTIONARY
  5
323
102
{ACAD_REACTORS
330
31F
102
}
330
31F
100
AcDbDictionary
281
     1
  3
ByBlock
350
32C
  3
ByLayer
350
324
  3
Global
350
334
  0
DICTIONARY
  5
378
102
{ACAD_REACTORS
330
31F
102
}
330
31F
100
AcDbDictionary
281
     1
  3
Standard
350
379
  0
DICTIONARY
  5
371
102
{ACAD_REACTORS
330
31F
102
}
330
31F
100
AcDbDictionary
281
     1
  3
Standard
350
372
  0
DICTIONARY
  5
373
102
{ACAD_REACTORS
330
31F
102
}
330
31F
100
AcDbDictionary
281
     1
  0
ACDBDICTIONARYWDFLT
  5
321
102
{ACAD_REACTORS
330
31F
102
}
330
31F
100
AcDbDictionary
281
     1
  3
Normal
350
322
100
AcDbDictionaryWithDefault
340
322
  0
DICTIONARY
  5
355
102
{ACAD_REACTORS
330
31F
102
}
330
31F
100
AcDbDictionary
281
     1
  3
A0
350
356
  3
A1
350
357
  3
A2
350
358
  3
A3
350
359
  3
A4
350
35A
  3
A5
350
35B
  3
A6
350
35C
  3
A7
350
35D
  3
A8
350
35E
  3
A9
350
35F
  3
B0
350
360
  3
B1
350
361
  3
B2
350
362
  3
B3
350
363
  3
B4
350
364
  3
B5
350
365
  3
B6
350
366
  0
DICTIONARY
  5
37A
102
{ACAD_REACTORS
330
31F
102
}
330
31F
100
AcDbDictionary
281
     1
  3
Imperial24
350
37B
  0
DICTIONARY
  5
376
102
{ACAD_REACTORS
330
31F
102
}
330
31F
100
AcDbDictionary
281
     1
  3
Standard
350
377
  0
DICTIONARY
  5
33C
102
{ACAD_REACTORS
330
31F
102
}
330
31F
100
AcDbDictionary
281
     1
  3
2dWireframe
350
342
  3
Basic
350
341
  3
Brighten
350
348
  3
ColorChange
350
34C
  3
Conceptual
350
345
  3
Dim
350
347
  3
EdgeColorOff
350
354
  3
Facepattern
350
34B
  3
Flat
350
33D
  3
FlatWithEdges
350
33E
  3
Gouraud
350
33F
  3
GouraudWithEdges
350
340
  3
Hidden
350
344
  3
JitterOff
350
352
  3
Linepattern
350
34A
  3
OverhangOff
350
353
  3
Realistic
350
346
  3
Shaded
350
351
  3
Shaded with edges
350
350
  3
Shades of Gray
350
34D
  3
Sketchy
350
34E
  3
Thicken
350
349
  3
Wireframe
350
343
  3
X-Ray
350
34F
  0
XRECORD
  5
3B2
102
{ACAD_REACTORS
330
31F
102
}
330
31F
100
AcDbXrecord
280
     1
 90
        1
330
377
  0
DICTIONARY
  5
3A5
102
{ACAD_REACTORS
330
31F
102
}
330
31F
100
AcDbDictionary
281
     1
  3
CANNOSCALE
350
3AA
  3
CMLEADERSTYLE
350
3A7
  3
CTABLESTYLE
350
3A6
  3
CVIEWDETAILSTYLE
350
3A8
  3
CVIEWSECTIONSTYLE
350
3A9
  3
DIMASSOC
350
3AD
  3
INDEXCTL
350
3AC
  3
SORTENTS
350
3AB
  3
XCLIPFRAME
350
3AE
  0
XRECORD
  5
3B3
102
{ACAD_REACTORS
330
31F
102
}
330
31F
100
AcDbXrecord
280
     1
  1
DWGPROPS COOKIE
  2

  3

  4

  6

  7

  8
sasaki_n
  9

300
=
301
=
302
=
303
=
304
=
305
=
306
=
307
=
308
=
309
=
 40
0.000474537037037
 41
2458008.787638889
 42
2458008.789907407
  1

 90
        0
  0
XRECORD
  5
39C
102
{ACAD_REACTORS
330
39B
102
}
330
39B
100
AcDbXrecord
280
     1
290
     1
  0
XRECORD
  5
39E
102
{ACAD_REACTORS
330
39D
102
}
330
39D
100
AcDbXrecord
280
     1
290
     1
  0
XRECORD
  5
3A0
102
{ACAD_REACTORS
330
39F
102
}
330
39F
100
AcDbXrecord
280
     1
290
     1
  0
XRECORD
  5
3A2
102
{ACAD_REACTORS
330
3A1
102
}
330
3A1
100
AcDbXrecord
280
     1
290
     1
  0
XRECORD
  5
3A4
102
{ACAD_REACTORS
330
3A3
102
}
330
3A3
100
AcDbXrecord
280
     1
290
     1
  0
ACDBDETAILVIEWSTYLE
  5
37D
102
{ACAD_XDICTIONARY
360
3EB
102
}
102
{ACAD_REACTORS
330
37C
102
}
330
37C
100
AcDbModelDocViewStyle
 70
     0
  3
Imperial24
290
     0
100
AcDbDetailViewStyle
 70
     0
 71
     0
 90
        3
 71
     1
340
368
 40
0.24
340
0
 40
0.24
300

 40
0.36
280
     3
 71
     2
340
36F
 90
       25
 71
     3
340
368
 40
0.24
 90
        1
 40
0.75
 90
        1
300
%<\AcVar ViewType \f "%tc1">% %<\AcVar ViewDetailId>%\PSCALE %<\AcVar ViewScale \f "%sn">%
 71
     4
340
36F
 90
       25
340
36F
 90
       25
280
     0
  0
LAYOUT
  5
385
102
{ACAD_XDICTIONARY
360
3EF
102
}
102
{ACAD_REACTORS
330
374
102
}
330
374
100
AcDbPlotSettings
  1

  2
DocuPrint 3000-3
  4

  6

 40
0.0
 41
0.0
 42
0.0
 43
0.0
 44
0.0
 45
0.0
 46
0.0
 47
0.0
 48
0.0
 49
0.0
140
0.0
141
0.0
142
1.0
143
1.0
 70
  1712
 72
     0
 73
     0
 74
     0
  7

 75
     0
147
1.0
148
0.0
149
0.0
100
AcDbLayout
  1
Model
 70
     1
 71
     0
 10
0.0
 20
0.0
 11
12.0
 21
9.0
 12
0.0
 22
0.0
 32
0.0
 14
0.0
 24
0.0
 34
0.0
 15
0.0
 25
0.0
 35
0.0
146
0.0
 13
0.0
 23
0.0
 33
0.0
 16
1.0
 26
0.0
 36
0.0
 17
0.0
 27
1.0
 37
0.0
 76
     0
330
382
331
387
  0
LAYOUT
  5
381
102
{ACAD_XDICTIONARY
360
3ED
102
}
102
{ACAD_REACTORS
330
374
102
}
330
374
100
AcDbPlotSettings
  1

  2
DocuPrint 3000-3
  4

  6

 40
0.0
 41
0.0
 42
0.0
 43
0.0
 44
0.0
 45
0.0
 46
0.0
 47
0.0
 48
0.0
 49
0.0
140
0.0
141
0.0
142
1.0
143
1.0
 70
   688
 72
     0
 73
     0
 74
     5
  7

 75
    16
147
1.0
148
0.0
149
0.0
100
AcDbLayout
  1
レイアウト1
 70
     0
 71
     1
 10
0.0
 20
0.0
 11
12.0
 21
9.0
 12
0.0
 22
0.0
 32
0.0
 14
1.000000000000000E+20
 24
1.000000000000000E+20
 34
1.000000000000000E+20
 15
-1.000000000000000E+20
 25
-1.000000000000000E+20
 35
-1.000000000000000E+20
146
0.0
 13
0.0
 23
0.0
 33
0.0
 16
1.0
 26
0.0
 36
0.0
 17
0.0
 27
1.0
 37
0.0
 76
     0
330
37E
  0
MATERIAL
  5
32C
102
{ACAD_XDICTIONARY
360
32D
102
}
102
{ACAD_REACTORS
330
323
102
}
330
323
100
AcDbMaterial
  1
ByBlock
 72
     0
 43
0.0208333333333333
 43
0.0
 43
0.0
 43
0.0
 43
0.0
 43
0.0208333333333333
 43
0.0
 43
0.0
 43
0.0
 43
0.0
 43
1.0
 43
0.0
 43
0.0
 43
0.0
 43
0.0
 43
1.0
 77
     0
 47
0.0208333333333333
 47
0.0
 47
0.0
 47
0.0
 47
0.0
 47
0.0208333333333333
 47
0.0
 47
0.0
 47
0.0
 47
0.0
 47
1.0
 47
0.0
 47
0.0
 47
0.0
 47
0.0
 47
1.0
171
     0
 49
0.0208333333333333
 49
0.0
 49
0.0
 49
0.0
 49
0.0
 49
0.0208333333333333
 49
0.0
 49
0.0
 49
0.0
 49
0.0
 49
1.0
 49
0.0
 49
0.0
 49
0.0
 49
0.0
 49
1.0
175
     0
142
0.0208333333333333
142
0.0
142
0.0
142
0.0
142
0.0
142
0.0208333333333333
142
0.0
142
0.0
142
0.0
142
0.0
142
1.0
142
0.0
142
0.0
142
0.0
142
0.0
142
1.0
179
     0
144
0.0208333333333333
144
0.0
144
0.0
144
0.0
144
0.0
144
0.0208333333333333
144
0.0
144
0.0
144
0.0
144
0.0
144
1.0
144
0.0
144
0.0
144
0.0
144
0.0
144
1.0
147
0.0208333333333333
147
0.0
147
0.0
147
0.0
147
0.0
147
0.0208333333333333
147
0.0
147
0.0
147
0.0
147
0.0
147
1.0
147
0.0
147
0.0
147
0.0
147
0.0
147
1.0
  0
MATERIAL
  5
324
102
{ACAD_XDICTIONARY
360
325
102
}
102
{ACAD_REACTORS
330
323
102
}
330
323
100
AcDbMaterial
  1
ByLayer
 72
     0
 43
0.0208333333333333
 43
0.0
 43
0.0
 43
0.0
 43
0.0
 43
0.0208333333333333
 43
0.0
 43
0.0
 43
0.0
 43
0.0
 43
1.0
 43
0.0
 43
0.0
 43
0.0
 43
0.0
 43
1.0
 77
     0
 47
0.0208333333333333
 47
0.0
 47
0.0
 47
0.0
 47
0.0
 47
0.0208333333333333
 47
0.0
 47
0.0
 47
0.0
 47
0.0
 47
1.0
 47
0.0
 47
0.0
 47
0.0
 47
0.0
 47
1.0
171
     0
 49
0.0208333333333333
 49
0.0
 49
0.0
 49
0.0
 49
0.0
 49
0.0208333333333333
 49
0.0
 49
0.0
 49
0.0
 49
0.0
 49
1.0
 49
0.0
 49
0.0
 49
0.0
 49
0.0
 49
1.0
175
     0
142
0.0208333333333333
142
0.0
142
0.0
142
0.0
142
0.0
142
0.0208333333333333
142
0.0
142
0.0
142
0.0
142
0.0
142
1.0
142
0.0
142
0.0
142
0.0
142
0.0
142
1.0
179
     0
144
0.0208333333333333
144
0.0
144
0.0
144
0.0
144
0.0
144
0.0208333333333333
144
0.0
144
0.0
144
0.0
144
0.0
144
1.0
144
0.0
144
0.0
144
0.0
144
0.0
144
1.0
147
0.0208333333333333
147
0.0
147
0.0
147
0.0
147
0.0
147
0.0208333333333333
147
0.0
147
0.0
147
0.0
147
0.0
147
1.0
147
0.0
147
0.0
147
0.0
147
0.0
147
1.0
  0
MATERIAL
  5
334
102
{ACAD_XDICTIONARY
360
335
102
}
102
{ACAD_REACTORS
330
323
102
}
330
323
100
AcDbMaterial
  1
Global
 72
     0
 43
0.0208333333333333
 43
0.0
 43
0.0
 43
0.0
 43
0.0
 43
0.0208333333333333
 43
0.0
 43
0.0
 43
0.0
 43
0.0
 43
1.0
 43
0.0
 43
0.0
 43
0.0
 43
0.0
 43
1.0
 77
     0
 47
0.0208333333333333
 47
0.0
 47
0.0
 47
0.0
 47
0.0
 47
0.0208333333333333
 47
0.0
 47
0.0
 47
0.0
 47
0.0
 47
1.0
 47
0.0
 47
0.0
 47
0.0
 47
0.0
 47
1.0
171
     0
 49
0.0208333333333333
 49
0.0
 49
0.0
 49
0.0
 49
0.0
 49
0.0208333333333333
 49
0.0
 49
0.0
 49
0.0
 49
0.0
 49
1.0
 49
0.0
 49
0.0
 49
0.0
 49
0.0
 49
1.0
175
     0
142
0.0208333333333333
142
0.0
142
0.0
142
0.0
142
0.0
142
0.0208333333333333
142
0.0
142
0.0
142
0.0
142
0.0
142
1.0
142
0.0
142
0.0
142
0.0
142
0.0
142
1.0
179
     0
144
0.0208333333333333
144
0.0
144
0.0
144
0.0
144
0.0
144
0.0208333333333333
144
0.0
144
0.0
144
0.0
144
0.0
144
1.0
144
0.0
144
0.0
144
0.0
144
0.0
144
1.0
147
0.0208333333333333
147
0.0
147
0.0
147
0.0
147
0.0
147
0.0208333333333333
147
0.0
147
0.0
147
0.0
147
0.0
147
1.0
147
0.0
147
0.0
147
0.0
147
0.0
147
1.0
  0
MLEADERSTYLE
  5
379
102
{ACAD_REACTORS
330
378
102
}
330
378
100
AcDbMLeaderStyle
170
     2
171
     1
172
     0
 90
        2
 40
0.0
 41
0.0
173
     1
 91
-1056964608
340
36D
 92
       -2
290
     1
 42
0.09
291
     1
 43
0.36
  3
Standard
 44
0.18
300

342
368
174
     1
178
     6
175
     1
176
     0
 93
-1056964608
 45
0.18
292
     0
297
     0
 46
0.18
 94
-1056964608
 47
1.0
 49
1.0
140
1.0
293
     1
141
0.0
294
     1
177
     0
142
1.0
295
     0
296
     0
143
0.125
1001
ACAD_MLEADERVER
1070
     2
  0
MLINESTYLE
  5
372
102
{ACAD_REACTORS
330
371
102
}
330
371
100
AcDbMlineStyle
  2
STANDARD
 70
     0
  3

 62
   256
 51
90.0
 52
90.0
 71
     2
 49
0.5
 62
   256
  6
BYLAYER
 49
-0.5
 62
   256
  6
BYLAYER
  0
ACDBPLACEHOLDER
  5
322
102
{ACAD_REACTORS
330
321
102
}
330
321
  0
SCALE
  5
356
102
{ACAD_REACTORS
330
355
102
}
330
355
100
AcDbScale
 70
     0
300
1:1
140
1.0
141
1.0
290
     1
  0
SCALE
  5
357
102
{ACAD_REACTORS
330
355
102
}
330
355
100
AcDbScale
 70
     0
300
1/128" = 1'-0"
140
0.0078125
141
12.0
290
     0
  0
SCALE
  5
358
102
{ACAD_REACTORS
330
355
102
}
330
355
100
AcDbScale
 70
     0
300
1/64" = 1'-0"
140
0.015625
141
12.0
290
     0
  0
SCALE
  5
359
102
{ACAD_REACTORS
330
355
102
}
330
355
100
AcDbScale
 70
     0
300
1/32" = 1'-0"
140
0.03125
141
12.0
290
     0
  0
SCALE
  5
35A
102
{ACAD_REACTORS
330
355
102
}
330
355
100
AcDbScale
 70
     0
300
1/16" = 1'-0"
140
0.0625
141
12.0
290
     0
  0
SCALE
  5
35B
102
{ACAD_REACTORS
330
355
102
}
330
355
100
AcDbScale
 70
     0
300
3/32" = 1'-0"
140
0.09375
141
12.0
290
     0
  0
SCALE
  5
35C
102
{ACAD_REACTORS
330
355
102
}
330
355
100
AcDbScale
 70
     0
300
1/8" = 1'-0"
140
0.125
141
12.0
290
     0
  0
SCALE
  5
35D
102
{ACAD_REACTORS
330
355
102
}
330
355
100
AcDbScale
 70
     0
300
3/16" = 1'-0"
140
0.1875
141
12.0
290
     0
  0
SCALE
  5
35E
102
{ACAD_REACTORS
330
355
102
}
330
355
100
AcDbScale
 70
     0
300
1/4" = 1'-0"
140
0.25
141
12.0
290
     0
  0
SCALE
  5
35F
102
{ACAD_REACTORS
330
355
102
}
330
355
100
AcDbScale
 70
     0
300
3/8" = 1'-0"
140
0.375
141
12.0
290
     0
  0
SCALE
  5
360
102
{ACAD_REACTORS
330
355
102
}
330
355
100
AcDbScale
 70
     0
300
1/2" = 1'-0"
140
0.5
141
12.0
290
     0
  0
SCALE
  5
361
102
{ACAD_REACTORS
330
355
102
}
330
355
100
AcDbScale
 70
     0
300
3/4" = 1'-0"
140
0.75
141
12.0
290
     0
  0
SCALE
  5
362
102
{ACAD_REACTORS
330
355
102
}
330
355
100
AcDbScale
 70
     0
300
1" = 1'-0"
140
1.0
141
12.0
290
     0
  0
SCALE
  5
363
102
{ACAD_REACTORS
330
355
102
}
330
355
100
AcDbScale
 70
     0
300
1-1/2" = 1'-0"
140
1.5
141
12.0
290
     0
  0
SCALE
  5
364
102
{ACAD_REACTORS
330
355
102
}
330
355
100
AcDbScale
 70
     0
300
3" = 1'-0"
140
3.0
141
12.0
290
     0
  0
SCALE
  5
365
102
{ACAD_REACTORS
330
355
102
}
330
355
100
AcDbScale
 70
     0
300
6" = 1'-0"
140
6.0
141
12.0
290
     0
  0
SCALE
  5
366
102
{ACAD_REACTORS
330
355
102
}
330
355
100
AcDbScale
 70
     0
300
1'-0" = 1'-0"
140
12.0
141
12.0
290
     0
  0
ACDBSECTIONVIEWSTYLE
  5
37B
102
{ACAD_XDICTIONARY
360
3E9
102
}
102
{ACAD_REACTORS
330
37A
102
}
330
37A
100
AcDbModelDocViewStyle
 70
     0
  3
Imperial24
290
     0
100
AcDbSectionViewStyle
 70
     0
 71
     0
 90
       78
 71
     1
340
368
 40
0.24
340
0
340
0
 40
0.24
300
I, O, Q, S, X, Z
 40
0.48
 90
        3
 40
0.18
 90
        1
 71
     2
340
36F
 90
       25
340
36F
 90
       50
 40
0.24
 40
0.0
 40
0.24
 71
     3
340
368
 40
0.24
 90
        1
 40
0.75
 90
        1
300
%<\AcVar ViewType \f "%tc1">% %<\AcVar ViewSectionStartId>%-%<\AcVar ViewSectionEndId>%\PSCALE %<\AcVar ViewScale \f "%sn">%
 71
     4
300
ANSI31
 40
1.0
 90
        0
290
     0
290
     0
 90
        6
 40
0.0
 40
1.570796326794896
 40
0.2617993877991494
 40
1.308996938995747
 40
-0.2617993877991494
 40
1.832595714594046
  0
TABLESTYLE
  5
377
102
{ACAD_XDICTIONARY
360
3B0
102
}
102
{ACAD_REACTORS
330
376
102
}
330
376
100
AcDbTableStyle
  3
Standard
 70
     0
 71
     0
 40
0.06
 41
0.06
280
     0
281
     0
  7
STANDARD
140
0.18
170
     2
 62
     0
 63
     7
283
     0
274
    -2
284
     1
 64
     0
275
    -2
285
     1
 65
     0
276
    -2
286
     1
 66
     0
277
    -2
287
     1
 67
     0
278
    -2
288
     1
 68
     0
279
    -2
289
     1
 69
     0
  7
STANDARD
140
0.25
170
     5
 62
     0
 63
     7
283
     0
274
    -2
284
     1
 64
     0
275
    -2
285
     1
 65
     0
276
    -2
286
     1
 66
     0
277
    -2
287
     1
 67
     0
278
    -2
288
     1
 68
     0
279
    -2
289
     1
 69
     0
  7
STANDARD
140
0.18
170
     5
 62
     0
 63
     7
283
     0
274
    -2
284
     1
 64
     0
275
    -2
285
     1
 65
     0
276
    -2
286
     1
 66
     0
277
    -2
287
     1
 67
     0
278
    -2
288
     1
 68
     0
279
    -2
289
     1
 69
     0
  0
VISUALSTYLE
  5
342
102
{ACAD_XDICTIONARY
360
3C1
102
}
102
{ACAD_REACTORS
330
33C
102
}
330
33C
100
AcDbVisualStyle
  2
2dWireframe
 70
     4
 71
     0
 72
     2
 73
     0
 90
        0
 40
-0.6
 41
-30.0
 62
     5
 63
     7
 74
     1
 91
        4
 64
     7
 65
   257
 75
     1
175
     1
 42
1.0
 92
        0
 66
   257
 43
1.0
 76
     1
 77
     6
 78
     2
 67
     7
 79
     5
170
     0
171
     0
290
     0
174
     0
 93
        1
 44
0.0
173
     0
291
     0
 45
0.0
1001
ACAD
1000
AcDbSavedByObjectVersion
1070
     0
  0
VISUALSTYLE
  5
341
102
{ACAD_XDICTIONARY
360
3BF
102
}
102
{ACAD_REACTORS
330
33C
102
}
330
33C
100
AcDbVisualStyle
  2
Basic
 70
     7
 71
     1
 72
     0
 73
     1
 90
        0
 40
-0.6
 41
-30.0
 62
     5
 63
     7
 74
     0
 91
        4
 64
     7
 65
   257
 75
     1
175
     1
 42
1.0
 92
        8
 66
     7
 43
1.0
 76
     1
 77
     6
 78
     2
 67
     7
 79
     5
170
     0
171
     0
290
     0
174
     0
 93
        1
 44
0.0
173
     0
291
     1
 45
0.0
1001
ACAD
1000
AcDbSavedByObjectVersion
1070
     0
  0
VISUALSTYLE
  5
348
102
{ACAD_XDICTIONARY
360
3CD
102
}
102
{ACAD_REACTORS
330
33C
102
}
330
33C
100
AcDbVisualStyle
  2
Brighten
 70
    12
 71
     2
 72
     2
 73
     0
 90
        0
 40
-0.6
 41
-30.0
 62
     5
 63
     7
 74
     1
 91
        4
 64
     7
 65
   257
 75
     1
175
     1
 42
1.0
 92
        8
 66
     7
 43
1.0
 76
     1
 77
     6
 78
     2
 67
     7
 79
     5
170
     0
171
     0
290
     0
174
     0
 93
        1
 44
50.0
173
     0
291
     1
 45
0.0
1001
ACAD
1000
AcDbSavedByObjectVersion
1070
     0
  0
VISUALSTYLE
  5
34C
102
{ACAD_XDICTIONARY
360
3D5
102
}
102
{ACAD_REACTORS
330
33C
102
}
330
33C
100
AcDbVisualStyle
  2
ColorChange
 70
    16
 71
     2
 72
     2
 73
     3
 90
        0
 40
-0.6
 41
-30.0
 62
     5
 63
     8
 74
     1
 91
        4
 64
     7
 65
   257
 75
     1
175
     1
 42
1.0
 92
        8
 66
     8
 43
1.0
 76
     1
 77
     6
 78
     2
 67
     7
 79
     5
170
     0
171
     0
290
     0
174
     0
 93
        1
 44
0.0
173
     0
291
     1
 45
0.0
1001
ACAD
1000
AcDbSavedByObjectVersion
1070
     0
  0
VISUALSTYLE
  5
345
102
{ACAD_XDICTIONARY
360
3C7
102
}
102
{ACAD_REACTORS
330
33C
102
}
330
33C
100
AcDbVisualStyle
  2
Conceptual
 70
     9
 71
     3
 72
     2
 73
     0
 90
        0
 40
-0.6
 41
-30.0
 62
     5
 63
     7
 74
     2
 91
        2
 64
     7
 65
   257
 75
     1
175
     1
 42
179.0
 92
        8
 66
     7
 43
1.0
 76
     1
 77
     6
 78
     2
 67
     7
 79
     3
170
     0
171
     0
290
     0
174
     0
 93
        1
 44
0.0
173
     0
291
     0
 45
0.0
1001
ACAD
1000
AcDbSavedByObjectVersion
1070
     0
  0
VISUALSTYLE
  5
347
102
{ACAD_XDICTIONARY
360
3CB
102
}
102
{ACAD_REACTORS
330
33C
102
}
330
33C
100
AcDbVisualStyle
  2
Dim
 70
    11
 71
     2
 72
     2
 73
     0
 90
        0
 40
-0.6
 41
-30.0
 62
     5
 63
     7
 74
     1
 91
        4
 64
     7
 65
   257
 75
     1
175
     1
 42
1.0
 92
        8
 66
     7
 43
1.0
 76
     1
 77
     6
 78
     2
 67
     7
 79
     5
170
     0
171
     0
290
     0
174
     0
 93
        1
 44
-50.0
173
     0
291
     1
 45
0.0
1001
ACAD
1000
AcDbSavedByObjectVersion
1070
     0
  0
VISUALSTYLE
  5
354
102
{ACAD_XDICTIONARY
360
3E5
102
}
102
{ACAD_REACTORS
330
33C
102
}
330
33C
100
AcDbVisualStyle
  2
EdgeColorOff
 70
    22
 71
     2
 72
     2
 73
     0
 90
        0
 40
-0.6
 41
-30.0
 62
     5
 63
     7
 74
     1
 91
        4
 64
     7
 65
   257
 75
     1
175
     1
 42
1.0
 92
        8
 66
     7
 43
1.0
 76
     1
 77
     6
 78
     2
 67
     7
 79
     5
170
     0
171
     0
290
     0
174
     0
 93
        1
 44
0.0
173
     0
291
     1
 45
0.0
1001
ACAD
1000
AcDbSavedByObjectVersion
1070
     0
  0
VISUALSTYLE
  5
34B
102
{ACAD_XDICTIONARY
360
3D3
102
}
102
{ACAD_REACTORS
330
33C
102
}
330
33C
100
AcDbVisualStyle
  2
Facepattern
 70
    15
 71
     2
 72
     2
 73
     0
 90
        0
 40
-0.6
 41
-30.0
 62
     5
 63
     7
 74
     1
 91
        4
 64
     7
 65
   257
 75
     1
175
     1
 42
1.0
 92
        8
 66
     7
 43
1.0
 76
     1
 77
     6
 78
     2
 67
     7
 79
     5
170
     0
171
     0
290
     0
174
     0
 93
        1
 44
0.0
173
     0
291
     1
 45
0.0
1001
ACAD
1000
AcDbSavedByObjectVersion
1070
     0
  0
VISUALSTYLE
  5
33D
102
{ACAD_XDICTIONARY
360
3B7
102
}
102
{ACAD_REACTORS
330
33C
102
}
330
33C
100
AcDbVisualStyle
  2
Flat
 70
     0
 71
     2
 72
     1
 73
     1
 90
        2
 40
-0.6
 41
30.0
 62
     5
 63
     7
 74
     0
 91
        0
 64
     7
 65
   257
 75
     1
175
     1
 42
1.0
 92
        8
 66
     7
 43
1.0
 76
     1
 77
     6
 78
     2
 67
     7
 79
     5
170
     0
171
     0
290
     0
174
     0
 93
       13
 44
0.0
173
     0
291
     1
 45
0.0
1001
ACAD
1000
AcDbSavedByObjectVersion
1070
     0
  0
VISUALSTYLE
  5
33E
102
{ACAD_XDICTIONARY
360
3B9
102
}
102
{ACAD_REACTORS
330
33C
102
}
330
33C
100
AcDbVisualStyle
  2
FlatWithEdges
 70
     1
 71
     2
 72
     1
 73
     1
 90
        2
 40
-0.6
 41
30.0
 62
     5
 63
     7
 74
     1
 91
        0
 64
     7
 65
   257
 75
     1
175
     1
 42
1.0
 92
        0
 66
   257
 43
1.0
 76
     1
 77
     6
 78
     2
 67
     7
 79
     5
170
     0
171
     0
290
     0
174
     0
 93
       13
 44
0.0
173
     0
291
     1
 45
0.0
1001
ACAD
1000
AcDbSavedByObjectVersion
1070
     0
  0
VISUALSTYLE
  5
33F
102
{ACAD_XDICTIONARY
360
3BB
102
}
102
{ACAD_REACTORS
330
33C
102
}
330
33C
100
AcDbVisualStyle
  2
Gouraud
 70
     2
 71
     2
 72
     2
 73
     1
 90
        2
 40
-0.6
 41
30.0
 62
     5
 63
     7
 74
     0
 91
        0
 64
     7
 65
   257
 75
     1
175
     1
 42
1.0
 92
        0
 66
     7
 43
1.0
 76
     1
 77
     6
 78
     2
 67
     7
 79
     5
170
     0
171
     0
290
     0
174
     0
 93
       13
 44
0.0
173
     0
291
     1
 45
0.0
1001
ACAD
1000
AcDbSavedByObjectVersion
1070
     0
  0
VISUALSTYLE
  5
340
102
{ACAD_XDICTIONARY
360
3BD
102
}
102
{ACAD_REACTORS
330
33C
102
}
330
33C
100
AcDbVisualStyle
  2
GouraudWithEdges
 70
     3
 71
     2
 72
     2
 73
     1
 90
        2
 40
-0.6
 41
30.0
 62
     5
 63
     7
 74
     1
 91
        0
 64
     7
 65
   257
 75
     1
175
     1
 42
1.0
 92
        0
 66
   257
 43
1.0
 76
     1
 77
     6
 78
     2
 67
     7
 79
     5
170
     0
171
     0
290
     0
174
     0
 93
       13
 44
0.0
173
     0
291
     1
 45
0.0
1001
ACAD
1000
AcDbSavedByObjectVersion
1070
     0
  0
VISUALSTYLE
  5
344
102
{ACAD_XDICTIONARY
360
3C5
102
}
102
{ACAD_REACTORS
330
33C
102
}
330
33C
100
AcDbVisualStyle
  2
Hidden
 70
     6
 71
     1
 72
     2
 73
     2
 90
        0
 40
-0.6
 41
-30.0
 62
     5
 63
     7
 74
     2
 91
        2
 64
     7
 65
   257
 75
     2
175
     1
 42
40.0
 92
        0
 66
   257
 43
1.0
 76
     1
 77
     6
 78
     2
 67
     7
 79
     3
170
     0
171
     0
290
     0
174
     0
 93
        1
 44
0.0
173
     0
291
     0
 45
0.0
1001
ACAD
1000
AcDbSavedByObjectVersion
1070
     0
  0
VISUALSTYLE
  5
352
102
{ACAD_XDICTIONARY
360
3E1
102
}
102
{ACAD_REACTORS
330
33C
102
}
330
33C
100
AcDbVisualStyle
  2
JitterOff
 70
    20
 71
     2
 72
     2
 73
     0
 90
        0
 40
-0.6
 41
-30.0
 62
     5
 63
     7
 74
     1
 91
        4
 64
     7
 65
   257
 75
     1
175
     1
 42
1.0
 92
       10
 66
     7
 43
1.0
 76
     1
 77
     6
 78
     2
 67
     7
 79
     5
170
     0
171
     0
290
     0
174
     0
 93
        1
 44
0.0
173
     0
291
     1
 45
0.0
1001
ACAD
1000
AcDbSavedByObjectVersion
1070
     0
  0
VISUALSTYLE
  5
34A
102
{ACAD_XDICTIONARY
360
3D1
102
}
102
{ACAD_REACTORS
330
33C
102
}
330
33C
100
AcDbVisualStyle
  2
Linepattern
 70
    14
 71
     2
 72
     2
 73
     0
 90
        0
 40
-0.6
 41
-30.0
 62
     5
 63
     7
 74
     1
 91
        4
 64
     7
 65
   257
 75
     7
175
     7
 42
1.0
 92
        8
 66
     7
 43
1.0
 76
     1
 77
     6
 78
     2
 67
     7
 79
     5
170
     0
171
     0
290
     0
174
     0
 93
        1
 44
0.0
173
     0
291
     1
 45
0.0
1001
ACAD
1000
AcDbSavedByObjectVersion
1070
     0
  0
VISUALSTYLE
  5
353
102
{ACAD_XDICTIONARY
360
3E3
102
}
102
{ACAD_REACTORS
330
33C
102
}
330
33C
100
AcDbVisualStyle
  2
OverhangOff
 70
    21
 71
     2
 72
     2
 73
     0
 90
        0
 40
-0.6
 41
-30.0
 62
     5
 63
     7
 74
     1
 91
        4
 64
     7
 65
   257
 75
     1
175
     1
 42
1.0
 92
        9
 66
     7
 43
1.0
 76
     1
 77
     6
 78
     2
 67
     7
 79
     5
170
     0
171
     0
290
     0
174
     0
 93
        1
 44
0.0
173
     0
291
     1
 45
0.0
1001
ACAD
1000
AcDbSavedByObjectVersion
1070
     0
  0
VISUALSTYLE
  5
346
102
{ACAD_XDICTIONARY
360
3C9
102
}
102
{ACAD_REACTORS
330
33C
102
}
330
33C
100
AcDbVisualStyle
  2
Realistic
 70
     8
 71
     2
 72
     3
 73
     0
 90
        2
 40
-0.6
 41
30.0
 62
     5
 63
     7
 74
     0
 91
        0
 64
     7
 65
   257
 75
     1
175
     1
 42
1.0
 92
        8
 66
   257
 43
1.0
 76
     1
 77
     6
 78
     2
 67
     7
 79
     3
170
     0
171
     0
290
     0
174
     0
 93
       13
 44
0.0
173
     0
291
     0
 45
0.0
1001
ACAD
1000
AcDbSavedByObjectVersion
1070
     0
  0
VISUALSTYLE
  5
351
102
{ACAD_XDICTIONARY
360
3DF
102
}
102
{ACAD_REACTORS
330
33C
102
}
330
33C
100
AcDbVisualStyle
  2
Shaded
 70
    27
 71
     2
 72
     2
 73
     1
 90
        2
 40
-0.6
 41
30.0
 62
     5
 63
     7
 74
     0
 91
        4
 64
     7
 65
   257
 75
     1
175
     1
 42
1.0
 92
        8
 66
   257
 43
1.0
 76
     1
 77
     6
 78
     2
 67
     8
 79
     3
170
     0
171
     0
290
     0
174
     0
 93
        5
 44
0.0
173
     0
291
     0
 45
0.0
1001
ACAD
1000
AcDbSavedByObjectVersion
1070
     0
  0
VISUALSTYLE
  5
350
102
{ACAD_XDICTIONARY
360
3DD
102
}
102
{ACAD_REACTORS
330
33C
102
}
330
33C
100
AcDbVisualStyle
  2
Shaded with edges
 70
    26
 71
     2
 72
     2
 73
     1
 90
        2
 40
-0.6
 41
30.0
 62
     5
 63
     7
 74
     1
 91
        2
 64
     7
 65
   257
 75
     2
175
     1
 42
1.0
 92
        8
 66
   257
 43
1.0
 76
     1
 77
     6
 78
     2
 67
     7
 79
     3
170
     0
171
     0
290
     0
174
     0
 93
        5
 44
0.0
173
     0
291
     0
 45
0.0
1001
ACAD
1000
AcDbSavedByObjectVersion
1070
     0
  0
VISUALSTYLE
  5
34D
102
{ACAD_XDICTIONARY
360
3D7
102
}
102
{ACAD_REACTORS
330
33C
102
}
330
33C
100
AcDbVisualStyle
  2
Shades of Gray
 70
    23
 71
     2
 72
     2
 73
     3
 90
        0
 40
-0.6
 41
-30.0
 62
     5
 63
     7
 74
     2
 91
        2
 64
     7
 65
     7
 75
     1
175
     1
 42
40.0
 92
        8
 66
     7
 43
1.0
 76
     1
 77
     6
 78
     2
 67
     7
 79
     3
170
     0
171
     0
290
     0
174
     0
 93
        1
 44
0.0
173
     0
291
     0
 45
0.0
1001
ACAD
1000
AcDbSavedByObjectVersion
1070
     0
  0
VISUALSTYLE
  5
34E
102
{ACAD_XDICTIONARY
360
3D9
102
}
102
{ACAD_REACTORS
330
33C
102
}
330
33C
100
AcDbVisualStyle
  2
Sketchy
 70
    24
 71
     1
 72
     2
 73
     2
 90
        0
 40
-0.6
 41
-30.0
 62
     5
 63
     7
 74
     2
 91
        2
 64
     7
 65
     7
 75
     1
175
     1
 42
40.0
 92
       11
 66
     7
 43
1.0
 76
     1
 77
     6
 78
     2
 67
     7
 79
     6
170
     0
171
     0
290
     0
174
     0
 93
        1
 44
0.0
173
     0
291
     0
 45
0.0
1001
ACAD
1000
AcDbSavedByObjectVersion
1070
     0
  0
VISUALSTYLE
  5
349
102
{ACAD_XDICTIONARY
360
3CF
102
}
102
{ACAD_REACTORS
330
33C
102
}
330
33C
100
AcDbVisualStyle
  2
Thicken
 70
    13
 71
     2
 72
     2
 73
     0
 90
        0
 40
-0.6
 41
-30.0
 62
     5
 63
     7
 74
     1
 91
        4
 64
     7
 65
   257
 75
     1
175
     1
 42
1.0
 92
       12
 66
     7
 43
1.0
 76
     1
 77
     6
 78
     2
 67
     7
 79
     5
170
     0
171
     0
290
     0
174
     0
 93
        1
 44
0.0
173
     0
291
     1
 45
0.0
1001
ACAD
1000
AcDbSavedByObjectVersion
1070
     0
  0
VISUALSTYLE
  5
343
102
{ACAD_XDICTIONARY
360
3C3
102
}
102
{ACAD_REACTORS
330
33C
102
}
330
33C
100
AcDbVisualStyle
  2
Wireframe
 70
     5
 71
     0
 72
     2
 73
     0
 90
        0
 40
-0.6
 41
-30.0
 62
     5
 63
     7
 74
     1
 91
        4
 64
     7
 65
   257
 75
     1
175
     1
 42
1.0
 92
        0
 66
   257
 43
1.0
 76
     1
 77
     6
 78
     2
 67
     7
 79
     3
170
     0
171
     0
290
     0
174
     0
 93
        1
 44
0.0
173
     0
291
     0
 45
0.0
1001
ACAD
1000
AcDbSavedByObjectVersion
1070
     0
  0
VISUALSTYLE
  5
34F
102
{ACAD_XDICTIONARY
360
3DB
102
}
102
{ACAD_REACTORS
330
33C
102
}
330
33C
100
AcDbVisualStyle
  2
X-Ray
 70
    25
 71
     2
 72
     2
 73
     1
 90
        1
 40
0.5
 41
-30.0
 62
     5
 63
     7
 74
     1
 91
        0
 64
     7
 65
   257
 75
     1
175
     1
 42
1.0
 92
        8
 66
     7
 43
1.0
 76
     1
 77
     6
 78
     2
 67
     7
 79
     3
170
     0
171
     0
290
     0
174
     0
 93
       13
 44
0.0
173
     0
291
     0
 45
0.0
1001
ACAD
1000
AcDbSavedByObjectVersion
1070
     0
  0
DICTIONARYVAR
  5
3AA
102
{ACAD_REACTORS
330
3A5
102
}
330
3A5
100
DictionaryVariables
280
     0
  1
1:1
  0
DICTIONARYVAR
  5
3A7
102
{ACAD_REACTORS
330
3A5
102
}
330
3A5
100
DictionaryVariables
280
     0
  1
STANDARD
  0
DICTIONARYVAR
  5
3A6
102
{ACAD_REACTORS
330
3A5
102
}
330
3A5
100
DictionaryVariables
280
     0
  1
STANDARD
  0
DICTIONARYVAR
  5
3A8
102
{ACAD_REACTORS
330
3A5
102
}
330
3A5
100
DictionaryVariables
280
     0
  1
Imperial24
  0
DICTIONARYVAR
  5
3A9
102
{ACAD_REACTORS
330
3A5
102
}
330
3A5
100
DictionaryVariables
280
     0
  1
Imperial24
  0
DICTIONARYVAR
  5
3AD
102
{ACAD_REACTORS
330
3A5
102
}
330
3A5
100
DictionaryVariables
280
     0
  1
1
  0
DICTIONARYVAR
  5
3AC
102
{ACAD_REACTORS
330
3A5
102
}
330
3A5
100
DictionaryVariables
280
     0
  1
0
  0
DICTIONARYVAR
  5
3AB
102
{ACAD_REACTORS
330
3A5
102
}
330
3A5
100
DictionaryVariables
280
     0
  1
127
  0
DICTIONARYVAR
  5
3AE
102
{ACAD_REACTORS
330
3A5
102
}
330
3A5
100
DictionaryVariables
280
     0
  1
2
  0
DICTIONARY
  5
3EB
330
37D
100
AcDbDictionary
280
     1
281
     1
  3
ACAD_XREC_ROUNDTRIP
360
3EC
  0
DICTIONARY
  5
3EF
330
385
100
AcDbDictionary
280
     1
281
     1
  3
ACAD_XREC_ROUNDTRIP
360
3F0
  0
DICTIONARY
  5
3ED
330
381
100
AcDbDictionary
280
     1
281
     1
  3
ACAD_XREC_ROUNDTRIP
360
3EE
  0
DICTIONARY
  5
32D
330
32C
100
AcDbDictionary
280
     1
281
     1
  3
ACAD_XREC_ROUNDTRIP
360
3B5
  3
BUMPTILE
360
32F
  3
DIFFUSETILE
360
32E
  3
OPACITYTILE
360
332
  3
REFLECTIONTILE
360
331
  3
REFRACTIONTILE
360
333
  3
SPECULARTILE
360
330
  0
DICTIONARY
  5
325
330
324
100
AcDbDictionary
280
     1
281
     1
  3
ACAD_XREC_ROUNDTRIP
360
3B4
  3
BUMPTILE
360
327
  3
DIFFUSETILE
360
326
  3
OPACITYTILE
360
32A
  3
REFLECTIONTILE
360
329
  3
REFRACTIONTILE
360
32B
  3
SPECULARTILE
360
328
  0
DICTIONARY
  5
335
330
334
100
AcDbDictionary
280
     1
281
     1
  3
ACAD_XREC_ROUNDTRIP
360
3B6
  3
BUMPTILE
360
337
  3
DIFFUSETILE
360
336
  3
OPACITYTILE
360
33A
  3
REFLECTIONTILE
360
339
  3
REFRACTIONTILE
360
33B
  3
SPECULARTILE
360
338
  0
DICTIONARY
  5
3E9
330
37B
100
AcDbDictionary
280
     1
281
     1
  3
ACAD_XREC_ROUNDTRIP
360
3EA
  0
DICTIONARY
  5
3B0
330
377
100
AcDbDictionary
280
     1
281
     1
  3
ACAD_ROUNDTRIP_2008_TABLESTYLE_CELLSTYLEMAP
360
3B1
  3
ACAD_XREC_ROUNDTRIP
360
3E7
  0
DICTIONARY
  5
3C1
330
342
100
AcDbDictionary
280
     1
281
     1
  3
ACAD_XREC_ROUNDTRIP
360
3C2
  0
DICTIONARY
  5
3BF
330
341
100
AcDbDictionary
280
     1
281
     1
  3
ACAD_XREC_ROUNDTRIP
360
3C0
  0
DICTIONARY
  5
3CD
330
348
100
AcDbDictionary
280
     1
281
     1
  3
ACAD_XREC_ROUNDTRIP
360
3CE
  0
DICTIONARY
  5
3D5
330
34C
100
AcDbDictionary
280
     1
281
     1
  3
ACAD_XREC_ROUNDTRIP
360
3D6
  0
DICTIONARY
  5
3C7
330
345
100
AcDbDictionary
280
     1
281
     1
  3
ACAD_XREC_ROUNDTRIP
360
3C8
  0
DICTIONARY
  5
3CB
330
347
100
AcDbDictionary
280
     1
281
     1
  3
ACAD_XREC_ROUNDTRIP
360
3CC
  0
DICTIONARY
  5
3E5
330
354
100
AcDbDictionary
280
     1
281
     1
  3
ACAD_XREC_ROUNDTRIP
360
3E6
  0
DICTIONARY
  5
3D3
330
34B
100
AcDbDictionary
280
     1
281
     1
  3
ACAD_XREC_ROUNDTRIP
360
3D4
  0
DICTIONARY
  5
3B7
330
33D
100
AcDbDictionary
280
     1
281
     1
  3
ACAD_XREC_ROUNDTRIP
360
3B8
  0
DICTIONARY
  5
3B9
330
33E
100
AcDbDictionary
280
     1
281
     1
  3
ACAD_XREC_ROUNDTRIP
360
3BA
  0
DICTIONARY
  5
3BB
330
33F
100
AcDbDictionary
280
     1
281
     1
  3
ACAD_XREC_ROUNDTRIP
360
3BC
  0
DICTIONARY
  5
3BD
330
340
100
AcDbDictionary
280
     1
281
     1
  3
ACAD_XREC_ROUNDTRIP
360
3BE
  0
DICTIONARY
  5
3C5
330
344
100
AcDbDictionary
280
     1
281
     1
  3
ACAD_XREC_ROUNDTRIP
360
3C6
  0
DICTIONARY
  5
3E1
330
352
100
AcDbDictionary
280
     1
281
     1
  3
ACAD_XREC_ROUNDTRIP
360
3E2
  0
DICTIONARY
  5
3D1
330
34A
100
AcDbDictionary
280
     1
281
     1
  3
ACAD_XREC_ROUNDTRIP
360
3D2
  0
DICTIONARY
  5
3E3
330
353
100
AcDbDictionary
280
     1
281
     1
  3
ACAD_XREC_ROUNDTRIP
360
3E4
  0
DICTIONARY
  5
3C9
330
346
100
AcDbDictionary
280
     1
281
     1
  3
ACAD_XREC_ROUNDTRIP
360
3CA
  0
DICTIONARY
  5
3DF
330
351
100
AcDbDictionary
280
     1
281
     1
  3
ACAD_XREC_ROUNDTRIP
360
3E0
  0
DICTIONARY
  5
3DD
330
350
100
AcDbDictionary
280
     1
281
     1
  3
ACAD_XREC_ROUNDTRIP
360
3DE
  0
DICTIONARY
  5
3D7
330
34D
100
AcDbDictionary
280
     1
281
     1
  3
ACAD_XREC_ROUNDTRIP
360
3D8
  0
DICTIONARY
  5
3D9
330
34E
100
AcDbDictionary
280
     1
281
     1
  3
ACAD_XREC_ROUNDTRIP
360
3DA
  0
DICTIONARY
  5
3CF
330
349
100
AcDbDictionary
280
     1
281
     1
  3
ACAD_XREC_ROUNDTRIP
360
3D0
  0
DICTIONARY
  5
3C3
330
343
100
AcDbDictionary
280
     1
281
     1
  3
ACAD_XREC_ROUNDTRIP
360
3C4
  0
DICTIONARY
  5
3DB
330
34F
100
AcDbDictionary
280
     1
281
     1
  3
ACAD_XREC_ROUNDTRIP
360
3DC
  0
XRECORD
  5
3EC
102
{ACAD_REACTORS
330
3EB
102
}
330
3EB
100
AcDbXrecord
280
     1
102
DISPLAYNAME
  1
Imperial24
102
FLAGS
 90
        0
  0
XRECORD
  5
3F0
102
{ACAD_REACTORS
330
3EF
102
}
330
3EF
100
AcDbXrecord
280
     1
102
SHADEPLOT
 70
     0
102
SHADEPLOTRESLEVEL
 70
     2
102
SHADEPLOTCUSTOMDPI
 70
   300
  0
XRECORD
  5
3EE
102
{ACAD_REACTORS
330
3ED
102
}
330
3ED
100
AcDbXrecord
280
     1
102
SHADEPLOT
 70
     0
102
SHADEPLOTRESLEVEL
 70
     2
102
SHADEPLOTCUSTOMDPI
 70
   300
  0
XRECORD
  5
3B5
102
{ACAD_REACTORS
330
32D
102
}
330
32D
100
AcDbXrecord
280
     1
102
MATERIAL
148
0.0
149
0.0
149
0.0
 93
        0
 94
      127
282
     0
 72
     0
 77
     0
171
     0
175
     0
179
     0
273
     0
  0
XRECORD
  5
32F
102
{ACAD_REACTORS
330
32D
102
}
330
32D
100
AcDbXrecord
280
     1
270
     1
271
     1
  0
XRECORD
  5
32E
102
{ACAD_REACTORS
330
32D
102
}
330
32D
100
AcDbXrecord
280
     1
270
     1
271
     1
  0
XRECORD
  5
332
102
{ACAD_REACTORS
330
32D
102
}
330
32D
100
AcDbXrecord
280
     1
270
     1
271
     1
  0
XRECORD
  5
331
102
{ACAD_REACTORS
330
32D
102
}
330
32D
100
AcDbXrecord
280
     1
270
     1
271
     1
  0
XRECORD
  5
333
102
{ACAD_REACTORS
330
32D
102
}
330
32D
100
AcDbXrecord
280
     1
270
     1
271
     1
  0
XRECORD
  5
330
102
{ACAD_REACTORS
330
32D
102
}
330
32D
100
AcDbXrecord
280
     1
270
     1
271
     1
  0
XRECORD
  5
3B4
102
{ACAD_REACTORS
330
325
102
}
330
325
100
AcDbXrecord
280
     1
102
MATERIAL
148
0.0
149
0.0
149
0.0
 93
        0
 94
      127
282
     0
 72
     0
 77
     0
171
     0
175
     0
179
     0
273
     0
  0
XRECORD
  5
327
102
{ACAD_REACTORS
330
325
102
}
330
325
100
AcDbXrecord
280
     1
270
     1
271
     1
  0
XRECORD
  5
326
102
{ACAD_REACTORS
330
325
102
}
330
325
100
AcDbXrecord
280
     1
270
     1
271
     1
  0
XRECORD
  5
32A
102
{ACAD_REACTORS
330
325
102
}
330
325
100
AcDbXrecord
280
     1
270
     1
271
     1
  0
XRECORD
  5
329
102
{ACAD_REACTORS
330
325
102
}
330
325
100
AcDbXrecord
280
     1
270
     1
271
     1
  0
XRECORD
  5
32B
102
{ACAD_REACTORS
330
325
102
}
330
325
100
AcDbXrecord
280
     1
270
     1
271
     1
  0
XRECORD
  5
328
102
{ACAD_REACTORS
330
325
102
}
330
325
100
AcDbXrecord
280
     1
270
     1
271
     1
  0
XRECORD
  5
3B6
102
{ACAD_REACTORS
330
335
102
}
330
335
100
AcDbXrecord
280
     1
102
MATERIAL
148
0.0
149
0.0
149
0.0
 93
        0
 94
      127
282
     0
 72
     0
 77
     0
171
     0
175
     0
179
     0
273
     0
  0
XRECORD
  5
337
102
{ACAD_REACTORS
330
335
102
}
330
335
100
AcDbXrecord
280
     1
270
     1
271
     1
  0
XRECORD
  5
336
102
{ACAD_REACTORS
330
335
102
}
330
335
100
AcDbXrecord
280
     1
270
     1
271
     1
  0
XRECORD
  5
33A
102
{ACAD_REACTORS
330
335
102
}
330
335
100
AcDbXrecord
280
     1
270
     1
271
     1
  0
XRECORD
  5
339
102
{ACAD_REACTORS
330
335
102
}
330
335
100
AcDbXrecord
280
     1
270
     1
271
     1
  0
XRECORD
  5
33B
102
{ACAD_REACTORS
330
335
102
}
330
335
100
AcDbXrecord
280
     1
270
     1
271
     1
  0
XRECORD
  5
338
102
{ACAD_REACTORS
330
335
102
}
330
335
100
AcDbXrecord
280
     1
270
     1
271
     1
  0
XRECORD
  5
3EA
102
{ACAD_REACTORS
330
3E9
102
}
330
3E9
100
AcDbXrecord
280
     1
102
DISPLAYNAME
  1
Imperial24
102
FLAGS
 90
        0
  0
CELLSTYLEMAP
  5
3B1
102
{ACAD_REACTORS
330
3B0
102
}
330
3B0
100
AcDbCellStyleMap
 90
        3
300
CELLSTYLE
  1
TABLEFORMAT_BEGIN
 90
        5
170
     1
 91
        0
 92
    32768
 62
   257
 93
        1
300
CONTENTFORMAT
  1
CONTENTFORMAT_BEGIN
 90
        0
 91
        0
 92
      512
 93
        0
300

 40
0.0
140
1.0
 94
        5
 62
     0
340
368
144
0.25
309
CONTENTFORMAT_END
171
     0
 94
        0
309
TABLEFORMAT_END
  1
CELLSTYLE_BEGIN
 90
        1
 91
        1
300
_TITLE
309
CELLSTYLE_END
300
CELLSTYLE
  1
TABLEFORMAT_BEGIN
 90
        5
170
     1
 91
        0
 92
        0
 62
   257
 93
        1
300
CONTENTFORMAT
  1
CONTENTFORMAT_BEGIN
 90
        0
 91
        0
 92
      512
 93
        0
300

 40
0.0
140
1.0
 94
        5
 62
     0
340
368
144
0.18
309
CONTENTFORMAT_END
171
     0
 94
        0
309
TABLEFORMAT_END
  1
CELLSTYLE_BEGIN
 90
        2
 91
        1
300
_HEADER
309
CELLSTYLE_END
300
CELLSTYLE
  1
TABLEFORMAT_BEGIN
 90
        5
170
     1
 91
        0
 92
        0
 62
   257
 93
        1
300
CONTENTFORMAT
  1
CONTENTFORMAT_BEGIN
 90
        0
 91
        0
 92
      512
 93
        0
300

 40
0.0
140
1.0
 94
        2
 62
     0
340
368
144
0.18
309
CONTENTFORMAT_END
171
     0
 94
        0
309
TABLEFORMAT_END
  1
CELLSTYLE_BEGIN
 90
        3
 91
        2
300
_DATA
309
CELLSTYLE_END
  0
XRECORD
  5
3E7
102
{ACAD_REACTORS
330
3B0
102
}
330
3B0
100
AcDbXrecord
280
     1
102
ACAD_ROUNDTRIP_PRE2007_TABLESTYLE
 90
      512
 91
        0
  1

 92
      512
 93
        0
  2

 94
      512
 95
        0
  3

  0
XRECORD
  5
3C2
102
{ACAD_REACTORS
330
3C1
102
}
330
3C1
100
AcDbXrecord
280
     1
102
RTVSPost2010Prop28
280
     1
102
RTVSPost2010PropOp28
 70
     1
102
RTVSPost2010Prop29
280
     1
102
RTVSPost2010PropOp29
 70
     1
102
RTVSPost2010Prop30
280
     0
102
RTVSPost2010PropOp30
 70
     1
102
RTVSPost2010Prop31
280
     0
102
RTVSPost2010PropOp31
 70
     1
102
RTVSPost2010Prop32
280
     0
102
RTVSPost2010PropOp32
 70
     1
102
RTVSPost2010Prop33
280
     0
102
RTVSPost2010PropOp33
 70
     1
102
RTVSPost2010Prop34
280
     0
102
RTVSPost2010PropOp34
 70
     1
102
RTVSPost2010Prop35
280
     0
102
RTVSPost2010PropOp35
 70
     1
102
RTVSPost2010Prop36
280
     0
102
RTVSPost2010PropOp36
 70
     1
102
RTVSPost2010Prop37
 90
       50
102
RTVSPost2010PropOp37
 70
     1
102
RTVSPost2010Prop38
140
0.0
102
RTVSPost2010PropOp38
 70
     1
102
RTVSPost2010Prop39
140
1.0
102
RTVSPost2010PropOp39
 70
     1
102
RTVSPost2010Prop40
 90
        0
102
RTVSPost2010PropOp40
 70
     1
102
RTVSPost2010Prop41ColorIndex
 90
       18
102
RTVSPost2010Prop41ColorRGB
 90
        0
102
RTVSPost2010PropOp41
 70
     1
102
RTVSPost2010Prop42
 90
       50
102
RTVSPost2010PropOp42
 70
     1
102
RTVSPost2010Prop43
 90
        3
102
RTVSPost2010PropOp43
 70
     1
102
RTVSPost2010Prop44ColorIndex
 90
        5
102
RTVSPost2010Prop44ColorRGB
 90
      255
102
RTVSPost2010PropOp44
 70
     1
102
RTVSPost2010Prop45
280
     0
102
RTVSPost2010PropOp45
 70
     1
102
RTVSPost2010Prop46
 90
       50
102
RTVSPost2010PropOp46
 70
     1
102
RTVSPost2010Prop47
 90
       50
102
RTVSPost2010PropOp47
 70
     1
102
RTVSPost2010Prop48
 90
       50
102
RTVSPost2010PropOp48
 70
     1
102
RTVSPost2010Prop49
280
     0
102
RTVSPost2010PropOp49
 70
     1
102
RTVSPost2010Prop50
 90
       50
102
RTVSPost2010PropOp50
 70
     1
102
RTVSPost2010Prop51ColorIndex
 90
      256
102
RTVSPost2010Prop51ColorRGB
 90
-16777216
102
RTVSPost2010PropOp51
 70
     0
102
RTVSPost2010Prop52
140
1.0
102
RTVSPost2010PropOp52
 70
     0
102
RTVSPost2010Prop53
 90
        2
102
RTVSPost2010PropOp53
 70
     1
102
RTVSPost2010Prop54
  1
strokes_ogs.tif
102
RTVSPost2010PropOp54
 70
     1
102
RTVSPost2010Prop55
280
     0
102
RTVSPost2010PropOp55
 70
     1
102
RTVSPost2010Prop56
140
1.0
102
RTVSPost2010PropOp56
 70
     1
102
RTVSPost2010Prop57
140
1.0
102
RTVSPost2010PropOp57
 70
     1
102
RTVSPropertyOp0
 70
     1
102
RTVSPropertyOp1
 70
     1
102
RTVSPropertyOp2
 70
     1
102
RTVSPropertyOp3
 70
     1
102
RTVSPropertyOp4
 70
     1
102
RTVSPropertyOp5
 70
     1
102
RTVSPropertyOp6
 70
     1
102
RTVSPropertyOp7
 70
     1
102
RTVSPropertyOp8
 70
     1
102
RTVSPropertyOp9
 70
     1
102
RTVSPropertyOp10
 70
     1
102
RTVSPropertyOp11
 70
     1
102
RTVSPropertyOp12
 70
     1
102
RTVSPropertyOp13
 70
     1
102
RTVSPropertyOp14
 70
     1
102
RTVSPropertyOp15
 70
     1
102
RTVSPropertyOp16
 70
     1
102
RTVSPropertyOp17
 70
     1
102
RTVSPropertyOp18
 70
     1
102
RTVSPropertyOp19
 70
     1
102
RTVSPropertyOp20
 70
     1
102
RTVSPropertyOp21
 70
     1
102
RTVSPropertyOp22
 70
     1
102
RTVSPropertyOp23
 70
     1
102
RTVSPropertyOp24
 70
     1
102
RTVSPropertyOp25
 70
     1
102
RTVSPropertyOp26
 70
     1
102
RTVSPropertyOp27
 70
     1
102
RTVSPropertyOp28
 70
     1
102
RTVSPropertyOp29
 70
     1
102
RTVSPropertyOp30
 70
     1
102
RTVSPropertyOp31
 70
     1
102
RTVSPropertyOp32
 70
     1
102
RTVSPropertyOp33
 70
     1
102
RTVSPropertyOp34
 70
     1
102
RTVSPropertyOp35
 70
     1
102
RTVSPropertyOp36
 70
     1
102
RTVSPropertyOp37
 70
     1
102
RTVSPropertyOp38
 70
     1
102
RTVSPropertyOp39
 70
     1
102
RTVSPropertyOp40
 70
     1
102
RTVSPropertyOp41
 70
     1
102
RTVSPropertyOp42
 70
     1
102
RTVSPropertyOp43
 70
     1
102
RTVSPropertyOp44
 70
     1
102
RTVSPropertyOp45
 70
     1
102
RTVSPropertyOp46
 70
     1
102
RTVSPropertyOp47
 70
     1
102
RTVSPropertyOp48
 70
     1
102
RTVSPropertyOp49
 70
     1
102
RTVSPropertyOp50
 70
     1
102
RTVSPropertyOp51
 70
     0
102
RTVSPropertyOp52
 70
     0
102
RTVSPropertyOp53
 70
     1
102
RTVSPropertyOp54
 70
     1
102
RTVSPropertyOp55
 70
     1
102
RTVSPropertyOp56
 70
     1
102
RTVSPropertyOp57
 70
     1
102
RTVSPropertyOp58
 70
     1
102
RTVSPropertyOp59
 70
     1
102
RTVSPropertyOp60
 70
     1
102
RTVSPropertyOp61
 70
     1
102
RTVSPropertyOp62
 70
     1
  0
XRECORD
  5
3C0
102
{ACAD_REACTORS
330
3BF
102
}
330
3BF
100
AcDbXrecord
280
     1
102
RTVSPost2010Prop28
280
     0
102
RTVSPost2010PropOp28
 70
     1
102
RTVSPost2010Prop29
280
     1
102
RTVSPost2010PropOp29
 70
     1
102
RTVSPost2010Prop30
280
     1
102
RTVSPost2010PropOp30
 70
     1
102
RTVSPost2010Prop31
280
     0
102
RTVSPost2010PropOp31
 70
     1
102
RTVSPost2010Prop32
280
     0
102
RTVSPost2010PropOp32
 70
     1
102
RTVSPost2010Prop33
280
     0
102
RTVSPost2010PropOp33
 70
     1
102
RTVSPost2010Prop34
280
     0
102
RTVSPost2010PropOp34
 70
     1
102
RTVSPost2010Prop35
280
     0
102
RTVSPost2010PropOp35
 70
     1
102
RTVSPost2010Prop36
280
     0
102
RTVSPost2010PropOp36
 70
     1
102
RTVSPost2010Prop37
 90
       50
102
RTVSPost2010PropOp37
 70
     1
102
RTVSPost2010Prop38
140
0.0
102
RTVSPost2010PropOp38
 70
     1
102
RTVSPost2010Prop39
140
1.0
102
RTVSPost2010PropOp39
 70
     1
102
RTVSPost2010Prop40
 90
        0
102
RTVSPost2010PropOp40
 70
     1
102
RTVSPost2010Prop41ColorIndex
 90
       18
102
RTVSPost2010Prop41ColorRGB
 90
        0
102
RTVSPost2010PropOp41
 70
     1
102
RTVSPost2010Prop42
 90
       50
102
RTVSPost2010PropOp42
 70
     1
102
RTVSPost2010Prop43
 90
        3
102
RTVSPost2010PropOp43
 70
     1
102
RTVSPost2010Prop44ColorIndex
 90
        5
102
RTVSPost2010Prop44ColorRGB
 90
      255
102
RTVSPost2010PropOp44
 70
     1
102
RTVSPost2010Prop45
280
     0
102
RTVSPost2010PropOp45
 70
     1
102
RTVSPost2010Prop46
 90
       50
102
RTVSPost2010PropOp46
 70
     1
102
RTVSPost2010Prop47
 90
       50
102
RTVSPost2010PropOp47
 70
     1
102
RTVSPost2010Prop48
 90
       50
102
RTVSPost2010PropOp48
 70
     1
102
RTVSPost2010Prop49
280
     0
102
RTVSPost2010PropOp49
 70
     1
102
RTVSPost2010Prop50
 90
       50
102
RTVSPost2010PropOp50
 70
     1
102
RTVSPost2010Prop51ColorIndex
 90
      256
102
RTVSPost2010Prop51ColorRGB
 90
-16777216
102
RTVSPost2010PropOp51
 70
     0
102
RTVSPost2010Prop52
140
1.0
102
RTVSPost2010PropOp52
 70
     0
102
RTVSPost2010Prop53
 90
        2
102
RTVSPost2010PropOp53
 70
     1
102
RTVSPost2010Prop54
  1
strokes_ogs.tif
102
RTVSPost2010PropOp54
 70
     1
102
RTVSPost2010Prop55
280
     0
102
RTVSPost2010PropOp55
 70
     1
102
RTVSPost2010Prop56
140
1.0
102
RTVSPost2010PropOp56
 70
     1
102
RTVSPost2010Prop57
140
1.0
102
RTVSPost2010PropOp57
 70
     1
102
RTVSPropertyOp0
 70
     1
102
RTVSPropertyOp1
 70
     1
102
RTVSPropertyOp2
 70
     1
102
RTVSPropertyOp3
 70
     1
102
RTVSPropertyOp4
 70
     1
102
RTVSPropertyOp5
 70
     1
102
RTVSPropertyOp6
 70
     1
102
RTVSPropertyOp7
 70
     1
102
RTVSPropertyOp8
 70
     1
102
RTVSPropertyOp9
 70
     1
102
RTVSPropertyOp10
 70
     1
102
RTVSPropertyOp11
 70
     1
102
RTVSPropertyOp12
 70
     1
102
RTVSPropertyOp13
 70
     1
102
RTVSPropertyOp14
 70
     1
102
RTVSPropertyOp15
 70
     1
102
RTVSPropertyOp16
 70
     1
102
RTVSPropertyOp17
 70
     1
102
RTVSPropertyOp18
 70
     1
102
RTVSPropertyOp19
 70
     1
102
RTVSPropertyOp20
 70
     1
102
RTVSPropertyOp21
 70
     1
102
RTVSPropertyOp22
 70
     1
102
RTVSPropertyOp23
 70
     1
102
RTVSPropertyOp24
 70
     1
102
RTVSPropertyOp25
 70
     1
102
RTVSPropertyOp26
 70
     1
102
RTVSPropertyOp27
 70
     1
102
RTVSPropertyOp28
 70
     1
102
RTVSPropertyOp29
 70
     1
102
RTVSPropertyOp30
 70
     1
102
RTVSPropertyOp31
 70
     1
102
RTVSPropertyOp32
 70
     1
102
RTVSPropertyOp33
 70
     1
102
RTVSPropertyOp34
 70
     1
102
RTVSPropertyOp35
 70
     1
102
RTVSPropertyOp36
 70
     1
102
RTVSPropertyOp37
 70
     1
102
RTVSPropertyOp38
 70
     1
102
RTVSPropertyOp39
 70
     1
102
RTVSPropertyOp40
 70
     1
102
RTVSPropertyOp41
 70
     1
102
RTVSPropertyOp42
 70
     1
102
RTVSPropertyOp43
 70
     1
102
RTVSPropertyOp44
 70
     1
102
RTVSPropertyOp45
 70
     1
102
RTVSPropertyOp46
 70
     1
102
RTVSPropertyOp47
 70
     1
102
RTVSPropertyOp48
 70
     1
102
RTVSPropertyOp49
 70
     1
102
RTVSPropertyOp50
 70
     1
102
RTVSPropertyOp51
 70
     0
102
RTVSPropertyOp52
 70
     0
102
RTVSPropertyOp53
 70
     1
102
RTVSPropertyOp54
 70
     1
102
RTVSPropertyOp55
 70
     1
102
RTVSPropertyOp56
 70
     1
102
RTVSPropertyOp57
 70
     1
102
RTVSPropertyOp58
 70
     1
102
RTVSPropertyOp59
 70
     1
102
RTVSPropertyOp60
 70
     1
102
RTVSPropertyOp61
 70
     1
102
RTVSPropertyOp62
 70
     1
  0
XRECORD
  5
3CE
102
{ACAD_REACTORS
330
3CD
102
}
330
3CD
100
AcDbXrecord
280
     1
102
RTVSPost2010Prop28
280
     0
102
RTVSPost2010PropOp28
 70
     1
102
RTVSPost2010Prop29
280
     1
102
RTVSPost2010PropOp29
 70
     1
102
RTVSPost2010Prop30
280
     1
102
RTVSPost2010PropOp30
 70
     1
102
RTVSPost2010Prop31
280
     0
102
RTVSPost2010PropOp31
 70
     1
102
RTVSPost2010Prop32
280
     0
102
RTVSPost2010PropOp32
 70
     1
102
RTVSPost2010Prop33
280
     0
102
RTVSPost2010PropOp33
 70
     1
102
RTVSPost2010Prop34
280
     0
102
RTVSPost2010PropOp34
 70
     1
102
RTVSPost2010Prop35
280
     0
102
RTVSPost2010PropOp35
 70
     1
102
RTVSPost2010Prop36
280
     0
102
RTVSPost2010PropOp36
 70
     1
102
RTVSPost2010Prop37
 90
       50
102
RTVSPost2010PropOp37
 70
     1
102
RTVSPost2010Prop38
140
0.0
102
RTVSPost2010PropOp38
 70
     1
102
RTVSPost2010Prop39
140
1.0
102
RTVSPost2010PropOp39
 70
     1
102
RTVSPost2010Prop40
 90
        0
102
RTVSPost2010PropOp40
 70
     1
102
RTVSPost2010Prop41ColorIndex
 90
       18
102
RTVSPost2010Prop41ColorRGB
 90
        0
102
RTVSPost2010PropOp41
 70
     1
102
RTVSPost2010Prop42
 90
       50
102
RTVSPost2010PropOp42
 70
     1
102
RTVSPost2010Prop43
 90
        3
102
RTVSPost2010PropOp43
 70
     1
102
RTVSPost2010Prop44ColorIndex
 90
        5
102
RTVSPost2010Prop44ColorRGB
 90
      255
102
RTVSPost2010PropOp44
 70
     1
102
RTVSPost2010Prop45
280
     0
102
RTVSPost2010PropOp45
 70
     1
102
RTVSPost2010Prop46
 90
       50
102
RTVSPost2010PropOp46
 70
     1
102
RTVSPost2010Prop47
 90
       50
102
RTVSPost2010PropOp47
 70
     1
102
RTVSPost2010Prop48
 90
       50
102
RTVSPost2010PropOp48
 70
     1
102
RTVSPost2010Prop49
280
     0
102
RTVSPost2010PropOp49
 70
     1
102
RTVSPost2010Prop50
 90
       50
102
RTVSPost2010PropOp50
 70
     1
102
RTVSPost2010Prop51ColorIndex
 90
      256
102
RTVSPost2010Prop51ColorRGB
 90
-16777216
102
RTVSPost2010PropOp51
 70
     0
102
RTVSPost2010Prop52
140
1.0
102
RTVSPost2010PropOp52
 70
     0
102
RTVSPost2010Prop53
 90
        2
102
RTVSPost2010PropOp53
 70
     1
102
RTVSPost2010Prop54
  1
strokes_ogs.tif
102
RTVSPost2010PropOp54
 70
     1
102
RTVSPost2010Prop55
280
     0
102
RTVSPost2010PropOp55
 70
     1
102
RTVSPost2010Prop56
140
1.0
102
RTVSPost2010PropOp56
 70
     1
102
RTVSPost2010Prop57
140
1.0
102
RTVSPost2010PropOp57
 70
     1
102
RTVSPropertyOp0
 70
     1
102
RTVSPropertyOp1
 70
     1
102
RTVSPropertyOp2
 70
     1
102
RTVSPropertyOp3
 70
     1
102
RTVSPropertyOp4
 70
     1
102
RTVSPropertyOp5
 70
     1
102
RTVSPropertyOp6
 70
     1
102
RTVSPropertyOp7
 70
     1
102
RTVSPropertyOp8
 70
     1
102
RTVSPropertyOp9
 70
     1
102
RTVSPropertyOp10
 70
     1
102
RTVSPropertyOp11
 70
     1
102
RTVSPropertyOp12
 70
     1
102
RTVSPropertyOp13
 70
     1
102
RTVSPropertyOp14
 70
     1
102
RTVSPropertyOp15
 70
     1
102
RTVSPropertyOp16
 70
     1
102
RTVSPropertyOp17
 70
     1
102
RTVSPropertyOp18
 70
     1
102
RTVSPropertyOp19
 70
     1
102
RTVSPropertyOp20
 70
     1
102
RTVSPropertyOp21
 70
     1
102
RTVSPropertyOp22
 70
     1
102
RTVSPropertyOp23
 70
     1
102
RTVSPropertyOp24
 70
     1
102
RTVSPropertyOp25
 70
     1
102
RTVSPropertyOp26
 70
     1
102
RTVSPropertyOp27
 70
     1
102
RTVSPropertyOp28
 70
     1
102
RTVSPropertyOp29
 70
     1
102
RTVSPropertyOp30
 70
     1
102
RTVSPropertyOp31
 70
     1
102
RTVSPropertyOp32
 70
     1
102
RTVSPropertyOp33
 70
     1
102
RTVSPropertyOp34
 70
     1
102
RTVSPropertyOp35
 70
     1
102
RTVSPropertyOp36
 70
     1
102
RTVSPropertyOp37
 70
     1
102
RTVSPropertyOp38
 70
     1
102
RTVSPropertyOp39
 70
     1
102
RTVSPropertyOp40
 70
     1
102
RTVSPropertyOp41
 70
     1
102
RTVSPropertyOp42
 70
     1
102
RTVSPropertyOp43
 70
     1
102
RTVSPropertyOp44
 70
     1
102
RTVSPropertyOp45
 70
     1
102
RTVSPropertyOp46
 70
     1
102
RTVSPropertyOp47
 70
     1
102
RTVSPropertyOp48
 70
     1
102
RTVSPropertyOp49
 70
     1
102
RTVSPropertyOp50
 70
     1
102
RTVSPropertyOp51
 70
     0
102
RTVSPropertyOp52
 70
     0
102
RTVSPropertyOp53
 70
     1
102
RTVSPropertyOp54
 70
     1
102
RTVSPropertyOp55
 70
     1
102
RTVSPropertyOp56
 70
     1
102
RTVSPropertyOp57
 70
     1
102
RTVSPropertyOp58
 70
     1
102
RTVSPropertyOp59
 70
     1
102
RTVSPropertyOp60
 70
     1
102
RTVSPropertyOp61
 70
     1
102
RTVSPropertyOp62
 70
     1
  0
XRECORD
  5
3D6
102
{ACAD_REACTORS
330
3D5
102
}
330
3D5
100
AcDbXrecord
280
     1
102
RTVSPost2010Prop28
280
     0
102
RTVSPost2010PropOp28
 70
     1
102
RTVSPost2010Prop29
280
     1
102
RTVSPost2010PropOp29
 70
     1
102
RTVSPost2010Prop30
280
     1
102
RTVSPost2010PropOp30
 70
     1
102
RTVSPost2010Prop31
280
     0
102
RTVSPost2010PropOp31
 70
     1
102
RTVSPost2010Prop32
280
     0
102
RTVSPost2010PropOp32
 70
     1
102
RTVSPost2010Prop33
280
     0
102
RTVSPost2010PropOp33
 70
     1
102
RTVSPost2010Prop34
280
     0
102
RTVSPost2010PropOp34
 70
     1
102
RTVSPost2010Prop35
280
     0
102
RTVSPost2010PropOp35
 70
     1
102
RTVSPost2010Prop36
280
     0
102
RTVSPost2010PropOp36
 70
     1
102
RTVSPost2010Prop37
 90
       50
102
RTVSPost2010PropOp37
 70
     1
102
RTVSPost2010Prop38
140
0.0
102
RTVSPost2010PropOp38
 70
     1
102
RTVSPost2010Prop39
140
1.0
102
RTVSPost2010PropOp39
 70
     1
102
RTVSPost2010Prop40
 90
        0
102
RTVSPost2010PropOp40
 70
     1
102
RTVSPost2010Prop41ColorIndex
 90
       18
102
RTVSPost2010Prop41ColorRGB
 90
        0
102
RTVSPost2010PropOp41
 70
     1
102
RTVSPost2010Prop42
 90
       50
102
RTVSPost2010PropOp42
 70
     1
102
RTVSPost2010Prop43
 90
        3
102
RTVSPost2010PropOp43
 70
     1
102
RTVSPost2010Prop44ColorIndex
 90
        5
102
RTVSPost2010Prop44ColorRGB
 90
      255
102
RTVSPost2010PropOp44
 70
     1
102
RTVSPost2010Prop45
280
     0
102
RTVSPost2010PropOp45
 70
     1
102
RTVSPost2010Prop46
 90
       50
102
RTVSPost2010PropOp46
 70
     1
102
RTVSPost2010Prop47
 90
       50
102
RTVSPost2010PropOp47
 70
     1
102
RTVSPost2010Prop48
 90
       50
102
RTVSPost2010PropOp48
 70
     1
102
RTVSPost2010Prop49
280
     0
102
RTVSPost2010PropOp49
 70
     1
102
RTVSPost2010Prop50
 90
       50
102
RTVSPost2010PropOp50
 70
     1
102
RTVSPost2010Prop51ColorIndex
 90
      256
102
RTVSPost2010Prop51ColorRGB
 90
-16777216
102
RTVSPost2010PropOp51
 70
     0
102
RTVSPost2010Prop52
140
1.0
102
RTVSPost2010PropOp52
 70
     0
102
RTVSPost2010Prop53
 90
        2
102
RTVSPost2010PropOp53
 70
     1
102
RTVSPost2010Prop54
  1
strokes_ogs.tif
102
RTVSPost2010PropOp54
 70
     1
102
RTVSPost2010Prop55
280
     0
102
RTVSPost2010PropOp55
 70
     1
102
RTVSPost2010Prop56
140
1.0
102
RTVSPost2010PropOp56
 70
     1
102
RTVSPost2010Prop57
140
1.0
102
RTVSPost2010PropOp57
 70
     1
102
RTVSPropertyOp0
 70
     1
102
RTVSPropertyOp1
 70
     1
102
RTVSPropertyOp2
 70
     1
102
RTVSPropertyOp3
 70
     1
102
RTVSPropertyOp4
 70
     1
102
RTVSPropertyOp5
 70
     1
102
RTVSPropertyOp6
 70
     1
102
RTVSPropertyOp7
 70
     1
102
RTVSPropertyOp8
 70
     1
102
RTVSPropertyOp9
 70
     1
102
RTVSPropertyOp10
 70
     1
102
RTVSPropertyOp11
 70
     1
102
RTVSPropertyOp12
 70
     1
102
RTVSPropertyOp13
 70
     1
102
RTVSPropertyOp14
 70
     1
102
RTVSPropertyOp15
 70
     1
102
RTVSPropertyOp16
 70
     1
102
RTVSPropertyOp17
 70
     1
102
RTVSPropertyOp18
 70
     1
102
RTVSPropertyOp19
 70
     1
102
RTVSPropertyOp20
 70
     1
102
RTVSPropertyOp21
 70
     1
102
RTVSPropertyOp22
 70
     1
102
RTVSPropertyOp23
 70
     1
102
RTVSPropertyOp24
 70
     1
102
RTVSPropertyOp25
 70
     1
102
RTVSPropertyOp26
 70
     1
102
RTVSPropertyOp27
 70
     1
102
RTVSPropertyOp28
 70
     1
102
RTVSPropertyOp29
 70
     1
102
RTVSPropertyOp30
 70
     1
102
RTVSPropertyOp31
 70
     1
102
RTVSPropertyOp32
 70
     1
102
RTVSPropertyOp33
 70
     1
102
RTVSPropertyOp34
 70
     1
102
RTVSPropertyOp35
 70
     1
102
RTVSPropertyOp36
 70
     1
102
RTVSPropertyOp37
 70
     1
102
RTVSPropertyOp38
 70
     1
102
RTVSPropertyOp39
 70
     1
102
RTVSPropertyOp40
 70
     1
102
RTVSPropertyOp41
 70
     1
102
RTVSPropertyOp42
 70
     1
102
RTVSPropertyOp43
 70
     1
102
RTVSPropertyOp44
 70
     1
102
RTVSPropertyOp45
 70
     1
102
RTVSPropertyOp46
 70
     1
102
RTVSPropertyOp47
 70
     1
102
RTVSPropertyOp48
 70
     1
102
RTVSPropertyOp49
 70
     1
102
RTVSPropertyOp50
 70
     1
102
RTVSPropertyOp51
 70
     0
102
RTVSPropertyOp52
 70
     0
102
RTVSPropertyOp53
 70
     1
102
RTVSPropertyOp54
 70
     1
102
RTVSPropertyOp55
 70
     1
102
RTVSPropertyOp56
 70
     1
102
RTVSPropertyOp57
 70
     1
102
RTVSPropertyOp58
 70
     1
102
RTVSPropertyOp59
 70
     1
102
RTVSPropertyOp60
 70
     1
102
RTVSPropertyOp61
 70
     1
102
RTVSPropertyOp62
 70
     1
  0
XRECORD
  5
3C8
102
{ACAD_REACTORS
330
3C7
102
}
330
3C7
100
AcDbXrecord
280
     1
102
RTVSPost2010Prop28
280
     0
102
RTVSPost2010PropOp28
 70
     1
102
RTVSPost2010Prop29
280
     1
102
RTVSPost2010PropOp29
 70
     1
102
RTVSPost2010Prop30
280
     1
102
RTVSPost2010PropOp30
 70
     1
102
RTVSPost2010Prop31
280
     0
102
RTVSPost2010PropOp31
 70
     1
102
RTVSPost2010Prop32
280
     0
102
RTVSPost2010PropOp32
 70
     1
102
RTVSPost2010Prop33
280
     0
102
RTVSPost2010PropOp33
 70
     1
102
RTVSPost2010Prop34
280
     0
102
RTVSPost2010PropOp34
 70
     1
102
RTVSPost2010Prop35
280
     0
102
RTVSPost2010PropOp35
 70
     1
102
RTVSPost2010Prop36
280
     0
102
RTVSPost2010PropOp36
 70
     1
102
RTVSPost2010Prop37
 90
       50
102
RTVSPost2010PropOp37
 70
     1
102
RTVSPost2010Prop38
140
0.0
102
RTVSPost2010PropOp38
 70
     1
102
RTVSPost2010Prop39
140
1.0
102
RTVSPost2010PropOp39
 70
     1
102
RTVSPost2010Prop40
 90
        0
102
RTVSPost2010PropOp40
 70
     1
102
RTVSPost2010Prop41ColorIndex
 90
       18
102
RTVSPost2010Prop41ColorRGB
 90
        0
102
RTVSPost2010PropOp41
 70
     1
102
RTVSPost2010Prop42
 90
       50
102
RTVSPost2010PropOp42
 70
     1
102
RTVSPost2010Prop43
 90
        3
102
RTVSPost2010PropOp43
 70
     1
102
RTVSPost2010Prop44ColorIndex
 90
        5
102
RTVSPost2010Prop44ColorRGB
 90
      255
102
RTVSPost2010PropOp44
 70
     1
102
RTVSPost2010Prop45
280
     0
102
RTVSPost2010PropOp45
 70
     1
102
RTVSPost2010Prop46
 90
       50
102
RTVSPost2010PropOp46
 70
     1
102
RTVSPost2010Prop47
 90
       50
102
RTVSPost2010PropOp47
 70
     1
102
RTVSPost2010Prop48
 90
       50
102
RTVSPost2010PropOp48
 70
     1
102
RTVSPost2010Prop49
280
     0
102
RTVSPost2010PropOp49
 70
     1
102
RTVSPost2010Prop50
 90
       50
102
RTVSPost2010PropOp50
 70
     1
102
RTVSPost2010Prop51ColorIndex
 90
      256
102
RTVSPost2010Prop51ColorRGB
 90
-16777216
102
RTVSPost2010PropOp51
 70
     0
102
RTVSPost2010Prop52
140
1.0
102
RTVSPost2010PropOp52
 70
     0
102
RTVSPost2010Prop53
 90
        2
102
RTVSPost2010PropOp53
 70
     1
102
RTVSPost2010Prop54
  1
strokes_ogs.tif
102
RTVSPost2010PropOp54
 70
     1
102
RTVSPost2010Prop55
280
     0
102
RTVSPost2010PropOp55
 70
     1
102
RTVSPost2010Prop56
140
1.0
102
RTVSPost2010PropOp56
 70
     1
102
RTVSPost2010Prop57
140
1.0
102
RTVSPost2010PropOp57
 70
     1
102
RTVSPropertyOp0
 70
     1
102
RTVSPropertyOp1
 70
     1
102
RTVSPropertyOp2
 70
     1
102
RTVSPropertyOp3
 70
     1
102
RTVSPropertyOp4
 70
     1
102
RTVSPropertyOp5
 70
     1
102
RTVSPropertyOp6
 70
     1
102
RTVSPropertyOp7
 70
     1
102
RTVSPropertyOp8
 70
     1
102
RTVSPropertyOp9
 70
     1
102
RTVSPropertyOp10
 70
     1
102
RTVSPropertyOp11
 70
     1
102
RTVSPropertyOp12
 70
     1
102
RTVSPropertyOp13
 70
     1
102
RTVSPropertyOp14
 70
     1
102
RTVSPropertyOp15
 70
     1
102
RTVSPropertyOp16
 70
     1
102
RTVSPropertyOp17
 70
     1
102
RTVSPropertyOp18
 70
     1
102
RTVSPropertyOp19
 70
     1
102
RTVSPropertyOp20
 70
     1
102
RTVSPropertyOp21
 70
     1
102
RTVSPropertyOp22
 70
     1
102
RTVSPropertyOp23
 70
     1
102
RTVSPropertyOp24
 70
     1
102
RTVSPropertyOp25
 70
     1
102
RTVSPropertyOp26
 70
     1
102
RTVSPropertyOp27
 70
     1
102
RTVSPropertyOp28
 70
     1
102
RTVSPropertyOp29
 70
     1
102
RTVSPropertyOp30
 70
     1
102
RTVSPropertyOp31
 70
     1
102
RTVSPropertyOp32
 70
     1
102
RTVSPropertyOp33
 70
     1
102
RTVSPropertyOp34
 70
     1
102
RTVSPropertyOp35
 70
     1
102
RTVSPropertyOp36
 70
     1
102
RTVSPropertyOp37
 70
     1
102
RTVSPropertyOp38
 70
     1
102
RTVSPropertyOp39
 70
     1
102
RTVSPropertyOp40
 70
     1
102
RTVSPropertyOp41
 70
     1
102
RTVSPropertyOp42
 70
     1
102
RTVSPropertyOp43
 70
     1
102
RTVSPropertyOp44
 70
     1
102
RTVSPropertyOp45
 70
     1
102
RTVSPropertyOp46
 70
     1
102
RTVSPropertyOp47
 70
     1
102
RTVSPropertyOp48
 70
     1
102
RTVSPropertyOp49
 70
     1
102
RTVSPropertyOp50
 70
     1
102
RTVSPropertyOp51
 70
     0
102
RTVSPropertyOp52
 70
     0
102
RTVSPropertyOp53
 70
     1
102
RTVSPropertyOp54
 70
     1
102
RTVSPropertyOp55
 70
     1
102
RTVSPropertyOp56
 70
     1
102
RTVSPropertyOp57
 70
     1
102
RTVSPropertyOp58
 70
     1
102
RTVSPropertyOp59
 70
     1
102
RTVSPropertyOp60
 70
     1
102
RTVSPropertyOp61
 70
     1
102
RTVSPropertyOp62
 70
     1
  0
XRECORD
  5
3CC
102
{ACAD_REACTORS
330
3CB
102
}
330
3CB
100
AcDbXrecord
280
     1
102
RTVSPost2010Prop28
280
     0
102
RTVSPost2010PropOp28
 70
     1
102
RTVSPost2010Prop29
280
     1
102
RTVSPost2010PropOp29
 70
     1
102
RTVSPost2010Prop30
280
     1
102
RTVSPost2010PropOp30
 70
     1
102
RTVSPost2010Prop31
280
     0
102
RTVSPost2010PropOp31
 70
     1
102
RTVSPost2010Prop32
280
     0
102
RTVSPost2010PropOp32
 70
     1
102
RTVSPost2010Prop33
280
     0
102
RTVSPost2010PropOp33
 70
     1
102
RTVSPost2010Prop34
280
     0
102
RTVSPost2010PropOp34
 70
     1
102
RTVSPost2010Prop35
280
     0
102
RTVSPost2010PropOp35
 70
     1
102
RTVSPost2010Prop36
280
     0
102
RTVSPost2010PropOp36
 70
     1
102
RTVSPost2010Prop37
 90
       50
102
RTVSPost2010PropOp37
 70
     1
102
RTVSPost2010Prop38
140
0.0
102
RTVSPost2010PropOp38
 70
     1
102
RTVSPost2010Prop39
140
1.0
102
RTVSPost2010PropOp39
 70
     1
102
RTVSPost2010Prop40
 90
        0
102
RTVSPost2010PropOp40
 70
     1
102
RTVSPost2010Prop41ColorIndex
 90
       18
102
RTVSPost2010Prop41ColorRGB
 90
        0
102
RTVSPost2010PropOp41
 70
     1
102
RTVSPost2010Prop42
 90
       50
102
RTVSPost2010PropOp42
 70
     1
102
RTVSPost2010Prop43
 90
        3
102
RTVSPost2010PropOp43
 70
     1
102
RTVSPost2010Prop44ColorIndex
 90
        5
102
RTVSPost2010Prop44ColorRGB
 90
      255
102
RTVSPost2010PropOp44
 70
     1
102
RTVSPost2010Prop45
280
     0
102
RTVSPost2010PropOp45
 70
     1
102
RTVSPost2010Prop46
 90
       50
102
RTVSPost2010PropOp46
 70
     1
102
RTVSPost2010Prop47
 90
       50
102
RTVSPost2010PropOp47
 70
     1
102
RTVSPost2010Prop48
 90
       50
102
RTVSPost2010PropOp48
 70
     1
102
RTVSPost2010Prop49
280
     0
102
RTVSPost2010PropOp49
 70
     1
102
RTVSPost2010Prop50
 90
       50
102
RTVSPost2010PropOp50
 70
     1
102
RTVSPost2010Prop51ColorIndex
 90
      256
102
RTVSPost2010Prop51ColorRGB
 90
-16777216
102
RTVSPost2010PropOp51
 70
     0
102
RTVSPost2010Prop52
140
1.0
102
RTVSPost2010PropOp52
 70
     0
102
RTVSPost2010Prop53
 90
        2
102
RTVSPost2010PropOp53
 70
     1
102
RTVSPost2010Prop54
  1
strokes_ogs.tif
102
RTVSPost2010PropOp54
 70
     1
102
RTVSPost2010Prop55
280
     0
102
RTVSPost2010PropOp55
 70
     1
102
RTVSPost2010Prop56
140
1.0
102
RTVSPost2010PropOp56
 70
     1
102
RTVSPost2010Prop57
140
1.0
102
RTVSPost2010PropOp57
 70
     1
102
RTVSPropertyOp0
 70
     1
102
RTVSPropertyOp1
 70
     1
102
RTVSPropertyOp2
 70
     1
102
RTVSPropertyOp3
 70
     1
102
RTVSPropertyOp4
 70
     1
102
RTVSPropertyOp5
 70
     1
102
RTVSPropertyOp6
 70
     1
102
RTVSPropertyOp7
 70
     1
102
RTVSPropertyOp8
 70
     1
102
RTVSPropertyOp9
 70
     1
102
RTVSPropertyOp10
 70
     1
102
RTVSPropertyOp11
 70
     1
102
RTVSPropertyOp12
 70
     1
102
RTVSPropertyOp13
 70
     1
102
RTVSPropertyOp14
 70
     1
102
RTVSPropertyOp15
 70
     1
102
RTVSPropertyOp16
 70
     1
102
RTVSPropertyOp17
 70
     1
102
RTVSPropertyOp18
 70
     1
102
RTVSPropertyOp19
 70
     1
102
RTVSPropertyOp20
 70
     1
102
RTVSPropertyOp21
 70
     1
102
RTVSPropertyOp22
 70
     1
102
RTVSPropertyOp23
 70
     1
102
RTVSPropertyOp24
 70
     1
102
RTVSPropertyOp25
 70
     1
102
RTVSPropertyOp26
 70
     1
102
RTVSPropertyOp27
 70
     1
102
RTVSPropertyOp28
 70
     1
102
RTVSPropertyOp29
 70
     1
102
RTVSPropertyOp30
 70
     1
102
RTVSPropertyOp31
 70
     1
102
RTVSPropertyOp32
 70
     1
102
RTVSPropertyOp33
 70
     1
102
RTVSPropertyOp34
 70
     1
102
RTVSPropertyOp35
 70
     1
102
RTVSPropertyOp36
 70
     1
102
RTVSPropertyOp37
 70
     1
102
RTVSPropertyOp38
 70
     1
102
RTVSPropertyOp39
 70
     1
102
RTVSPropertyOp40
 70
     1
102
RTVSPropertyOp41
 70
     1
102
RTVSPropertyOp42
 70
     1
102
RTVSPropertyOp43
 70
     1
102
RTVSPropertyOp44
 70
     1
102
RTVSPropertyOp45
 70
     1
102
RTVSPropertyOp46
 70
     1
102
RTVSPropertyOp47
 70
     1
102
RTVSPropertyOp48
 70
     1
102
RTVSPropertyOp49
 70
     1
102
RTVSPropertyOp50
 70
     1
102
RTVSPropertyOp51
 70
     0
102
RTVSPropertyOp52
 70
     0
102
RTVSPropertyOp53
 70
     1
102
RTVSPropertyOp54
 70
     1
102
RTVSPropertyOp55
 70
     1
102
RTVSPropertyOp56
 70
     1
102
RTVSPropertyOp57
 70
     1
102
RTVSPropertyOp58
 70
     1
102
RTVSPropertyOp59
 70
     1
102
RTVSPropertyOp60
 70
     1
102
RTVSPropertyOp61
 70
     1
102
RTVSPropertyOp62
 70
     1
  0
XRECORD
  5
3E6
102
{ACAD_REACTORS
330
3E5
102
}
330
3E5
100
AcDbXrecord
280
     1
102
RTVSPost2010Prop28
280
     0
102
RTVSPost2010PropOp28
 70
     1
102
RTVSPost2010Prop29
280
     1
102
RTVSPost2010PropOp29
 70
     1
102
RTVSPost2010Prop30
280
     1
102
RTVSPost2010PropOp30
 70
     1
102
RTVSPost2010Prop31
280
     0
102
RTVSPost2010PropOp31
 70
     1
102
RTVSPost2010Prop32
280
     0
102
RTVSPost2010PropOp32
 70
     1
102
RTVSPost2010Prop33
280
     0
102
RTVSPost2010PropOp33
 70
     1
102
RTVSPost2010Prop34
280
     0
102
RTVSPost2010PropOp34
 70
     1
102
RTVSPost2010Prop35
280
     0
102
RTVSPost2010PropOp35
 70
     1
102
RTVSPost2010Prop36
280
     0
102
RTVSPost2010PropOp36
 70
     1
102
RTVSPost2010Prop37
 90
       50
102
RTVSPost2010PropOp37
 70
     0
102
RTVSPost2010Prop38
140
0.0
102
RTVSPost2010PropOp38
 70
     0
102
RTVSPost2010Prop39
140
1.0
102
RTVSPost2010PropOp39
 70
     0
102
RTVSPost2010Prop40
 90
        0
102
RTVSPost2010PropOp40
 70
     0
102
RTVSPost2010Prop41ColorIndex
 90
       18
102
RTVSPost2010Prop41ColorRGB
 90
        0
102
RTVSPost2010PropOp41
 70
     0
102
RTVSPost2010Prop42
 90
       50
102
RTVSPost2010PropOp42
 70
     0
102
RTVSPost2010Prop43
 90
        3
102
RTVSPost2010PropOp43
 70
     0
102
RTVSPost2010Prop44ColorIndex
 90
        5
102
RTVSPost2010Prop44ColorRGB
 90
      255
102
RTVSPost2010PropOp44
 70
     0
102
RTVSPost2010Prop45
280
     0
102
RTVSPost2010PropOp45
 70
     1
102
RTVSPost2010Prop46
 90
       50
102
RTVSPost2010PropOp46
 70
     0
102
RTVSPost2010Prop47
 90
       50
102
RTVSPost2010PropOp47
 70
     0
102
RTVSPost2010Prop48
 90
       50
102
RTVSPost2010PropOp48
 70
     0
102
RTVSPost2010Prop49
280
     0
102
RTVSPost2010PropOp49
 70
     1
102
RTVSPost2010Prop50
 90
       50
102
RTVSPost2010PropOp50
 70
     0
102
RTVSPost2010Prop51ColorIndex
 90
      256
102
RTVSPost2010Prop51ColorRGB
 90
-16777216
102
RTVSPost2010PropOp51
 70
     0
102
RTVSPost2010Prop52
140
1.0
102
RTVSPost2010PropOp52
 70
     0
102
RTVSPost2010Prop53
 90
        2
102
RTVSPost2010PropOp53
 70
     0
102
RTVSPost2010Prop54
  1
strokes_ogs.tif
102
RTVSPost2010PropOp54
 70
     0
102
RTVSPost2010Prop55
280
     0
102
RTVSPost2010PropOp55
 70
     1
102
RTVSPost2010Prop56
140
1.0
102
RTVSPost2010PropOp56
 70
     0
102
RTVSPost2010Prop57
140
1.0
102
RTVSPost2010PropOp57
 70
     0
102
RTVSPropertyOp0
 70
     0
102
RTVSPropertyOp1
 70
     0
102
RTVSPropertyOp2
 70
     0
102
RTVSPropertyOp3
 70
     0
102
RTVSPropertyOp4
 70
     0
102
RTVSPropertyOp5
 70
     0
102
RTVSPropertyOp6
 70
     0
102
RTVSPropertyOp7
 70
     0
102
RTVSPropertyOp8
 70
     0
102
RTVSPropertyOp9
 70
     0
102
RTVSPropertyOp10
 70
     0
102
RTVSPropertyOp11
 70
     0
102
RTVSPropertyOp12
 70
     0
102
RTVSPropertyOp13
 70
     0
102
RTVSPropertyOp14
 70
     2
102
RTVSPropertyOp15
 70
     0
102
RTVSPropertyOp16
 70
     0
102
RTVSPropertyOp17
 70
     0
102
RTVSPropertyOp18
 70
     0
102
RTVSPropertyOp19
 70
     0
102
RTVSPropertyOp20
 70
     0
102
RTVSPropertyOp21
 70
     0
102
RTVSPropertyOp22
 70
     0
102
RTVSPropertyOp23
 70
     0
102
RTVSPropertyOp24
 70
     0
102
RTVSPropertyOp25
 70
     0
102
RTVSPropertyOp26
 70
     0
102
RTVSPropertyOp27
 70
     0
102
RTVSPropertyOp28
 70
     1
102
RTVSPropertyOp29
 70
     1
102
RTVSPropertyOp30
 70
     1
102
RTVSPropertyOp31
 70
     1
102
RTVSPropertyOp32
 70
     1
102
RTVSPropertyOp33
 70
     1
102
RTVSPropertyOp34
 70
     1
102
RTVSPropertyOp35
 70
     1
102
RTVSPropertyOp36
 70
     1
102
RTVSPropertyOp37
 70
     0
102
RTVSPropertyOp38
 70
     0
102
RTVSPropertyOp39
 70
     0
102
RTVSPropertyOp40
 70
     0
102
RTVSPropertyOp41
 70
     0
102
RTVSPropertyOp42
 70
     0
102
RTVSPropertyOp43
 70
     0
102
RTVSPropertyOp44
 70
     0
102
RTVSPropertyOp45
 70
     1
102
RTVSPropertyOp46
 70
     0
102
RTVSPropertyOp47
 70
     0
102
RTVSPropertyOp48
 70
     0
102
RTVSPropertyOp49
 70
     1
102
RTVSPropertyOp50
 70
     0
102
RTVSPropertyOp51
 70
     0
102
RTVSPropertyOp52
 70
     0
102
RTVSPropertyOp53
 70
     0
102
RTVSPropertyOp54
 70
     0
102
RTVSPropertyOp55
 70
     1
102
RTVSPropertyOp56
 70
     0
102
RTVSPropertyOp57
 70
     0
102
RTVSPropertyOp58
 70
     0
102
RTVSPropertyOp59
 70
     0
102
RTVSPropertyOp60
 70
     0
102
RTVSPropertyOp61
 70
     0
102
RTVSPropertyOp62
 70
     0
  0
XRECORD
  5
3D4
102
{ACAD_REACTORS
330
3D3
102
}
330
3D3
100
AcDbXrecord
280
     1
102
RTVSPost2010Prop28
280
     0
102
RTVSPost2010PropOp28
 70
     1
102
RTVSPost2010Prop29
280
     1
102
RTVSPost2010PropOp29
 70
     1
102
RTVSPost2010Prop30
280
     1
102
RTVSPost2010PropOp30
 70
     1
102
RTVSPost2010Prop31
280
     0
102
RTVSPost2010PropOp31
 70
     1
102
RTVSPost2010Prop32
280
     0
102
RTVSPost2010PropOp32
 70
     1
102
RTVSPost2010Prop33
280
     0
102
RTVSPost2010PropOp33
 70
     1
102
RTVSPost2010Prop34
280
     0
102
RTVSPost2010PropOp34
 70
     1
102
RTVSPost2010Prop35
280
     0
102
RTVSPost2010PropOp35
 70
     1
102
RTVSPost2010Prop36
280
     0
102
RTVSPost2010PropOp36
 70
     1
102
RTVSPost2010Prop37
 90
       50
102
RTVSPost2010PropOp37
 70
     1
102
RTVSPost2010Prop38
140
0.0
102
RTVSPost2010PropOp38
 70
     1
102
RTVSPost2010Prop39
140
1.0
102
RTVSPost2010PropOp39
 70
     1
102
RTVSPost2010Prop40
 90
        0
102
RTVSPost2010PropOp40
 70
     1
102
RTVSPost2010Prop41ColorIndex
 90
       18
102
RTVSPost2010Prop41ColorRGB
 90
        0
102
RTVSPost2010PropOp41
 70
     1
102
RTVSPost2010Prop42
 90
       50
102
RTVSPost2010PropOp42
 70
     1
102
RTVSPost2010Prop43
 90
        3
102
RTVSPost2010PropOp43
 70
     1
102
RTVSPost2010Prop44ColorIndex
 90
        5
102
RTVSPost2010Prop44ColorRGB
 90
      255
102
RTVSPost2010PropOp44
 70
     1
102
RTVSPost2010Prop45
280
     0
102
RTVSPost2010PropOp45
 70
     1
102
RTVSPost2010Prop46
 90
       50
102
RTVSPost2010PropOp46
 70
     1
102
RTVSPost2010Prop47
 90
       50
102
RTVSPost2010PropOp47
 70
     1
102
RTVSPost2010Prop48
 90
       50
102
RTVSPost2010PropOp48
 70
     1
102
RTVSPost2010Prop49
280
     0
102
RTVSPost2010PropOp49
 70
     1
102
RTVSPost2010Prop50
 90
       50
102
RTVSPost2010PropOp50
 70
     1
102
RTVSPost2010Prop51ColorIndex
 90
      256
102
RTVSPost2010Prop51ColorRGB
 90
-16777216
102
RTVSPost2010PropOp51
 70
     0
102
RTVSPost2010Prop52
140
1.0
102
RTVSPost2010PropOp52
 70
     0
102
RTVSPost2010Prop53
 90
        2
102
RTVSPost2010PropOp53
 70
     1
102
RTVSPost2010Prop54
  1
strokes_ogs.tif
102
RTVSPost2010PropOp54
 70
     1
102
RTVSPost2010Prop55
280
     0
102
RTVSPost2010PropOp55
 70
     1
102
RTVSPost2010Prop56
140
1.0
102
RTVSPost2010PropOp56
 70
     1
102
RTVSPost2010Prop57
140
1.0
102
RTVSPost2010PropOp57
 70
     1
102
RTVSPropertyOp0
 70
     1
102
RTVSPropertyOp1
 70
     1
102
RTVSPropertyOp2
 70
     1
102
RTVSPropertyOp3
 70
     1
102
RTVSPropertyOp4
 70
     1
102
RTVSPropertyOp5
 70
     1
102
RTVSPropertyOp6
 70
     1
102
RTVSPropertyOp7
 70
     1
102
RTVSPropertyOp8
 70
     1
102
RTVSPropertyOp9
 70
     1
102
RTVSPropertyOp10
 70
     1
102
RTVSPropertyOp11
 70
     1
102
RTVSPropertyOp12
 70
     1
102
RTVSPropertyOp13
 70
     1
102
RTVSPropertyOp14
 70
     1
102
RTVSPropertyOp15
 70
     1
102
RTVSPropertyOp16
 70
     1
102
RTVSPropertyOp17
 70
     1
102
RTVSPropertyOp18
 70
     1
102
RTVSPropertyOp19
 70
     1
102
RTVSPropertyOp20
 70
     1
102
RTVSPropertyOp21
 70
     1
102
RTVSPropertyOp22
 70
     1
102
RTVSPropertyOp23
 70
     1
102
RTVSPropertyOp24
 70
     1
102
RTVSPropertyOp25
 70
     1
102
RTVSPropertyOp26
 70
     1
102
RTVSPropertyOp27
 70
     1
102
RTVSPropertyOp28
 70
     1
102
RTVSPropertyOp29
 70
     1
102
RTVSPropertyOp30
 70
     1
102
RTVSPropertyOp31
 70
     1
102
RTVSPropertyOp32
 70
     1
102
RTVSPropertyOp33
 70
     1
102
RTVSPropertyOp34
 70
     1
102
RTVSPropertyOp35
 70
     1
102
RTVSPropertyOp36
 70
     1
102
RTVSPropertyOp37
 70
     1
102
RTVSPropertyOp38
 70
     1
102
RTVSPropertyOp39
 70
     1
102
RTVSPropertyOp40
 70
     1
102
RTVSPropertyOp41
 70
     1
102
RTVSPropertyOp42
 70
     1
102
RTVSPropertyOp43
 70
     1
102
RTVSPropertyOp44
 70
     1
102
RTVSPropertyOp45
 70
     1
102
RTVSPropertyOp46
 70
     1
102
RTVSPropertyOp47
 70
     1
102
RTVSPropertyOp48
 70
     1
102
RTVSPropertyOp49
 70
     1
102
RTVSPropertyOp50
 70
     1
102
RTVSPropertyOp51
 70
     0
102
RTVSPropertyOp52
 70
     0
102
RTVSPropertyOp53
 70
     1
102
RTVSPropertyOp54
 70
     1
102
RTVSPropertyOp55
 70
     1
102
RTVSPropertyOp56
 70
     1
102
RTVSPropertyOp57
 70
     1
102
RTVSPropertyOp58
 70
     1
102
RTVSPropertyOp59
 70
     1
102
RTVSPropertyOp60
 70
     1
102
RTVSPropertyOp61
 70
     1
102
RTVSPropertyOp62
 70
     1
  0
XRECORD
  5
3B8
102
{ACAD_REACTORS
330
3B7
102
}
330
3B7
100
AcDbXrecord
280
     1
102
RTVSPost2010Prop28
280
     0
102
RTVSPost2010PropOp28
 70
     1
102
RTVSPost2010Prop29
280
     1
102
RTVSPost2010PropOp29
 70
     1
102
RTVSPost2010Prop30
280
     1
102
RTVSPost2010PropOp30
 70
     1
102
RTVSPost2010Prop31
280
     0
102
RTVSPost2010PropOp31
 70
     1
102
RTVSPost2010Prop32
280
     0
102
RTVSPost2010PropOp32
 70
     1
102
RTVSPost2010Prop33
280
     0
102
RTVSPost2010PropOp33
 70
     1
102
RTVSPost2010Prop34
280
     0
102
RTVSPost2010PropOp34
 70
     1
102
RTVSPost2010Prop35
280
     0
102
RTVSPost2010PropOp35
 70
     1
102
RTVSPost2010Prop36
280
     0
102
RTVSPost2010PropOp36
 70
     1
102
RTVSPost2010Prop37
 90
       50
102
RTVSPost2010PropOp37
 70
     1
102
RTVSPost2010Prop38
140
0.0
102
RTVSPost2010PropOp38
 70
     1
102
RTVSPost2010Prop39
140
1.0
102
RTVSPost2010PropOp39
 70
     1
102
RTVSPost2010Prop40
 90
        0
102
RTVSPost2010PropOp40
 70
     1
102
RTVSPost2010Prop41ColorIndex
 90
       18
102
RTVSPost2010Prop41ColorRGB
 90
        0
102
RTVSPost2010PropOp41
 70
     1
102
RTVSPost2010Prop42
 90
       50
102
RTVSPost2010PropOp42
 70
     1
102
RTVSPost2010Prop43
 90
        3
102
RTVSPost2010PropOp43
 70
     1
102
RTVSPost2010Prop44ColorIndex
 90
        5
102
RTVSPost2010Prop44ColorRGB
 90
      255
102
RTVSPost2010PropOp44
 70
     1
102
RTVSPost2010Prop45
280
     0
102
RTVSPost2010PropOp45
 70
     1
102
RTVSPost2010Prop46
 90
       50
102
RTVSPost2010PropOp46
 70
     1
102
RTVSPost2010Prop47
 90
       50
102
RTVSPost2010PropOp47
 70
     1
102
RTVSPost2010Prop48
 90
       50
102
RTVSPost2010PropOp48
 70
     1
102
RTVSPost2010Prop49
280
     0
102
RTVSPost2010PropOp49
 70
     1
102
RTVSPost2010Prop50
 90
       50
102
RTVSPost2010PropOp50
 70
     1
102
RTVSPost2010Prop51ColorIndex
 90
      256
102
RTVSPost2010Prop51ColorRGB
 90
-16777216
102
RTVSPost2010PropOp51
 70
     0
102
RTVSPost2010Prop52
140
1.0
102
RTVSPost2010PropOp52
 70
     0
102
RTVSPost2010Prop53
 90
        2
102
RTVSPost2010PropOp53
 70
     1
102
RTVSPost2010Prop54
  1
strokes_ogs.tif
102
RTVSPost2010PropOp54
 70
     1
102
RTVSPost2010Prop55
280
     0
102
RTVSPost2010PropOp55
 70
     1
102
RTVSPost2010Prop56
140
1.0
102
RTVSPost2010PropOp56
 70
     1
102
RTVSPost2010Prop57
140
1.0
102
RTVSPost2010PropOp57
 70
     1
102
RTVSPropertyOp0
 70
     1
102
RTVSPropertyOp1
 70
     1
102
RTVSPropertyOp2
 70
     1
102
RTVSPropertyOp3
 70
     1
102
RTVSPropertyOp4
 70
     1
102
RTVSPropertyOp5
 70
     1
102
RTVSPropertyOp6
 70
     1
102
RTVSPropertyOp7
 70
     1
102
RTVSPropertyOp8
 70
     1
102
RTVSPropertyOp9
 70
     1
102
RTVSPropertyOp10
 70
     1
102
RTVSPropertyOp11
 70
     1
102
RTVSPropertyOp12
 70
     1
102
RTVSPropertyOp13
 70
     1
102
RTVSPropertyOp14
 70
     1
102
RTVSPropertyOp15
 70
     1
102
RTVSPropertyOp16
 70
     1
102
RTVSPropertyOp17
 70
     1
102
RTVSPropertyOp18
 70
     1
102
RTVSPropertyOp19
 70
     1
102
RTVSPropertyOp20
 70
     1
102
RTVSPropertyOp21
 70
     1
102
RTVSPropertyOp22
 70
     1
102
RTVSPropertyOp23
 70
     1
102
RTVSPropertyOp24
 70
     1
102
RTVSPropertyOp25
 70
     1
102
RTVSPropertyOp26
 70
     1
102
RTVSPropertyOp27
 70
     1
102
RTVSPropertyOp28
 70
     1
102
RTVSPropertyOp29
 70
     1
102
RTVSPropertyOp30
 70
     1
102
RTVSPropertyOp31
 70
     1
102
RTVSPropertyOp32
 70
     1
102
RTVSPropertyOp33
 70
     1
102
RTVSPropertyOp34
 70
     1
102
RTVSPropertyOp35
 70
     1
102
RTVSPropertyOp36
 70
     1
102
RTVSPropertyOp37
 70
     1
102
RTVSPropertyOp38
 70
     1
102
RTVSPropertyOp39
 70
     1
102
RTVSPropertyOp40
 70
     1
102
RTVSPropertyOp41
 70
     1
102
RTVSPropertyOp42
 70
     1
102
RTVSPropertyOp43
 70
     1
102
RTVSPropertyOp44
 70
     1
102
RTVSPropertyOp45
 70
     1
102
RTVSPropertyOp46
 70
     1
102
RTVSPropertyOp47
 70
     1
102
RTVSPropertyOp48
 70
     1
102
RTVSPropertyOp49
 70
     1
102
RTVSPropertyOp50
 70
     1
102
RTVSPropertyOp51
 70
     0
102
RTVSPropertyOp52
 70
     0
102
RTVSPropertyOp53
 70
     1
102
RTVSPropertyOp54
 70
     1
102
RTVSPropertyOp55
 70
     1
102
RTVSPropertyOp56
 70
     1
102
RTVSPropertyOp57
 70
     1
102
RTVSPropertyOp58
 70
     1
102
RTVSPropertyOp59
 70
     1
102
RTVSPropertyOp60
 70
     1
102
RTVSPropertyOp61
 70
     1
102
RTVSPropertyOp62
 70
     1
  0
XRECORD
  5
3BA
102
{ACAD_REACTORS
330
3B9
102
}
330
3B9
100
AcDbXrecord
280
     1
102
RTVSPost2010Prop28
280
     0
102
RTVSPost2010PropOp28
 70
     1
102
RTVSPost2010Prop29
280
     1
102
RTVSPost2010PropOp29
 70
     1
102
RTVSPost2010Prop30
280
     1
102
RTVSPost2010PropOp30
 70
     1
102
RTVSPost2010Prop31
280
     0
102
RTVSPost2010PropOp31
 70
     1
102
RTVSPost2010Prop32
280
     0
102
RTVSPost2010PropOp32
 70
     1
102
RTVSPost2010Prop33
280
     0
102
RTVSPost2010PropOp33
 70
     1
102
RTVSPost2010Prop34
280
     0
102
RTVSPost2010PropOp34
 70
     1
102
RTVSPost2010Prop35
280
     0
102
RTVSPost2010PropOp35
 70
     1
102
RTVSPost2010Prop36
280
     0
102
RTVSPost2010PropOp36
 70
     1
102
RTVSPost2010Prop37
 90
       50
102
RTVSPost2010PropOp37
 70
     1
102
RTVSPost2010Prop38
140
0.0
102
RTVSPost2010PropOp38
 70
     1
102
RTVSPost2010Prop39
140
1.0
102
RTVSPost2010PropOp39
 70
     1
102
RTVSPost2010Prop40
 90
        0
102
RTVSPost2010PropOp40
 70
     1
102
RTVSPost2010Prop41ColorIndex
 90
       18
102
RTVSPost2010Prop41ColorRGB
 90
        0
102
RTVSPost2010PropOp41
 70
     1
102
RTVSPost2010Prop42
 90
       50
102
RTVSPost2010PropOp42
 70
     1
102
RTVSPost2010Prop43
 90
        3
102
RTVSPost2010PropOp43
 70
     1
102
RTVSPost2010Prop44ColorIndex
 90
        5
102
RTVSPost2010Prop44ColorRGB
 90
      255
102
RTVSPost2010PropOp44
 70
     1
102
RTVSPost2010Prop45
280
     0
102
RTVSPost2010PropOp45
 70
     1
102
RTVSPost2010Prop46
 90
       50
102
RTVSPost2010PropOp46
 70
     1
102
RTVSPost2010Prop47
 90
       50
102
RTVSPost2010PropOp47
 70
     1
102
RTVSPost2010Prop48
 90
       50
102
RTVSPost2010PropOp48
 70
     1
102
RTVSPost2010Prop49
280
     0
102
RTVSPost2010PropOp49
 70
     1
102
RTVSPost2010Prop50
 90
       50
102
RTVSPost2010PropOp50
 70
     1
102
RTVSPost2010Prop51ColorIndex
 90
      256
102
RTVSPost2010Prop51ColorRGB
 90
-16777216
102
RTVSPost2010PropOp51
 70
     0
102
RTVSPost2010Prop52
140
1.0
102
RTVSPost2010PropOp52
 70
     0
102
RTVSPost2010Prop53
 90
        2
102
RTVSPost2010PropOp53
 70
     1
102
RTVSPost2010Prop54
  1
strokes_ogs.tif
102
RTVSPost2010PropOp54
 70
     1
102
RTVSPost2010Prop55
280
     0
102
RTVSPost2010PropOp55
 70
     1
102
RTVSPost2010Prop56
140
1.0
102
RTVSPost2010PropOp56
 70
     1
102
RTVSPost2010Prop57
140
1.0
102
RTVSPost2010PropOp57
 70
     1
102
RTVSPropertyOp0
 70
     1
102
RTVSPropertyOp1
 70
     1
102
RTVSPropertyOp2
 70
     1
102
RTVSPropertyOp3
 70
     1
102
RTVSPropertyOp4
 70
     1
102
RTVSPropertyOp5
 70
     1
102
RTVSPropertyOp6
 70
     1
102
RTVSPropertyOp7
 70
     1
102
RTVSPropertyOp8
 70
     1
102
RTVSPropertyOp9
 70
     1
102
RTVSPropertyOp10
 70
     1
102
RTVSPropertyOp11
 70
     1
102
RTVSPropertyOp12
 70
     1
102
RTVSPropertyOp13
 70
     1
102
RTVSPropertyOp14
 70
     1
102
RTVSPropertyOp15
 70
     1
102
RTVSPropertyOp16
 70
     1
102
RTVSPropertyOp17
 70
     1
102
RTVSPropertyOp18
 70
     1
102
RTVSPropertyOp19
 70
     1
102
RTVSPropertyOp20
 70
     1
102
RTVSPropertyOp21
 70
     1
102
RTVSPropertyOp22
 70
     1
102
RTVSPropertyOp23
 70
     1
102
RTVSPropertyOp24
 70
     1
102
RTVSPropertyOp25
 70
     1
102
RTVSPropertyOp26
 70
     1
102
RTVSPropertyOp27
 70
     1
102
RTVSPropertyOp28
 70
     1
102
RTVSPropertyOp29
 70
     1
102
RTVSPropertyOp30
 70
     1
102
RTVSPropertyOp31
 70
     1
102
RTVSPropertyOp32
 70
     1
102
RTVSPropertyOp33
 70
     1
102
RTVSPropertyOp34
 70
     1
102
RTVSPropertyOp35
 70
     1
102
RTVSPropertyOp36
 70
     1
102
RTVSPropertyOp37
 70
     1
102
RTVSPropertyOp38
 70
     1
102
RTVSPropertyOp39
 70
     1
102
RTVSPropertyOp40
 70
     1
102
RTVSPropertyOp41
 70
     1
102
RTVSPropertyOp42
 70
     1
102
RTVSPropertyOp43
 70
     1
102
RTVSPropertyOp44
 70
     1
102
RTVSPropertyOp45
 70
     1
102
RTVSPropertyOp46
 70
     1
102
RTVSPropertyOp47
 70
     1
102
RTVSPropertyOp48
 70
     1
102
RTVSPropertyOp49
 70
     1
102
RTVSPropertyOp50
 70
     1
102
RTVSPropertyOp51
 70
     0
102
RTVSPropertyOp52
 70
     0
102
RTVSPropertyOp53
 70
     1
102
RTVSPropertyOp54
 70
     1
102
RTVSPropertyOp55
 70
     1
102
RTVSPropertyOp56
 70
     1
102
RTVSPropertyOp57
 70
     1
102
RTVSPropertyOp58
 70
     1
102
RTVSPropertyOp59
 70
     1
102
RTVSPropertyOp60
 70
     1
102
RTVSPropertyOp61
 70
     1
102
RTVSPropertyOp62
 70
     1
  0
XRECORD
  5
3BC
102
{ACAD_REACTORS
330
3BB
102
}
330
3BB
100
AcDbXrecord
280
     1
102
RTVSPost2010Prop28
280
     0
102
RTVSPost2010PropOp28
 70
     1
102
RTVSPost2010Prop29
280
     1
102
RTVSPost2010PropOp29
 70
     1
102
RTVSPost2010Prop30
280
     1
102
RTVSPost2010PropOp30
 70
     1
102
RTVSPost2010Prop31
280
     0
102
RTVSPost2010PropOp31
 70
     1
102
RTVSPost2010Prop32
280
     0
102
RTVSPost2010PropOp32
 70
     1
102
RTVSPost2010Prop33
280
     0
102
RTVSPost2010PropOp33
 70
     1
102
RTVSPost2010Prop34
280
     0
102
RTVSPost2010PropOp34
 70
     1
102
RTVSPost2010Prop35
280
     0
102
RTVSPost2010PropOp35
 70
     1
102
RTVSPost2010Prop36
280
     0
102
RTVSPost2010PropOp36
 70
     1
102
RTVSPost2010Prop37
 90
       50
102
RTVSPost2010PropOp37
 70
     1
102
RTVSPost2010Prop38
140
0.0
102
RTVSPost2010PropOp38
 70
     1
102
RTVSPost2010Prop39
140
1.0
102
RTVSPost2010PropOp39
 70
     1
102
RTVSPost2010Prop40
 90
        0
102
RTVSPost2010PropOp40
 70
     1
102
RTVSPost2010Prop41ColorIndex
 90
       18
102
RTVSPost2010Prop41ColorRGB
 90
        0
102
RTVSPost2010PropOp41
 70
     1
102
RTVSPost2010Prop42
 90
       50
102
RTVSPost2010PropOp42
 70
     1
102
RTVSPost2010Prop43
 90
        3
102
RTVSPost2010PropOp43
 70
     1
102
RTVSPost2010Prop44ColorIndex
 90
        5
102
RTVSPost2010Prop44ColorRGB
 90
      255
102
RTVSPost2010PropOp44
 70
     1
102
RTVSPost2010Prop45
280
     0
102
RTVSPost2010PropOp45
 70
     1
102
RTVSPost2010Prop46
 90
       50
102
RTVSPost2010PropOp46
 70
     1
102
RTVSPost2010Prop47
 90
       50
102
RTVSPost2010PropOp47
 70
     1
102
RTVSPost2010Prop48
 90
       50
102
RTVSPost2010PropOp48
 70
     1
102
RTVSPost2010Prop49
280
     0
102
RTVSPost2010PropOp49
 70
     1
102
RTVSPost2010Prop50
 90
       50
102
RTVSPost2010PropOp50
 70
     1
102
RTVSPost2010Prop51ColorIndex
 90
      256
102
RTVSPost2010Prop51ColorRGB
 90
-16777216
102
RTVSPost2010PropOp51
 70
     0
102
RTVSPost2010Prop52
140
1.0
102
RTVSPost2010PropOp52
 70
     0
102
RTVSPost2010Prop53
 90
        2
102
RTVSPost2010PropOp53
 70
     1
102
RTVSPost2010Prop54
  1
strokes_ogs.tif
102
RTVSPost2010PropOp54
 70
     1
102
RTVSPost2010Prop55
280
     0
102
RTVSPost2010PropOp55
 70
     1
102
RTVSPost2010Prop56
140
1.0
102
RTVSPost2010PropOp56
 70
     1
102
RTVSPost2010Prop57
140
1.0
102
RTVSPost2010PropOp57
 70
     1
102
RTVSPropertyOp0
 70
     1
102
RTVSPropertyOp1
 70
     1
102
RTVSPropertyOp2
 70
     1
102
RTVSPropertyOp3
 70
     1
102
RTVSPropertyOp4
 70
     1
102
RTVSPropertyOp5
 70
     1
102
RTVSPropertyOp6
 70
     1
102
RTVSPropertyOp7
 70
     1
102
RTVSPropertyOp8
 70
     1
102
RTVSPropertyOp9
 70
     1
102
RTVSPropertyOp10
 70
     1
102
RTVSPropertyOp11
 70
     1
102
RTVSPropertyOp12
 70
     1
102
RTVSPropertyOp13
 70
     1
102
RTVSPropertyOp14
 70
     1
102
RTVSPropertyOp15
 70
     1
102
RTVSPropertyOp16
 70
     1
102
RTVSPropertyOp17
 70
     1
102
RTVSPropertyOp18
 70
     1
102
RTVSPropertyOp19
 70
     1
102
RTVSPropertyOp20
 70
     1
102
RTVSPropertyOp21
 70
     1
102
RTVSPropertyOp22
 70
     1
102
RTVSPropertyOp23
 70
     1
102
RTVSPropertyOp24
 70
     1
102
RTVSPropertyOp25
 70
     1
102
RTVSPropertyOp26
 70
     1
102
RTVSPropertyOp27
 70
     1
102
RTVSPropertyOp28
 70
     1
102
RTVSPropertyOp29
 70
     1
102
RTVSPropertyOp30
 70
     1
102
RTVSPropertyOp31
 70
     1
102
RTVSPropertyOp32
 70
     1
102
RTVSPropertyOp33
 70
     1
102
RTVSPropertyOp34
 70
     1
102
RTVSPropertyOp35
 70
     1
102
RTVSPropertyOp36
 70
     1
102
RTVSPropertyOp37
 70
     1
102
RTVSPropertyOp38
 70
     1
102
RTVSPropertyOp39
 70
     1
102
RTVSPropertyOp40
 70
     1
102
RTVSPropertyOp41
 70
     1
102
RTVSPropertyOp42
 70
     1
102
RTVSPropertyOp43
 70
     1
102
RTVSPropertyOp44
 70
     1
102
RTVSPropertyOp45
 70
     1
102
RTVSPropertyOp46
 70
     1
102
RTVSPropertyOp47
 70
     1
102
RTVSPropertyOp48
 70
     1
102
RTVSPropertyOp49
 70
     1
102
RTVSPropertyOp50
 70
     1
102
RTVSPropertyOp51
 70
     0
102
RTVSPropertyOp52
 70
     0
102
RTVSPropertyOp53
 70
     1
102
RTVSPropertyOp54
 70
     1
102
RTVSPropertyOp55
 70
     1
102
RTVSPropertyOp56
 70
     1
102
RTVSPropertyOp57
 70
     1
102
RTVSPropertyOp58
 70
     1
102
RTVSPropertyOp59
 70
     1
102
RTVSPropertyOp60
 70
     1
102
RTVSPropertyOp61
 70
     1
102
RTVSPropertyOp62
 70
     1
  0
XRECORD
  5
3BE
102
{ACAD_REACTORS
330
3BD
102
}
330
3BD
100
AcDbXrecord
280
     1
102
RTVSPost2010Prop28
280
     0
102
RTVSPost2010PropOp28
 70
     1
102
RTVSPost2010Prop29
280
     1
102
RTVSPost2010PropOp29
 70
     1
102
RTVSPost2010Prop30
280
     1
102
RTVSPost2010PropOp30
 70
     1
102
RTVSPost2010Prop31
280
     0
102
RTVSPost2010PropOp31
 70
     1
102
RTVSPost2010Prop32
280
     0
102
RTVSPost2010PropOp32
 70
     1
102
RTVSPost2010Prop33
280
     0
102
RTVSPost2010PropOp33
 70
     1
102
RTVSPost2010Prop34
280
     0
102
RTVSPost2010PropOp34
 70
     1
102
RTVSPost2010Prop35
280
     0
102
RTVSPost2010PropOp35
 70
     1
102
RTVSPost2010Prop36
280
     0
102
RTVSPost2010PropOp36
 70
     1
102
RTVSPost2010Prop37
 90
       50
102
RTVSPost2010PropOp37
 70
     1
102
RTVSPost2010Prop38
140
0.0
102
RTVSPost2010PropOp38
 70
     1
102
RTVSPost2010Prop39
140
1.0
102
RTVSPost2010PropOp39
 70
     1
102
RTVSPost2010Prop40
 90
        0
102
RTVSPost2010PropOp40
 70
     1
102
RTVSPost2010Prop41ColorIndex
 90
       18
102
RTVSPost2010Prop41ColorRGB
 90
        0
102
RTVSPost2010PropOp41
 70
     1
102
RTVSPost2010Prop42
 90
       50
102
RTVSPost2010PropOp42
 70
     1
102
RTVSPost2010Prop43
 90
        3
102
RTVSPost2010PropOp43
 70
     1
102
RTVSPost2010Prop44ColorIndex
 90
        5
102
RTVSPost2010Prop44ColorRGB
 90
      255
102
RTVSPost2010PropOp44
 70
     1
102
RTVSPost2010Prop45
280
     0
102
RTVSPost2010PropOp45
 70
     1
102
RTVSPost2010Prop46
 90
       50
102
RTVSPost2010PropOp46
 70
     1
102
RTVSPost2010Prop47
 90
       50
102
RTVSPost2010PropOp47
 70
     1
102
RTVSPost2010Prop48
 90
       50
102
RTVSPost2010PropOp48
 70
     1
102
RTVSPost2010Prop49
280
     0
102
RTVSPost2010PropOp49
 70
     1
102
RTVSPost2010Prop50
 90
       50
102
RTVSPost2010PropOp50
 70
     1
102
RTVSPost2010Prop51ColorIndex
 90
      256
102
RTVSPost2010Prop51ColorRGB
 90
-16777216
102
RTVSPost2010PropOp51
 70
     0
102
RTVSPost2010Prop52
140
1.0
102
RTVSPost2010PropOp52
 70
     0
102
RTVSPost2010Prop53
 90
        2
102
RTVSPost2010PropOp53
 70
     1
102
RTVSPost2010Prop54
  1
strokes_ogs.tif
102
RTVSPost2010PropOp54
 70
     1
102
RTVSPost2010Prop55
280
     0
102
RTVSPost2010PropOp55
 70
     1
102
RTVSPost2010Prop56
140
1.0
102
RTVSPost2010PropOp56
 70
     1
102
RTVSPost2010Prop57
140
1.0
102
RTVSPost2010PropOp57
 70
     1
102
RTVSPropertyOp0
 70
     1
102
RTVSPropertyOp1
 70
     1
102
RTVSPropertyOp2
 70
     1
102
RTVSPropertyOp3
 70
     1
102
RTVSPropertyOp4
 70
     1
102
RTVSPropertyOp5
 70
     1
102
RTVSPropertyOp6
 70
     1
102
RTVSPropertyOp7
 70
     1
102
RTVSPropertyOp8
 70
     1
102
RTVSPropertyOp9
 70
     1
102
RTVSPropertyOp10
 70
     1
102
RTVSPropertyOp11
 70
     1
102
RTVSPropertyOp12
 70
     1
102
RTVSPropertyOp13
 70
     1
102
RTVSPropertyOp14
 70
     1
102
RTVSPropertyOp15
 70
     1
102
RTVSPropertyOp16
 70
     1
102
RTVSPropertyOp17
 70
     1
102
RTVSPropertyOp18
 70
     1
102
RTVSPropertyOp19
 70
     1
102
RTVSPropertyOp20
 70
     1
102
RTVSPropertyOp21
 70
     1
102
RTVSPropertyOp22
 70
     1
102
RTVSPropertyOp23
 70
     1
102
RTVSPropertyOp24
 70
     1
102
RTVSPropertyOp25
 70
     1
102
RTVSPropertyOp26
 70
     1
102
RTVSPropertyOp27
 70
     1
102
RTVSPropertyOp28
 70
     1
102
RTVSPropertyOp29
 70
     1
102
RTVSPropertyOp30
 70
     1
102
RTVSPropertyOp31
 70
     1
102
RTVSPropertyOp32
 70
     1
102
RTVSPropertyOp33
 70
     1
102
RTVSPropertyOp34
 70
     1
102
RTVSPropertyOp35
 70
     1
102
RTVSPropertyOp36
 70
     1
102
RTVSPropertyOp37
 70
     1
102
RTVSPropertyOp38
 70
     1
102
RTVSPropertyOp39
 70
     1
102
RTVSPropertyOp40
 70
     1
102
RTVSPropertyOp41
 70
     1
102
RTVSPropertyOp42
 70
     1
102
RTVSPropertyOp43
 70
     1
102
RTVSPropertyOp44
 70
     1
102
RTVSPropertyOp45
 70
     1
102
RTVSPropertyOp46
 70
     1
102
RTVSPropertyOp47
 70
     1
102
RTVSPropertyOp48
 70
     1
102
RTVSPropertyOp49
 70
     1
102
RTVSPropertyOp50
 70
     1
102
RTVSPropertyOp51
 70
     0
102
RTVSPropertyOp52
 70
     0
102
RTVSPropertyOp53
 70
     1
102
RTVSPropertyOp54
 70
     1
102
RTVSPropertyOp55
 70
     1
102
RTVSPropertyOp56
 70
     1
102
RTVSPropertyOp57
 70
     1
102
RTVSPropertyOp58
 70
     1
102
RTVSPropertyOp59
 70
     1
102
RTVSPropertyOp60
 70
     1
102
RTVSPropertyOp61
 70
     1
102
RTVSPropertyOp62
 70
     1
  0
XRECORD
  5
3C6
102
{ACAD_REACTORS
330
3C5
102
}
330
3C5
100
AcDbXrecord
280
     1
102
RTVSPost2010Prop28
280
     0
102
RTVSPost2010PropOp28
 70
     1
102
RTVSPost2010Prop29
280
     1
102
RTVSPost2010PropOp29
 70
     1
102
RTVSPost2010Prop30
280
     1
102
RTVSPost2010PropOp30
 70
     1
102
RTVSPost2010Prop31
280
     0
102
RTVSPost2010PropOp31
 70
     1
102
RTVSPost2010Prop32
280
     0
102
RTVSPost2010PropOp32
 70
     1
102
RTVSPost2010Prop33
280
     0
102
RTVSPost2010PropOp33
 70
     1
102
RTVSPost2010Prop34
280
     0
102
RTVSPost2010PropOp34
 70
     1
102
RTVSPost2010Prop35
280
     0
102
RTVSPost2010PropOp35
 70
     1
102
RTVSPost2010Prop36
280
     0
102
RTVSPost2010PropOp36
 70
     1
102
RTVSPost2010Prop37
 90
       50
102
RTVSPost2010PropOp37
 70
     1
102
RTVSPost2010Prop38
140
0.0
102
RTVSPost2010PropOp38
 70
     1
102
RTVSPost2010Prop39
140
1.0
102
RTVSPost2010PropOp39
 70
     1
102
RTVSPost2010Prop40
 90
        0
102
RTVSPost2010PropOp40
 70
     1
102
RTVSPost2010Prop41ColorIndex
 90
       18
102
RTVSPost2010Prop41ColorRGB
 90
        0
102
RTVSPost2010PropOp41
 70
     1
102
RTVSPost2010Prop42
 90
       50
102
RTVSPost2010PropOp42
 70
     1
102
RTVSPost2010Prop43
 90
        3
102
RTVSPost2010PropOp43
 70
     1
102
RTVSPost2010Prop44ColorIndex
 90
        5
102
RTVSPost2010Prop44ColorRGB
 90
      255
102
RTVSPost2010PropOp44
 70
     1
102
RTVSPost2010Prop45
280
     0
102
RTVSPost2010PropOp45
 70
     1
102
RTVSPost2010Prop46
 90
       50
102
RTVSPost2010PropOp46
 70
     1
102
RTVSPost2010Prop47
 90
       50
102
RTVSPost2010PropOp47
 70
     1
102
RTVSPost2010Prop48
 90
       50
102
RTVSPost2010PropOp48
 70
     1
102
RTVSPost2010Prop49
280
     0
102
RTVSPost2010PropOp49
 70
     1
102
RTVSPost2010Prop50
 90
       50
102
RTVSPost2010PropOp50
 70
     1
102
RTVSPost2010Prop51ColorIndex
 90
      256
102
RTVSPost2010Prop51ColorRGB
 90
-16777216
102
RTVSPost2010PropOp51
 70
     0
102
RTVSPost2010Prop52
140
1.0
102
RTVSPost2010PropOp52
 70
     0
102
RTVSPost2010Prop53
 90
        2
102
RTVSPost2010PropOp53
 70
     1
102
RTVSPost2010Prop54
  1
strokes_ogs.tif
102
RTVSPost2010PropOp54
 70
     1
102
RTVSPost2010Prop55
280
     0
102
RTVSPost2010PropOp55
 70
     1
102
RTVSPost2010Prop56
140
1.0
102
RTVSPost2010PropOp56
 70
     1
102
RTVSPost2010Prop57
140
1.0
102
RTVSPost2010PropOp57
 70
     1
102
RTVSPropertyOp0
 70
     1
102
RTVSPropertyOp1
 70
     1
102
RTVSPropertyOp2
 70
     1
102
RTVSPropertyOp3
 70
     1
102
RTVSPropertyOp4
 70
     1
102
RTVSPropertyOp5
 70
     1
102
RTVSPropertyOp6
 70
     1
102
RTVSPropertyOp7
 70
     1
102
RTVSPropertyOp8
 70
     1
102
RTVSPropertyOp9
 70
     1
102
RTVSPropertyOp10
 70
     1
102
RTVSPropertyOp11
 70
     1
102
RTVSPropertyOp12
 70
     1
102
RTVSPropertyOp13
 70
     1
102
RTVSPropertyOp14
 70
     1
102
RTVSPropertyOp15
 70
     1
102
RTVSPropertyOp16
 70
     1
102
RTVSPropertyOp17
 70
     1
102
RTVSPropertyOp18
 70
     1
102
RTVSPropertyOp19
 70
     1
102
RTVSPropertyOp20
 70
     1
102
RTVSPropertyOp21
 70
     1
102
RTVSPropertyOp22
 70
     1
102
RTVSPropertyOp23
 70
     1
102
RTVSPropertyOp24
 70
     1
102
RTVSPropertyOp25
 70
     1
102
RTVSPropertyOp26
 70
     1
102
RTVSPropertyOp27
 70
     1
102
RTVSPropertyOp28
 70
     1
102
RTVSPropertyOp29
 70
     1
102
RTVSPropertyOp30
 70
     1
102
RTVSPropertyOp31
 70
     1
102
RTVSPropertyOp32
 70
     1
102
RTVSPropertyOp33
 70
     1
102
RTVSPropertyOp34
 70
     1
102
RTVSPropertyOp35
 70
     1
102
RTVSPropertyOp36
 70
     1
102
RTVSPropertyOp37
 70
     1
102
RTVSPropertyOp38
 70
     1
102
RTVSPropertyOp39
 70
     1
102
RTVSPropertyOp40
 70
     1
102
RTVSPropertyOp41
 70
     1
102
RTVSPropertyOp42
 70
     1
102
RTVSPropertyOp43
 70
     1
102
RTVSPropertyOp44
 70
     1
102
RTVSPropertyOp45
 70
     1
102
RTVSPropertyOp46
 70
     1
102
RTVSPropertyOp47
 70
     1
102
RTVSPropertyOp48
 70
     1
102
RTVSPropertyOp49
 70
     1
102
RTVSPropertyOp50
 70
     1
102
RTVSPropertyOp51
 70
     0
102
RTVSPropertyOp52
 70
     0
102
RTVSPropertyOp53
 70
     1
102
RTVSPropertyOp54
 70
     1
102
RTVSPropertyOp55
 70
     1
102
RTVSPropertyOp56
 70
     1
102
RTVSPropertyOp57
 70
     1
102
RTVSPropertyOp58
 70
     1
102
RTVSPropertyOp59
 70
     1
102
RTVSPropertyOp60
 70
     1
102
RTVSPropertyOp61
 70
     1
102
RTVSPropertyOp62
 70
     1
  0
XRECORD
  5
3E2
102
{ACAD_REACTORS
330
3E1
102
}
330
3E1
100
AcDbXrecord
280
     1
102
RTVSPost2010Prop28
280
     0
102
RTVSPost2010PropOp28
 70
     1
102
RTVSPost2010Prop29
280
     1
102
RTVSPost2010PropOp29
 70
     1
102
RTVSPost2010Prop30
280
     1
102
RTVSPost2010PropOp30
 70
     1
102
RTVSPost2010Prop31
280
     0
102
RTVSPost2010PropOp31
 70
     1
102
RTVSPost2010Prop32
280
     0
102
RTVSPost2010PropOp32
 70
     1
102
RTVSPost2010Prop33
280
     0
102
RTVSPost2010PropOp33
 70
     1
102
RTVSPost2010Prop34
280
     0
102
RTVSPost2010PropOp34
 70
     1
102
RTVSPost2010Prop35
280
     0
102
RTVSPost2010PropOp35
 70
     1
102
RTVSPost2010Prop36
280
     0
102
RTVSPost2010PropOp36
 70
     1
102
RTVSPost2010Prop37
 90
       50
102
RTVSPost2010PropOp37
 70
     0
102
RTVSPost2010Prop38
140
0.0
102
RTVSPost2010PropOp38
 70
     0
102
RTVSPost2010Prop39
140
1.0
102
RTVSPost2010PropOp39
 70
     0
102
RTVSPost2010Prop40
 90
        0
102
RTVSPost2010PropOp40
 70
     0
102
RTVSPost2010Prop41ColorIndex
 90
       18
102
RTVSPost2010Prop41ColorRGB
 90
        0
102
RTVSPost2010PropOp41
 70
     0
102
RTVSPost2010Prop42
 90
       50
102
RTVSPost2010PropOp42
 70
     0
102
RTVSPost2010Prop43
 90
        3
102
RTVSPost2010PropOp43
 70
     0
102
RTVSPost2010Prop44ColorIndex
 90
        5
102
RTVSPost2010Prop44ColorRGB
 90
      255
102
RTVSPost2010PropOp44
 70
     0
102
RTVSPost2010Prop45
280
     0
102
RTVSPost2010PropOp45
 70
     1
102
RTVSPost2010Prop46
 90
       50
102
RTVSPost2010PropOp46
 70
     0
102
RTVSPost2010Prop47
 90
       50
102
RTVSPost2010PropOp47
 70
     0
102
RTVSPost2010Prop48
 90
       50
102
RTVSPost2010PropOp48
 70
     0
102
RTVSPost2010Prop49
280
     0
102
RTVSPost2010PropOp49
 70
     1
102
RTVSPost2010Prop50
 90
       50
102
RTVSPost2010PropOp50
 70
     0
102
RTVSPost2010Prop51ColorIndex
 90
      256
102
RTVSPost2010Prop51ColorRGB
 90
-16777216
102
RTVSPost2010PropOp51
 70
     0
102
RTVSPost2010Prop52
140
1.0
102
RTVSPost2010PropOp52
 70
     0
102
RTVSPost2010Prop53
 90
        2
102
RTVSPost2010PropOp53
 70
     0
102
RTVSPost2010Prop54
  1
strokes_ogs.tif
102
RTVSPost2010PropOp54
 70
     0
102
RTVSPost2010Prop55
280
     0
102
RTVSPost2010PropOp55
 70
     1
102
RTVSPost2010Prop56
140
1.0
102
RTVSPost2010PropOp56
 70
     0
102
RTVSPost2010Prop57
140
1.0
102
RTVSPost2010PropOp57
 70
     0
102
RTVSPropertyOp0
 70
     0
102
RTVSPropertyOp1
 70
     0
102
RTVSPropertyOp2
 70
     0
102
RTVSPropertyOp3
 70
     0
102
RTVSPropertyOp4
 70
     0
102
RTVSPropertyOp5
 70
     0
102
RTVSPropertyOp6
 70
     0
102
RTVSPropertyOp7
 70
     0
102
RTVSPropertyOp8
 70
     0
102
RTVSPropertyOp9
 70
     0
102
RTVSPropertyOp10
 70
     0
102
RTVSPropertyOp11
 70
     0
102
RTVSPropertyOp12
 70
     0
102
RTVSPropertyOp13
 70
     0
102
RTVSPropertyOp14
 70
     2
102
RTVSPropertyOp15
 70
     0
102
RTVSPropertyOp16
 70
     0
102
RTVSPropertyOp17
 70
     0
102
RTVSPropertyOp18
 70
     0
102
RTVSPropertyOp19
 70
     0
102
RTVSPropertyOp20
 70
     0
102
RTVSPropertyOp21
 70
     0
102
RTVSPropertyOp22
 70
     0
102
RTVSPropertyOp23
 70
     0
102
RTVSPropertyOp24
 70
     0
102
RTVSPropertyOp25
 70
     0
102
RTVSPropertyOp26
 70
     0
102
RTVSPropertyOp27
 70
     0
102
RTVSPropertyOp28
 70
     1
102
RTVSPropertyOp29
 70
     1
102
RTVSPropertyOp30
 70
     1
102
RTVSPropertyOp31
 70
     1
102
RTVSPropertyOp32
 70
     1
102
RTVSPropertyOp33
 70
     1
102
RTVSPropertyOp34
 70
     1
102
RTVSPropertyOp35
 70
     1
102
RTVSPropertyOp36
 70
     1
102
RTVSPropertyOp37
 70
     0
102
RTVSPropertyOp38
 70
     0
102
RTVSPropertyOp39
 70
     0
102
RTVSPropertyOp40
 70
     0
102
RTVSPropertyOp41
 70
     0
102
RTVSPropertyOp42
 70
     0
102
RTVSPropertyOp43
 70
     0
102
RTVSPropertyOp44
 70
     0
102
RTVSPropertyOp45
 70
     1
102
RTVSPropertyOp46
 70
     0
102
RTVSPropertyOp47
 70
     0
102
RTVSPropertyOp48
 70
     0
102
RTVSPropertyOp49
 70
     1
102
RTVSPropertyOp50
 70
     0
102
RTVSPropertyOp51
 70
     0
102
RTVSPropertyOp52
 70
     0
102
RTVSPropertyOp53
 70
     0
102
RTVSPropertyOp54
 70
     0
102
RTVSPropertyOp55
 70
     1
102
RTVSPropertyOp56
 70
     0
102
RTVSPropertyOp57
 70
     0
102
RTVSPropertyOp58
 70
     0
102
RTVSPropertyOp59
 70
     0
102
RTVSPropertyOp60
 70
     0
102
RTVSPropertyOp61
 70
     0
102
RTVSPropertyOp62
 70
     0
  0
XRECORD
  5
3D2
102
{ACAD_REACTORS
330
3D1
102
}
330
3D1
100
AcDbXrecord
280
     1
102
RTVSPost2010Prop28
280
     0
102
RTVSPost2010PropOp28
 70
     1
102
RTVSPost2010Prop29
280
     1
102
RTVSPost2010PropOp29
 70
     1
102
RTVSPost2010Prop30
280
     1
102
RTVSPost2010PropOp30
 70
     1
102
RTVSPost2010Prop31
280
     0
102
RTVSPost2010PropOp31
 70
     1
102
RTVSPost2010Prop32
280
     0
102
RTVSPost2010PropOp32
 70
     1
102
RTVSPost2010Prop33
280
     0
102
RTVSPost2010PropOp33
 70
     1
102
RTVSPost2010Prop34
280
     0
102
RTVSPost2010PropOp34
 70
     1
102
RTVSPost2010Prop35
280
     0
102
RTVSPost2010PropOp35
 70
     1
102
RTVSPost2010Prop36
280
     0
102
RTVSPost2010PropOp36
 70
     1
102
RTVSPost2010Prop37
 90
       50
102
RTVSPost2010PropOp37
 70
     1
102
RTVSPost2010Prop38
140
0.0
102
RTVSPost2010PropOp38
 70
     1
102
RTVSPost2010Prop39
140
1.0
102
RTVSPost2010PropOp39
 70
     1
102
RTVSPost2010Prop40
 90
        0
102
RTVSPost2010PropOp40
 70
     1
102
RTVSPost2010Prop41ColorIndex
 90
       18
102
RTVSPost2010Prop41ColorRGB
 90
        0
102
RTVSPost2010PropOp41
 70
     1
102
RTVSPost2010Prop42
 90
       50
102
RTVSPost2010PropOp42
 70
     1
102
RTVSPost2010Prop43
 90
        3
102
RTVSPost2010PropOp43
 70
     1
102
RTVSPost2010Prop44ColorIndex
 90
        5
102
RTVSPost2010Prop44ColorRGB
 90
      255
102
RTVSPost2010PropOp44
 70
     1
102
RTVSPost2010Prop45
280
     0
102
RTVSPost2010PropOp45
 70
     1
102
RTVSPost2010Prop46
 90
       50
102
RTVSPost2010PropOp46
 70
     1
102
RTVSPost2010Prop47
 90
       50
102
RTVSPost2010PropOp47
 70
     1
102
RTVSPost2010Prop48
 90
       50
102
RTVSPost2010PropOp48
 70
     1
102
RTVSPost2010Prop49
280
     0
102
RTVSPost2010PropOp49
 70
     1
102
RTVSPost2010Prop50
 90
       50
102
RTVSPost2010PropOp50
 70
     1
102
RTVSPost2010Prop51ColorIndex
 90
      256
102
RTVSPost2010Prop51ColorRGB
 90
-16777216
102
RTVSPost2010PropOp51
 70
     0
102
RTVSPost2010Prop52
140
1.0
102
RTVSPost2010PropOp52
 70
     0
102
RTVSPost2010Prop53
 90
        2
102
RTVSPost2010PropOp53
 70
     1
102
RTVSPost2010Prop54
  1
strokes_ogs.tif
102
RTVSPost2010PropOp54
 70
     1
102
RTVSPost2010Prop55
280
     0
102
RTVSPost2010PropOp55
 70
     1
102
RTVSPost2010Prop56
140
1.0
102
RTVSPost2010PropOp56
 70
     1
102
RTVSPost2010Prop57
140
1.0
102
RTVSPost2010PropOp57
 70
     1
102
RTVSPropertyOp0
 70
     1
102
RTVSPropertyOp1
 70
     1
102
RTVSPropertyOp2
 70
     1
102
RTVSPropertyOp3
 70
     1
102
RTVSPropertyOp4
 70
     1
102
RTVSPropertyOp5
 70
     1
102
RTVSPropertyOp6
 70
     1
102
RTVSPropertyOp7
 70
     1
102
RTVSPropertyOp8
 70
     1
102
RTVSPropertyOp9
 70
     1
102
RTVSPropertyOp10
 70
     1
102
RTVSPropertyOp11
 70
     1
102
RTVSPropertyOp12
 70
     1
102
RTVSPropertyOp13
 70
     1
102
RTVSPropertyOp14
 70
     1
102
RTVSPropertyOp15
 70
     1
102
RTVSPropertyOp16
 70
     1
102
RTVSPropertyOp17
 70
     1
102
RTVSPropertyOp18
 70
     1
102
RTVSPropertyOp19
 70
     1
102
RTVSPropertyOp20
 70
     1
102
RTVSPropertyOp21
 70
     1
102
RTVSPropertyOp22
 70
     1
102
RTVSPropertyOp23
 70
     1
102
RTVSPropertyOp24
 70
     1
102
RTVSPropertyOp25
 70
     1
102
RTVSPropertyOp26
 70
     1
102
RTVSPropertyOp27
 70
     1
102
RTVSPropertyOp28
 70
     1
102
RTVSPropertyOp29
 70
     1
102
RTVSPropertyOp30
 70
     1
102
RTVSPropertyOp31
 70
     1
102
RTVSPropertyOp32
 70
     1
102
RTVSPropertyOp33
 70
     1
102
RTVSPropertyOp34
 70
     1
102
RTVSPropertyOp35
 70
     1
102
RTVSPropertyOp36
 70
     1
102
RTVSPropertyOp37
 70
     1
102
RTVSPropertyOp38
 70
     1
102
RTVSPropertyOp39
 70
     1
102
RTVSPropertyOp40
 70
     1
102
RTVSPropertyOp41
 70
     1
102
RTVSPropertyOp42
 70
     1
102
RTVSPropertyOp43
 70
     1
102
RTVSPropertyOp44
 70
     1
102
RTVSPropertyOp45
 70
     1
102
RTVSPropertyOp46
 70
     1
102
RTVSPropertyOp47
 70
     1
102
RTVSPropertyOp48
 70
     1
102
RTVSPropertyOp49
 70
     1
102
RTVSPropertyOp50
 70
     1
102
RTVSPropertyOp51
 70
     0
102
RTVSPropertyOp52
 70
     0
102
RTVSPropertyOp53
 70
     1
102
RTVSPropertyOp54
 70
     1
102
RTVSPropertyOp55
 70
     1
102
RTVSPropertyOp56
 70
     1
102
RTVSPropertyOp57
 70
     1
102
RTVSPropertyOp58
 70
     1
102
RTVSPropertyOp59
 70
     1
102
RTVSPropertyOp60
 70
     1
102
RTVSPropertyOp61
 70
     1
102
RTVSPropertyOp62
 70
     1
  0
XRECORD
  5
3E4
102
{ACAD_REACTORS
330
3E3
102
}
330
3E3
100
AcDbXrecord
280
     1
102
RTVSPost2010Prop28
280
     0
102
RTVSPost2010PropOp28
 70
     1
102
RTVSPost2010Prop29
280
     1
102
RTVSPost2010PropOp29
 70
     1
102
RTVSPost2010Prop30
280
     1
102
RTVSPost2010PropOp30
 70
     1
102
RTVSPost2010Prop31
280
     0
102
RTVSPost2010PropOp31
 70
     1
102
RTVSPost2010Prop32
280
     0
102
RTVSPost2010PropOp32
 70
     1
102
RTVSPost2010Prop33
280
     0
102
RTVSPost2010PropOp33
 70
     1
102
RTVSPost2010Prop34
280
     0
102
RTVSPost2010PropOp34
 70
     1
102
RTVSPost2010Prop35
280
     0
102
RTVSPost2010PropOp35
 70
     1
102
RTVSPost2010Prop36
280
     0
102
RTVSPost2010PropOp36
 70
     1
102
RTVSPost2010Prop37
 90
       50
102
RTVSPost2010PropOp37
 70
     0
102
RTVSPost2010Prop38
140
0.0
102
RTVSPost2010PropOp38
 70
     0
102
RTVSPost2010Prop39
140
1.0
102
RTVSPost2010PropOp39
 70
     0
102
RTVSPost2010Prop40
 90
        0
102
RTVSPost2010PropOp40
 70
     0
102
RTVSPost2010Prop41ColorIndex
 90
       18
102
RTVSPost2010Prop41ColorRGB
 90
        0
102
RTVSPost2010PropOp41
 70
     0
102
RTVSPost2010Prop42
 90
       50
102
RTVSPost2010PropOp42
 70
     0
102
RTVSPost2010Prop43
 90
        3
102
RTVSPost2010PropOp43
 70
     0
102
RTVSPost2010Prop44ColorIndex
 90
        5
102
RTVSPost2010Prop44ColorRGB
 90
      255
102
RTVSPost2010PropOp44
 70
     0
102
RTVSPost2010Prop45
280
     0
102
RTVSPost2010PropOp45
 70
     1
102
RTVSPost2010Prop46
 90
       50
102
RTVSPost2010PropOp46
 70
     0
102
RTVSPost2010Prop47
 90
       50
102
RTVSPost2010PropOp47
 70
     0
102
RTVSPost2010Prop48
 90
       50
102
RTVSPost2010PropOp48
 70
     0
102
RTVSPost2010Prop49
280
     0
102
RTVSPost2010PropOp49
 70
     1
102
RTVSPost2010Prop50
 90
       50
102
RTVSPost2010PropOp50
 70
     0
102
RTVSPost2010Prop51ColorIndex
 90
      256
102
RTVSPost2010Prop51ColorRGB
 90
-16777216
102
RTVSPost2010PropOp51
 70
     0
102
RTVSPost2010Prop52
140
1.0
102
RTVSPost2010PropOp52
 70
     0
102
RTVSPost2010Prop53
 90
        2
102
RTVSPost2010PropOp53
 70
     0
102
RTVSPost2010Prop54
  1
strokes_ogs.tif
102
RTVSPost2010PropOp54
 70
     0
102
RTVSPost2010Prop55
280
     0
102
RTVSPost2010PropOp55
 70
     1
102
RTVSPost2010Prop56
140
1.0
102
RTVSPost2010PropOp56
 70
     0
102
RTVSPost2010Prop57
140
1.0
102
RTVSPost2010PropOp57
 70
     0
102
RTVSPropertyOp0
 70
     0
102
RTVSPropertyOp1
 70
     0
102
RTVSPropertyOp2
 70
     0
102
RTVSPropertyOp3
 70
     0
102
RTVSPropertyOp4
 70
     0
102
RTVSPropertyOp5
 70
     0
102
RTVSPropertyOp6
 70
     0
102
RTVSPropertyOp7
 70
     0
102
RTVSPropertyOp8
 70
     0
102
RTVSPropertyOp9
 70
     0
102
RTVSPropertyOp10
 70
     0
102
RTVSPropertyOp11
 70
     0
102
RTVSPropertyOp12
 70
     0
102
RTVSPropertyOp13
 70
     0
102
RTVSPropertyOp14
 70
     2
102
RTVSPropertyOp15
 70
     0
102
RTVSPropertyOp16
 70
     0
102
RTVSPropertyOp17
 70
     0
102
RTVSPropertyOp18
 70
     0
102
RTVSPropertyOp19
 70
     0
102
RTVSPropertyOp20
 70
     0
102
RTVSPropertyOp21
 70
     0
102
RTVSPropertyOp22
 70
     0
102
RTVSPropertyOp23
 70
     0
102
RTVSPropertyOp24
 70
     0
102
RTVSPropertyOp25
 70
     0
102
RTVSPropertyOp26
 70
     0
102
RTVSPropertyOp27
 70
     0
102
RTVSPropertyOp28
 70
     1
102
RTVSPropertyOp29
 70
     1
102
RTVSPropertyOp30
 70
     1
102
RTVSPropertyOp31
 70
     1
102
RTVSPropertyOp32
 70
     1
102
RTVSPropertyOp33
 70
     1
102
RTVSPropertyOp34
 70
     1
102
RTVSPropertyOp35
 70
     1
102
RTVSPropertyOp36
 70
     1
102
RTVSPropertyOp37
 70
     0
102
RTVSPropertyOp38
 70
     0
102
RTVSPropertyOp39
 70
     0
102
RTVSPropertyOp40
 70
     0
102
RTVSPropertyOp41
 70
     0
102
RTVSPropertyOp42
 70
     0
102
RTVSPropertyOp43
 70
     0
102
RTVSPropertyOp44
 70
     0
102
RTVSPropertyOp45
 70
     1
102
RTVSPropertyOp46
 70
     0
102
RTVSPropertyOp47
 70
     0
102
RTVSPropertyOp48
 70
     0
102
RTVSPropertyOp49
 70
     1
102
RTVSPropertyOp50
 70
     0
102
RTVSPropertyOp51
 70
     0
102
RTVSPropertyOp52
 70
     0
102
RTVSPropertyOp53
 70
     0
102
RTVSPropertyOp54
 70
     0
102
RTVSPropertyOp55
 70
     1
102
RTVSPropertyOp56
 70
     0
102
RTVSPropertyOp57
 70
     0
102
RTVSPropertyOp58
 70
     0
102
RTVSPropertyOp59
 70
     0
102
RTVSPropertyOp60
 70
     0
102
RTVSPropertyOp61
 70
     0
102
RTVSPropertyOp62
 70
     0
  0
XRECORD
  5
3CA
102
{ACAD_REACTORS
330
3C9
102
}
330
3C9
100
AcDbXrecord
280
     1
102
RTVSPost2010Prop28
280
     0
102
RTVSPost2010PropOp28
 70
     1
102
RTVSPost2010Prop29
280
     1
102
RTVSPost2010PropOp29
 70
     1
102
RTVSPost2010Prop30
280
     1
102
RTVSPost2010PropOp30
 70
     1
102
RTVSPost2010Prop31
280
     0
102
RTVSPost2010PropOp31
 70
     1
102
RTVSPost2010Prop32
280
     0
102
RTVSPost2010PropOp32
 70
     1
102
RTVSPost2010Prop33
280
     0
102
RTVSPost2010PropOp33
 70
     1
102
RTVSPost2010Prop34
280
     0
102
RTVSPost2010PropOp34
 70
     1
102
RTVSPost2010Prop35
280
     0
102
RTVSPost2010PropOp35
 70
     1
102
RTVSPost2010Prop36
280
     0
102
RTVSPost2010PropOp36
 70
     1
102
RTVSPost2010Prop37
 90
       50
102
RTVSPost2010PropOp37
 70
     1
102
RTVSPost2010Prop38
140
0.0
102
RTVSPost2010PropOp38
 70
     1
102
RTVSPost2010Prop39
140
1.0
102
RTVSPost2010PropOp39
 70
     1
102
RTVSPost2010Prop40
 90
        0
102
RTVSPost2010PropOp40
 70
     1
102
RTVSPost2010Prop41ColorIndex
 90
       18
102
RTVSPost2010Prop41ColorRGB
 90
        0
102
RTVSPost2010PropOp41
 70
     1
102
RTVSPost2010Prop42
 90
       50
102
RTVSPost2010PropOp42
 70
     1
102
RTVSPost2010Prop43
 90
        3
102
RTVSPost2010PropOp43
 70
     1
102
RTVSPost2010Prop44ColorIndex
 90
        5
102
RTVSPost2010Prop44ColorRGB
 90
      255
102
RTVSPost2010PropOp44
 70
     1
102
RTVSPost2010Prop45
280
     0
102
RTVSPost2010PropOp45
 70
     1
102
RTVSPost2010Prop46
 90
       50
102
RTVSPost2010PropOp46
 70
     1
102
RTVSPost2010Prop47
 90
       50
102
RTVSPost2010PropOp47
 70
     1
102
RTVSPost2010Prop48
 90
       50
102
RTVSPost2010PropOp48
 70
     1
102
RTVSPost2010Prop49
280
     0
102
RTVSPost2010PropOp49
 70
     1
102
RTVSPost2010Prop50
 90
       50
102
RTVSPost2010PropOp50
 70
     1
102
RTVSPost2010Prop51ColorIndex
 90
      256
102
RTVSPost2010Prop51ColorRGB
 90
-16777216
102
RTVSPost2010PropOp51
 70
     0
102
RTVSPost2010Prop52
140
1.0
102
RTVSPost2010PropOp52
 70
     0
102
RTVSPost2010Prop53
 90
        2
102
RTVSPost2010PropOp53
 70
     1
102
RTVSPost2010Prop54
  1
strokes_ogs.tif
102
RTVSPost2010PropOp54
 70
     1
102
RTVSPost2010Prop55
280
     0
102
RTVSPost2010PropOp55
 70
     1
102
RTVSPost2010Prop56
140
1.0
102
RTVSPost2010PropOp56
 70
     1
102
RTVSPost2010Prop57
140
1.0
102
RTVSPost2010PropOp57
 70
     1
102
RTVSPropertyOp0
 70
     1
102
RTVSPropertyOp1
 70
     1
102
RTVSPropertyOp2
 70
     1
102
RTVSPropertyOp3
 70
     1
102
RTVSPropertyOp4
 70
     1
102
RTVSPropertyOp5
 70
     1
102
RTVSPropertyOp6
 70
     1
102
RTVSPropertyOp7
 70
     1
102
RTVSPropertyOp8
 70
     1
102
RTVSPropertyOp9
 70
     1
102
RTVSPropertyOp10
 70
     1
102
RTVSPropertyOp11
 70
     1
102
RTVSPropertyOp12
 70
     1
102
RTVSPropertyOp13
 70
     1
102
RTVSPropertyOp14
 70
     1
102
RTVSPropertyOp15
 70
     1
102
RTVSPropertyOp16
 70
     1
102
RTVSPropertyOp17
 70
     1
102
RTVSPropertyOp18
 70
     1
102
RTVSPropertyOp19
 70
     1
102
RTVSPropertyOp20
 70
     1
102
RTVSPropertyOp21
 70
     1
102
RTVSPropertyOp22
 70
     1
102
RTVSPropertyOp23
 70
     1
102
RTVSPropertyOp24
 70
     1
102
RTVSPropertyOp25
 70
     1
102
RTVSPropertyOp26
 70
     1
102
RTVSPropertyOp27
 70
     1
102
RTVSPropertyOp28
 70
     1
102
RTVSPropertyOp29
 70
     1
102
RTVSPropertyOp30
 70
     1
102
RTVSPropertyOp31
 70
     1
102
RTVSPropertyOp32
 70
     1
102
RTVSPropertyOp33
 70
     1
102
RTVSPropertyOp34
 70
     1
102
RTVSPropertyOp35
 70
     1
102
RTVSPropertyOp36
 70
     1
102
RTVSPropertyOp37
 70
     1
102
RTVSPropertyOp38
 70
     1
102
RTVSPropertyOp39
 70
     1
102
RTVSPropertyOp40
 70
     1
102
RTVSPropertyOp41
 70
     1
102
RTVSPropertyOp42
 70
     1
102
RTVSPropertyOp43
 70
     1
102
RTVSPropertyOp44
 70
     1
102
RTVSPropertyOp45
 70
     1
102
RTVSPropertyOp46
 70
     1
102
RTVSPropertyOp47
 70
     1
102
RTVSPropertyOp48
 70
     1
102
RTVSPropertyOp49
 70
     1
102
RTVSPropertyOp50
 70
     1
102
RTVSPropertyOp51
 70
     0
102
RTVSPropertyOp52
 70
     0
102
RTVSPropertyOp53
 70
     1
102
RTVSPropertyOp54
 70
     1
102
RTVSPropertyOp55
 70
     1
102
RTVSPropertyOp56
 70
     1
102
RTVSPropertyOp57
 70
     1
102
RTVSPropertyOp58
 70
     1
102
RTVSPropertyOp59
 70
     1
102
RTVSPropertyOp60
 70
     1
102
RTVSPropertyOp61
 70
     1
102
RTVSPropertyOp62
 70
     1
  0
XRECORD
  5
3E0
102
{ACAD_REACTORS
330
3DF
102
}
330
3DF
100
AcDbXrecord
280
     1
102
RTVSPost2010Prop28
280
     0
102
RTVSPost2010PropOp28
 70
     1
102
RTVSPost2010Prop29
280
     1
102
RTVSPost2010PropOp29
 70
     1
102
RTVSPost2010Prop30
280
     1
102
RTVSPost2010PropOp30
 70
     1
102
RTVSPost2010Prop31
280
     0
102
RTVSPost2010PropOp31
 70
     1
102
RTVSPost2010Prop32
280
     0
102
RTVSPost2010PropOp32
 70
     1
102
RTVSPost2010Prop33
280
     0
102
RTVSPost2010PropOp33
 70
     1
102
RTVSPost2010Prop34
280
     0
102
RTVSPost2010PropOp34
 70
     1
102
RTVSPost2010Prop35
280
     0
102
RTVSPost2010PropOp35
 70
     1
102
RTVSPost2010Prop36
280
     0
102
RTVSPost2010PropOp36
 70
     1
102
RTVSPost2010Prop37
 90
       50
102
RTVSPost2010PropOp37
 70
     1
102
RTVSPost2010Prop38
140
0.0
102
RTVSPost2010PropOp38
 70
     1
102
RTVSPost2010Prop39
140
1.0
102
RTVSPost2010PropOp39
 70
     1
102
RTVSPost2010Prop40
 90
        0
102
RTVSPost2010PropOp40
 70
     1
102
RTVSPost2010Prop41ColorIndex
 90
       18
102
RTVSPost2010Prop41ColorRGB
 90
        0
102
RTVSPost2010PropOp41
 70
     1
102
RTVSPost2010Prop42
 90
       50
102
RTVSPost2010PropOp42
 70
     1
102
RTVSPost2010Prop43
 90
        3
102
RTVSPost2010PropOp43
 70
     1
102
RTVSPost2010Prop44ColorIndex
 90
        5
102
RTVSPost2010Prop44ColorRGB
 90
      255
102
RTVSPost2010PropOp44
 70
     1
102
RTVSPost2010Prop45
280
     0
102
RTVSPost2010PropOp45
 70
     1
102
RTVSPost2010Prop46
 90
       50
102
RTVSPost2010PropOp46
 70
     1
102
RTVSPost2010Prop47
 90
       50
102
RTVSPost2010PropOp47
 70
     1
102
RTVSPost2010Prop48
 90
       50
102
RTVSPost2010PropOp48
 70
     1
102
RTVSPost2010Prop49
280
     0
102
RTVSPost2010PropOp49
 70
     1
102
RTVSPost2010Prop50
 90
       50
102
RTVSPost2010PropOp50
 70
     1
102
RTVSPost2010Prop51ColorIndex
 90
      256
102
RTVSPost2010Prop51ColorRGB
 90
-16777216
102
RTVSPost2010PropOp51
 70
     0
102
RTVSPost2010Prop52
140
1.0
102
RTVSPost2010PropOp52
 70
     0
102
RTVSPost2010Prop53
 90
        2
102
RTVSPost2010PropOp53
 70
     1
102
RTVSPost2010Prop54
  1
strokes_ogs.tif
102
RTVSPost2010PropOp54
 70
     1
102
RTVSPost2010Prop55
280
     0
102
RTVSPost2010PropOp55
 70
     1
102
RTVSPost2010Prop56
140
1.0
102
RTVSPost2010PropOp56
 70
     1
102
RTVSPost2010Prop57
140
1.0
102
RTVSPost2010PropOp57
 70
     1
102
RTVSPropertyOp0
 70
     1
102
RTVSPropertyOp1
 70
     1
102
RTVSPropertyOp2
 70
     1
102
RTVSPropertyOp3
 70
     1
102
RTVSPropertyOp4
 70
     1
102
RTVSPropertyOp5
 70
     1
102
RTVSPropertyOp6
 70
     1
102
RTVSPropertyOp7
 70
     1
102
RTVSPropertyOp8
 70
     1
102
RTVSPropertyOp9
 70
     1
102
RTVSPropertyOp10
 70
     1
102
RTVSPropertyOp11
 70
     1
102
RTVSPropertyOp12
 70
     1
102
RTVSPropertyOp13
 70
     1
102
RTVSPropertyOp14
 70
     1
102
RTVSPropertyOp15
 70
     1
102
RTVSPropertyOp16
 70
     1
102
RTVSPropertyOp17
 70
     1
102
RTVSPropertyOp18
 70
     1
102
RTVSPropertyOp19
 70
     1
102
RTVSPropertyOp20
 70
     1
102
RTVSPropertyOp21
 70
     1
102
RTVSPropertyOp22
 70
     1
102
RTVSPropertyOp23
 70
     1
102
RTVSPropertyOp24
 70
     1
102
RTVSPropertyOp25
 70
     1
102
RTVSPropertyOp26
 70
     1
102
RTVSPropertyOp27
 70
     1
102
RTVSPropertyOp28
 70
     1
102
RTVSPropertyOp29
 70
     1
102
RTVSPropertyOp30
 70
     1
102
RTVSPropertyOp31
 70
     1
102
RTVSPropertyOp32
 70
     1
102
RTVSPropertyOp33
 70
     1
102
RTVSPropertyOp34
 70
     1
102
RTVSPropertyOp35
 70
     1
102
RTVSPropertyOp36
 70
     1
102
RTVSPropertyOp37
 70
     1
102
RTVSPropertyOp38
 70
     1
102
RTVSPropertyOp39
 70
     1
102
RTVSPropertyOp40
 70
     1
102
RTVSPropertyOp41
 70
     1
102
RTVSPropertyOp42
 70
     1
102
RTVSPropertyOp43
 70
     1
102
RTVSPropertyOp44
 70
     1
102
RTVSPropertyOp45
 70
     1
102
RTVSPropertyOp46
 70
     1
102
RTVSPropertyOp47
 70
     1
102
RTVSPropertyOp48
 70
     1
102
RTVSPropertyOp49
 70
     1
102
RTVSPropertyOp50
 70
     1
102
RTVSPropertyOp51
 70
     0
102
RTVSPropertyOp52
 70
     0
102
RTVSPropertyOp53
 70
     1
102
RTVSPropertyOp54
 70
     1
102
RTVSPropertyOp55
 70
     1
102
RTVSPropertyOp56
 70
     1
102
RTVSPropertyOp57
 70
     1
102
RTVSPropertyOp58
 70
     1
102
RTVSPropertyOp59
 70
     1
102
RTVSPropertyOp60
 70
     1
102
RTVSPropertyOp61
 70
     1
102
RTVSPropertyOp62
 70
     1
  0
XRECORD
  5
3DE
102
{ACAD_REACTORS
330
3DD
102
}
330
3DD
100
AcDbXrecord
280
     1
102
RTVSPost2010Prop28
280
     0
102
RTVSPost2010PropOp28
 70
     1
102
RTVSPost2010Prop29
280
     1
102
RTVSPost2010PropOp29
 70
     1
102
RTVSPost2010Prop30
280
     1
102
RTVSPost2010PropOp30
 70
     1
102
RTVSPost2010Prop31
280
     0
102
RTVSPost2010PropOp31
 70
     1
102
RTVSPost2010Prop32
280
     0
102
RTVSPost2010PropOp32
 70
     1
102
RTVSPost2010Prop33
280
     0
102
RTVSPost2010PropOp33
 70
     1
102
RTVSPost2010Prop34
280
     0
102
RTVSPost2010PropOp34
 70
     1
102
RTVSPost2010Prop35
280
     0
102
RTVSPost2010PropOp35
 70
     1
102
RTVSPost2010Prop36
280
     0
102
RTVSPost2010PropOp36
 70
     1
102
RTVSPost2010Prop37
 90
       50
102
RTVSPost2010PropOp37
 70
     1
102
RTVSPost2010Prop38
140
0.0
102
RTVSPost2010PropOp38
 70
     1
102
RTVSPost2010Prop39
140
1.0
102
RTVSPost2010PropOp39
 70
     1
102
RTVSPost2010Prop40
 90
        0
102
RTVSPost2010PropOp40
 70
     1
102
RTVSPost2010Prop41ColorIndex
 90
       18
102
RTVSPost2010Prop41ColorRGB
 90
        0
102
RTVSPost2010PropOp41
 70
     1
102
RTVSPost2010Prop42
 90
       50
102
RTVSPost2010PropOp42
 70
     1
102
RTVSPost2010Prop43
 90
        3
102
RTVSPost2010PropOp43
 70
     1
102
RTVSPost2010Prop44ColorIndex
 90
        5
102
RTVSPost2010Prop44ColorRGB
 90
      255
102
RTVSPost2010PropOp44
 70
     1
102
RTVSPost2010Prop45
280
     0
102
RTVSPost2010PropOp45
 70
     1
102
RTVSPost2010Prop46
 90
       50
102
RTVSPost2010PropOp46
 70
     1
102
RTVSPost2010Prop47
 90
       50
102
RTVSPost2010PropOp47
 70
     1
102
RTVSPost2010Prop48
 90
       50
102
RTVSPost2010PropOp48
 70
     1
102
RTVSPost2010Prop49
280
     0
102
RTVSPost2010PropOp49
 70
     1
102
RTVSPost2010Prop50
 90
       50
102
RTVSPost2010PropOp50
 70
     1
102
RTVSPost2010Prop51ColorIndex
 90
      256
102
RTVSPost2010Prop51ColorRGB
 90
-16777216
102
RTVSPost2010PropOp51
 70
     0
102
RTVSPost2010Prop52
140
1.0
102
RTVSPost2010PropOp52
 70
     0
102
RTVSPost2010Prop53
 90
        2
102
RTVSPost2010PropOp53
 70
     1
102
RTVSPost2010Prop54
  1
strokes_ogs.tif
102
RTVSPost2010PropOp54
 70
     1
102
RTVSPost2010Prop55
280
     0
102
RTVSPost2010PropOp55
 70
     1
102
RTVSPost2010Prop56
140
1.0
102
RTVSPost2010PropOp56
 70
     1
102
RTVSPost2010Prop57
140
1.0
102
RTVSPost2010PropOp57
 70
     1
102
RTVSPropertyOp0
 70
     1
102
RTVSPropertyOp1
 70
     1
102
RTVSPropertyOp2
 70
     1
102
RTVSPropertyOp3
 70
     1
102
RTVSPropertyOp4
 70
     1
102
RTVSPropertyOp5
 70
     1
102
RTVSPropertyOp6
 70
     1
102
RTVSPropertyOp7
 70
     1
102
RTVSPropertyOp8
 70
     1
102
RTVSPropertyOp9
 70
     1
102
RTVSPropertyOp10
 70
     1
102
RTVSPropertyOp11
 70
     1
102
RTVSPropertyOp12
 70
     1
102
RTVSPropertyOp13
 70
     1
102
RTVSPropertyOp14
 70
     1
102
RTVSPropertyOp15
 70
     1
102
RTVSPropertyOp16
 70
     1
102
RTVSPropertyOp17
 70
     1
102
RTVSPropertyOp18
 70
     1
102
RTVSPropertyOp19
 70
     1
102
RTVSPropertyOp20
 70
     1
102
RTVSPropertyOp21
 70
     1
102
RTVSPropertyOp22
 70
     1
102
RTVSPropertyOp23
 70
     1
102
RTVSPropertyOp24
 70
     1
102
RTVSPropertyOp25
 70
     1
102
RTVSPropertyOp26
 70
     1
102
RTVSPropertyOp27
 70
     1
102
RTVSPropertyOp28
 70
     1
102
RTVSPropertyOp29
 70
     1
102
RTVSPropertyOp30
 70
     1
102
RTVSPropertyOp31
 70
     1
102
RTVSPropertyOp32
 70
     1
102
RTVSPropertyOp33
 70
     1
102
RTVSPropertyOp34
 70
     1
102
RTVSPropertyOp35
 70
     1
102
RTVSPropertyOp36
 70
     1
102
RTVSPropertyOp37
 70
     1
102
RTVSPropertyOp38
 70
     1
102
RTVSPropertyOp39
 70
     1
102
RTVSPropertyOp40
 70
     1
102
RTVSPropertyOp41
 70
     1
102
RTVSPropertyOp42
 70
     1
102
RTVSPropertyOp43
 70
     1
102
RTVSPropertyOp44
 70
     1
102
RTVSPropertyOp45
 70
     1
102
RTVSPropertyOp46
 70
     1
102
RTVSPropertyOp47
 70
     1
102
RTVSPropertyOp48
 70
     1
102
RTVSPropertyOp49
 70
     1
102
RTVSPropertyOp50
 70
     1
102
RTVSPropertyOp51
 70
     0
102
RTVSPropertyOp52
 70
     0
102
RTVSPropertyOp53
 70
     1
102
RTVSPropertyOp54
 70
     1
102
RTVSPropertyOp55
 70
     1
102
RTVSPropertyOp56
 70
     1
102
RTVSPropertyOp57
 70
     1
102
RTVSPropertyOp58
 70
     1
102
RTVSPropertyOp59
 70
     1
102
RTVSPropertyOp60
 70
     1
102
RTVSPropertyOp61
 70
     1
102
RTVSPropertyOp62
 70
     1
  0
XRECORD
  5
3D8
102
{ACAD_REACTORS
330
3D7
102
}
330
3D7
100
AcDbXrecord
280
     1
102
RTVSPost2010Prop28
280
     0
102
RTVSPost2010PropOp28
 70
     1
102
RTVSPost2010Prop29
280
     1
102
RTVSPost2010PropOp29
 70
     1
102
RTVSPost2010Prop30
280
     1
102
RTVSPost2010PropOp30
 70
     1
102
RTVSPost2010Prop31
280
     0
102
RTVSPost2010PropOp31
 70
     1
102
RTVSPost2010Prop32
280
     0
102
RTVSPost2010PropOp32
 70
     1
102
RTVSPost2010Prop33
280
     0
102
RTVSPost2010PropOp33
 70
     1
102
RTVSPost2010Prop34
280
     0
102
RTVSPost2010PropOp34
 70
     1
102
RTVSPost2010Prop35
280
     0
102
RTVSPost2010PropOp35
 70
     1
102
RTVSPost2010Prop36
280
     0
102
RTVSPost2010PropOp36
 70
     1
102
RTVSPost2010Prop37
 90
       50
102
RTVSPost2010PropOp37
 70
     1
102
RTVSPost2010Prop38
140
0.0
102
RTVSPost2010PropOp38
 70
     1
102
RTVSPost2010Prop39
140
1.0
102
RTVSPost2010PropOp39
 70
     1
102
RTVSPost2010Prop40
 90
        0
102
RTVSPost2010PropOp40
 70
     1
102
RTVSPost2010Prop41ColorIndex
 90
       18
102
RTVSPost2010Prop41ColorRGB
 90
        0
102
RTVSPost2010PropOp41
 70
     1
102
RTVSPost2010Prop42
 90
       50
102
RTVSPost2010PropOp42
 70
     1
102
RTVSPost2010Prop43
 90
        3
102
RTVSPost2010PropOp43
 70
     1
102
RTVSPost2010Prop44ColorIndex
 90
        5
102
RTVSPost2010Prop44ColorRGB
 90
      255
102
RTVSPost2010PropOp44
 70
     1
102
RTVSPost2010Prop45
280
     0
102
RTVSPost2010PropOp45
 70
     1
102
RTVSPost2010Prop46
 90
       50
102
RTVSPost2010PropOp46
 70
     1
102
RTVSPost2010Prop47
 90
       50
102
RTVSPost2010PropOp47
 70
     1
102
RTVSPost2010Prop48
 90
       50
102
RTVSPost2010PropOp48
 70
     1
102
RTVSPost2010Prop49
280
     0
102
RTVSPost2010PropOp49
 70
     1
102
RTVSPost2010Prop50
 90
       50
102
RTVSPost2010PropOp50
 70
     1
102
RTVSPost2010Prop51ColorIndex
 90
      256
102
RTVSPost2010Prop51ColorRGB
 90
-16777216
102
RTVSPost2010PropOp51
 70
     0
102
RTVSPost2010Prop52
140
1.0
102
RTVSPost2010PropOp52
 70
     0
102
RTVSPost2010Prop53
 90
        2
102
RTVSPost2010PropOp53
 70
     1
102
RTVSPost2010Prop54
  1
strokes_ogs.tif
102
RTVSPost2010PropOp54
 70
     1
102
RTVSPost2010Prop55
280
     0
102
RTVSPost2010PropOp55
 70
     1
102
RTVSPost2010Prop56
140
1.0
102
RTVSPost2010PropOp56
 70
     1
102
RTVSPost2010Prop57
140
1.0
102
RTVSPost2010PropOp57
 70
     1
102
RTVSPropertyOp0
 70
     1
102
RTVSPropertyOp1
 70
     1
102
RTVSPropertyOp2
 70
     1
102
RTVSPropertyOp3
 70
     1
102
RTVSPropertyOp4
 70
     1
102
RTVSPropertyOp5
 70
     1
102
RTVSPropertyOp6
 70
     1
102
RTVSPropertyOp7
 70
     1
102
RTVSPropertyOp8
 70
     1
102
RTVSPropertyOp9
 70
     1
102
RTVSPropertyOp10
 70
     1
102
RTVSPropertyOp11
 70
     1
102
RTVSPropertyOp12
 70
     1
102
RTVSPropertyOp13
 70
     1
102
RTVSPropertyOp14
 70
     1
102
RTVSPropertyOp15
 70
     1
102
RTVSPropertyOp16
 70
     1
102
RTVSPropertyOp17
 70
     1
102
RTVSPropertyOp18
 70
     1
102
RTVSPropertyOp19
 70
     1
102
RTVSPropertyOp20
 70
     1
102
RTVSPropertyOp21
 70
     1
102
RTVSPropertyOp22
 70
     1
102
RTVSPropertyOp23
 70
     1
102
RTVSPropertyOp24
 70
     1
102
RTVSPropertyOp25
 70
     1
102
RTVSPropertyOp26
 70
     1
102
RTVSPropertyOp27
 70
     1
102
RTVSPropertyOp28
 70
     1
102
RTVSPropertyOp29
 70
     1
102
RTVSPropertyOp30
 70
     1
102
RTVSPropertyOp31
 70
     1
102
RTVSPropertyOp32
 70
     1
102
RTVSPropertyOp33
 70
     1
102
RTVSPropertyOp34
 70
     1
102
RTVSPropertyOp35
 70
     1
102
RTVSPropertyOp36
 70
     1
102
RTVSPropertyOp37
 70
     1
102
RTVSPropertyOp38
 70
     1
102
RTVSPropertyOp39
 70
     1
102
RTVSPropertyOp40
 70
     1
102
RTVSPropertyOp41
 70
     1
102
RTVSPropertyOp42
 70
     1
102
RTVSPropertyOp43
 70
     1
102
RTVSPropertyOp44
 70
     1
102
RTVSPropertyOp45
 70
     1
102
RTVSPropertyOp46
 70
     1
102
RTVSPropertyOp47
 70
     1
102
RTVSPropertyOp48
 70
     1
102
RTVSPropertyOp49
 70
     1
102
RTVSPropertyOp50
 70
     1
102
RTVSPropertyOp51
 70
     0
102
RTVSPropertyOp52
 70
     0
102
RTVSPropertyOp53
 70
     1
102
RTVSPropertyOp54
 70
     1
102
RTVSPropertyOp55
 70
     1
102
RTVSPropertyOp56
 70
     1
102
RTVSPropertyOp57
 70
     1
102
RTVSPropertyOp58
 70
     1
102
RTVSPropertyOp59
 70
     1
102
RTVSPropertyOp60
 70
     1
102
RTVSPropertyOp61
 70
     1
102
RTVSPropertyOp62
 70
     1
  0
XRECORD
  5
3DA
102
{ACAD_REACTORS
330
3D9
102
}
330
3D9
100
AcDbXrecord
280
     1
102
RTVSPost2010Prop28
280
     0
102
RTVSPost2010PropOp28
 70
     1
102
RTVSPost2010Prop29
280
     1
102
RTVSPost2010PropOp29
 70
     1
102
RTVSPost2010Prop30
280
     1
102
RTVSPost2010PropOp30
 70
     1
102
RTVSPost2010Prop31
280
     0
102
RTVSPost2010PropOp31
 70
     1
102
RTVSPost2010Prop32
280
     0
102
RTVSPost2010PropOp32
 70
     1
102
RTVSPost2010Prop33
280
     0
102
RTVSPost2010PropOp33
 70
     1
102
RTVSPost2010Prop34
280
     0
102
RTVSPost2010PropOp34
 70
     1
102
RTVSPost2010Prop35
280
     0
102
RTVSPost2010PropOp35
 70
     1
102
RTVSPost2010Prop36
280
     0
102
RTVSPost2010PropOp36
 70
     1
102
RTVSPost2010Prop37
 90
       50
102
RTVSPost2010PropOp37
 70
     1
102
RTVSPost2010Prop38
140
0.0
102
RTVSPost2010PropOp38
 70
     1
102
RTVSPost2010Prop39
140
1.0
102
RTVSPost2010PropOp39
 70
     1
102
RTVSPost2010Prop40
 90
        0
102
RTVSPost2010PropOp40
 70
     1
102
RTVSPost2010Prop41ColorIndex
 90
       18
102
RTVSPost2010Prop41ColorRGB
 90
        0
102
RTVSPost2010PropOp41
 70
     1
102
RTVSPost2010Prop42
 90
       50
102
RTVSPost2010PropOp42
 70
     1
102
RTVSPost2010Prop43
 90
        3
102
RTVSPost2010PropOp43
 70
     1
102
RTVSPost2010Prop44ColorIndex
 90
        5
102
RTVSPost2010Prop44ColorRGB
 90
      255
102
RTVSPost2010PropOp44
 70
     1
102
RTVSPost2010Prop45
280
     0
102
RTVSPost2010PropOp45
 70
     1
102
RTVSPost2010Prop46
 90
       50
102
RTVSPost2010PropOp46
 70
     1
102
RTVSPost2010Prop47
 90
       50
102
RTVSPost2010PropOp47
 70
     1
102
RTVSPost2010Prop48
 90
       50
102
RTVSPost2010PropOp48
 70
     1
102
RTVSPost2010Prop49
280
     0
102
RTVSPost2010PropOp49
 70
     1
102
RTVSPost2010Prop50
 90
       50
102
RTVSPost2010PropOp50
 70
     1
102
RTVSPost2010Prop51ColorIndex
 90
      256
102
RTVSPost2010Prop51ColorRGB
 90
-16777216
102
RTVSPost2010PropOp51
 70
     0
102
RTVSPost2010Prop52
140
1.0
102
RTVSPost2010PropOp52
 70
     0
102
RTVSPost2010Prop53
 90
        2
102
RTVSPost2010PropOp53
 70
     1
102
RTVSPost2010Prop54
  1
strokes_ogs.tif
102
RTVSPost2010PropOp54
 70
     1
102
RTVSPost2010Prop55
280
     0
102
RTVSPost2010PropOp55
 70
     1
102
RTVSPost2010Prop56
140
1.0
102
RTVSPost2010PropOp56
 70
     1
102
RTVSPost2010Prop57
140
1.0
102
RTVSPost2010PropOp57
 70
     1
102
RTVSPropertyOp0
 70
     1
102
RTVSPropertyOp1
 70
     1
102
RTVSPropertyOp2
 70
     1
102
RTVSPropertyOp3
 70
     1
102
RTVSPropertyOp4
 70
     1
102
RTVSPropertyOp5
 70
     1
102
RTVSPropertyOp6
 70
     1
102
RTVSPropertyOp7
 70
     1
102
RTVSPropertyOp8
 70
     1
102
RTVSPropertyOp9
 70
     1
102
RTVSPropertyOp10
 70
     1
102
RTVSPropertyOp11
 70
     1
102
RTVSPropertyOp12
 70
     1
102
RTVSPropertyOp13
 70
     1
102
RTVSPropertyOp14
 70
     1
102
RTVSPropertyOp15
 70
     1
102
RTVSPropertyOp16
 70
     1
102
RTVSPropertyOp17
 70
     1
102
RTVSPropertyOp18
 70
     1
102
RTVSPropertyOp19
 70
     1
102
RTVSPropertyOp20
 70
     1
102
RTVSPropertyOp21
 70
     1
102
RTVSPropertyOp22
 70
     1
102
RTVSPropertyOp23
 70
     1
102
RTVSPropertyOp24
 70
     1
102
RTVSPropertyOp25
 70
     1
102
RTVSPropertyOp26
 70
     1
102
RTVSPropertyOp27
 70
     1
102
RTVSPropertyOp28
 70
     1
102
RTVSPropertyOp29
 70
     1
102
RTVSPropertyOp30
 70
     1
102
RTVSPropertyOp31
 70
     1
102
RTVSPropertyOp32
 70
     1
102
RTVSPropertyOp33
 70
     1
102
RTVSPropertyOp34
 70
     1
102
RTVSPropertyOp35
 70
     1
102
RTVSPropertyOp36
 70
     1
102
RTVSPropertyOp37
 70
     1
102
RTVSPropertyOp38
 70
     1
102
RTVSPropertyOp39
 70
     1
102
RTVSPropertyOp40
 70
     1
102
RTVSPropertyOp41
 70
     1
102
RTVSPropertyOp42
 70
     1
102
RTVSPropertyOp43
 70
     1
102
RTVSPropertyOp44
 70
     1
102
RTVSPropertyOp45
 70
     1
102
RTVSPropertyOp46
 70
     1
102
RTVSPropertyOp47
 70
     1
102
RTVSPropertyOp48
 70
     1
102
RTVSPropertyOp49
 70
     1
102
RTVSPropertyOp50
 70
     1
102
RTVSPropertyOp51
 70
     0
102
RTVSPropertyOp52
 70
     0
102
RTVSPropertyOp53
 70
     1
102
RTVSPropertyOp54
 70
     1
102
RTVSPropertyOp55
 70
     1
102
RTVSPropertyOp56
 70
     1
102
RTVSPropertyOp57
 70
     1
102
RTVSPropertyOp58
 70
     1
102
RTVSPropertyOp59
 70
     1
102
RTVSPropertyOp60
 70
     1
102
RTVSPropertyOp61
 70
     1
102
RTVSPropertyOp62
 70
     1
  0
XRECORD
  5
3D0
102
{ACAD_REACTORS
330
3CF
102
}
330
3CF
100
AcDbXrecord
280
     1
102
RTVSPost2010Prop28
280
     0
102
RTVSPost2010PropOp28
 70
     1
102
RTVSPost2010Prop29
280
     1
102
RTVSPost2010PropOp29
 70
     1
102
RTVSPost2010Prop30
280
     1
102
RTVSPost2010PropOp30
 70
     1
102
RTVSPost2010Prop31
280
     0
102
RTVSPost2010PropOp31
 70
     1
102
RTVSPost2010Prop32
280
     0
102
RTVSPost2010PropOp32
 70
     1
102
RTVSPost2010Prop33
280
     0
102
RTVSPost2010PropOp33
 70
     1
102
RTVSPost2010Prop34
280
     0
102
RTVSPost2010PropOp34
 70
     1
102
RTVSPost2010Prop35
280
     0
102
RTVSPost2010PropOp35
 70
     1
102
RTVSPost2010Prop36
280
     0
102
RTVSPost2010PropOp36
 70
     1
102
RTVSPost2010Prop37
 90
       50
102
RTVSPost2010PropOp37
 70
     1
102
RTVSPost2010Prop38
140
0.0
102
RTVSPost2010PropOp38
 70
     1
102
RTVSPost2010Prop39
140
1.0
102
RTVSPost2010PropOp39
 70
     1
102
RTVSPost2010Prop40
 90
        0
102
RTVSPost2010PropOp40
 70
     1
102
RTVSPost2010Prop41ColorIndex
 90
       18
102
RTVSPost2010Prop41ColorRGB
 90
        0
102
RTVSPost2010PropOp41
 70
     1
102
RTVSPost2010Prop42
 90
       50
102
RTVSPost2010PropOp42
 70
     1
102
RTVSPost2010Prop43
 90
        3
102
RTVSPost2010PropOp43
 70
     1
102
RTVSPost2010Prop44ColorIndex
 90
        5
102
RTVSPost2010Prop44ColorRGB
 90
      255
102
RTVSPost2010PropOp44
 70
     1
102
RTVSPost2010Prop45
280
     0
102
RTVSPost2010PropOp45
 70
     1
102
RTVSPost2010Prop46
 90
       50
102
RTVSPost2010PropOp46
 70
     1
102
RTVSPost2010Prop47
 90
       50
102
RTVSPost2010PropOp47
 70
     1
102
RTVSPost2010Prop48
 90
       50
102
RTVSPost2010PropOp48
 70
     1
102
RTVSPost2010Prop49
280
     0
102
RTVSPost2010PropOp49
 70
     1
102
RTVSPost2010Prop50
 90
       50
102
RTVSPost2010PropOp50
 70
     1
102
RTVSPost2010Prop51ColorIndex
 90
      256
102
RTVSPost2010Prop51ColorRGB
 90
-16777216
102
RTVSPost2010PropOp51
 70
     0
102
RTVSPost2010Prop52
140
1.0
102
RTVSPost2010PropOp52
 70
     0
102
RTVSPost2010Prop53
 90
        2
102
RTVSPost2010PropOp53
 70
     1
102
RTVSPost2010Prop54
  1
strokes_ogs.tif
102
RTVSPost2010PropOp54
 70
     1
102
RTVSPost2010Prop55
280
     0
102
RTVSPost2010PropOp55
 70
     1
102
RTVSPost2010Prop56
140
1.0
102
RTVSPost2010PropOp56
 70
     1
102
RTVSPost2010Prop57
140
1.0
102
RTVSPost2010PropOp57
 70
     1
102
RTVSPropertyOp0
 70
     1
102
RTVSPropertyOp1
 70
     1
102
RTVSPropertyOp2
 70
     1
102
RTVSPropertyOp3
 70
     1
102
RTVSPropertyOp4
 70
     1
102
RTVSPropertyOp5
 70
     1
102
RTVSPropertyOp6
 70
     1
102
RTVSPropertyOp7
 70
     1
102
RTVSPropertyOp8
 70
     1
102
RTVSPropertyOp9
 70
     1
102
RTVSPropertyOp10
 70
     1
102
RTVSPropertyOp11
 70
     1
102
RTVSPropertyOp12
 70
     1
102
RTVSPropertyOp13
 70
     1
102
RTVSPropertyOp14
 70
     1
102
RTVSPropertyOp15
 70
     1
102
RTVSPropertyOp16
 70
     1
102
RTVSPropertyOp17
 70
     1
102
RTVSPropertyOp18
 70
     1
102
RTVSPropertyOp19
 70
     1
102
RTVSPropertyOp20
 70
     1
102
RTVSPropertyOp21
 70
     1
102
RTVSPropertyOp22
 70
     1
102
RTVSPropertyOp23
 70
     1
102
RTVSPropertyOp24
 70
     1
102
RTVSPropertyOp25
 70
     1
102
RTVSPropertyOp26
 70
     1
102
RTVSPropertyOp27
 70
     1
102
RTVSPropertyOp28
 70
     1
102
RTVSPropertyOp29
 70
     1
102
RTVSPropertyOp30
 70
     1
102
RTVSPropertyOp31
 70
     1
102
RTVSPropertyOp32
 70
     1
102
RTVSPropertyOp33
 70
     1
102
RTVSPropertyOp34
 70
     1
102
RTVSPropertyOp35
 70
     1
102
RTVSPropertyOp36
 70
     1
102
RTVSPropertyOp37
 70
     1
102
RTVSPropertyOp38
 70
     1
102
RTVSPropertyOp39
 70
     1
102
RTVSPropertyOp40
 70
     1
102
RTVSPropertyOp41
 70
     1
102
RTVSPropertyOp42
 70
     1
102
RTVSPropertyOp43
 70
     1
102
RTVSPropertyOp44
 70
     1
102
RTVSPropertyOp45
 70
     1
102
RTVSPropertyOp46
 70
     1
102
RTVSPropertyOp47
 70
     1
102
RTVSPropertyOp48
 70
     1
102
RTVSPropertyOp49
 70
     1
102
RTVSPropertyOp50
 70
     1
102
RTVSPropertyOp51
 70
     0
102
RTVSPropertyOp52
 70
     0
102
RTVSPropertyOp53
 70
     1
102
RTVSPropertyOp54
 70
     1
102
RTVSPropertyOp55
 70
     1
102
RTVSPropertyOp56
 70
     1
102
RTVSPropertyOp57
 70
     1
102
RTVSPropertyOp58
 70
     1
102
RTVSPropertyOp59
 70
     1
102
RTVSPropertyOp60
 70
     1
102
RTVSPropertyOp61
 70
     1
102
RTVSPropertyOp62
 70
     1
  0
XRECORD
  5
3C4
102
{ACAD_REACTORS
330
3C3
102
}
330
3C3
100
AcDbXrecord
280
     1
102
RTVSPost2010Prop28
280
     0
102
RTVSPost2010PropOp28
 70
     1
102
RTVSPost2010Prop29
280
     1
102
RTVSPost2010PropOp29
 70
     1
102
RTVSPost2010Prop30
280
     1
102
RTVSPost2010PropOp30
 70
     1
102
RTVSPost2010Prop31
280
     0
102
RTVSPost2010PropOp31
 70
     1
102
RTVSPost2010Prop32
280
     0
102
RTVSPost2010PropOp32
 70
     1
102
RTVSPost2010Prop33
280
     0
102
RTVSPost2010PropOp33
 70
     1
102
RTVSPost2010Prop34
280
     0
102
RTVSPost2010PropOp34
 70
     1
102
RTVSPost2010Prop35
280
     0
102
RTVSPost2010PropOp35
 70
     1
102
RTVSPost2010Prop36
280
     0
102
RTVSPost2010PropOp36
 70
     1
102
RTVSPost2010Prop37
 90
       50
102
RTVSPost2010PropOp37
 70
     1
102
RTVSPost2010Prop38
140
0.0
102
RTVSPost2010PropOp38
 70
     1
102
RTVSPost2010Prop39
140
1.0
102
RTVSPost2010PropOp39
 70
     1
102
RTVSPost2010Prop40
 90
        0
102
RTVSPost2010PropOp40
 70
     1
102
RTVSPost2010Prop41ColorIndex
 90
       18
102
RTVSPost2010Prop41ColorRGB
 90
        0
102
RTVSPost2010PropOp41
 70
     1
102
RTVSPost2010Prop42
 90
       50
102
RTVSPost2010PropOp42
 70
     1
102
RTVSPost2010Prop43
 90
        3
102
RTVSPost2010PropOp43
 70
     1
102
RTVSPost2010Prop44ColorIndex
 90
        5
102
RTVSPost2010Prop44ColorRGB
 90
      255
102
RTVSPost2010PropOp44
 70
     1
102
RTVSPost2010Prop45
280
     0
102
RTVSPost2010PropOp45
 70
     1
102
RTVSPost2010Prop46
 90
       50
102
RTVSPost2010PropOp46
 70
     1
102
RTVSPost2010Prop47
 90
       50
102
RTVSPost2010PropOp47
 70
     1
102
RTVSPost2010Prop48
 90
       50
102
RTVSPost2010PropOp48
 70
     1
102
RTVSPost2010Prop49
280
     0
102
RTVSPost2010PropOp49
 70
     1
102
RTVSPost2010Prop50
 90
       50
102
RTVSPost2010PropOp50
 70
     1
102
RTVSPost2010Prop51ColorIndex
 90
      256
102
RTVSPost2010Prop51ColorRGB
 90
-16777216
102
RTVSPost2010PropOp51
 70
     0
102
RTVSPost2010Prop52
140
1.0
102
RTVSPost2010PropOp52
 70
     0
102
RTVSPost2010Prop53
 90
        2
102
RTVSPost2010PropOp53
 70
     1
102
RTVSPost2010Prop54
  1
strokes_ogs.tif
102
RTVSPost2010PropOp54
 70
     1
102
RTVSPost2010Prop55
280
     0
102
RTVSPost2010PropOp55
 70
     1
102
RTVSPost2010Prop56
140
1.0
102
RTVSPost2010PropOp56
 70
     1
102
RTVSPost2010Prop57
140
1.0
102
RTVSPost2010PropOp57
 70
     1
102
RTVSPropertyOp0
 70
     1
102
RTVSPropertyOp1
 70
     1
102
RTVSPropertyOp2
 70
     1
102
RTVSPropertyOp3
 70
     1
102
RTVSPropertyOp4
 70
     1
102
RTVSPropertyOp5
 70
     1
102
RTVSPropertyOp6
 70
     1
102
RTVSPropertyOp7
 70
     1
102
RTVSPropertyOp8
 70
     1
102
RTVSPropertyOp9
 70
     1
102
RTVSPropertyOp10
 70
     1
102
RTVSPropertyOp11
 70
     1
102
RTVSPropertyOp12
 70
     1
102
RTVSPropertyOp13
 70
     1
102
RTVSPropertyOp14
 70
     1
102
RTVSPropertyOp15
 70
     1
102
RTVSPropertyOp16
 70
     1
102
RTVSPropertyOp17
 70
     1
102
RTVSPropertyOp18
 70
     1
102
RTVSPropertyOp19
 70
     1
102
RTVSPropertyOp20
 70
     1
102
RTVSPropertyOp21
 70
     1
102
RTVSPropertyOp22
 70
     1
102
RTVSPropertyOp23
 70
     1
102
RTVSPropertyOp24
 70
     1
102
RTVSPropertyOp25
 70
     1
102
RTVSPropertyOp26
 70
     1
102
RTVSPropertyOp27
 70
     1
102
RTVSPropertyOp28
 70
     1
102
RTVSPropertyOp29
 70
     1
102
RTVSPropertyOp30
 70
     1
102
RTVSPropertyOp31
 70
     1
102
RTVSPropertyOp32
 70
     1
102
RTVSPropertyOp33
 70
     1
102
RTVSPropertyOp34
 70
     1
102
RTVSPropertyOp35
 70
     1
102
RTVSPropertyOp36
 70
     1
102
RTVSPropertyOp37
 70
     1
102
RTVSPropertyOp38
 70
     1
102
RTVSPropertyOp39
 70
     1
102
RTVSPropertyOp40
 70
     1
102
RTVSPropertyOp41
 70
     1
102
RTVSPropertyOp42
 70
     1
102
RTVSPropertyOp43
 70
     1
102
RTVSPropertyOp44
 70
     1
102
RTVSPropertyOp45
 70
     1
102
RTVSPropertyOp46
 70
     1
102
RTVSPropertyOp47
 70
     1
102
RTVSPropertyOp48
 70
     1
102
RTVSPropertyOp49
 70
     1
102
RTVSPropertyOp50
 70
     1
102
RTVSPropertyOp51
 70
     0
102
RTVSPropertyOp52
 70
     0
102
RTVSPropertyOp53
 70
     1
102
RTVSPropertyOp54
 70
     1
102
RTVSPropertyOp55
 70
     1
102
RTVSPropertyOp56
 70
     1
102
RTVSPropertyOp57
 70
     1
102
RTVSPropertyOp58
 70
     1
102
RTVSPropertyOp59
 70
     1
102
RTVSPropertyOp60
 70
     1
102
RTVSPropertyOp61
 70
     1
102
RTVSPropertyOp62
 70
     1
  0
XRECORD
  5
3DC
102
{ACAD_REACTORS
330
3DB
102
}
330
3DB
100
AcDbXrecord
280
     1
102
RTVSPost2010Prop28
280
     0
102
RTVSPost2010PropOp28
 70
     1
102
RTVSPost2010Prop29
280
     1
102
RTVSPost2010PropOp29
 70
     1
102
RTVSPost2010Prop30
280
     1
102
RTVSPost2010PropOp30
 70
     1
102
RTVSPost2010Prop31
280
     0
102
RTVSPost2010PropOp31
 70
     1
102
RTVSPost2010Prop32
280
     0
102
RTVSPost2010PropOp32
 70
     1
102
RTVSPost2010Prop33
280
     0
102
RTVSPost2010PropOp33
 70
     1
102
RTVSPost2010Prop34
280
     0
102
RTVSPost2010PropOp34
 70
     1
102
RTVSPost2010Prop35
280
     0
102
RTVSPost2010PropOp35
 70
     1
102
RTVSPost2010Prop36
280
     0
102
RTVSPost2010PropOp36
 70
     1
102
RTVSPost2010Prop37
 90
       50
102
RTVSPost2010PropOp37
 70
     1
102
RTVSPost2010Prop38
140
0.0
102
RTVSPost2010PropOp38
 70
     1
102
RTVSPost2010Prop39
140
1.0
102
RTVSPost2010PropOp39
 70
     1
102
RTVSPost2010Prop40
 90
        0
102
RTVSPost2010PropOp40
 70
     1
102
RTVSPost2010Prop41ColorIndex
 90
       18
102
RTVSPost2010Prop41ColorRGB
 90
        0
102
RTVSPost2010PropOp41
 70
     1
102
RTVSPost2010Prop42
 90
       50
102
RTVSPost2010PropOp42
 70
     1
102
RTVSPost2010Prop43
 90
        3
102
RTVSPost2010PropOp43
 70
     1
102
RTVSPost2010Prop44ColorIndex
 90
        5
102
RTVSPost2010Prop44ColorRGB
 90
      255
102
RTVSPost2010PropOp44
 70
     1
102
RTVSPost2010Prop45
280
     0
102
RTVSPost2010PropOp45
 70
     1
102
RTVSPost2010Prop46
 90
       50
102
RTVSPost2010PropOp46
 70
     1
102
RTVSPost2010Prop47
 90
       50
102
RTVSPost2010PropOp47
 70
     1
102
RTVSPost2010Prop48
 90
       50
102
RTVSPost2010PropOp48
 70
     1
102
RTVSPost2010Prop49
280
     0
102
RTVSPost2010PropOp49
 70
     1
102
RTVSPost2010Prop50
 90
       50
102
RTVSPost2010PropOp50
 70
     1
102
RTVSPost2010Prop51ColorIndex
 90
      256
102
RTVSPost2010Prop51ColorRGB
 90
-16777216
102
RTVSPost2010PropOp51
 70
     0
102
RTVSPost2010Prop52
140
1.0
102
RTVSPost2010PropOp52
 70
     0
102
RTVSPost2010Prop53
 90
        2
102
RTVSPost2010PropOp53
 70
     1
102
RTVSPost2010Prop54
  1
strokes_ogs.tif
102
RTVSPost2010PropOp54
 70
     1
102
RTVSPost2010Prop55
280
     0
102
RTVSPost2010PropOp55
 70
     1
102
RTVSPost2010Prop56
140
1.0
102
RTVSPost2010PropOp56
 70
     1
102
RTVSPost2010Prop57
140
1.0
102
RTVSPost2010PropOp57
 70
     1
102
RTVSPropertyOp0
 70
     1
102
RTVSPropertyOp1
 70
     1
102
RTVSPropertyOp2
 70
     1
102
RTVSPropertyOp3
 70
     1
102
RTVSPropertyOp4
 70
     1
102
RTVSPropertyOp5
 70
     1
102
RTVSPropertyOp6
 70
     1
102
RTVSPropertyOp7
 70
     1
102
RTVSPropertyOp8
 70
     1
102
RTVSPropertyOp9
 70
     1
102
RTVSPropertyOp10
 70
     1
102
RTVSPropertyOp11
 70
     1
102
RTVSPropertyOp12
 70
     1
102
RTVSPropertyOp13
 70
     1
102
RTVSPropertyOp14
 70
     1
102
RTVSPropertyOp15
 70
     1
102
RTVSPropertyOp16
 70
     1
102
RTVSPropertyOp17
 70
     1
102
RTVSPropertyOp18
 70
     1
102
RTVSPropertyOp19
 70
     1
102
RTVSPropertyOp20
 70
     1
102
RTVSPropertyOp21
 70
     1
102
RTVSPropertyOp22
 70
     1
102
RTVSPropertyOp23
 70
     1
102
RTVSPropertyOp24
 70
     1
102
RTVSPropertyOp25
 70
     1
102
RTVSPropertyOp26
 70
     1
102
RTVSPropertyOp27
 70
     1
102
RTVSPropertyOp28
 70
     1
102
RTVSPropertyOp29
 70
     1
102
RTVSPropertyOp30
 70
     1
102
RTVSPropertyOp31
 70
     1
102
RTVSPropertyOp32
 70
     1
102
RTVSPropertyOp33
 70
     1
102
RTVSPropertyOp34
 70
     1
102
RTVSPropertyOp35
 70
     1
102
RTVSPropertyOp36
 70
     1
102
RTVSPropertyOp37
 70
     1
102
RTVSPropertyOp38
 70
     1
102
RTVSPropertyOp39
 70
     1
102
RTVSPropertyOp40
 70
     1
102
RTVSPropertyOp41
 70
     1
102
RTVSPropertyOp42
 70
     1
102
RTVSPropertyOp43
 70
     1
102
RTVSPropertyOp44
 70
     1
102
RTVSPropertyOp45
 70
     1
102
RTVSPropertyOp46
 70
     1
102
RTVSPropertyOp47
 70
     1
102
RTVSPropertyOp48
 70
     1
102
RTVSPropertyOp49
 70
     1
102
RTVSPropertyOp50
 70
     1
102
RTVSPropertyOp51
 70
     0
102
RTVSPropertyOp52
 70
     0
102
RTVSPropertyOp53
 70
     1
102
RTVSPropertyOp54
 70
     1
102
RTVSPropertyOp55
 70
     1
102
RTVSPropertyOp56
 70
     1
102
RTVSPropertyOp57
 70
     1
102
RTVSPropertyOp58
 70
     1
102
RTVSPropertyOp59
 70
     1
102
RTVSPropertyOp60
 70
     1
102
RTVSPropertyOp61
 70
     1
102
RTVSPropertyOp62
 70
     1
  0
ENDSEC
  0
EOF
