  0
SECTION
  2
HEADER
  9
$ACADVER
  1
AC1015
  9
$ACADMAINTVER
 70
    20
  9
$DWGCODEPAGE
  3
ANSI_932
  9
$INSBASE
 10
0.0
 20
0.0
 30
0.0
  9
$EXTMIN
 10
-270.0164782349211
 20
-405.6381302604166
 30
-0.0015258207003583
  9
$EXTMAX
 10
270.0164807494923
 20
397.0420186093907
 30
0.0000000349246037
  9
$LIMMIN
 10
0.0
 20
0.0
  9
$LIMMAX
 10
0.0
 20
0.0
  9
$ORTHOMODE
 70
     0
  9
$REGENMODE
 70
     1
  9
$FILLMODE
 70
     1
  9
$QTEXTMODE
 70
     0
  9
$MIRRTEXT
 70
     1
  9
$LTSCALE
 40
15.24
  9
$ATTMODE
 70
     1
  9
$TEXTSIZE
 40
0.0
  9
$TRACEWID
 40
1.0
  9
$TEXTSTYLE
  7
STANDARD
  9
$CLAYER
  8
DATA
  9
$CELTYPE
  6
ByLayer
  9
$CECOLOR
 62
   256
  9
$CELTSCALE
 40
1.0
  9
$DISPSILH
 70
     0
  9
$DIMSCALE
 40
1.0
  9
$DIMASZ
 40
0.18
  9
$DIMEXO
 40
0.0625
  9
$DIMDLI
 40
0.38
  9
$DIMRND
 40
0.0
  9
$DIMDLE
 40
0.0
  9
$DIMEXE
 40
0.18
  9
$DIMTP
 40
0.0
  9
$DIMTM
 40
0.0
  9
$DIMTXT
 40
0.18
  9
$DIMCEN
 40
0.09
  9
$DIMTSZ
 40
0.0
  9
$DIMTOL
 70
     0
  9
$DIMLIM
 70
     0
  9
$DIMTIH
 70
     1
  9
$DIMTOH
 70
     1
  9
$DIMSE1
 70
     0
  9
$DIMSE2
 70
     0
  9
$DIMTAD
 70
     0
  9
$DIMZIN
 70
     0
  9
$DIMBLK
  1

  9
$DIMASO
 70
     1
  9
$DIMSHO
 70
     1
  9
$DIMPOST
  1

  9
$DIMAPOST
  1

  9
$DIMALT
 70
     0
  9
$DIMALTD
 70
     2
  9
$DIMALTF
 40
25.4
  9
$DIMLFAC
 40
1.0
  9
$DIMTOFL
 70
     0
  9
$DIMTVP
 40
0.0
  9
$DIMTIX
 70
     0
  9
$DIMSOXD
 70
     0
  9
$DIMSAH
 70
     0
  9
$DIMBLK1
  1

  9
$DIMBLK2
  1

  9
$DIMSTYLE
  2
STANDARD
  9
$DIMCLRD
 70
     0
  9
$DIMCLRE
 70
     0
  9
$DIMCLRT
 70
     0
  9
$DIMTFAC
 40
1.0
  9
$DIMGAP
 40
0.09
  9
$DIMJUST
 70
     0
  9
$DIMSD1
 70
     0
  9
$DIMSD2
 70
     0
  9
$DIMTOLJ
 70
     1
  9
$DIMTZIN
 70
     0
  9
$DIMALTZ
 70
     0
  9
$DIMALTTZ
 70
     0
  9
$DIMUPT
 70
     0
  9
$DIMDEC
 70
     4
  9
$DIMTDEC
 70
     4
  9
$DIMALTU
 70
     2
  9
$DIMALTTD
 70
     2
  9
$DIMTXSTY
  7
STANDARD
  9
$DIMAUNIT
 70
     0
  9
$DIMADEC
 70
     0
  9
$DIMALTRND
 40
0.0
  9
$DIMAZIN
 70
     0
  9
$DIMDSEP
 70
    46
  9
$DIMATFIT
 70
     3
  9
$DIMFRAC
 70
     0
  9
$DIMLDRBLK
  1

  9
$DIMLUNIT
 70
     2
  9
$DIMLWD
 70
    -2
  9
$DIMLWE
 70
    -2
  9
$DIMTMOVE
 70
     0
  9
$LUNITS
 70
     2
  9
$LUPREC
 70
     4
  9
$SKETCHINC
 40
0.1
  9
$FILLETRAD
 40
0.0
  9
$AUNITS
 70
     0
  9
$AUPREC
 70
     0
  9
$MENU
  1
acad
  9
$ELEVATION
 40
0.0
  9
$PELEVATION
 40
0.0
  9
$THICKNESS
 40
0.0
  9
$LIMCHECK
 70
     0
  9
$CHAMFERA
 40
0.0
  9
$CHAMFERB
 40
0.0
  9
$CHAMFERC
 40
0.0
  9
$CHAMFERD
 40
0.0
  9
$SKPOLY
 70
     0
  9
$TDCREATE
 40
2457919.473761574
  9
$TDUCREATE
 40
2457919.098761574
  9
$TDUPDATE
 40
2457919.479884260
  9
$TDUUPDATE
 40
2457919.104884259
  9
$TDINDWG
 40
0.0003009259
  9
$TDUSRTIMER
 40
0.0003009259
  9
$USRTIMER
 70
     1
  9
$ANGBASE
 50
0.0
  9
$ANGDIR
 70
     0
  9
$PDMODE
 70
     1
  9
$PDSIZE
 40
-2.0
  9
$PLINEWID
 40
0.0
  9
$SPLFRAME
 70
     0
  9
$SPLINETYPE
 70
     6
  9
$SPLINESEGS
 70
     8
  9
$HANDSEED
  5
4C3
  9
$SURFTAB1
 70
     6
  9
$SURFTAB2
 70
     6
  9
$SURFTYPE
 70
     6
  9
$SURFU
 70
     6
  9
$SURFV
 70
     6
  9
$UCSBASE
  2

  9
$UCSNAME
  2

  9
$UCSORG
 10
0.0
 20
0.0
 30
0.0
  9
$UCSXDIR
 10
1.0
 20
0.0
 30
0.0
  9
$UCSYDIR
 10
0.0
 20
1.0
 30
0.0
  9
$UCSORTHOREF
  2

  9
$UCSORTHOVIEW
 70
     0
  9
$UCSORGTOP
 10
0.0
 20
0.0
 30
0.0
  9
$UCSORGBOTTOM
 10
0.0
 20
0.0
 30
0.0
  9
$UCSORGLEFT
 10
0.0
 20
0.0
 30
0.0
  9
$UCSORGRIGHT
 10
0.0
 20
0.0
 30
0.0
  9
$UCSORGFRONT
 10
0.0
 20
0.0
 30
0.0
  9
$UCSORGBACK
 10
0.0
 20
0.0
 30
0.0
  9
$PUCSBASE
  2

  9
$PUCSNAME
  2

  9
$PUCSORG
 10
0.0
 20
0.0
 30
0.0
  9
$PUCSXDIR
 10
1.0
 20
0.0
 30
0.0
  9
$PUCSYDIR
 10
0.0
 20
1.0
 30
0.0
  9
$PUCSORTHOREF
  2

  9
$PUCSORTHOVIEW
 70
     0
  9
$PUCSORGTOP
 10
0.0
 20
0.0
 30
0.0
  9
$PUCSORGBOTTOM
 10
0.0
 20
0.0
 30
0.0
  9
$PUCSORGLEFT
 10
0.0
 20
0.0
 30
0.0
  9
$PUCSORGRIGHT
 10
0.0
 20
0.0
 30
0.0
  9
$PUCSORGFRONT
 10
0.0
 20
0.0
 30
0.0
  9
$PUCSORGBACK
 10
0.0
 20
0.0
 30
0.0
  9
$USERI1
 70
     0
  9
$USERI2
 70
     0
  9
$USERI3
 70
     0
  9
$USERI4
 70
     0
  9
$USERI5
 70
     0
  9
$USERR1
 40
0.0
  9
$USERR2
 40
0.0
  9
$USERR3
 40
0.0
  9
$USERR4
 40
0.0
  9
$USERR5
 40
0.0
  9
$WORLDVIEW
 70
     1
  9
$SHADEDGE
 70
     3
  9
$SHADEDIF
 70
    70
  9
$TILEMODE
 70
     1
  9
$MAXACTVP
 70
    64
  9
$PINSBASE
 10
0.0
 20
0.0
 30
0.0
  9
$PLIMCHECK
 70
     0
  9
$PEXTMIN
 10
1.000000000000000E+20
 20
1.000000000000000E+20
 30
1.000000000000000E+20
  9
$PEXTMAX
 10
-1.000000000000000E+20
 20
-1.000000000000000E+20
 30
-1.000000000000000E+20
  9
$PLIMMIN
 10
0.0
 20
0.0
  9
$PLIMMAX
 10
12.0
 20
9.0
  9
$UNITMODE
 70
     0
  9
$VISRETAIN
 70
     0
  9
$PLINEGEN
 70
     1
  9
$PSLTSCALE
 70
     0
  9
$TREEDEPTH
 70
  3020
  9
$CMLSTYLE
  2
Standard
  9
$CMLJUST
 70
     0
  9
$CMLSCALE
 40
1.0
  9
$PROXYGRAPHICS
 70
     1
  9
$MEASUREMENT
 70
     0
  9
$CELWEIGHT
370
    -1
  9
$ENDCAPS
280
     0
  9
$JOINSTYLE
280
     0
  9
$LWDISPLAY
290
     0
  9
$INSUNITS
 70
     0
  9
$HYPERLINKBASE
  1

  9
$STYLESHEET
  1

  9
$XEDIT
290
     1
  9
$CEPSNTYPE
380
     0
  9
$PSTYLEMODE
290
     1
  9
$FINGERPRINTGUID
  2
{39966E7B-64E2-A543-B2B0-D560C5DD42B7}
  9
$VERSIONGUID
  2
{86796AD9-0FCF-BC45-8118-ADF91A941369}
  9
$EXTNAMES
290
     1
  9
$PSVPSCALE
 40
0.0
  9
$OLESTARTUP
290
     0
  0
ENDSEC
  0
SECTION
  2
CLASSES
  0
CLASS
  1
ACDBDICTIONARYWDFLT
  2
AcDbDictionaryWithDefault
  3
ObjectDBX Classes
 90
        0
280
     0
281
     0
  0
CLASS
  1
MATERIAL
  2
AcDbMaterial
  3
ObjectDBX Classes
 90
     1153
280
     0
281
     0
  0
CLASS
  1
VISUALSTYLE
  2
AcDbVisualStyle
  3
ObjectDBX Classes
 90
     4095
280
     0
281
     0
  0
CLASS
  1
SCALE
  2
AcDbScale
  3
ObjectDBX Classes
 90
     1153
280
     0
281
     0
  0
CLASS
  1
TABLESTYLE
  2
AcDbTableStyle
  3
ObjectDBX Classes
 90
     4095
280
     0
281
     0
  0
CLASS
  1
MLEADERSTYLE
  2
AcDbMLeaderStyle
  3
ACDB_MLEADERSTYLE_CLASS
 90
     4095
280
     0
281
     0
  0
CLASS
  1
ACDBSECTIONVIEWSTYLE
  2
AcDbSectionViewStyle
  3
ObjectDBX Classes
 90
     1025
280
     0
281
     0
  0
CLASS
  1
ACDBDETAILVIEWSTYLE
  2
AcDbDetailViewStyle
  3
ObjectDBX Classes
 90
     1025
280
     0
281
     0
  0
CLASS
  1
DICTIONARYVAR
  2
AcDbDictionaryVar
  3
ObjectDBX Classes
 90
        0
280
     0
281
     0
  0
CLASS
  1
CELLSTYLEMAP
  2
AcDbCellStyleMap
  3
ObjectDBX Classes
 90
     1152
280
     0
281
     0
  0
CLASS
  1
ACDBPLACEHOLDER
  2
AcDbPlaceHolder
  3
ObjectDBX Classes
 90
        0
280
     0
281
     0
  0
CLASS
  1
LAYOUT
  2
AcDbLayout
  3
ObjectDBX Classes
 90
        0
280
     0
281
     0
  0
ENDSEC
  0
SECTION
  2
TABLES
  0
TABLE
  2
VPORT
  5
3ED
330
0
100
AcDbSymbolTable
 70
     1
  0
VPORT
  5
459
330
3ED
100
AcDbSymbolTableRecord
100
AcDbViewportTableRecord
  2
*ACTIVE
 70
     0
 10
0.0
 20
0.0
 11
1.0
 21
1.0
 12
0.0000012572855894
 22
-3.508783412681736
 13
0.0
 23
0.0
 14
1.0
 24
1.0
 15
0.0
 25
0.0
 16
0.0
 26
0.0
 36
1.0
 17
0.0
 27
0.0
 37
0.0
 40
807.0137930038802
 41
2.497536945812807
 42
50.0
 43
0.0
 44
0.0
 50
0.0
 51
0.0
 71
     0
 72
  2000
 73
     1
 74
     1
 75
     0
 76
     0
 77
     0
 78
     0
281
     0
 65
     1
110
0.0
120
0.0
130
0.0
111
1.0
121
0.0
131
0.0
112
0.0
122
1.0
132
0.0
 79
     0
146
0.0
1001
ACAD_NAV_VCDISPLAY
1070
     3
  0
ENDTAB
  0
TABLE
  2
LTYPE
  5
3EA
330
0
100
AcDbSymbolTable
 70
    11
  0
LTYPE
  5
43F
330
3EA
100
AcDbSymbolTableRecord
100
AcDbLinetypeTableRecord
  2
ByBlock
 70
     0
  3

 72
    65
 73
     0
 40
0.0
  0
LTYPE
  5
440
330
3EA
100
AcDbSymbolTableRecord
100
AcDbLinetypeTableRecord
  2
ByLayer
 70
     0
  3

 72
    65
 73
     0
 40
0.0
  0
LTYPE
  5
441
330
3EA
100
AcDbSymbolTableRecord
100
AcDbLinetypeTableRecord
  2
CONTINUOUS
 70
     0
  3
Solid line
 72
    65
 73
     0
 40
0.0
  0
ENDTAB
  0
TABLE
  2
LAYER
  5
3E7
330
0
100
AcDbSymbolTable
 70
     5
  0
LAYER
  5
439
102
{ACAD_XDICTIONARY
360
46D
102
}
330
3E7
100
AcDbSymbolTableRecord
100
AcDbLayerTableRecord
  2
0
 70
     0
 62
     7
  6
CONTINUOUS
370
    -3
390
3F4
  0
LAYER
  5
458
102
{ACAD_XDICTIONARY
360
46F
102
}
330
3E7
100
AcDbSymbolTableRecord
100
AcDbLayerTableRecord
  2
DATA
 70
     0
 62
     7
  6
CONTINUOUS
370
    -3
390
3F4
  0
LAYER
  5
464
102
{ACAD_XDICTIONARY
360
471
102
}
330
3E7
100
AcDbSymbolTableRecord
100
AcDbLayerTableRecord
  2
HIBINO-BASE
 70
     0
 62
     7
  6
CONTINUOUS
370
    -3
390
3F4
  0
LAYER
  5
465
102
{ACAD_XDICTIONARY
360
473
102
}
330
3E7
100
AcDbSymbolTableRecord
100
AcDbLayerTableRecord
  2
SPEC
 70
     0
 62
     7
  6
CONTINUOUS
370
    -3
390
3F4
  0
LAYER
  5
466
102
{ACAD_XDICTIONARY
360
475
102
}
330
3E7
100
AcDbSymbolTableRecord
100
AcDbLayerTableRecord
  2
DIMNSIONS
 70
     0
 62
     7
  6
CONTINUOUS
370
    -3
390
3F4
  0
ENDTAB
  0
TABLE
  2
STYLE
  5
3E8
330
0
100
AcDbSymbolTable
 70
     3
  0
STYLE
  5
43A
330
3E8
100
AcDbSymbolTableRecord
100
AcDbTextStyleTableRecord
  2
STANDARD
 70
     0
 40
0.0
 41
1.0
 50
0.0
 71
     0
 42
0.0
  3
txt
  4
BIGFONT.SHX
  0
ENDTAB
  0
TABLE
  2
VIEW
  5
3EB
330
0
100
AcDbSymbolTable
 70
     0
  0
ENDTAB
  0
TABLE
  2
UCS
  5
3EC
330
0
100
AcDbSymbolTable
 70
     0
  0
ENDTAB
  0
TABLE
  2
APPID
  5
3EE
330
0
100
AcDbSymbolTable
 70
     4
  0
APPID
  5
43B
330
3EE
100
AcDbSymbolTableRecord
100
AcDbRegAppTableRecord
  2
ACAD
 70
     0
  0
APPID
  5
442
330
3EE
100
AcDbSymbolTableRecord
100
AcDbRegAppTableRecord
  2
AcadAnnotative
 70
     0
  0
APPID
  5
481
330
3EE
100
AcDbSymbolTableRecord
100
AcDbRegAppTableRecord
  2
ACAD_NAV_VCDISPLAY
 70
     0
  0
APPID
  5
4BA
330
3EE
100
AcDbSymbolTableRecord
100
AcDbRegAppTableRecord
  2
ACAD_MLEADERVER
 70
     0
  0
ENDTAB
  0
TABLE
  2
DIMSTYLE
  5
3EF
330
0
100
AcDbSymbolTable
 70
     2
100
AcDbDimStyleTable
 71
     0
  0
DIMSTYLE
105
43C
330
3EF
100
AcDbSymbolTableRecord
100
AcDbDimStyleTableRecord
  2
STANDARD
 70
     0
279
     2
340
43A
  0
ENDTAB
  0
TABLE
  2
BLOCK_RECORD
  5
3E6
330
0
100
AcDbSymbolTable
 70
     0
  0
BLOCK_RECORD
  5
454
330
3E6
100
AcDbSymbolTableRecord
100
AcDbBlockTableRecord
  2
*Model_Space
340
457
  0
BLOCK_RECORD
  5
450
330
3E6
100
AcDbSymbolTableRecord
100
AcDbBlockTableRecord
  2
*Paper_Space
340
453
  0
ENDTAB
  0
ENDSEC
  0
SECTION
  2
BLOCKS
  0
BLOCK
  5
455
330
454
100
AcDbEntity
  8
0
100
AcDbBlockBegin
  2
*Model_Space
 70
     0
 10
0.0
 20
0.0
 30
0.0
  3
*Model_Space
  1

  0
ENDBLK
  5
456
330
454
100
AcDbEntity
  8
0
100
AcDbBlockEnd
  0
BLOCK
  5
451
330
450
100
AcDbEntity
 67
     1
  8
0
100
AcDbBlockBegin
  2
*Paper_Space
 70
     0
 10
0.0
 20
0.0
 30
0.0
  3
*Paper_Space
  1

  0
ENDBLK
  5
452
330
450
100
AcDbEntity
 67
     1
  8
0
100
AcDbBlockEnd
  0
ENDSEC
  0
SECTION
  2
ENTITIES
  0
LINE
  5
2C
330
454
100
AcDbEntity
  8
HIBINO-BASE
  6
Continuous
 62
     7
100
AcDbLine
 10
-269.9999999999999
 20
397.0175705555557
 30
0.0
 11
269.9999999999999
 21
397.0175705555557
 31
0.0
  0
LINE
  5
2D
330
454
100
AcDbEntity
  8
HIBINO-BASE
  6
Continuous
 62
     7
100
AcDbLine
 10
269.9999999999999
 20
-382.9824294444443
 30
0.0
 11
-269.9999999999999
 21
-382.9824294444443
 31
0.0
  0
LINE
  5
2E
330
454
100
AcDbEntity
  8
HIBINO-BASE
  6
Continuous
 62
     7
100
AcDbLine
 10
-269.9999999999999
 20
-382.9824294444443
 30
0.0
 11
-269.9999999999999
 21
397.0175705555557
 31
0.0
  0
LINE
  5
2F
330
454
100
AcDbEntity
  8
HIBINO-BASE
  6
Continuous
 62
     7
100
AcDbLine
 10
269.9999999999999
 20
397.0175705555557
 30
0.0
 11
269.9999999999999
 21
-382.9824294444443
 31
0.0
  0
LINE
  5
30
330
454
100
AcDbEntity
  8
HIBINO-BASE
  6
Continuous
 62
     7
100
AcDbLine
 10
0.0000000000000213
 20
-315.4824294444444
 30
0.0
 11
269.9999999999999
 21
-315.4824294444444
 31
0.0
  0
LINE
  5
31
330
454
100
AcDbEntity
  8
HIBINO-BASE
  6
Continuous
 62
     7
100
AcDbLine
 10
0.0000000000000213
 20
-382.9824294444443
 30
0.0
 11
0.0000000000000213
 21
-315.4824294444444
 31
0.0
  0
TEXT
  5
32
330
454
100
AcDbEntity
  8
HIBINO-BASE
 62
     7
100
AcDbText
 10
2.700000000000037
 20
-323.0085094444444
 30
0.0
 40
4.886523437499999
  1
NOTE
 41
0.7
 11
2.700000000000038
 21
-318.1219860069444
 31
0.0
100
AcDbText
 73
     3
  0
LINE
  5
33
330
454
100
AcDbEntity
  8
HIBINO-BASE
  6
Continuous
 62
     7
100
AcDbLine
 10
105.0
 20
-382.9824294444443
 30
0.0
 11
105.0
 21
-315.4824294444444
 31
0.0
  0
TEXT
  5
34
330
454
100
AcDbEntity
  8
HIBINO-BASE
 62
     7
100
AcDbText
 10
107.7
 20
-323.0085094444444
 30
0.0
 40
4.886523437499999
  1
TITLE
 41
0.7
 11
107.7
 21
-318.1219860069444
 31
0.0
100
AcDbText
 73
     3
  0
LINE
  5
35
330
454
100
AcDbEntity
  8
HIBINO-BASE
  6
Continuous
 62
     7
100
AcDbLine
 10
0.0000000000000213
 20
-352.9824294444444
 30
0.0
 11
269.9999999999999
 21
-352.9824294444444
 31
0.0
  0
TEXT
  5
36
330
454
100
AcDbEntity
  8
HIBINO-BASE
 62
     7
100
AcDbText
 10
145.2
 20
-360.3395494444443
 30
0.0
 40
4.886523437499999
  1
DRAWN
 41
0.7
 11
145.2
 21
-355.4530260069443
 31
0.0
100
AcDbText
 73
     3
  0
TEXT
  5
37
330
454
100
AcDbEntity
  8
HIBINO-BASE
 62
     7
100
AcDbText
 10
70.19999999999999
 20
-360.3395494444443
 30
0.0
 40
4.886523437499999
  1
DATE
 41
0.7
 11
70.19999999999999
 21
-355.4530260069443
 31
0.0
100
AcDbText
 73
     3
  0
TEXT
  5
38
330
454
100
AcDbEntity
  8
HIBINO-BASE
 62
     7
100
AcDbText
 10
40.2
 20
-360.3395494444443
 30
0.0
 40
4.886523437499999
  1
SCALE
 41
0.7
 11
40.2
 21
-355.4530260069443
 31
0.0
100
AcDbText
 73
     3
  0
TEXT
  5
39
330
454
100
AcDbEntity
  8
HIBINO-BASE
 62
     7
100
AcDbText
 10
107.7
 20
-360.3395494444443
 30
0.0
 40
4.886523437499999
  1
DESIGN
 41
0.7
 11
107.7
 21
-355.4530260069443
 31
0.0
100
AcDbText
 73
     3
  0
TEXT
  5
3A
330
454
100
AcDbEntity
  8
HIBINO-BASE
 62
     7
100
AcDbText
 10
220.2
 20
-360.3395494444443
 30
0.0
 40
4.886523437499999
  1
DRAWING NO.
 41
0.7
 11
220.2
 21
-355.4530260069443
 31
0.0
100
AcDbText
 73
     3
  0
TEXT
  5
3B
330
454
100
AcDbEntity
  8
HIBINO-BASE
 62
     7
100
AcDbText
 10
182.7
 20
-360.3395494444443
 30
0.0
 40
4.886523437499999
  1
CHECK
 41
0.7
 11
182.7
 21
-355.4530260069443
 31
0.0
100
AcDbText
 73
     3
  0
LINE
  5
3C
330
454
100
AcDbEntity
  8
HIBINO-BASE
  6
Continuous
 62
     7
100
AcDbLine
 10
43.12500000000002
 20
-379.2324294444443
 30
0.0
 11
54.37500000000007
 21
-367.9824294444443
 31
0.0
  0
TEXT
  5
3D
330
454
100
AcDbEntity
  8
HIBINO-BASE
 62
     7
100
AcDbText
 10
41.25000000000001
 20
-371.3092594444445
 30
0.0
 40
4.886523437499999
  1
1
 41
0.7
 11
41.25000000000001
 21
-366.4227360069445
 31
0.0
100
AcDbText
 73
     3
  0
LINE
  5
3E
330
454
100
AcDbEntity
  8
HIBINO-BASE
  6
Continuous
 62
     7
100
AcDbLine
 10
37.50000000000002
 20
-382.9824294444443
 30
0.0
 11
37.50000000000002
 21
-352.9824294444444
 31
0.0
  0
LINE
  5
3F
330
454
100
AcDbEntity
  8
HIBINO-BASE
  6
Continuous
 62
     7
100
AcDbLine
 10
67.49999999999997
 20
-382.9824294444443
 30
0.0
 11
67.49999999999997
 21
-352.9824294444444
 31
0.0
  0
LINE
  5
40
330
454
100
AcDbEntity
  8
HIBINO-BASE
  6
Continuous
 62
     7
100
AcDbLine
 10
142.4999999999999
 20
-352.9824294444444
 30
0.0
 11
142.4999999999999
 21
-382.9824294444443
 31
0.0
  0
LINE
  5
41
330
454
100
AcDbEntity
  8
HIBINO-BASE
  6
Continuous
 62
     7
100
AcDbLine
 10
217.5000000000001
 20
-352.9824294444444
 30
0.0
 11
217.5000000000001
 21
-382.9824294444443
 31
0.0
  0
LINE
  5
42
330
454
100
AcDbEntity
  8
HIBINO-BASE
  6
Continuous
 62
     7
100
AcDbLine
 10
179.9999999999999
 20
-382.9824294444443
 30
0.0
 11
179.9999999999999
 21
-352.9824294444444
 31
0.0
  0
TEXT
  5
43
330
454
100
AcDbEntity
  8
HIBINO-BASE
 62
     7
100
AcDbText
 10
70.06962000000005
 20
-374.3914894444444
 30
0.0
 40
4.886523437499999
  1
'17.06.
 41
0.7
 11
70.06962000000005
 21
-369.5049660069444
 31
0.0
100
AcDbText
 73
     3
  0
TEXT
  5
44
330
454
100
AcDbEntity
  8
HIBINO-BASE
 62
     7
100
AcDbText
 10
52.50000000000002
 20
-376.9342594444445
 30
0.0
 40
4.886523437499999
  1
3
 41
0.7
 11
52.50000000000002
 21
-372.0477360069445
 31
0.0
100
AcDbText
 73
     3
  0
TEXT
  5
45
330
454
100
AcDbEntity
  8
HIBINO-BASE
 62
     7
100
AcDbText
 10
147.0174300331038
 20
-374.3914894444444
 30
0.0
 40
4.886523437499999
  1
N.Sasaki
 41
0.7
 11
147.0174300331038
 21
-369.5049660069444
 31
0.0
100
AcDbText
 73
     3
  0
TEXT
  5
46
330
454
100
AcDbEntity
  8
HIBINO-BASE
 62
     7
100
AcDbText
 10
11.65000000000008
 20
-377.0544294444444
 30
0.0
 40
9.773046874999998
  1
A4
 41
0.7
 11
11.65000000000008
 21
-367.2813825694444
 31
0.0
100
AcDbText
 73
     3
  0
TEXT
  5
47
330
454
100
AcDbEntity
  8
HIBINO-BASE
 62
     7
100
AcDbText
 10
2.875000000000006
 20
-360.8407944444443
 30
0.0
 40
4.886523437499999
  1
PAPER SIZE
 41
0.7
 11
2.875000000000007
 21
-355.9542710069444
 31
0.0
100
AcDbText
 73
     3
  0
TEXT
  5
48
330
454
100
AcDbEntity
  8
HIBINO-BASE
 62
     7
100
AcDbText
 10
-248.448
 20
-402.1089744444443
 30
0.0
 40
10.58746744791666
  1
Hibino-Intersound Corporation
 41
0.7
 11
-248.448
 21
-391.5215069965278
 31
0.0
100
AcDbText
 73
     3
  0
TEXT
  5
49
330
454
100
AcDbEntity
  8
HIBINO-BASE
 62
     7
100
AcDbText
 10
42.0730025017294
 20
-402.1089744444443
 30
0.0
 40
10.58746744791666
  1
ヒビノインターサウンド株式会社
 41
0.7
 11
42.0730025017294
 21
-391.5215069965278
 31
0.0
100
AcDbText
 73
     3
  0
TEXT
  5
4A
330
454
100
AcDbEntity
  8
SPEC
 62
     7
100
AcDbText
 10
-109.8
 20
211.8813238888888
 30
0.0
 40
5.700944010416667
  1
214×26×93mm(除突起部)
 41
0.7
 11
-109.8
 21
217.5822678993055
 31
0.0
100
AcDbText
 73
     3
  0
TEXT
  5
4B
330
454
100
AcDbEntity
  8
SPEC
 62
     7
100
AcDbText
 10
-244.8
 20
358.1313238888889
 30
0.0
 40
5.700944010416665
  1
最大ピクセルクロック
 41
0.7
 11
-244.8
 21
363.8322678993055
 31
0.0
100
AcDbText
 73
     3
  0
TEXT
  5
4C
330
454
100
AcDbEntity
  8
SPEC
 62
     7
100
AcDbText
 10
-244.8
 20
290.6313238888888
 30
0.0
 40
5.700944010416665
  1
IR In/Ext端子
 41
0.7
 11
-244.8
 21
296.3322678993054
 31
0.0
100
AcDbText
 73
     3
  0
TEXT
  5
4D
330
454
100
AcDbEntity
  8
SPEC
 62
     7
100
AcDbText
 10
-109.8
 20
358.1313238888889
 30
0.0
 40
5.700944010416665
  1
600MHz
 41
0.7
 11
-109.8
 21
363.8322678993055
 31
0.0
100
AcDbText
 73
     3
  0
LINE
  5
4E
330
454
100
AcDbEntity
  8
SPEC
  6
Continuous
 62
     7
100
AcDbLine
 10
-247.4999999999999
 20
367.0175705555557
 30
0.0
 11
195.0000000000001
 21
367.0175705555557
 31
0.0
  0
LINE
  5
4F
330
454
100
AcDbEntity
  8
SPEC
  6
Continuous
 62
     7
100
AcDbLine
 10
-247.4999999999999
 20
355.7675705555555
 30
0.0
 11
195.0000000000001
 21
355.7675705555555
 31
0.0
  0
LINE
  5
50
330
454
100
AcDbEntity
  8
SPEC
  6
Continuous
 62
     7
100
AcDbLine
 10
-247.4999999999999
 20
367.0175705555557
 30
0.0
 11
-247.4999999999999
 21
164.5175705555555
 31
0.0
  0
TEXT
  5
51
330
454
100
AcDbEntity
  8
SPEC
 62
     7
100
AcDbText
 10
-243.7499999999999
 20
371.1973805555555
 30
0.0
 40
7.329785156249999
  1
仕様
 41
0.7
 11
-243.7499999999999
 21
378.5271657118055
 31
0.0
100
AcDbText
 73
     3
  0
LINE
  5
52
330
454
100
AcDbEntity
  8
SPEC
  6
Continuous
 62
     7
100
AcDbLine
 10
-112.5
 20
367.0175705555557
 30
0.0
 11
-112.5
 21
164.5175705555555
 31
0.0
  0
LINE
  5
53
330
454
100
AcDbEntity
  8
SPEC
  6
Continuous
 62
     7
100
AcDbLine
 10
195.0000000000001
 20
367.0175705555557
 30
0.0
 11
195.0000000000001
 21
164.5175705555555
 31
0.0
  0
TEXT
  5
54
330
454
100
AcDbEntity
  8
SPEC
 62
     7
100
AcDbText
 10
-244.8
 20
189.3813238888888
 30
0.0
 40
5.700944010416667
  1
付属品
 41
0.7
 11
-244.8
 21
195.0822678993054
 31
0.0
100
AcDbText
 73
     3
  0
TEXT
  5
55
330
454
100
AcDbEntity
  8
SPEC
 62
     7
100
AcDbText
 10
-244.8
 20
211.8813238888888
 30
0.0
 40
5.700944010416667
  1
寸法(W×H×D)
 41
0.7
 11
-244.8
 21
217.5822678993055
 31
0.0
100
AcDbText
 73
     3
  0
TEXT
  5
56
330
454
100
AcDbEntity
  8
SPEC
 62
     7
100
AcDbText
 10
-244.8
 20
200.6313238888888
 30
0.0
 40
5.700944010416667
  1
質量
 41
0.7
 11
-244.8
 21
206.3322678993054
 31
0.0
100
AcDbText
 73
     3
  0
TEXT
  5
57
330
454
100
AcDbEntity
  8
SPEC
 62
     7
100
AcDbText
 10
-109.8
 20
200.6313238888888
 30
0.0
 40
5.700944010416667
  1
320g
 41
0.7
 11
-109.8
 21
206.3322678993054
 31
0.0
100
AcDbText
 73
     3
  0
LINE
  5
58
330
454
100
AcDbEntity
  8
SPEC
  6
Continuous
 62
     7
100
AcDbLine
 10
-247.4999999999999
 20
344.5175705555555
 30
0.0
 11
195.0000000000001
 21
344.5175705555555
 31
0.0
  0
LINE
  5
59
330
454
100
AcDbEntity
  8
SPEC
  6
Continuous
 62
     7
100
AcDbLine
 10
-247.4999999999999
 20
322.0175705555555
 30
0.0
 11
195.0000000000001
 21
322.0175705555555
 31
0.0
  0
LINE
  5
5A
330
454
100
AcDbEntity
  8
SPEC
  6
Continuous
 62
     7
100
AcDbLine
 10
-247.4999999999999
 20
310.7675705555556
 30
0.0
 11
195.0000000000001
 21
310.7675705555556
 31
0.0
  0
LINE
  5
5B
330
454
100
AcDbEntity
  8
SPEC
  6
Continuous
 62
     7
100
AcDbLine
 10
-247.4999999999999
 20
299.5175705555555
 30
0.0
 11
195.0000000000001
 21
299.5175705555555
 31
0.0
  0
LINE
  5
5C
330
454
100
AcDbEntity
  8
SPEC
  6
Continuous
 62
     7
100
AcDbLine
 10
-247.4999999999999
 20
288.2675705555556
 30
0.0
 11
195.0000000000001
 21
288.2675705555556
 31
0.0
  0
LINE
  5
5D
330
454
100
AcDbEntity
  8
SPEC
  6
Continuous
 62
     7
100
AcDbLine
 10
-247.4999999999999
 20
277.0175705555555
 30
0.0
 11
195.0000000000001
 21
277.0175705555555
 31
0.0
  0
LINE
  5
5E
330
454
100
AcDbEntity
  8
SPEC
  6
Continuous
 62
     7
100
AcDbLine
 10
-247.4999999999999
 20
265.7675705555555
 30
0.0
 11
195.0000000000001
 21
265.7675705555555
 31
0.0
  0
LINE
  5
5F
330
454
100
AcDbEntity
  8
SPEC
  6
Continuous
 62
     7
100
AcDbLine
 10
-247.4999999999999
 20
254.5175705555556
 30
0.0
 11
195.0000000000001
 21
254.5175705555556
 31
0.0
  0
LINE
  5
60
330
454
100
AcDbEntity
  8
SPEC
  6
Continuous
 62
     7
100
AcDbLine
 10
-247.4999999999999
 20
243.2675705555556
 30
0.0
 11
195.0000000000001
 21
243.2675705555556
 31
0.0
  0
LINE
  5
61
330
454
100
AcDbEntity
  8
SPEC
  6
Continuous
 62
     7
100
AcDbLine
 10
-247.4999999999999
 20
232.0175705555556
 30
0.0
 11
195.0000000000001
 21
232.0175705555556
 31
0.0
  0
LINE
  5
62
330
454
100
AcDbEntity
  8
SPEC
  6
Continuous
 62
     7
100
AcDbLine
 10
-247.4999999999999
 20
220.7675705555556
 30
0.0
 11
195.0000000000001
 21
220.7675705555556
 31
0.0
  0
LINE
  5
63
330
454
100
AcDbEntity
  8
SPEC
  6
Continuous
 62
     7
100
AcDbLine
 10
-247.4999999999999
 20
209.5175705555556
 30
0.0
 11
195.0000000000001
 21
209.5175705555556
 31
0.0
  0
LINE
  5
64
330
454
100
AcDbEntity
  8
SPEC
  6
Continuous
 62
     7
100
AcDbLine
 10
-247.4999999999999
 20
198.2675705555556
 30
0.0
 11
195.0000000000001
 21
198.2675705555556
 31
0.0
  0
LINE
  5
65
330
454
100
AcDbEntity
  8
SPEC
  6
Continuous
 62
     7
100
AcDbLine
 10
-247.4999999999999
 20
164.5175705555555
 30
0.0
 11
195.0000000000001
 21
164.5175705555555
 31
0.0
  0
TEXT
  5
66
330
454
100
AcDbEntity
  8
SPEC
 62
     7
100
AcDbText
 10
-109.8
 20
346.8813238888888
 30
0.0
 40
5.700944010416665
  1
HDMI Type A(19ピン、メス、MonoLOK)×4
 41
0.7
 11
-109.8
 21
352.5822678993054
 31
0.0
100
AcDbText
 73
     3
  0
TEXT
  5
67
330
454
100
AcDbEntity
  8
SPEC
 62
     7
100
AcDbText
 10
-244.8
 20
346.8813238888888
 30
0.0
 40
5.700944010416665
  1
ビデオ入力端子
 41
0.7
 11
-244.8
 21
352.5822678993054
 31
0.0
100
AcDbText
 73
     3
  0
TEXT
  5
68
330
454
100
AcDbEntity
  8
SPEC
 62
     7
100
AcDbText
 10
-109.8
 20
324.3813238888888
 30
0.0
 40
5.700944010416665
  1
※18pinで5V/500mAの電源供給可能
 41
0.7
 11
-109.8
 21
330.0822678993054
 31
0.0
100
AcDbText
 73
     3
  0
TEXT
  5
69
330
454
100
AcDbEntity
  8
SPEC
 62
     7
100
AcDbText
 10
-244.8
 20
335.6313238888887
 30
0.0
 40
5.700944010416665
  1
ビデオ出力端子
 41
0.7
 11
-244.8
 21
341.3322678993054
 31
0.0
100
AcDbText
 73
     3
  0
TEXT
  5
6A
330
454
100
AcDbEntity
  8
SPEC
 62
     7
100
AcDbText
 10
-109.8
 20
335.6313238888887
 30
0.0
 40
5.700944010416665
  1
HDMI Type A(19ピン、メス、MonoLOK)×1
 41
0.7
 11
-109.8
 21
341.3322678993054
 31
0.0
100
AcDbText
 73
     3
  0
TEXT
  5
6B
330
454
100
AcDbEntity
  8
SPEC
 62
     7
100
AcDbText
 10
-244.8
 20
313.1313238888887
 30
0.0
 40
5.700944010416665
  1
RS-232端子
 41
0.7
 11
-244.8
 21
318.8322678993054
 31
0.0
100
AcDbText
 73
     3
  0
TEXT
  5
6C
330
454
100
AcDbEntity
  8
SPEC
 62
     7
100
AcDbText
 10
-109.8
 20
313.1313238888887
 30
0.0
 40
5.700944010416665
  1
D-Sub9ピン(メス)×1
 41
0.7
 11
-109.8
 21
318.8322678993054
 31
0.0
100
AcDbText
 73
     3
  0
TEXT
  5
6D
330
454
100
AcDbEntity
  8
SPEC
 62
     7
100
AcDbText
 10
-244.8
 20
301.8813238888887
 30
0.0
 40
5.700944010416665
  1
イーサネット端子(IPコントロール)
 41
0.7
 11
-244.8
 21
307.5822678993054
 31
0.0
100
AcDbText
 73
     3
  0
TEXT
  5
6E
330
454
100
AcDbEntity
  8
SPEC
 62
     7
100
AcDbText
 10
-109.8
 20
301.8813238888887
 30
0.0
 40
5.700944010416665
  1
RJ-45×1
 41
0.7
 11
-109.8
 21
307.5822678993054
 31
0.0
100
AcDbText
 73
     3
  0
TEXT
  5
6F
330
454
100
AcDbEntity
  8
SPEC
 62
     7
100
AcDbText
 10
-109.8
 20
290.6313238888888
 30
0.0
 40
5.700944010416665
  1
3.5mmステレオミニ×1
 41
0.7
 11
-109.8
 21
296.3322678993054
 31
0.0
100
AcDbText
 73
     3
  0
TEXT
  5
70
330
454
100
AcDbEntity
  8
SPEC
 62
     7
100
AcDbText
 10
-109.8
 20
279.3813238888887
 30
0.0
 40
5.700944010416665
  1
DC5V、7W
 41
0.7
 11
-109.8
 21
285.0822678993054
 31
0.0
100
AcDbText
 73
     3
  0
TEXT
  5
71
330
454
100
AcDbEntity
  8
SPEC
 62
     7
100
AcDbText
 10
-244.8
 20
279.3813238888887
 30
0.0
 40
5.700944010416665
  1
電源
 41
0.7
 11
-244.8
 21
285.0822678993054
 31
0.0
100
AcDbText
 73
     3
  0
TEXT
  5
72
330
454
100
AcDbEntity
  8
SPEC
 62
     7
100
AcDbText
 10
-244.8
 20
268.1313238888888
 30
0.0
 40
5.700944010416665
  1
運用温度
 41
0.7
 11
-244.8
 21
273.8322678993054
 31
0.0
100
AcDbText
 73
     3
  0
TEXT
  5
73
330
454
100
AcDbEntity
  8
SPEC
 62
     7
100
AcDbText
 10
-109.8
 20
268.1313238888888
 30
0.0
 40
5.700944010416665
  1
0～50℃
 41
0.7
 11
-109.8
 21
273.8322678993054
 31
0.0
100
AcDbText
 73
     3
  0
TEXT
  5
74
330
454
100
AcDbEntity
  8
SPEC
 62
     7
100
AcDbText
 10
-109.8
 20
256.8813238888887
 30
0.0
 40
5.700944010416665
  1
5%%%～90%%%RH(結露なきこと)
 41
0.7
 11
-109.8
 21
262.5822678993054
 31
0.0
100
AcDbText
 73
     3
  0
TEXT
  5
75
330
454
100
AcDbEntity
  8
SPEC
 62
     7
100
AcDbText
 10
-244.8
 20
256.8813238888887
 30
0.0
 40
5.700944010416665
  1
運用湿度
 41
0.7
 11
-244.8
 21
262.5822678993054
 31
0.0
100
AcDbText
 73
     3
  0
TEXT
  5
76
330
454
100
AcDbEntity
  8
SPEC
 62
     7
100
AcDbText
 10
-244.8
 20
245.6313238888888
 30
0.0
 40
5.700944010416665
  1
保管温度
 41
0.7
 11
-244.8
 21
251.3322678993055
 31
0.0
100
AcDbText
 73
     3
  0
TEXT
  5
77
330
454
100
AcDbEntity
  8
SPEC
 62
     7
100
AcDbText
 10
-109.8
 20
245.6313238888888
 30
0.0
 40
5.700944010416665
  1
-20～+85℃
 41
0.7
 11
-109.8
 21
251.3322678993055
 31
0.0
100
AcDbText
 73
     3
  0
TEXT
  5
78
330
454
100
AcDbEntity
  8
SPEC
 62
     7
100
AcDbText
 10
-244.8
 20
234.3813238888888
 30
0.0
 40
5.700944010416665
  1
保管湿度
 41
0.7
 11
-244.8
 21
240.0822678993055
 31
0.0
100
AcDbText
 73
     3
  0
TEXT
  5
79
330
454
100
AcDbEntity
  8
SPEC
 62
     7
100
AcDbText
 10
-109.8
 20
234.3813238888888
 30
0.0
 40
5.700944010416665
  1
0%%%～95%%%RH(結露なきこと)
 41
0.7
 11
-109.8
 21
240.0822678993055
 31
0.0
100
AcDbText
 73
     3
  0
TEXT
  5
7A
330
454
100
AcDbEntity
  8
SPEC
 62
     7
100
AcDbText
 10
-244.8
 20
223.1313238888888
 30
0.0
 40
5.700944010416665
  1
MTBF
 41
0.7
 11
-244.8
 21
228.8322678993055
 31
0.0
100
AcDbText
 73
     3
  0
TEXT
  5
7B
330
454
100
AcDbEntity
  8
SPEC
 62
     7
100
AcDbText
 10
-109.8
 20
223.1313238888888
 30
0.0
 40
5.700944010416665
  1
300000時間
 41
0.7
 11
-109.8
 21
228.8322678993055
 31
0.0
100
AcDbText
 73
     3
  0
TEXT
  5
7C
330
454
100
AcDbEntity
  8
SPEC
 62
     7
100
AcDbText
 10
-109.8
 20
189.3813238888888
 30
0.0
 40
5.700944010416665
  1
IR 延長機(EXT-RMT-EXTIRN)×1、IR リモコン×1、マウント用L型 金具×2、
 41
0.7
 11
-109.8
 21
195.0822678993054
 31
0.0
100
AcDbText
 73
     3
  0
TEXT
  5
7D
330
454
100
AcDbEntity
  8
SPEC
 62
     7
100
AcDbText
 10
-109.8
 20
178.1313238888888
 30
0.0
 40
5.700944010416665
  1
L型 金具固定用ネジ(M3、6mm)×4、Gefen専用ラックトレイ固定ネジ(6-32, 5mm)×2、
 41
0.7
 11
-109.8
 21
183.8322678993054
 31
0.0
100
AcDbText
 73
     3
  0
TEXT
  5
7E
330
454
100
AcDbEntity
  8
SPEC
 62
     7
100
AcDbText
 10
-109.8
 20
166.8813238888888
 30
0.0
 40
5.700944010416665
  1
電源アダプター×1、ゴム足×4
 41
0.7
 11
-109.8
 21
172.5822678993054
 31
0.0
100
AcDbText
 73
     3
  0
TEXT
  5
7F
330
454
100
AcDbEntity
  8
DIMNSIONS
 62
     7
100
AcDbText
 10
-59.99999999999998
 20
-346.1739594444444
 30
0.0
 40
7.329785156249999
  1
(単位：mm)
 41
0.7
 11
-59.99999999999998
 21
-338.8441742881943
 31
0.0
100
AcDbText
 73
     3
  0
LINE
  5
80
330
454
100
AcDbEntity
  8
DIMNSIONS
  6
Continuous
 62
     7
100
AcDbLine
 10
50.5
 20
-141.5
 30
0.0
 11
50.5
 21
-171.75
 31
0.0
  0
LINE
  5
81
330
454
100
AcDbEntity
  8
DIMNSIONS
  6
Continuous
 62
     7
100
AcDbLine
 10
67.5
 20
-141.5
 30
0.0
 11
67.5
 21
-171.75
 31
0.0
  0
LINE
  5
82
330
454
100
AcDbEntity
  8
DIMNSIONS
  6
Continuous
 62
     7
100
AcDbLine
 10
50.5
 20
-168.75
 30
0.0
 11
19.45833333333333
 21
-168.75
 31
0.0
  0
LINE
  5
83
330
454
100
AcDbEntity
  8
DIMNSIONS
  6
Continuous
 62
     7
100
AcDbLine
 10
50.5
 20
-168.75
 30
0.0
 11
67.5
 21
-168.75
 31
0.0
  0
LINE
  5
84
330
454
100
AcDbEntity
  8
DIMNSIONS
  6
Continuous
 62
     7
100
AcDbLine
 10
50.5
 20
-168.75
 30
0.0
 11
56.4996337890625
 21
-167.1424029713382
 31
0.0
  0
LINE
  5
85
330
454
100
AcDbEntity
  8
DIMNSIONS
  6
Continuous
 62
     7
100
AcDbLine
 10
50.5
 20
-168.75
 30
0.0
 11
56.4996337890625
 21
-170.3575970286618
 31
0.0
  0
LINE
  5
86
330
454
100
AcDbEntity
  8
DIMNSIONS
  6
Continuous
 62
     7
100
AcDbLine
 10
67.5
 20
-168.75
 30
0.0
 11
61.5003662109375
 21
-170.3575970286618
 31
0.0
  0
LINE
  5
87
330
454
100
AcDbEntity
  8
DIMNSIONS
  6
Continuous
 62
     7
100
AcDbLine
 10
67.5
 20
-168.75
 30
0.0
 11
61.5003662109375
 21
-167.1424029713382
 31
0.0
  0
TEXT
  5
88
330
454
100
AcDbEntity
  8
DIMNSIONS
 62
     7
100
AcDbText
 10
19.45833333333333
 20
-165.7683333333333
 30
0.0
 40
8.144205729166673
  1
17.0
 41
0.7
 11
19.45833333333333
 21
-157.6241276041666
 31
0.0
100
AcDbText
 73
     3
  0
LINE
  5
89
330
454
100
AcDbEntity
  8
DIMNSIONS
  6
Continuous
 62
     7
100
AcDbLine
 10
108.8
 20
-150.0
 30
0.0
 11
134.25
 21
-150.0
 31
0.0
  0
LINE
  5
8A
330
454
100
AcDbEntity
  8
DIMNSIONS
  6
Continuous
 62
     7
100
AcDbLine
 10
72.0
 20
-137.0
 30
0.0
 11
134.25
 21
-137.0
 31
0.0
  0
LINE
  5
8B
330
454
100
AcDbEntity
  8
DIMNSIONS
  6
Continuous
 62
     7
100
AcDbLine
 10
131.25
 20
-150.0
 30
0.0
 11
131.25
 21
-177.4166666666666
 31
0.0
  0
LINE
  5
8C
330
454
100
AcDbEntity
  8
DIMNSIONS
  6
Continuous
 62
     7
100
AcDbLine
 10
131.25
 20
-150.0
 30
0.0
 11
131.25
 21
-137.0
 31
0.0
  0
LINE
  5
8D
330
454
100
AcDbEntity
  8
DIMNSIONS
  6
Continuous
 62
     7
100
AcDbLine
 10
131.25
 20
-150.0
 30
0.0
 11
129.6424029713381
 21
-144.0003662109375
 31
0.0
  0
LINE
  5
8E
330
454
100
AcDbEntity
  8
DIMNSIONS
  6
Continuous
 62
     7
100
AcDbLine
 10
131.25
 20
-150.0
 30
0.0
 11
132.8575970286618
 21
-144.0003662109375
 31
0.0
  0
LINE
  5
8F
330
454
100
AcDbEntity
  8
DIMNSIONS
  6
Continuous
 62
     7
100
AcDbLine
 10
131.25
 20
-137.0
 30
0.0
 11
132.8575970286618
 21
-142.9996337890625
 31
0.0
  0
LINE
  5
90
330
454
100
AcDbEntity
  8
DIMNSIONS
  6
Continuous
 62
     7
100
AcDbLine
 10
131.25
 20
-137.0
 30
0.0
 11
129.6424029713381
 21
-142.9996337890625
 31
0.0
  0
TEXT
  5
91
330
454
100
AcDbEntity
  8
DIMNSIONS
 62
     7
100
AcDbText
 10
128.2683333333333
 20
-177.4166666666666
 30
0.0
 40
8.144205729166673
  1
13.0
 50
90.0
 41
0.7
 11
120.1241276041666
 21
-177.4166666666666
 31
0.0
100
AcDbText
 73
     3
  0
LINE
  5
92
330
454
100
AcDbEntity
  8
DIMNSIONS
  6
Continuous
 62
     7
100
AcDbLine
 10
49.79692628965118
 20
-135.674976468958
 30
0.0
 11
37.5
 21
-112.5
 31
0.0
  0
LINE
  5
93
330
454
100
AcDbEntity
  8
DIMNSIONS
  6
Continuous
 62
     7
100
AcDbLine
 10
49.79692628965118
 20
-135.674976468958
 30
0.0
 11
45.64077010669694
 21
-131.0590973985843
 31
0.0
  0
LINE
  5
94
330
454
100
AcDbEntity
  8
DIMNSIONS
  6
Continuous
 62
     7
100
AcDbLine
 10
49.79692628965118
 20
-135.674976468958
 30
0.0
 11
48.50552898830389
 21
-129.5994298417403
 31
0.0
  0
LINE
  5
95
330
454
100
AcDbEntity
  8
DIMNSIONS
  6
Continuous
 62
     7
100
AcDbLine
 10
37.5
 20
-112.5
 30
0.0
 11
43.5
 21
-112.5
 31
0.0
  0
TEXT
  5
96
330
454
100
AcDbEntity
  8
DIMNSIONS
 62
     7
100
AcDbText
 10
43.49999999999999
 20
-116.31
 30
0.0
 40
8.144205729166673
  1
固定金具取付ねじ(4ヵ所)
 41
0.7
 11
43.49999999999999
 21
-108.1657942708333
 31
0.0
100
AcDbText
 73
     3
  0
LINE
  5
97
330
454
100
AcDbEntity
  8
DIMNSIONS
  6
Continuous
 62
     7
100
AcDbLine
 10
-229.5
 20
-150.0
 30
0.0
 11
-242.0
 21
-150.0
 31
0.0
  0
LINE
  5
98
330
454
100
AcDbEntity
  8
DIMNSIONS
  6
Continuous
 62
     7
100
AcDbLine
 10
-229.5
 20
-124.0
 30
0.0
 11
-242.0
 21
-124.0
 31
0.0
  0
LINE
  5
99
330
454
100
AcDbEntity
  8
DIMNSIONS
  6
Continuous
 62
     7
100
AcDbLine
 10
-239.0
 20
-150.0
 30
0.0
 11
-239.0
 21
-124.0
 31
0.0
  0
LINE
  5
9A
330
454
100
AcDbEntity
  8
DIMNSIONS
  6
Continuous
 62
     7
100
AcDbLine
 10
-239.0
 20
-150.0
 30
0.0
 11
-240.6075970286618
 21
-144.0003662109375
 31
0.0
  0
LINE
  5
9B
330
454
100
AcDbEntity
  8
DIMNSIONS
  6
Continuous
 62
     7
100
AcDbLine
 10
-239.0
 20
-150.0
 30
0.0
 11
-237.3924029713383
 21
-144.0003662109375
 31
0.0
  0
LINE
  5
9C
330
454
100
AcDbEntity
  8
DIMNSIONS
  6
Continuous
 62
     7
100
AcDbLine
 10
-239.0
 20
-124.0
 30
0.0
 11
-237.3924029713383
 21
-129.9996337890625
 31
0.0
  0
LINE
  5
9D
330
454
100
AcDbEntity
  8
DIMNSIONS
  6
Continuous
 62
     7
100
AcDbLine
 10
-239.0
 20
-124.0
 30
0.0
 11
-240.6075970286618
 21
-129.9996337890625
 31
0.0
  0
TEXT
  5
9E
330
454
100
AcDbEntity
  8
DIMNSIONS
 62
     7
100
AcDbText
 10
-241.9816666666666
 20
-147.5833333333333
 30
0.0
 40
8.144205729166673
  1
26.0
 50
90.0
 41
0.7
 11
-250.1258723958333
 21
-147.5833333333333
 31
0.0
100
AcDbText
 73
     3
  0
LINE
  5
9F
330
454
100
AcDbEntity
  8
DIMNSIONS
  6
Continuous
 62
     7
100
AcDbLine
 10
-229.5
 20
-106.25
 30
0.0
 11
-240.5
 21
-106.25
 31
0.0
  0
LINE
  5
A0
330
454
100
AcDbEntity
  8
DIMNSIONS
  6
Continuous
 62
     7
100
AcDbLine
 10
-229.5
 20
-13.25
 30
0.0
 11
-240.5
 21
-13.25
 31
0.0
  0
LINE
  5
A1
330
454
100
AcDbEntity
  8
DIMNSIONS
  6
Continuous
 62
     7
100
AcDbLine
 10
-237.5
 20
-106.25
 30
0.0
 11
-237.5
 21
-13.25
 31
0.0
  0
LINE
  5
A2
330
454
100
AcDbEntity
  8
DIMNSIONS
  6
Continuous
 62
     7
100
AcDbLine
 10
-237.5
 20
-106.25
 30
0.0
 11
-239.1075970286618
 21
-100.2503662109375
 31
0.0
  0
LINE
  5
A3
330
454
100
AcDbEntity
  8
DIMNSIONS
  6
Continuous
 62
     7
100
AcDbLine
 10
-237.5
 20
-106.25
 30
0.0
 11
-235.8924029713382
 21
-100.2503662109375
 31
0.0
  0
LINE
  5
A4
330
454
100
AcDbEntity
  8
DIMNSIONS
  6
Continuous
 62
     7
100
AcDbLine
 10
-237.5
 20
-13.25
 30
0.0
 11
-235.8924029713382
 21
-19.2496337890625
 31
0.0
  0
LINE
  5
A5
330
454
100
AcDbEntity
  8
DIMNSIONS
  6
Continuous
 62
     7
100
AcDbLine
 10
-237.5
 20
-13.25
 30
0.0
 11
-239.1075970286618
 21
-19.2496337890625
 31
0.0
  0
TEXT
  5
A6
330
454
100
AcDbEntity
  8
DIMNSIONS
 62
     7
100
AcDbText
 10
-240.4816666666667
 20
-70.33333333333333
 30
0.0
 40
8.144205729166673
  1
93.0
 50
90.0
 41
0.7
 11
-248.6258723958334
 21
-70.33333333333333
 31
0.0
100
AcDbText
 73
     3
  0
LINE
  5
A7
330
454
100
AcDbEntity
  8
DIMNSIONS
  6
Continuous
 62
     7
100
AcDbLine
 10
-174.5
 20
-108.25
 30
0.0
 11
-240.5
 21
-108.25
 31
0.0
  0
LINE
  5
A8
330
454
100
AcDbEntity
  8
DIMNSIONS
  6
Continuous
 62
     7
100
AcDbLine
 10
-229.5
 20
-106.25
 30
0.0
 11
-240.5
 21
-106.25
 31
0.0
  0
LINE
  5
A9
330
454
100
AcDbEntity
  8
DIMNSIONS
  6
Continuous
 62
     7
100
AcDbLine
 10
-237.5
 20
-106.25
 30
0.0
 11
-237.5
 21
-108.25
 31
0.0
  0
LINE
  5
AA
330
454
100
AcDbEntity
  8
DIMNSIONS
  6
Continuous
 62
     7
100
AcDbLine
 10
-237.5
 20
-108.25
 30
0.0
 11
-237.5
 21
-118.75
 31
0.0
  0
LINE
  5
AB
330
454
100
AcDbEntity
  8
DIMNSIONS
  6
Continuous
 62
     7
100
AcDbLine
 10
-237.5
 20
-108.25
 30
0.0
 11
-235.8924029713382
 21
-114.2496337890625
 31
0.0
  0
LINE
  5
AC
330
454
100
AcDbEntity
  8
DIMNSIONS
  6
Continuous
 62
     7
100
AcDbLine
 10
-237.5
 20
-108.25
 30
0.0
 11
-239.1075970286618
 21
-114.2496337890625
 31
0.0
  0
LINE
  5
AD
330
454
100
AcDbEntity
  8
DIMNSIONS
  6
Continuous
 62
     7
100
AcDbLine
 10
-237.5
 20
-106.25
 30
0.0
 11
-237.5
 21
-95.75000000000001
 31
0.0
  0
LINE
  5
AE
330
454
100
AcDbEntity
  8
DIMNSIONS
  6
Continuous
 62
     7
100
AcDbLine
 10
-237.5
 20
-106.25
 30
0.0
 11
-239.1075970286618
 21
-100.2503662109375
 31
0.0
  0
LINE
  5
AF
330
454
100
AcDbEntity
  8
DIMNSIONS
  6
Continuous
 62
     7
100
AcDbLine
 10
-237.5
 20
-106.25
 30
0.0
 11
-235.8924029713382
 21
-100.2503662109375
 31
0.0
  0
TEXT
  5
B0
330
454
100
AcDbEntity
  8
DIMNSIONS
 62
     7
100
AcDbText
 10
-240.4816666666667
 20
-115.1875
 30
0.0
 40
8.144205729166673
  1
2.0
 50
90.0
 41
0.7
 11
-248.6258723958334
 21
-115.1875
 31
0.0
100
AcDbText
 73
     3
  0
LINE
  5
B1
330
454
100
AcDbEntity
  8
DIMNSIONS
  6
Continuous
 62
     7
100
AcDbLine
 10
-229.5
 20
-13.25
 30
0.0
 11
-240.5
 21
-13.25
 31
0.0
  0
LINE
  5
B2
330
454
100
AcDbEntity
  8
DIMNSIONS
  6
Continuous
 62
     7
100
AcDbLine
 10
-223.3998196368566
 20
-6.749999999999996
 30
0.0
 11
-240.5
 21
-6.749999999999996
 31
0.0
  0
LINE
  5
B3
330
454
100
AcDbEntity
  8
DIMNSIONS
  6
Continuous
 62
     7
100
AcDbLine
 10
-237.5
 20
-6.749999999999996
 30
0.0
 11
-237.5
 21
-13.25
 31
0.0
  0
LINE
  5
B4
330
454
100
AcDbEntity
  8
DIMNSIONS
  6
Continuous
 62
     7
100
AcDbLine
 10
-237.5
 20
-13.25
 30
0.0
 11
-237.5
 21
-23.75
 31
0.0
  0
LINE
  5
B5
330
454
100
AcDbEntity
  8
DIMNSIONS
  6
Continuous
 62
     7
100
AcDbLine
 10
-237.5
 20
-13.25
 30
0.0
 11
-235.8924029713382
 21
-19.2496337890625
 31
0.0
  0
LINE
  5
B6
330
454
100
AcDbEntity
  8
DIMNSIONS
  6
Continuous
 62
     7
100
AcDbLine
 10
-237.5
 20
-13.25
 30
0.0
 11
-239.1075970286618
 21
-19.2496337890625
 31
0.0
  0
LINE
  5
B7
330
454
100
AcDbEntity
  8
DIMNSIONS
  6
Continuous
 62
     7
100
AcDbLine
 10
-237.5
 20
-6.749999999999996
 30
0.0
 11
-237.5
 21
3.750000000000001
 31
0.0
  0
LINE
  5
B8
330
454
100
AcDbEntity
  8
DIMNSIONS
  6
Continuous
 62
     7
100
AcDbLine
 10
-237.5
 20
-6.749999999999996
 30
0.0
 11
-239.1075970286618
 21
-0.7503662109374983
 31
0.0
  0
LINE
  5
B9
330
454
100
AcDbEntity
  8
DIMNSIONS
  6
Continuous
 62
     7
100
AcDbLine
 10
-237.5
 20
-6.749999999999996
 30
0.0
 11
-235.8924029713382
 21
-0.7503662109374974
 31
0.0
  0
TEXT
  5
BA
330
454
100
AcDbEntity
  8
DIMNSIONS
 62
     7
100
AcDbText
 10
-240.4816666666667
 20
-17.9375
 30
0.0
 40
8.144205729166673
  1
6.5
 50
90.0
 41
0.7
 11
-248.6258723958334
 21
-17.9375
 31
0.0
100
AcDbText
 73
     3
  0
LINE
  5
BB
330
454
100
AcDbEntity
  8
DIMNSIONS
  6
Continuous
 62
     7
100
AcDbLine
 10
-157.5
 20
-244.5
 30
0.0
 11
-240.5
 21
-244.5
 31
0.0
  0
LINE
  5
BC
330
454
100
AcDbEntity
  8
DIMNSIONS
  6
Continuous
 62
     7
100
AcDbLine
 10
-229.5
 20
-187.5
 30
0.0
 11
-240.5
 21
-187.5
 31
0.0
  0
LINE
  5
BD
330
454
100
AcDbEntity
  8
DIMNSIONS
  6
Continuous
 62
     7
100
AcDbLine
 10
-237.5
 20
-244.5
 30
0.0
 11
-237.5
 21
-187.5
 31
0.0
  0
LINE
  5
BE
330
454
100
AcDbEntity
  8
DIMNSIONS
  6
Continuous
 62
     7
100
AcDbLine
 10
-237.5
 20
-244.5
 30
0.0
 11
-239.1075970286618
 21
-238.5003662109375
 31
0.0
  0
LINE
  5
BF
330
454
100
AcDbEntity
  8
DIMNSIONS
  6
Continuous
 62
     7
100
AcDbLine
 10
-237.5
 20
-244.5
 30
0.0
 11
-235.8924029713382
 21
-238.5003662109375
 31
0.0
  0
LINE
  5
C0
330
454
100
AcDbEntity
  8
DIMNSIONS
  6
Continuous
 62
     7
100
AcDbLine
 10
-237.5
 20
-187.5
 30
0.0
 11
-235.8924029713382
 21
-193.4996337890625
 31
0.0
  0
LINE
  5
C1
330
454
100
AcDbEntity
  8
DIMNSIONS
  6
Continuous
 62
     7
100
AcDbLine
 10
-237.5
 20
-187.5
 30
0.0
 11
-239.1075970286618
 21
-193.4996337890625
 31
0.0
  0
TEXT
  5
C2
330
454
100
AcDbEntity
  8
DIMNSIONS
 62
     7
100
AcDbText
 10
-240.4816666666667
 20
-226.5833333333333
 30
0.0
 40
8.144205729166673
  1
57.0
 50
90.0
 41
0.7
 11
-248.6258723958334
 21
-226.5833333333333
 31
0.0
100
AcDbText
 73
     3
  0
LINE
  5
C3
330
454
100
AcDbEntity
  8
DIMNSIONS
  6
Continuous
 62
     7
100
AcDbLine
 10
-153.0
 20
-249.0
 30
0.0
 11
-153.0
 21
-308.499999999957
 31
0.0
  0
LINE
  5
C4
330
454
100
AcDbEntity
  8
DIMNSIONS
  6
Continuous
 62
     7
100
AcDbLine
 10
-83.0
 20
-249.0
 30
0.0
 11
-83.0
 21
-308.499999999957
 31
0.0
  0
LINE
  5
C5
330
454
100
AcDbEntity
  8
DIMNSIONS
  6
Continuous
 62
     7
100
AcDbLine
 10
-153.0
 20
-305.499999999957
 30
0.0
 11
-83.0
 21
-305.499999999957
 31
0.0
  0
LINE
  5
C6
330
454
100
AcDbEntity
  8
DIMNSIONS
  6
Continuous
 62
     7
100
AcDbLine
 10
-153.0
 20
-305.499999999957
 30
0.0
 11
-147.0003662109375
 21
-303.8924029712953
 31
0.0
  0
LINE
  5
C7
330
454
100
AcDbEntity
  8
DIMNSIONS
  6
Continuous
 62
     7
100
AcDbLine
 10
-153.0
 20
-305.499999999957
 30
0.0
 11
-147.0003662109375
 21
-307.1075970286188
 31
0.0
  0
LINE
  5
C8
330
454
100
AcDbEntity
  8
DIMNSIONS
  6
Continuous
 62
     7
100
AcDbLine
 10
-83.0
 20
-305.499999999957
 30
0.0
 11
-88.9996337890625
 21
-307.1075970286188
 31
0.0
  0
LINE
  5
C9
330
454
100
AcDbEntity
  8
DIMNSIONS
  6
Continuous
 62
     7
100
AcDbLine
 10
-83.0
 20
-305.499999999957
 30
0.0
 11
-88.9996337890625
 21
-303.8924029712953
 31
0.0
  0
TEXT
  5
CA
330
454
100
AcDbEntity
  8
DIMNSIONS
 62
     7
100
AcDbText
 10
-128.5833333333333
 20
-302.5183333332905
 30
0.0
 40
8.144205729166673
  1
70.0
 41
0.7
 11
-128.5833333333333
 21
-294.3741276041238
 31
0.0
100
AcDbText
 73
     3
  0
LINE
  5
CB
330
454
100
AcDbEntity
  8
DIMNSIONS
  6
Continuous
 62
     7
100
AcDbLine
 10
-81.53407623560489
 20
-244.8179111778206
 30
0.0
 11
0.0
 21
-262.5
 31
0.0
  0
LINE
  5
CC
330
454
100
AcDbEntity
  8
DIMNSIONS
  6
Continuous
 62
     7
100
AcDbLine
 10
-81.53407623560489
 20
-244.8179111778206
 30
0.0
 11
-75.33131062316927
 21
-244.4928380066597
 31
0.0
  0
LINE
  5
CD
330
454
100
AcDbEntity
  8
DIMNSIONS
  6
Continuous
 62
     7
100
AcDbLine
 10
-81.53407623560489
 20
-244.8179111778206
 30
0.0
 11
-75.99978705593463
 21
-247.6377723597243
 31
0.0
  0
LINE
  5
CE
330
454
100
AcDbEntity
  8
DIMNSIONS
  6
Continuous
 62
     7
100
AcDbLine
 10
0.0
 20
-262.5
 30
0.0
 11
5.999999999999999
 21
-262.5
 31
0.0
  0
TEXT
  5
CF
330
454
100
AcDbEntity
  8
DIMNSIONS
 62
     7
100
AcDbText
 10
5.999999999999999
 20
-266.31
 30
0.0
 40
8.144205729166673
  1
別売EXT-RACK-1U用固定ねじ穴
 41
0.7
 11
6.0
 21
-258.1657942708334
 31
0.0
100
AcDbText
 73
     3
  0
LINE
  5
D0
330
454
100
AcDbEntity
  8
DIMNSIONS
  6
Continuous
 62
     7
100
AcDbLine
 10
-225.0
 20
-154.5
 30
0.0
 11
-225.0
 21
-171.75
 31
0.0
  0
LINE
  5
D1
330
454
100
AcDbEntity
  8
DIMNSIONS
  6
Continuous
 62
     7
100
AcDbLine
 10
-11.0
 20
-154.5
 30
0.0
 11
-11.0
 21
-171.75
 31
0.0
  0
LINE
  5
D2
330
454
100
AcDbEntity
  8
DIMNSIONS
  6
Continuous
 62
     7
100
AcDbLine
 10
-225.0
 20
-168.75
 30
0.0
 11
-11.0
 21
-168.75
 31
0.0
  0
LINE
  5
D3
330
454
100
AcDbEntity
  8
DIMNSIONS
  6
Continuous
 62
     7
100
AcDbLine
 10
-225.0
 20
-168.75
 30
0.0
 11
-219.0003662109375
 21
-167.1424029713382
 31
0.0
  0
LINE
  5
D4
330
454
100
AcDbEntity
  8
DIMNSIONS
  6
Continuous
 62
     7
100
AcDbLine
 10
-225.0
 20
-168.75
 30
0.0
 11
-219.0003662109375
 21
-170.3575970286618
 31
0.0
  0
LINE
  5
D5
330
454
100
AcDbEntity
  8
DIMNSIONS
  6
Continuous
 62
     7
100
AcDbLine
 10
-11.0
 20
-168.75
 30
0.0
 11
-16.9996337890625
 21
-170.3575970286618
 31
0.0
  0
LINE
  5
D6
330
454
100
AcDbEntity
  8
DIMNSIONS
  6
Continuous
 62
     7
100
AcDbLine
 10
-11.0
 20
-168.75
 30
0.0
 11
-16.9996337890625
 21
-167.1424029713382
 31
0.0
  0
TEXT
  5
D7
330
454
100
AcDbEntity
  8
DIMNSIONS
 62
     7
100
AcDbText
 10
-125.9375
 20
-165.7683333333333
 30
0.0
 40
8.144205729166673
  1
214
 41
0.7
 11
-125.9375
 21
-157.6241276041666
 31
0.0
100
AcDbText
 73
     3
  0
TEXT
  5
D8
330
454
100
AcDbEntity
  8
DIMNSIONS
 62
     7
100
AcDbText
 10
-105.7157676649773
 20
-297.6000822914524
 30
0.0
 40
5.700944010416665
  1
※
 41
0.7
 11
-105.7157676649773
 21
-291.8991382810358
 31
0.0
100
AcDbText
 73
     3
  0
TEXT
  5
D9
330
454
100
AcDbEntity
  8
DIMNSIONS
 62
     7
100
AcDbText
 10
40.625
 20
-159.3336666666666
 30
0.0
 40
5.700944010416665
  1
※
 41
0.7
 11
40.625
 21
-153.6327226562499
 31
0.0
100
AcDbText
 73
     3
  0
TEXT
  5
DA
330
454
100
AcDbEntity
  8
DIMNSIONS
 62
     7
100
AcDbText
 10
128.0836666666667
 20
83.66666666666665
 30
0.0
 40
5.700944010416665
  1
※
 50
90.0
 41
0.7
 11
122.38272265625
 21
83.66666666666665
 31
0.0
100
AcDbText
 73
     3
  0
LINE
  5
DB
330
454
100
AcDbEntity
  8
DIMNSIONS
  6
Continuous
 62
     7
100
AcDbLine
 10
100.0
 20
-1.499999999999999
 30
0.0
 11
100.0
 21
-28.0
 31
0.0
  0
LINE
  5
DC
330
454
100
AcDbEntity
  8
DIMNSIONS
  6
Continuous
 62
     7
100
AcDbLine
 10
120.0
 20
-4.499999999999999
 30
0.0
 11
120.0
 21
-28.0
 31
0.0
  0
LINE
  5
DD
330
454
100
AcDbEntity
  8
DIMNSIONS
  6
Continuous
 62
     7
100
AcDbLine
 10
100.0
 20
-25.0
 30
0.0
 11
72.58333333333334
 21
-25.0
 31
0.0
  0
LINE
  5
DE
330
454
100
AcDbEntity
  8
DIMNSIONS
  6
Continuous
 62
     7
100
AcDbLine
 10
100.0
 20
-25.0
 30
0.0
 11
120.0
 21
-25.0
 31
0.0
  0
LINE
  5
DF
330
454
100
AcDbEntity
  8
DIMNSIONS
  6
Continuous
 62
     7
100
AcDbLine
 10
100.0
 20
-25.0
 30
0.0
 11
105.9996337890625
 21
-23.39240297133823
 31
0.0
  0
LINE
  5
E0
330
454
100
AcDbEntity
  8
DIMNSIONS
  6
Continuous
 62
     7
100
AcDbLine
 10
100.0
 20
-25.0
 30
0.0
 11
105.9996337890625
 21
-26.60759702866177
 31
0.0
  0
LINE
  5
E1
330
454
100
AcDbEntity
  8
DIMNSIONS
  6
Continuous
 62
     7
100
AcDbLine
 10
120.0
 20
-25.0
 30
0.0
 11
114.0003662109375
 21
-26.60759702866177
 31
0.0
  0
LINE
  5
E2
330
454
100
AcDbEntity
  8
DIMNSIONS
  6
Continuous
 62
     7
100
AcDbLine
 10
120.0
 20
-25.0
 30
0.0
 11
114.0003662109375
 21
-23.39240297133823
 31
0.0
  0
TEXT
  5
E3
330
454
100
AcDbEntity
  8
DIMNSIONS
 62
     7
100
AcDbText
 10
72.58333333333334
 20
-22.01833333333333
 30
0.0
 40
8.144205729166666
  1
20.0
 41
0.7
 11
72.58333333333334
 21
-13.87412760416667
 31
0.0
100
AcDbText
 73
     3
  0
LINE
  5
E4
330
454
100
AcDbEntity
  8
DIMNSIONS
  6
Continuous
 62
     7
100
AcDbLine
 10
98.50000000000001
 20
0.0
 30
0.0
 11
78.25
 21
0.0
 31
0.0
  0
LINE
  5
E5
330
454
100
AcDbEntity
  8
DIMNSIONS
  6
Continuous
 62
     7
100
AcDbLine
 10
95.5
 20
25.0
 30
0.0
 11
78.25
 21
25.0
 31
0.0
  0
LINE
  5
E6
330
454
100
AcDbEntity
  8
DIMNSIONS
  6
Continuous
 62
     7
100
AcDbLine
 10
81.25
 20
0.0
 30
0.0
 11
81.25
 21
25.0
 31
0.0
  0
LINE
  5
E7
330
454
100
AcDbEntity
  8
DIMNSIONS
  6
Continuous
 62
     7
100
AcDbLine
 10
81.25
 20
0.0
 30
0.0
 11
79.64240297133823
 21
5.999633789062497
 31
0.0
  0
LINE
  5
E8
330
454
100
AcDbEntity
  8
DIMNSIONS
  6
Continuous
 62
     7
100
AcDbLine
 10
81.25
 20
0.0
 30
0.0
 11
82.85759702866178
 21
5.999633789062499
 31
0.0
  0
LINE
  5
E9
330
454
100
AcDbEntity
  8
DIMNSIONS
  6
Continuous
 62
     7
100
AcDbLine
 10
81.25
 20
25.0
 30
0.0
 11
82.85759702866178
 21
19.0003662109375
 31
0.0
  0
LINE
  5
EA
330
454
100
AcDbEntity
  8
DIMNSIONS
  6
Continuous
 62
     7
100
AcDbLine
 10
81.25
 20
25.0
 30
0.0
 11
79.64240297133823
 21
19.0003662109375
 31
0.0
  0
TEXT
  5
EB
330
454
100
AcDbEntity
  8
DIMNSIONS
 62
     7
100
AcDbText
 10
78.26833333333334
 20
1.916666666666667
 30
0.0
 40
8.144205729166666
  1
25.0
 50
90.0
 41
0.7
 11
70.12412760416667
 21
1.916666666666668
 31
0.0
100
AcDbText
 73
     3
  0
LINE
  5
EC
330
454
100
AcDbEntity
  8
DIMNSIONS
  6
Continuous
 62
     7
100
AcDbLine
 10
95.5
 20
37.5
 30
0.0
 11
78.25
 21
37.5
 31
0.0
  0
LINE
  5
ED
330
454
100
AcDbEntity
  8
DIMNSIONS
  6
Continuous
 62
     7
100
AcDbLine
 10
95.5
 20
67.5
 30
0.0
 11
78.25
 21
67.5
 31
0.0
  0
LINE
  5
EE
330
454
100
AcDbEntity
  8
DIMNSIONS
  6
Continuous
 62
     7
100
AcDbLine
 10
81.25
 20
37.5
 30
0.0
 11
81.25
 21
67.5
 31
0.0
  0
LINE
  5
EF
330
454
100
AcDbEntity
  8
DIMNSIONS
  6
Continuous
 62
     7
100
AcDbLine
 10
81.25
 20
37.5
 30
0.0
 11
79.64240297133823
 21
43.4996337890625
 31
0.0
  0
LINE
  5
F0
330
454
100
AcDbEntity
  8
DIMNSIONS
  6
Continuous
 62
     7
100
AcDbLine
 10
81.25
 20
37.5
 30
0.0
 11
82.85759702866178
 21
43.4996337890625
 31
0.0
  0
LINE
  5
F1
330
454
100
AcDbEntity
  8
DIMNSIONS
  6
Continuous
 62
     7
100
AcDbLine
 10
81.25
 20
67.5
 30
0.0
 11
82.85759702866178
 21
61.5003662109375
 31
0.0
  0
LINE
  5
F2
330
454
100
AcDbEntity
  8
DIMNSIONS
  6
Continuous
 62
     7
100
AcDbLine
 10
81.25
 20
67.5
 30
0.0
 11
79.64240297133823
 21
61.5003662109375
 31
0.0
  0
TEXT
  5
F3
330
454
100
AcDbEntity
  8
DIMNSIONS
 62
     7
100
AcDbText
 10
78.26833333333334
 20
41.91666666666667
 30
0.0
 40
8.144205729166666
  1
30.0
 50
90.0
 41
0.7
 11
70.12412760416667
 21
41.91666666666667
 31
0.0
100
AcDbText
 73
     3
  0
LINE
  5
F4
330
454
100
AcDbEntity
  8
DIMNSIONS
  6
Continuous
 62
     7
100
AcDbLine
 10
118.0000000000012
 20
61.5
 30
0.0
 11
140.5
 21
61.5
 31
0.0
  0
LINE
  5
F5
330
454
100
AcDbEntity
  8
DIMNSIONS
  6
Continuous
 62
     7
100
AcDbLine
 10
118.0000000000012
 20
43.5
 30
0.0
 11
140.5
 21
43.5
 31
0.0
  0
LINE
  5
F6
330
454
100
AcDbEntity
  8
DIMNSIONS
  6
Continuous
 62
     7
100
AcDbLine
 10
137.5
 20
61.5
 30
0.0
 11
137.5
 21
83.66666666666665
 31
0.0
  0
LINE
  5
F7
330
454
100
AcDbEntity
  8
DIMNSIONS
  6
Continuous
 62
     7
100
AcDbLine
 10
137.5
 20
61.5
 30
0.0
 11
137.5
 21
43.5
 31
0.0
  0
LINE
  5
F8
330
454
100
AcDbEntity
  8
DIMNSIONS
  6
Continuous
 62
     7
100
AcDbLine
 10
137.5
 20
61.5
 30
0.0
 11
139.1075970286618
 21
55.5003662109375
 31
0.0
  0
LINE
  5
F9
330
454
100
AcDbEntity
  8
DIMNSIONS
  6
Continuous
 62
     7
100
AcDbLine
 10
137.5
 20
61.5
 30
0.0
 11
135.8924029713381
 21
55.5003662109375
 31
0.0
  0
LINE
  5
FA
330
454
100
AcDbEntity
  8
DIMNSIONS
  6
Continuous
 62
     7
100
AcDbLine
 10
137.5
 20
43.5
 30
0.0
 11
135.8924029713381
 21
49.4996337890625
 31
0.0
  0
LINE
  5
FB
330
454
100
AcDbEntity
  8
DIMNSIONS
  6
Continuous
 62
     7
100
AcDbLine
 10
137.5
 20
43.5
 30
0.0
 11
139.1075970286618
 21
49.4996337890625
 31
0.0
  0
TEXT
  5
FC
330
454
100
AcDbEntity
  8
DIMNSIONS
 62
     7
100
AcDbText
 10
134.5183333333333
 20
62.5
 30
0.0
 40
8.144205729166666
  1
18.0
 50
90.0
 41
0.7
 11
126.3741276041667
 21
62.5
 31
0.0
100
AcDbText
 73
     3
  0
LINE
  5
FD
330
454
100
AcDbEntity
  8
DIMNSIONS
  6
Continuous
 62
     7
100
AcDbLine
 10
100.0
 20
72.0
 30
0.0
 11
100.0
 21
84.25
 31
0.0
  0
LINE
  5
FE
330
454
100
AcDbEntity
  8
DIMNSIONS
  6
Continuous
 62
     7
100
AcDbLine
 10
112.5
 20
67.95
 30
0.0
 11
112.5
 21
84.25
 31
0.0
  0
LINE
  5
FF
330
454
100
AcDbEntity
  8
DIMNSIONS
  6
Continuous
 62
     7
100
AcDbLine
 10
100.0
 20
81.25
 30
0.0
 11
112.5
 21
81.25
 31
0.0
  0
LINE
  5
100
330
454
100
AcDbEntity
  8
DIMNSIONS
  6
Continuous
 62
     7
100
AcDbLine
 10
100.0
 20
81.25
 30
0.0
 11
105.9996337890625
 21
82.85759702866178
 31
0.0
  0
LINE
  5
101
330
454
100
AcDbEntity
  8
DIMNSIONS
  6
Continuous
 62
     7
100
AcDbLine
 10
100.0
 20
81.25
 30
0.0
 11
105.9996337890625
 21
79.64240297133823
 31
0.0
  0
LINE
  5
102
330
454
100
AcDbEntity
  8
DIMNSIONS
  6
Continuous
 62
     7
100
AcDbLine
 10
112.5
 20
81.25
 30
0.0
 11
106.5003662109375
 21
79.64240297133823
 31
0.0
  0
LINE
  5
103
330
454
100
AcDbEntity
  8
DIMNSIONS
  6
Continuous
 62
     7
100
AcDbLine
 10
112.5
 20
81.25
 30
0.0
 11
106.5003662109375
 21
82.85759702866178
 31
0.0
  0
TEXT
  5
104
330
454
100
AcDbEntity
  8
DIMNSIONS
 62
     7
100
AcDbText
 10
95.66666666666668
 20
85.73166666666665
 30
0.0
 40
8.144205729166666
  1
12.5
 41
0.7
 11
95.66666666666668
 21
93.87587239583332
 31
0.0
100
AcDbText
 73
     3
  0
LINE
  5
105
330
454
100
AcDbEntity
  8
DIMNSIONS
  6
Continuous
 62
     7
100
AcDbLine
 10
124.5
 20
0.0
 30
0.0
 11
140.5
 21
0.0
 31
0.0
  0
LINE
  5
106
330
454
100
AcDbEntity
  8
DIMNSIONS
  6
Continuous
 62
     7
100
AcDbLine
 10
124.5
 20
1.599999999999994
 30
0.0
 11
140.5
 21
1.599999999999994
 31
0.0
  0
LINE
  5
107
330
454
100
AcDbEntity
  8
DIMNSIONS
  6
Continuous
 62
     7
100
AcDbLine
 10
137.5
 20
1.599999999999994
 30
0.0
 11
137.5
 21
0.0
 31
0.0
  0
LINE
  5
108
330
454
100
AcDbEntity
  8
DIMNSIONS
  6
Continuous
 62
     7
100
AcDbLine
 10
137.5
 20
0.0
 30
0.0
 11
137.5
 21
-22.125
 31
0.0
  0
LINE
  5
109
330
454
100
AcDbEntity
  8
DIMNSIONS
  6
Continuous
 62
     7
100
AcDbLine
 10
137.5
 20
0.0
 30
0.0
 11
139.1075970286618
 21
-5.999633789062499
 31
0.0
  0
LINE
  5
10A
330
454
100
AcDbEntity
  8
DIMNSIONS
  6
Continuous
 62
     7
100
AcDbLine
 10
137.5
 20
0.0
 30
0.0
 11
135.8924029713381
 21
-5.999633789062497
 31
0.0
  0
LINE
  5
10B
330
454
100
AcDbEntity
  8
DIMNSIONS
  6
Continuous
 62
     7
100
AcDbLine
 10
137.5
 20
1.599999999999994
 30
0.0
 11
137.5
 21
12.09999999999999
 31
0.0
  0
LINE
  5
10C
330
454
100
AcDbEntity
  8
DIMNSIONS
  6
Continuous
 62
     7
100
AcDbLine
 10
137.5
 20
1.599999999999994
 30
0.0
 11
135.8924029713381
 21
7.599633789062492
 31
0.0
  0
LINE
  5
10D
330
454
100
AcDbEntity
  8
DIMNSIONS
  6
Continuous
 62
     7
100
AcDbLine
 10
137.5
 20
1.599999999999994
 30
0.0
 11
139.1075970286618
 21
7.599633789062492
 31
0.0
  0
TEXT
  5
10E
330
454
100
AcDbEntity
  8
DIMNSIONS
 62
     7
100
AcDbText
 10
134.5183333333333
 20
-22.125
 30
0.0
 40
8.144205729166666
  1
1.6
 50
90.0
 41
0.7
 11
126.3741276041667
 21
-22.125
 31
0.0
100
AcDbText
 73
     3
  0
LINE
  5
10F
330
454
100
AcDbEntity
  8
DIMNSIONS
  6
Continuous
 62
     7
100
AcDbLine
 10
177.9999999999577
 20
12.99999999999363
 30
0.0
 11
196.75
 21
12.99999999999363
 31
0.0
  0
LINE
  5
110
330
454
100
AcDbEntity
  8
DIMNSIONS
  6
Continuous
 62
     7
100
AcDbLine
 10
184.5
 20
0.0
 30
0.0
 11
196.75
 21
0.0
 31
0.0
  0
LINE
  5
111
330
454
100
AcDbEntity
  8
DIMNSIONS
  6
Continuous
 62
     7
100
AcDbLine
 10
193.75
 20
12.99999999999363
 30
0.0
 11
193.75
 21
39.91666666666666
 31
0.0
  0
LINE
  5
112
330
454
100
AcDbEntity
  8
DIMNSIONS
  6
Continuous
 62
     7
100
AcDbLine
 10
193.75
 20
12.99999999999363
 30
0.0
 11
193.75
 21
0.0
 31
0.0
  0
LINE
  5
113
330
454
100
AcDbEntity
  8
DIMNSIONS
  6
Continuous
 62
     7
100
AcDbLine
 10
193.75
 20
12.99999999999363
 30
0.0
 11
195.3575970286617
 21
7.000366210931134
 31
0.0
  0
LINE
  5
114
330
454
100
AcDbEntity
  8
DIMNSIONS
  6
Continuous
 62
     7
100
AcDbLine
 10
193.75
 20
12.99999999999363
 30
0.0
 11
192.1424029713382
 21
7.000366210931135
 31
0.0
  0
LINE
  5
115
330
454
100
AcDbEntity
  8
DIMNSIONS
  6
Continuous
 62
     7
100
AcDbLine
 10
193.75
 20
0.0
 30
0.0
 11
192.1424029713382
 21
5.999633789062497
 31
0.0
  0
LINE
  5
116
330
454
100
AcDbEntity
  8
DIMNSIONS
  6
Continuous
 62
     7
100
AcDbLine
 10
193.75
 20
0.0
 30
0.0
 11
195.3575970286617
 21
5.999633789062499
 31
0.0
  0
TEXT
  5
117
330
454
100
AcDbEntity
  8
DIMNSIONS
 62
     7
100
AcDbText
 10
190.7683333333333
 20
18.75
 30
0.0
 40
8.144205729166666
  1
13.0
 50
90.0
 41
0.7
 11
182.6241276041666
 21
18.75
 31
0.0
100
AcDbText
 73
     3
  0
LINE
  5
118
330
454
100
AcDbEntity
  8
DIMNSIONS
  6
Continuous
 62
     7
100
AcDbLine
 10
156.5000000000423
 20
17.50000000000637
 30
0.0
 11
156.5000000000423
 21
34.25
 31
0.0
  0
LINE
  5
119
330
454
100
AcDbEntity
  8
DIMNSIONS
  6
Continuous
 62
     7
100
AcDbLine
 10
173.5
 20
17.5
 30
0.0
 11
173.5
 21
34.25
 31
0.0
  0
LINE
  5
11A
330
454
100
AcDbEntity
  8
DIMNSIONS
  6
Continuous
 62
     7
100
AcDbLine
 10
156.5000000000423
 20
31.25
 30
0.0
 11
173.5
 21
31.25
 31
0.0
  0
LINE
  5
11B
330
454
100
AcDbEntity
  8
DIMNSIONS
  6
Continuous
 62
     7
100
AcDbLine
 10
156.5000000000423
 20
31.25
 30
0.0
 11
162.4996337891048
 21
32.85759702866177
 31
0.0
  0
LINE
  5
11C
330
454
100
AcDbEntity
  8
DIMNSIONS
  6
Continuous
 62
     7
100
AcDbLine
 10
156.5000000000423
 20
31.25
 30
0.0
 11
162.4996337891048
 21
29.64240297133823
 31
0.0
  0
LINE
  5
11D
330
454
100
AcDbEntity
  8
DIMNSIONS
  6
Continuous
 62
     7
100
AcDbLine
 10
173.5
 20
31.25
 30
0.0
 11
167.5003662109375
 21
29.64240297133823
 31
0.0
  0
LINE
  5
11E
330
454
100
AcDbEntity
  8
DIMNSIONS
  6
Continuous
 62
     7
100
AcDbLine
 10
173.5
 20
31.25
 30
0.0
 11
167.5003662109375
 21
32.85759702866177
 31
0.0
  0
TEXT
  5
11F
330
454
100
AcDbEntity
  8
DIMNSIONS
 62
     7
100
AcDbText
 10
154.4166666666878
 20
35.73166666666667
 30
0.0
 40
8.144205729166666
  1
17.0
 41
0.7
 11
154.4166666666878
 21
43.87587239583333
 31
0.0
100
AcDbText
 73
     3
  0
TEXT
  5
120
330
454
100
AcDbEntity
  8
DIMNSIONS
 62
     7
100
AcDbText
 10
128.0836666666667
 20
83.66666666666665
 30
0.0
 40
5.700944010416665
  1
※
 50
90.0
 41
0.7
 11
122.38272265625
 21
83.66666666666665
 31
0.0
100
AcDbText
 73
     3
  0
LINE
  5
121
330
454
100
AcDbEntity
  8
DIMNSIONS
  6
Continuous
 62
     7
100
AcDbLine
 10
115.2969093202527
 20
44.25737500275064
 30
0.0
 11
143.75
 21
56.25
 31
0.0
  0
LINE
  5
122
330
454
100
AcDbEntity
  8
DIMNSIONS
  6
Continuous
 62
     7
100
AcDbLine
 10
115.2969093202527
 20
44.25737500275064
 30
0.0
 11
120.2574564562923
 21
47.99541538783909
 31
0.0
  0
LINE
  5
123
330
454
100
AcDbEntity
  8
DIMNSIONS
  6
Continuous
 62
     7
100
AcDbLine
 10
115.2969093202527
 20
44.25737500275064
 30
0.0
 11
121.4618893492773
 21
45.01433936858961
 31
0.0
  0
LINE
  5
124
330
454
100
AcDbEntity
  8
DIMNSIONS
  6
Continuous
 62
     7
100
AcDbLine
 10
143.75
 20
56.25
 30
0.0
 11
149.75
 21
56.25
 31
0.0
  0
TEXT
  5
125
330
454
100
AcDbEntity
  8
DIMNSIONS
 62
     7
100
AcDbText
 10
149.75
 20
52.43999999999999
 30
0.0
 40
8.144205729166666
  1
5.9×3.9長穴(2ヵ所)
 41
0.7
 11
149.75
 21
60.58420572916666
 31
0.0
100
AcDbText
 73
     3
  0
LINE
  5
126
330
454
100
AcDbEntity
  8
DIMNSIONS
  6
Continuous
 62
     7
100
AcDbLine
 10
156.1189274286072
 20
11.13860705511967
 30
0.0
 11
150.0
 21
-18.75
 31
0.0
  0
LINE
  5
127
330
454
100
AcDbEntity
  8
DIMNSIONS
  6
Continuous
 62
     7
100
AcDbLine
 10
156.1189274286072
 20
11.13860705511967
 30
0.0
 11
156.5522042760531
 21
4.942459463035549
 31
0.0
  0
LINE
  5
128
330
454
100
AcDbEntity
  8
DIMNSIONS
  6
Continuous
 62
     7
100
AcDbLine
 10
156.1189274286072
 20
11.13860705511967
 30
0.0
 11
153.3960823893249
 21
5.555947411054093
 31
0.0
  0
LINE
  5
129
330
454
100
AcDbEntity
  8
DIMNSIONS
  6
Continuous
 62
     7
100
AcDbLine
 10
150.0
 20
-18.75
 30
0.0
 11
156.0
 21
-18.75
 31
0.0
  0
TEXT
  5
12A
330
454
100
AcDbEntity
  8
DIMNSIONS
 62
     7
100
AcDbText
 10
156.0
 20
-22.56
 30
0.0
 40
8.144205729166666
  1
本体取付穴(2ヵ所)
 41
0.7
 11
156.0
 21
-14.41579427083333
 31
0.0
100
AcDbText
 73
     3
  0
TEXT
  5
12B
330
454
100
AcDbEntity
  8
DIMNSIONS
 62
     7
100
AcDbText
 10
175.5833333333544
 20
42.16633333333333
 30
0.0
 40
5.700944010416665
  1
※
 41
0.7
 11
175.5833333333544
 21
47.86727734374999
 31
0.0
100
AcDbText
 73
     3
  0
TEXT
  5
12C
330
454
100
AcDbEntity
  8
DIMNSIONS
 62
     7
100
AcDbText
 10
25.0
 20
-303.81
 30
0.0
 40
8.144205729166666
  1
※センター振り分け
 41
0.7
 11
25.0
 21
-295.6657942708332
 31
0.0
100
AcDbText
 73
     3
  0
LINE
  5
12D
330
454
100
AcDbEntity
  8
DATA
  6
Continuous
 62
     7
100
AcDbLine
 10
-225.0
 20
-124.0
 30
0.0
 11
-225.0
 21
-150.0
 31
0.0
  0
LINE
  5
12E
330
454
100
AcDbEntity
  8
DATA
  6
Continuous
 62
     7
100
AcDbLine
 10
-225.0
 20
-150.0
 30
0.0
 11
-11.0
 21
-150.0
 31
0.0
  0
LINE
  5
12F
330
454
100
AcDbEntity
  8
DATA
  6
Continuous
 62
     7
100
AcDbLine
 10
-225.0
 20
-124.0
 30
0.0
 11
-11.0
 21
-124.0
 31
0.0
  0
LINE
  5
130
330
454
100
AcDbEntity
  8
DATA
  6
Continuous
 62
     7
100
AcDbLine
 10
-225.0
 20
-123.9999999999999
 30
0.0
 11
-225.0
 21
-150.0
 31
0.0
  0
LINE
  5
131
330
454
100
AcDbEntity
  8
DATA
  6
Continuous
 62
     7
100
AcDbLine
 10
-11.0
 20
-123.9999999999999
 30
0.0
 11
-11.0
 21
-150.0
 31
0.0
  0
LINE
  5
132
330
454
100
AcDbEntity
  8
DATA
  6
Continuous
 62
     7
100
AcDbLine
 10
-11.0
 20
-106.25
 30
0.0
 11
-225.0
 21
-106.25
 31
0.0
  0
LINE
  5
133
330
454
100
AcDbEntity
  8
DATA
  6
Continuous
 62
     7
100
AcDbLine
 10
-225.0
 20
-106.25
 30
0.0
 11
-225.0
 21
-13.25
 31
0.0
  0
LINE
  5
134
330
454
100
AcDbEntity
  8
DATA
  6
Continuous
 62
     7
100
AcDbLine
 10
-11.0
 20
-106.25
 30
0.0
 11
-11.0
 21
-13.25
 31
0.0
  0
LINE
  5
135
330
454
100
AcDbEntity
  8
DATA
  6
Continuous
 62
     7
100
AcDbLine
 10
-11.0
 20
-13.25
 30
0.0
 11
-225.0
 21
-13.25
 31
0.0
  0
CIRCLE
  5
136
330
454
100
AcDbEntity
  8
DATA
  6
Continuous
 62
     7
100
AcDbCircle
 10
-25.5
 20
-137.0
 30
0.0
 40
1.5
  0
CIRCLE
  5
137
330
454
100
AcDbEntity
  8
DATA
  6
Continuous
 62
     7
100
AcDbCircle
 10
-66.5
 20
-137.3691729374156
 30
0.0
 40
0.9000000000000056
  0
CIRCLE
  5
138
330
454
100
AcDbEntity
  8
DATA
  6
Continuous
 62
     7
100
AcDbCircle
 10
-51.0
 20
-133.9999999999999
 30
0.0
 40
5.0
  0
CIRCLE
  5
139
330
454
100
AcDbEntity
  8
DATA
  6
Continuous
 62
     7
100
AcDbCircle
 10
-51.0
 20
-133.9999999999999
 30
0.0
 40
4.0
  0
CIRCLE
  5
13A
330
454
100
AcDbEntity
  8
DATA
  6
Continuous
 62
     7
100
AcDbCircle
 10
-115.5
 20
-137.5
 30
0.0
 40
1.25
  0
CIRCLE
  5
13B
330
454
100
AcDbEntity
  8
DATA
  6
Continuous
 62
     7
100
AcDbCircle
 10
-125.5
 20
-137.5
 30
0.0
 40
1.25
  0
CIRCLE
  5
13C
330
454
100
AcDbEntity
  8
DATA
  6
Continuous
 62
     7
100
AcDbCircle
 10
-135.5
 20
-137.5
 30
0.0
 40
1.25
  0
CIRCLE
  5
13D
330
454
100
AcDbEntity
  8
DATA
  6
Continuous
 62
     7
100
AcDbCircle
 10
-145.5
 20
-137.5
 30
0.0
 40
1.25
  0
CIRCLE
  5
13E
330
454
100
AcDbEntity
  8
DATA
  6
Continuous
 62
     7
100
AcDbCircle
 10
-155.5
 20
-137.5
 30
0.0
 40
1.25
  0
CIRCLE
  5
13F
330
454
100
AcDbEntity
  8
DATA
  6
Continuous
 62
     7
100
AcDbCircle
 10
-166.0
 20
-139.0
 30
0.0
 40
4.0
  0
LINE
  5
140
330
454
100
AcDbEntity
  8
DATA
  6
Continuous
 62
     7
100
AcDbLine
 10
-11.0
 20
-95.25
 30
0.0
 11
-225.0
 21
-95.25
 31
0.0
  0
LINE
  5
141
330
454
100
AcDbEntity
  8
DATA
  6
Continuous
 62
     7
100
AcDbLine
 10
-170.0
 20
-108.25
 30
0.0
 11
-170.0
 21
-106.25
 31
0.0
  0
LINE
  5
142
330
454
100
AcDbEntity
  8
DATA
  6
Continuous
 62
     7
100
AcDbLine
 10
-161.8567034424718
 20
-108.25
 30
0.0
 11
-161.8567034424718
 21
-106.25
 31
0.0
  0
LINE
  5
143
330
454
100
AcDbEntity
  8
DATA
  6
Continuous
 62
     7
100
AcDbLine
 10
-170.0
 20
-108.25
 30
0.0
 11
-161.8567034424718
 21
-108.25
 31
0.0
  0
ARC
  5
144
330
454
100
AcDbEntity
  8
DATA
  6
Continuous
 62
     7
100
AcDbCircle
 10
-115.5
 20
-106.1394387289414
 30
0.0
 40
1.249999999999999
100
AcDbArc
 50
185.0743864398524
 51
354.9256135601477
  0
ARC
  5
145
330
454
100
AcDbEntity
  8
DATA
  6
Continuous
 62
     7
100
AcDbCircle
 10
-125.5
 20
-106.1394387289414
 30
0.0
 40
1.249999999999999
100
AcDbArc
 50
185.0743864398524
 51
354.9256135601477
  0
ARC
  5
146
330
454
100
AcDbEntity
  8
DATA
  6
Continuous
 62
     7
100
AcDbCircle
 10
-135.5
 20
-106.1394387289414
 30
0.0
 40
1.249999999999999
100
AcDbArc
 50
185.0743864398524
 51
354.9256135601477
  0
ARC
  5
147
330
454
100
AcDbEntity
  8
DATA
  6
Continuous
 62
     7
100
AcDbCircle
 10
-145.5
 20
-106.1394387289414
 30
0.0
 40
1.249999999999999
100
AcDbArc
 50
185.0743864398524
 51
354.9256135601477
  0
ARC
  5
148
330
454
100
AcDbEntity
  8
DATA
  6
Continuous
 62
     7
100
AcDbCircle
 10
-155.5
 20
-106.1394387289414
 30
0.0
 40
1.249999999999999
100
AcDbArc
 50
185.0743864398524
 51
354.9256135601477
  0
ARC
  5
149
330
454
100
AcDbEntity
  8
DATA
  6
Continuous
 62
     7
100
AcDbCircle
 10
-25.5
 20
-106.0739403232813
 30
0.0
 40
1.5
100
AcDbArc
 50
186.7405218636488
 51
353.2594781363507
  0
LINE
  5
14A
330
454
100
AcDbEntity
  8
DATA
  6
Continuous
 62
     7
100
AcDbLine
 10
-225.0
 20
26.0
 30
0.0
 11
-225.0
 21
0.0
 31
0.0
  0
LINE
  5
14B
330
454
100
AcDbEntity
  8
DATA
  6
Continuous
 62
     7
100
AcDbLine
 10
-225.0
 20
0.0
 30
0.0
 11
-11.0
 21
0.0
 31
0.0
  0
LINE
  5
14C
330
454
100
AcDbEntity
  8
DATA
  6
Continuous
 62
     7
100
AcDbLine
 10
-225.0
 20
26.0
 30
0.0
 11
-11.0
 21
26.0
 31
0.0
  0
LINE
  5
14D
330
454
100
AcDbEntity
  8
DATA
  6
Continuous
 62
     7
100
AcDbLine
 10
-225.0
 20
26.00000000000003
 30
0.0
 11
-225.0
 21
0.0
 31
0.0
  0
LINE
  5
14E
330
454
100
AcDbEntity
  8
DATA
  6
Continuous
 62
     7
100
AcDbLine
 10
-11.0
 20
26.00000000000003
 30
0.0
 11
-11.0
 21
0.0
 31
0.0
  0
ARC
  5
14F
330
454
100
AcDbEntity
  8
DATA
  6
Continuous
 62
     7
100
AcDbCircle
 10
-215.0
 20
10.99999999999879
 30
0.0
 40
3.900000000000207
100
AcDbArc
 50
111.3023991911746
 51
68.6976008088258
  0
ARC
  5
150
330
454
100
AcDbEntity
  8
DATA
  6
Continuous
 62
     7
100
AcDbCircle
 10
-215.0000000000006
 20
10.99999999999998
 30
0.0
 40
5.299999999998852
100
AcDbArc
 50
123.0635387844282
 51
176.9364612155717
  0
ARC
  5
151
330
454
100
AcDbEntity
  8
DATA
  6
Continuous
 62
     7
100
AcDbCircle
 10
-215.0000000000006
 20
10.99999999999998
 30
0.0
 40
5.299999999998849
100
AcDbArc
 50
183.0635387844522
 51
236.9364612155475
  0
ARC
  5
152
330
454
100
AcDbEntity
  8
DATA
  6
Continuous
 62
     7
100
AcDbCircle
 10
-215.0000000000006
 20
10.99999999999998
 30
0.0
 40
5.299999999998862
100
AcDbArc
 50
243.063538784476
 51
296.9364612155238
  0
ARC
  5
153
330
454
100
AcDbEntity
  8
DATA
  6
Continuous
 62
     7
100
AcDbCircle
 10
-215.0000000000006
 20
10.99999999999998
 30
0.0
 40
5.299999999998863
100
AcDbArc
 50
303.0635387844754
 51
356.9364612155247
  0
ARC
  5
154
330
454
100
AcDbEntity
  8
DATA
  6
Continuous
 62
     7
100
AcDbCircle
 10
-215.0000000000006
 20
10.99999999999998
 30
0.0
 40
5.299999999998845
100
AcDbArc
 50
3.063538784451359
 51
56.93646121554866
  0
ARC
  5
155
330
454
100
AcDbEntity
  8
DATA
  6
Continuous
 62
     7
100
AcDbCircle
 10
-215.0000000000006
 20
10.99999999999998
 30
0.0
 40
5.299999999998878
100
AcDbArc
 50
63.06353878442778
 51
116.9364612155719
  0
ARC
  5
156
330
454
100
AcDbEntity
  8
DATA
  6
Continuous
 62
     7
100
AcDbCircle
 10
-215.0000000000002
 20
10.99999999999919
 30
0.0
 40
0.9999999999997127
100
AcDbArc
 50
138.3449773820126
 51
311.6550226179864
  0
ARC
  5
157
330
454
100
AcDbEntity
  8
DATA
  6
Continuous
 62
     7
100
AcDbCircle
 10
-215.0000000000002
 20
10.99999999999919
 30
0.0
 40
0.9999999999997156
100
AcDbArc
 50
318.0405886770645
 51
131.9594113229365
  0
CIRCLE
  5
158
330
454
100
AcDbEntity
  8
DATA
  6
Continuous
 62
     7
100
AcDbCircle
 10
-215.0
 20
10.99999999999896
 30
0.0
 40
2.849999999999994
  0
LWPOLYLINE
  5
159
330
454
100
AcDbEntity
  8
DATA
  6
Continuous
 62
     7
100
AcDbPolyline
 90
        6
 70
     1
 43
0.0
 10
-217.7279800219209
 20
15.724999999999
 10
-220.455960043842
 20
10.99999999999896
 10
-217.7279800219209
 20
6.274999999998996
 10
-212.272019978079
 20
6.274999999998996
 10
-209.5440399561581
 20
10.99999999999896
 10
-212.272019978079
 20
15.724999999999
  0
LINE
  5
162
330
454
100
AcDbEntity
  8
DATA
  6
Continuous
 62
     7
100
AcDbLine
 10
-216.4168319500127
 20
14.63353646265119
 30
0.0
 11
-213.5831680499872
 21
14.63353646265119
 31
0.0
  0
LINE
  5
163
330
454
100
AcDbEntity
  8
DATA
  6
Continuous
 62
     7
100
AcDbLine
 10
-215.7471601602747
 20
11.66464403623057
 30
0.0
 11
-214.3353559637688
 21
10.25283983972464
 31
0.0
  0
LINE
  5
164
330
454
100
AcDbEntity
  8
DATA
  6
Continuous
 62
     7
100
AcDbLine
 10
-215.6686039902117
 20
11.74361865513945
 30
0.0
 11
-214.25638134486
 21
10.33139600978767
 31
0.0
  0
LINE
  5
165
330
454
100
AcDbEntity
  8
DATA
  6
Continuous
 62
     7
100
AcDbLine
 10
-189.15
 20
18.50000000000005
 30
0.0
 11
-189.15
 21
5.200000000000059
 31
0.0
  0
LINE
  5
166
330
454
100
AcDbEntity
  8
DATA
  6
Continuous
 62
     7
100
AcDbLine
 10
-204.85
 20
18.50000000000005
 30
0.0
 11
-204.85
 21
5.200000000000059
 31
0.0
  0
LINE
  5
167
330
454
100
AcDbEntity
  8
DATA
  6
Continuous
 62
     7
100
AcDbLine
 10
-204.85
 20
5.200000000000059
 30
0.0
 11
-189.15
 21
5.200000000000059
 31
0.0
  0
LINE
  5
168
330
454
100
AcDbEntity
  8
DATA
  6
Continuous
 62
     7
100
AcDbLine
 10
-204.85
 20
18.50000000000002
 30
0.0
 11
-189.15
 21
18.50000000000002
 31
0.0
  0
LINE
  5
169
330
454
100
AcDbEntity
  8
DATA
  6
Continuous
 62
     7
100
AcDbLine
 10
-203.15
 20
16.50934266197628
 30
0.0
 11
-190.85
 21
16.50934266197628
 31
0.0
  0
LINE
  5
16A
330
454
100
AcDbEntity
  8
DATA
  6
Continuous
 62
     7
100
AcDbLine
 10
-203.15
 20
16.50934266197628
 30
0.0
 11
-203.15
 21
8.200000000000059
 31
0.0
  0
LINE
  5
16B
330
454
100
AcDbEntity
  8
DATA
  6
Continuous
 62
     7
100
AcDbLine
 10
-190.85
 20
16.50934266197628
 30
0.0
 11
-190.85
 21
8.200000000000059
 31
0.0
  0
LINE
  5
16C
330
454
100
AcDbEntity
  8
DATA
  6
Continuous
 62
     7
100
AcDbLine
 10
-199.225
 20
5.200000000000059
 30
0.0
 11
-199.225
 21
6.700000000000059
 31
0.0
  0
LINE
  5
16D
330
454
100
AcDbEntity
  8
DATA
  6
Continuous
 62
     7
100
AcDbLine
 10
-194.775
 20
6.700000000000059
 30
0.0
 11
-194.775
 21
5.200000000000059
 31
0.0
  0
LINE
  5
16E
330
454
100
AcDbEntity
  8
DATA
  6
Continuous
 62
     7
100
AcDbLine
 10
-200.35
 20
6.700000000000059
 30
0.0
 11
-199.225
 21
6.700000000000059
 31
0.0
  0
LINE
  5
16F
330
454
100
AcDbEntity
  8
DATA
  6
Continuous
 62
     7
100
AcDbLine
 10
-194.775
 20
6.700000000000059
 30
0.0
 11
-193.65
 21
6.700000000000059
 31
0.0
  0
LINE
  5
170
330
454
100
AcDbEntity
  8
DATA
  6
Continuous
 62
     7
100
AcDbLine
 10
-203.15
 20
8.200000000000059
 30
0.0
 11
-200.35
 21
8.200000000000059
 31
0.0
  0
LINE
  5
171
330
454
100
AcDbEntity
  8
DATA
  6
Continuous
 62
     7
100
AcDbLine
 10
-193.65
 20
8.200000000000059
 30
0.0
 11
-190.85
 21
8.200000000000059
 31
0.0
  0
LINE
  5
172
330
454
100
AcDbEntity
  8
DATA
  6
Continuous
 62
     7
100
AcDbLine
 10
-200.35
 20
6.700000000000059
 30
0.0
 11
-200.35
 21
8.200000000000059
 31
0.0
  0
LINE
  5
173
330
454
100
AcDbEntity
  8
DATA
  6
Continuous
 62
     7
100
AcDbLine
 10
-193.65
 20
8.200000000000059
 30
0.0
 11
-193.65
 21
6.700000000000059
 31
0.0
  0
LWPOLYLINE
  5
174
330
454
100
AcDbEntity
  8
DATA
  6
Continuous
 62
     7
100
AcDbPolyline
 90
        4
 70
     1
 43
0.0
 10
-204.5072764909174
 20
7.892723509092819
 10
-200.6072764909174
 20
7.892723509092819
 10
-200.6072764909174
 20
5.492723509092812
 10
-204.5072764909174
 20
5.492723509092812
  0
LWPOLYLINE
  5
17B
330
454
100
AcDbEntity
  8
DATA
  6
Continuous
 62
     7
100
AcDbPolyline
 90
        4
 70
     1
 43
0.0
 10
-193.3927235090826
 20
7.892723509092819
 10
-189.4927235090826
 20
7.892723509092819
 10
-189.4927235090826
 20
5.492723509092812
 10
-193.3927235090826
 20
5.492723509092812
  0
LWPOLYLINE
  5
182
330
454
100
AcDbEntity
  8
DATA
  6
Continuous
 62
     7
100
AcDbPolyline
 90
        5
 70
   129
 43
0.0
 10
-174.1094510228859
 20
11.61119445460795
 42
-0.4142135623730951
 10
-173.5094510228859
 20
12.21119445460797
 42
-0.4142135623730951
 10
-172.9094510228859
 20
11.61119445460795
 42
-0.4142135623730951
 10
-173.5094510228859
 20
11.01119445460793
 42
-0.4142135623730951
 10
-174.1094510228859
 20
11.61119445460795
  0
LINE
  5
189
330
454
100
AcDbEntity
  8
DATA
  6
Continuous
 62
     7
100
AcDbLine
 10
-162.1743310228858
 20
16.94119445460794
 30
0.0
 11
-173.864581022886
 21
16.94119445460794
 31
0.0
  0
LWPOLYLINE
  5
18A
330
454
100
AcDbEntity
  8
DATA
  6
Continuous
 62
     7
100
AcDbPolyline
 90
        5
 70
   129
 43
0.0
 10
-163.129451022886
 20
11.61119445460795
 42
-0.4142135623730951
 10
-162.5294510228859
 20
12.21119445460797
 42
-0.4142135623730951
 10
-161.9294510228859
 20
11.61119445460795
 42
-0.4142135623730951
 10
-162.5294510228859
 20
11.01119445460793
 42
-0.4142135623730951
 10
-163.129451022886
 20
11.61119445460795
  0
LWPOLYLINE
  5
191
330
454
100
AcDbEntity
  8
DATA
  6
Continuous
 62
     7
100
AcDbPolyline
 90
        5
 70
   129
 43
0.0
 10
-165.8794510228859
 20
11.61119445460795
 42
-0.4142135623730951
 10
-165.2794510228859
 20
12.21119445460797
 42
-0.4142135623730951
 10
-164.6794510228859
 20
11.61119445460795
 42
-0.4142135623730951
 10
-165.2794510228859
 20
11.01119445460793
 42
-0.4142135623730951
 10
-165.8794510228859
 20
11.61119445460795
  0
LWPOLYLINE
  5
198
330
454
100
AcDbEntity
  8
DATA
  6
Continuous
 62
     7
100
AcDbPolyline
 90
        5
 70
   129
 43
0.0
 10
-168.619451022886
 20
11.61119445460795
 42
-0.4142135623730951
 10
-168.0194510228859
 20
12.21119445460797
 42
-0.4142135623730951
 10
-167.4194510228859
 20
11.61119445460795
 42
-0.4142135623730951
 10
-168.0194510228859
 20
11.01119445460793
 42
-0.4142135623730951
 10
-168.619451022886
 20
11.61119445460795
  0
LWPOLYLINE
  5
19F
330
454
100
AcDbEntity
  8
DATA
  6
Continuous
 62
     7
100
AcDbPolyline
 90
        5
 70
   129
 43
0.0
 10
-171.3594510228859
 20
11.61119445460795
 42
-0.4142135623730951
 10
-170.7594510228859
 20
12.21119445460797
 42
-0.4142135623730951
 10
-170.1594510228859
 20
11.61119445460795
 42
-0.4142135623730951
 10
-170.7594510228859
 20
11.01119445460793
 42
-0.4142135623730951
 10
-171.3594510228859
 20
11.61119445460795
  0
LWPOLYLINE
  5
1A6
330
454
100
AcDbEntity
  8
DATA
  6
Continuous
 62
     7
100
AcDbPolyline
 90
        5
 70
   129
 43
0.0
 10
-164.509451022886
 20
14.45119445460798
 42
-0.4142135623730951
 10
-163.909451022886
 20
15.05119445460801
 42
-0.4142135623730951
 10
-163.309451022886
 20
14.45119445460798
 42
-0.4142135623730951
 10
-163.909451022886
 20
13.85119445460796
 42
-0.4142135623730951
 10
-164.509451022886
 20
14.45119445460798
  0
LWPOLYLINE
  5
1AD
330
454
100
AcDbEntity
  8
DATA
  6
Continuous
 62
     7
100
AcDbPolyline
 90
        5
 70
   129
 43
0.0
 10
-167.249451022886
 20
14.45119445460798
 42
-0.4142135623730951
 10
-166.649451022886
 20
15.05119445460801
 42
-0.4142135623730951
 10
-166.049451022886
 20
14.45119445460798
 42
-0.4142135623730951
 10
-166.649451022886
 20
13.85119445460796
 42
-0.4142135623730951
 10
-167.249451022886
 20
14.45119445460798
  0
LWPOLYLINE
  5
1B4
330
454
100
AcDbEntity
  8
DATA
  6
Continuous
 62
     7
100
AcDbPolyline
 90
        5
 70
   129
 43
0.0
 10
-169.989451022886
 20
14.45119445460798
 42
-0.4142135623730951
 10
-169.389451022886
 20
15.05119445460801
 42
-0.4142135623730951
 10
-168.789451022886
 20
14.45119445460798
 42
-0.4142135623730951
 10
-169.389451022886
 20
13.85119445460796
 42
-0.4142135623730951
 10
-169.989451022886
 20
14.45119445460798
  0
LWPOLYLINE
  5
1BB
330
454
100
AcDbEntity
  8
DATA
  6
Continuous
 62
     7
100
AcDbPolyline
 90
        5
 70
   129
 43
0.0
 10
-172.7294510228858
 20
14.45119445460798
 42
-0.4142135623730951
 10
-172.1294510228859
 20
15.05119445460789
 42
-0.4142135623730951
 10
-171.529451022886
 20
14.45119445460798
 42
-0.4142135623730951
 10
-172.1294510228859
 20
13.85119445460807
 42
-0.4142135623730951
 10
-172.7294510228858
 20
14.45119445460798
  0
ARC
  5
1C2
330
454
100
AcDbEntity
  8
DATA
  6
Continuous
 62
     7
100
AcDbCircle
 10
-161.8894510228859
 20
11.121194454608
 30
0.0
 40
2.0
100
AcDbArc
 50
270.0
 51
0.0
  0
LINE
  5
1C3
330
454
100
AcDbEntity
  8
DATA
  6
Continuous
 62
     7
100
AcDbLine
 10
-159.8894510228859
 20
11.121194454608
 30
0.0
 11
-160.6971110228859
 21
15.70166445460799
 31
0.0
  0
ARC
  5
1C4
330
454
100
AcDbEntity
  8
DATA
  6
Continuous
 62
     7
100
AcDbCircle
 10
-162.1743310228858
 20
15.44119445460794
 30
0.0
 40
1.499998001665358
100
AcDbArc
 50
9.999925549603544
 51
90.0
  0
ARC
  5
1C5
330
454
100
AcDbEntity
  8
DATA
  6
Continuous
 62
     7
100
AcDbCircle
 10
-174.1494510228859
 20
11.121194454608
 30
0.0
 40
2.0
100
AcDbArc
 50
180.0
 51
270.0
  0
LINE
  5
1C6
330
454
100
AcDbEntity
  8
DATA
  6
Continuous
 62
     7
100
AcDbLine
 10
-176.1494510228859
 20
11.121194454608
 30
0.0
 11
-175.341791022886
 21
15.70166445460799
 31
0.0
  0
ARC
  5
1C7
330
454
100
AcDbEntity
  8
DATA
  6
Continuous
 62
     7
100
AcDbCircle
 10
-173.864581022886
 20
15.44119445460794
 30
0.0
 40
1.5
100
AcDbArc
 50
90.0
 51
170.0000744503964
  0
LINE
  5
1C8
330
454
100
AcDbEntity
  8
DATA
  6
Continuous
 62
     7
100
AcDbLine
 10
-161.8894510228859
 20
9.121194454608001
 30
0.0
 11
-174.1494510228859
 21
9.121194454608001
 31
0.0
  0
CIRCLE
  5
1C9
330
454
100
AcDbEntity
  8
DATA
  6
Continuous
 62
     7
100
AcDbCircle
 10
-155.4717506609031
 20
13.00970449744756
 30
0.0
 40
1.175000000000125
  0
LWPOLYLINE
  5
1CA
330
454
100
AcDbEntity
  8
DATA
  6
Continuous
 62
     7
100
AcDbPolyline
 90
        6
 70
     1
 43
0.0
 10
-155.4717506609031
 20
10.30970449744756
 10
-157.8100192511212
 20
11.65970449744753
 10
-157.8100192511212
 20
14.35970449744752
 10
-155.4717506609031
 20
15.70970449744751
 10
-153.133482070685
 20
14.35970449744752
 10
-153.133482070685
 20
11.65970449744753
  0
CIRCLE
  5
1D3
330
454
100
AcDbEntity
  8
DATA
  6
Continuous
 62
     7
100
AcDbCircle
 10
-180.4717506609035
 20
13.00970449744756
 30
0.0
 40
1.175000000000125
  0
LWPOLYLINE
  5
1D4
330
454
100
AcDbEntity
  8
DATA
  6
Continuous
 62
     7
100
AcDbPolyline
 90
        6
 70
     1
 43
0.0
 10
-180.4717506609035
 20
10.30970449744756
 10
-182.8100192511215
 20
11.65970449744753
 10
-182.8100192511215
 20
14.35970449744752
 10
-180.4717506609035
 20
15.70970449744751
 10
-178.1334820706854
 20
14.35970449744752
 10
-178.1334820706854
 20
11.65970449744753
  0
LINE
  5
1DD
330
454
100
AcDbEntity
  8
DATA
  6
Continuous
 62
     7
100
AcDbLine
 10
-175.418831155127
 20
8.004954765497558
 30
0.0
 11
-160.712831155127
 21
8.004954765497558
 31
0.0
  0
LINE
  5
1DE
330
454
100
AcDbEntity
  8
DATA
  6
Continuous
 62
     7
100
AcDbLine
 10
-174.989541355127
 20
18.01295476549759
 30
0.0
 11
-161.1421095551269
 21
18.01295476549759
 31
0.0
  0
LWPOLYLINE
  5
1DF
330
454
100
AcDbEntity
  8
DATA
  6
Continuous
 62
     7
100
AcDbPolyline
 90
        5
 70
   128
 43
0.0
 10
-174.989541355127
 20
18.01295236749601
 42
0.1828714081977719
 10
-176.0784101262288
 20
17.60092752136733
 10
-176.0887075544226
 20
17.59183217441963
 42
0.1720008149311484
 10
-176.6705780190741
 20
16.54332515000762
 10
-176.673560755127
 20
16.52551876549759
  0
LWPOLYLINE
  5
1E6
330
454
100
AcDbEntity
  8
DATA
  6
Continuous
 62
     7
100
AcDbPolyline
 90
        5
 70
   128
 43
0.0
 10
-177.698831155127
 20
10.40495476549754
 10
-177.698831155127
 20
10.38042052521846
 42
0.1922583332342633
 10
-177.0310346162323
 20
8.707898490649839
 10
-177.0136978368388
 20
8.689649249182922
 42
0.2055833885374476
 10
-175.418831155127
 20
8.004954765497558
  0
LINE
  5
1ED
330
454
100
AcDbEntity
  8
DATA
  6
Continuous
 62
     7
100
AcDbLine
 10
-177.698831155127
 20
10.40495476549754
 30
0.0
 11
-176.673572155127
 21
16.52551876549759
 31
0.0
  0
LWPOLYLINE
  5
1EE
330
454
100
AcDbEntity
  8
DATA
  6
Continuous
 62
     7
100
AcDbPolyline
 90
        5
 70
   128
 43
0.0
 10
-159.4580879116344
 20
16.52551918190309
 10
-159.461070651661
 20
16.5433255901352
 42
0.1720008149311047
 10
-160.0429418914949
 20
17.59183401139439
 10
-160.0532393334072
 20
17.60092937045921
 42
0.1828714081977837
 10
-161.1421095551269
 20
18.01295476549759
  0
LWPOLYLINE
  5
1F5
330
454
100
AcDbEntity
  8
DATA
  6
Continuous
 62
     7
100
AcDbPolyline
 90
        5
 70
   128
 43
0.0
 10
-160.712831155127
 20
8.004954765497558
 42
0.2055833885374487
 10
-159.1179644734152
 20
8.689649249182956
 10
-159.1006276940216
 20
8.707898490649824
 42
0.1922583332342633
 10
-158.432831155127
 20
10.38042052521842
 10
-158.432831155127
 20
10.40495476549754
  0
LINE
  5
1FC
330
454
100
AcDbEntity
  8
DATA
  6
Continuous
 62
     7
100
AcDbLine
 10
-158.432831155127
 20
10.40495476549754
 30
0.0
 11
-159.458090155127
 21
16.52551876549759
 31
0.0
  0
CIRCLE
  5
1FD
330
454
100
AcDbEntity
  8
DATA
  6
Continuous
 62
     7
100
AcDbCircle
 10
-20.5
 20
13.00000000000001
 30
0.0
 40
3.0
  0
CIRCLE
  5
1FE
330
454
100
AcDbEntity
  8
DATA
  6
Continuous
 62
     7
100
AcDbCircle
 10
-20.5
 20
13.00000000000001
 30
0.0
 40
1.75
  0
LWPOLYLINE
  5
1FF
330
454
100
AcDbEntity
  8
DATA
  6
Continuous
 62
     7
100
AcDbPolyline
 90
        6
 70
     1
 43
0.0
 10
-40.49165229442113
 20
4.066065498277836
 10
-37.99165229442114
 20
2.622689825303766
 10
-35.49165229442114
 20
4.066065498277823
 10
-35.49165229442114
 20
6.952816844225949
 10
-37.99165229442114
 20
8.396192517200018
 10
-40.49165229442113
 20
6.952816844225949
  0
CIRCLE
  5
208
330
454
100
AcDbEntity
  8
DATA
  6
Continuous
 62
     7
100
AcDbCircle
 10
-37.99165229442114
 20
5.509441171251879
 30
0.0
 40
1.25
  0
LWPOLYLINE
  5
209
330
454
100
AcDbEntity
  8
DATA
  6
Continuous
 62
     7
100
AcDbPolyline
 90
        4
 70
     0
 43
0.0
 10
-46.00000000000002
 20
15.54349995456121
 10
-46.00000000000002
 20
11.54349995456091
 10
-29.99999999999997
 20
11.54349995456091
 10
-29.99999999999997
 20
15.54349995456121
  0
LINE
  5
210
330
454
100
AcDbEntity
  8
DATA
  6
Continuous
 62
     7
100
AcDbLine
 10
-32.50000000000037
 20
17.54349995456121
 30
0.0
 11
-43.49999999999968
 21
17.54349995456121
 31
0.0
  0
ARC
  5
211
330
454
100
AcDbEntity
  8
DATA
  6
Continuous
 62
     7
100
AcDbCircle
 10
-47.26918367346931
 20
19.69247954639788
 30
0.0
 40
4.338762363909578
100
AcDbArc
 50
287.0090081320962
 51
330.3106083760829
  0
ARC
  5
212
330
454
100
AcDbEntity
  8
DATA
  6
Continuous
 62
     7
100
AcDbCircle
 10
-28.7308163265306
 20
19.69247954639788
 30
0.0
 40
4.338762363909669
100
AcDbArc
 50
209.6893916239161
 51
252.9909918679027
  0
LWPOLYLINE
  5
213
330
454
100
AcDbEntity
  8
DATA
  6
Continuous
 62
     7
100
AcDbPolyline
 90
        6
 70
     1
 43
0.0
 10
-65.49165229442113
 20
4.066065498277836
 10
-62.99165229442113
 20
2.622689825303766
 10
-60.49165229442113
 20
4.066065498277823
 10
-60.49165229442113
 20
6.952816844225949
 10
-62.99165229442113
 20
8.396192517200018
 10
-65.49165229442113
 20
6.952816844225949
  0
CIRCLE
  5
21C
330
454
100
AcDbEntity
  8
DATA
  6
Continuous
 62
     7
100
AcDbCircle
 10
-62.99165229442113
 20
5.509441171251879
 30
0.0
 40
1.25
  0
LWPOLYLINE
  5
21D
330
454
100
AcDbEntity
  8
DATA
  6
Continuous
 62
     7
100
AcDbPolyline
 90
        4
 70
     0
 43
0.0
 10
-71.00000000000001
 20
15.54349995456121
 10
-71.00000000000001
 20
11.54349995456091
 10
-54.99999999999997
 20
11.54349995456091
 10
-54.99999999999997
 20
15.54349995456121
  0
LINE
  5
224
330
454
100
AcDbEntity
  8
DATA
  6
Continuous
 62
     7
100
AcDbLine
 10
-57.50000000000037
 20
17.54349995456121
 30
0.0
 11
-68.49999999999969
 21
17.54349995456121
 31
0.0
  0
ARC
  5
225
330
454
100
AcDbEntity
  8
DATA
  6
Continuous
 62
     7
100
AcDbCircle
 10
-72.26918367346931
 20
19.69247954639788
 30
0.0
 40
4.338762363909578
100
AcDbArc
 50
287.0090081320962
 51
330.3106083760829
  0
ARC
  5
226
330
454
100
AcDbEntity
  8
DATA
  6
Continuous
 62
     7
100
AcDbCircle
 10
-53.7308163265306
 20
19.69247954639788
 30
0.0
 40
4.338762363909669
100
AcDbArc
 50
209.6893916239161
 51
252.9909918679027
  0
LWPOLYLINE
  5
227
330
454
100
AcDbEntity
  8
DATA
  6
Continuous
 62
     7
100
AcDbPolyline
 90
        6
 70
     1
 43
0.0
 10
-90.49165229442115
 20
4.066065498277836
 10
-87.99165229442115
 20
2.622689825303766
 10
-85.49165229442115
 20
4.066065498277823
 10
-85.49165229442115
 20
6.952816844225949
 10
-87.99165229442115
 20
8.396192517200018
 10
-90.49165229442115
 20
6.952816844225949
  0
CIRCLE
  5
230
330
454
100
AcDbEntity
  8
DATA
  6
Continuous
 62
     7
100
AcDbCircle
 10
-87.99165229442115
 20
5.509441171251879
 30
0.0
 40
1.25
  0
LWPOLYLINE
  5
231
330
454
100
AcDbEntity
  8
DATA
  6
Continuous
 62
     7
100
AcDbPolyline
 90
        4
 70
     0
 43
0.0
 10
-96.00000000000004
 20
15.54349995456121
 10
-96.00000000000004
 20
11.54349995456091
 10
-79.99999999999997
 20
11.54349995456091
 10
-79.99999999999997
 20
15.54349995456121
  0
LINE
  5
238
330
454
100
AcDbEntity
  8
DATA
  6
Continuous
 62
     7
100
AcDbLine
 10
-82.50000000000037
 20
17.54349995456121
 30
0.0
 11
-93.49999999999971
 21
17.54349995456121
 31
0.0
  0
ARC
  5
239
330
454
100
AcDbEntity
  8
DATA
  6
Continuous
 62
     7
100
AcDbCircle
 10
-97.26918367346932
 20
19.69247954639788
 30
0.0
 40
4.338762363909578
100
AcDbArc
 50
287.0090081320962
 51
330.3106083760829
  0
ARC
  5
23A
330
454
100
AcDbEntity
  8
DATA
  6
Continuous
 62
     7
100
AcDbCircle
 10
-78.73081632653058
 20
19.69247954639788
 30
0.0
 40
4.338762363909669
100
AcDbArc
 50
209.6893916239161
 51
252.9909918679027
  0
LWPOLYLINE
  5
23B
330
454
100
AcDbEntity
  8
DATA
  6
Continuous
 62
     7
100
AcDbPolyline
 90
        6
 70
     1
 43
0.0
 10
-115.4916522944211
 20
4.066065498277836
 10
-112.9916522944211
 20
2.622689825303766
 10
-110.4916522944211
 20
4.066065498277823
 10
-110.4916522944211
 20
6.952816844225949
 10
-112.9916522944211
 20
8.396192517200018
 10
-115.4916522944211
 20
6.952816844225949
  0
CIRCLE
  5
244
330
454
100
AcDbEntity
  8
DATA
  6
Continuous
 62
     7
100
AcDbCircle
 10
-112.9916522944211
 20
5.509441171251879
 30
0.0
 40
1.25
  0
LWPOLYLINE
  5
245
330
454
100
AcDbEntity
  8
DATA
  6
Continuous
 62
     7
100
AcDbPolyline
 90
        4
 70
     0
 43
0.0
 10
-121.0
 20
15.54349995456121
 10
-121.0
 20
11.54349995456091
 10
-104.9999999999999
 20
11.54349995456091
 10
-104.9999999999999
 20
15.54349995456121
  0
LINE
  5
24C
330
454
100
AcDbEntity
  8
DATA
  6
Continuous
 62
     7
100
AcDbLine
 10
-107.5000000000003
 20
17.54349995456121
 30
0.0
 11
-118.4999999999997
 21
17.54349995456121
 31
0.0
  0
ARC
  5
24D
330
454
100
AcDbEntity
  8
DATA
  6
Continuous
 62
     7
100
AcDbCircle
 10
-122.2691836734693
 20
19.69247954639788
 30
0.0
 40
4.338762363909578
100
AcDbArc
 50
287.0090081320962
 51
330.3106083760829
  0
ARC
  5
24E
330
454
100
AcDbEntity
  8
DATA
  6
Continuous
 62
     7
100
AcDbCircle
 10
-103.7308163265306
 20
19.69247954639788
 30
0.0
 40
4.338762363909669
100
AcDbArc
 50
209.6893916239161
 51
252.9909918679027
  0
LWPOLYLINE
  5
24F
330
454
100
AcDbEntity
  8
DATA
  6
Continuous
 62
     7
100
AcDbPolyline
 90
        6
 70
     1
 43
0.0
 10
-140.4916522944211
 20
4.066065498277836
 10
-137.9916522944211
 20
2.622689825303766
 10
-135.4916522944211
 20
4.066065498277823
 10
-135.4916522944211
 20
6.952816844225949
 10
-137.9916522944211
 20
8.396192517200018
 10
-140.4916522944211
 20
6.952816844225949
  0
CIRCLE
  5
258
330
454
100
AcDbEntity
  8
DATA
  6
Continuous
 62
     7
100
AcDbCircle
 10
-137.9916522944211
 20
5.509441171251879
 30
0.0
 40
1.25
  0
LWPOLYLINE
  5
259
330
454
100
AcDbEntity
  8
DATA
  6
Continuous
 62
     7
100
AcDbPolyline
 90
        4
 70
     0
 43
0.0
 10
-146.0
 20
15.54349995456121
 10
-146.0
 20
11.54349995456091
 10
-130.0
 20
11.54349995456091
 10
-130.0
 20
15.54349995456121
  0
LINE
  5
260
330
454
100
AcDbEntity
  8
DATA
  6
Continuous
 62
     7
100
AcDbLine
 10
-132.5000000000003
 20
17.54349995456121
 30
0.0
 11
-143.4999999999997
 21
17.54349995456121
 31
0.0
  0
ARC
  5
261
330
454
100
AcDbEntity
  8
DATA
  6
Continuous
 62
     7
100
AcDbCircle
 10
-147.2691836734693
 20
19.69247954639788
 30
0.0
 40
4.338762363909578
100
AcDbArc
 50
287.0090081320962
 51
330.3106083760829
  0
ARC
  5
262
330
454
100
AcDbEntity
  8
DATA
  6
Continuous
 62
     7
100
AcDbCircle
 10
-128.7308163265306
 20
19.69247954639788
 30
0.0
 40
4.338762363909669
100
AcDbArc
 50
209.6893916239161
 51
252.9909918679027
  0
LINE
  5
263
330
454
100
AcDbEntity
  8
DATA
  6
Continuous
 62
     7
100
AcDbLine
 10
-211.1001803631432
 20
-6.749999999999996
 30
0.0
 11
-218.8998196368566
 21
-6.749999999999996
 31
0.0
  0
LINE
  5
264
330
454
100
AcDbEntity
  8
DATA
  6
Continuous
 62
     7
100
AcDbLine
 10
-220.4559600438419
 20
-10.74999999999999
 30
0.0
 11
-220.4559600438419
 21
-13.25
 31
0.0
  0
LINE
  5
265
330
454
100
AcDbEntity
  8
DATA
  6
Continuous
 62
     7
100
AcDbLine
 10
-209.544039956158
 20
-10.74999999999999
 30
0.0
 11
-209.544039956158
 21
-13.25
 31
0.0
  0
LINE
  5
266
330
454
100
AcDbEntity
  8
DATA
  6
Continuous
 62
     7
100
AcDbLine
 10
-217.7279800219209
 20
-10.75000000000001
 30
0.0
 11
-217.7279800219209
 21
-13.25000000000001
 31
0.0
  0
LINE
  5
267
330
454
100
AcDbEntity
  8
DATA
  6
Continuous
 62
     7
100
AcDbLine
 10
-212.2720199780789
 20
-10.75000000000001
 30
0.0
 11
-212.2720199780789
 21
-13.25000000000001
 31
0.0
  0
LINE
  5
268
330
454
100
AcDbEntity
  8
DATA
  6
Continuous
 62
     7
100
AcDbLine
 10
-220.4559600438419
 20
-10.74999999999999
 30
0.0
 11
-209.544039956158
 21
-10.74999999999999
 31
0.0
  0
LINE
  5
269
330
454
100
AcDbEntity
  8
DATA
  6
Continuous
 62
     7
100
AcDbLine
 10
-218.8998196368566
 20
-6.749999999999996
 30
0.0
 11
-218.8998196368566
 21
-10.75000000000001
 31
0.0
  0
LINE
  5
26A
330
454
100
AcDbEntity
  8
DATA
  6
Continuous
 62
     7
100
AcDbLine
 10
-211.1001803631432
 20
-6.749999999999996
 30
0.0
 11
-211.1001803631432
 21
-10.75000000000001
 31
0.0
  0
LINE
  5
26B
330
454
100
AcDbEntity
  8
DATA
  6
Continuous
 62
     7
100
AcDbLine
 10
-218.8998196368566
 20
-10.75000000000001
 30
0.0
 11
-211.1001803631432
 21
-10.28084240318649
 31
0.0
  0
LINE
  5
26C
330
454
100
AcDbEntity
  8
DATA
  6
Continuous
 62
     7
100
AcDbLine
 10
-218.8998196368566
 20
-9.250000000000008
 30
0.0
 11
-211.1001803631432
 21
-8.780842403186492
 31
0.0
  0
LINE
  5
26D
330
454
100
AcDbEntity
  8
DATA
  6
Continuous
 62
     7
100
AcDbLine
 10
-218.8998196368566
 20
-7.750000000000009
 30
0.0
 11
-211.1001803631432
 21
-7.280842403186492
 31
0.0
  0
LINE
  5
26E
330
454
100
AcDbEntity
  8
DATA
  6
Continuous
 62
     7
100
AcDbLine
 10
-204.85
 20
-13.04999999999999
 30
0.0
 11
-204.85
 21
-13.25
 31
0.0
  0
LINE
  5
26F
330
454
100
AcDbEntity
  8
DATA
  6
Continuous
 62
     7
100
AcDbLine
 10
-189.15
 20
-13.04999999999999
 30
0.0
 11
-189.15
 21
-13.25
 31
0.0
  0
LINE
  5
270
330
454
100
AcDbEntity
  8
DATA
  6
Continuous
 62
     7
100
AcDbLine
 10
-204.85
 20
-13.05
 30
0.0
 11
-189.15
 21
-13.05
 31
0.0
  0
LINE
  5
271
330
454
100
AcDbEntity
  8
DATA
  6
Continuous
 62
     7
100
AcDbLine
 10
-159.8894510228863
 20
-8.75
 30
0.0
 11
-159.8894510228863
 21
-13.25
 31
0.0
  0
LINE
  5
272
330
454
100
AcDbEntity
  8
DATA
  6
Continuous
 62
     7
100
AcDbLine
 10
-176.1494510228863
 20
-8.75
 30
0.0
 11
-176.1494510228863
 21
-13.25
 31
0.0
  0
LINE
  5
273
330
454
100
AcDbEntity
  8
DATA
  6
Continuous
 62
     7
100
AcDbLine
 10
-159.8894510228863
 20
-8.75
 30
0.0
 11
-176.1494510228863
 21
-8.75
 31
0.0
  0
LINE
  5
274
330
454
100
AcDbEntity
  8
DATA
  6
Continuous
 62
     7
100
AcDbLine
 10
-153.1334820706854
 20
-8.75
 30
0.0
 11
-153.1334820706854
 21
-13.25
 31
0.0
  0
LINE
  5
275
330
454
100
AcDbEntity
  8
DATA
  6
Continuous
 62
     7
100
AcDbLine
 10
-157.8100192511216
 20
-8.75
 30
0.0
 11
-157.8100192511216
 21
-13.25
 31
0.0
  0
LINE
  5
276
330
454
100
AcDbEntity
  8
DATA
  6
Continuous
 62
     7
100
AcDbLine
 10
-157.8100192511216
 20
-8.75
 30
0.0
 11
-153.1334820706854
 21
-8.75
 31
0.0
  0
LINE
  5
277
330
454
100
AcDbEntity
  8
DATA
  6
Continuous
 62
     7
100
AcDbLine
 10
-155.4717506609035
 20
-8.75
 30
0.0
 11
-155.4717506609035
 21
-13.25
 31
0.0
  0
LINE
  5
278
330
454
100
AcDbEntity
  8
DATA
  6
Continuous
 62
     7
100
AcDbLine
 10
-178.1334820706854
 20
-8.75
 30
0.0
 11
-178.1334820706854
 21
-13.25
 31
0.0
  0
LINE
  5
279
330
454
100
AcDbEntity
  8
DATA
  6
Continuous
 62
     7
100
AcDbLine
 10
-182.8100192511216
 20
-8.75
 30
0.0
 11
-182.8100192511216
 21
-13.25
 31
0.0
  0
LINE
  5
27A
330
454
100
AcDbEntity
  8
DATA
  6
Continuous
 62
     7
100
AcDbLine
 10
-182.8100192511216
 20
-8.75
 30
0.0
 11
-178.1334820706854
 21
-8.75
 31
0.0
  0
LINE
  5
27B
330
454
100
AcDbEntity
  8
DATA
  6
Continuous
 62
     7
100
AcDbLine
 10
-180.4717506609035
 20
-8.75
 30
0.0
 11
-180.4717506609035
 21
-13.25
 31
0.0
  0
LINE
  5
27C
330
454
100
AcDbEntity
  8
DATA
  6
Continuous
 62
     7
100
AcDbLine
 10
-135.4916522944211
 20
-7.249999999999993
 30
0.0
 11
-140.4916522944211
 21
-7.249999999999993
 31
0.0
  0
LINE
  5
27D
330
454
100
AcDbEntity
  8
DATA
  6
Continuous
 62
     7
100
AcDbLine
 10
-140.4916522944211
 20
-7.249999999999993
 30
0.0
 11
-140.4916522944211
 21
-13.25
 31
0.0
  0
LINE
  5
27E
330
454
100
AcDbEntity
  8
DATA
  6
Continuous
 62
     7
100
AcDbLine
 10
-135.4916522944211
 20
-7.249999999999993
 30
0.0
 11
-135.4916522944211
 21
-13.25
 31
0.0
  0
LINE
  5
27F
330
454
100
AcDbEntity
  8
DATA
  6
Continuous
 62
     7
100
AcDbLine
 10
-137.9916522944211
 20
-7.249999999999993
 30
0.0
 11
-137.9916522944211
 21
-13.25
 31
0.0
  0
LINE
  5
280
330
454
100
AcDbEntity
  8
DATA
  6
Continuous
 62
     7
100
AcDbLine
 10
-110.4916522944211
 20
-7.249999999999993
 30
0.0
 11
-115.4916522944211
 21
-7.249999999999993
 31
0.0
  0
LINE
  5
281
330
454
100
AcDbEntity
  8
DATA
  6
Continuous
 62
     7
100
AcDbLine
 10
-115.4916522944211
 20
-7.249999999999993
 30
0.0
 11
-115.4916522944211
 21
-13.25
 31
0.0
  0
LINE
  5
282
330
454
100
AcDbEntity
  8
DATA
  6
Continuous
 62
     7
100
AcDbLine
 10
-110.4916522944211
 20
-7.249999999999993
 30
0.0
 11
-110.4916522944211
 21
-13.25
 31
0.0
  0
LINE
  5
283
330
454
100
AcDbEntity
  8
DATA
  6
Continuous
 62
     7
100
AcDbLine
 10
-112.9916522944211
 20
-7.249999999999993
 30
0.0
 11
-112.9916522944211
 21
-13.25
 31
0.0
  0
LINE
  5
284
330
454
100
AcDbEntity
  8
DATA
  6
Continuous
 62
     7
100
AcDbLine
 10
-85.49165229442108
 20
-7.249999999999993
 30
0.0
 11
-90.49165229442111
 21
-7.249999999999993
 31
0.0
  0
LINE
  5
285
330
454
100
AcDbEntity
  8
DATA
  6
Continuous
 62
     7
100
AcDbLine
 10
-90.49165229442111
 20
-7.249999999999993
 30
0.0
 11
-90.49165229442111
 21
-13.25
 31
0.0
  0
LINE
  5
286
330
454
100
AcDbEntity
  8
DATA
  6
Continuous
 62
     7
100
AcDbLine
 10
-85.49165229442108
 20
-7.249999999999993
 30
0.0
 11
-85.49165229442108
 21
-13.25
 31
0.0
  0
LINE
  5
287
330
454
100
AcDbEntity
  8
DATA
  6
Continuous
 62
     7
100
AcDbLine
 10
-87.9916522944211
 20
-7.249999999999993
 30
0.0
 11
-87.9916522944211
 21
-13.25
 31
0.0
  0
LINE
  5
288
330
454
100
AcDbEntity
  8
DATA
  6
Continuous
 62
     7
100
AcDbLine
 10
-60.49165229442112
 20
-7.249999999999993
 30
0.0
 11
-65.49165229442111
 21
-7.249999999999993
 31
0.0
  0
LINE
  5
289
330
454
100
AcDbEntity
  8
DATA
  6
Continuous
 62
     7
100
AcDbLine
 10
-65.49165229442111
 20
-7.249999999999993
 30
0.0
 11
-65.49165229442111
 21
-13.25
 31
0.0
  0
LINE
  5
28A
330
454
100
AcDbEntity
  8
DATA
  6
Continuous
 62
     7
100
AcDbLine
 10
-60.49165229442112
 20
-7.249999999999993
 30
0.0
 11
-60.49165229442112
 21
-13.25
 31
0.0
  0
LINE
  5
28B
330
454
100
AcDbEntity
  8
DATA
  6
Continuous
 62
     7
100
AcDbLine
 10
-62.99165229442112
 20
-7.249999999999993
 30
0.0
 11
-62.99165229442112
 21
-13.25
 31
0.0
  0
LINE
  5
28C
330
454
100
AcDbEntity
  8
DATA
  6
Continuous
 62
     7
100
AcDbLine
 10
-35.49165229442112
 20
-7.249999999999993
 30
0.0
 11
-40.49165229442111
 21
-7.249999999999993
 31
0.0
  0
LINE
  5
28D
330
454
100
AcDbEntity
  8
DATA
  6
Continuous
 62
     7
100
AcDbLine
 10
-40.49165229442111
 20
-7.249999999999993
 30
0.0
 11
-40.49165229442111
 21
-13.25
 31
0.0
  0
LINE
  5
28E
330
454
100
AcDbEntity
  8
DATA
  6
Continuous
 62
     7
100
AcDbLine
 10
-35.49165229442112
 20
-7.249999999999993
 30
0.0
 11
-35.49165229442112
 21
-13.25
 31
0.0
  0
LINE
  5
28F
330
454
100
AcDbEntity
  8
DATA
  6
Continuous
 62
     7
100
AcDbLine
 10
-37.99165229442112
 20
-7.249999999999993
 30
0.0
 11
-37.99165229442112
 21
-13.25
 31
0.0
  0
LINE
  5
290
330
454
100
AcDbEntity
  8
DATA
  6
Continuous
 62
     7
100
AcDbLine
 10
-23.5
 20
-11.75
 30
0.0
 11
-23.5
 21
-13.24999999999999
 31
0.0
  0
LINE
  5
291
330
454
100
AcDbEntity
  8
DATA
  6
Continuous
 62
     7
100
AcDbLine
 10
-17.5
 20
-11.75
 30
0.0
 11
-17.5
 21
-13.25
 31
0.0
  0
LINE
  5
292
330
454
100
AcDbEntity
  8
DATA
  6
Continuous
 62
     7
100
AcDbLine
 10
-23.5
 20
-11.75
 30
0.0
 11
-17.5
 21
-11.75
 31
0.0
  0
LINE
  5
293
330
454
100
AcDbEntity
  8
DATA
  6
Continuous
 62
     7
100
AcDbLine
 10
13.7
 20
-123.9999999999999
 30
0.0
 11
105.5
 21
-123.9999999999999
 31
0.0
  0
LINE
  5
294
330
454
100
AcDbEntity
  8
DATA
  6
Continuous
 62
     7
100
AcDbLine
 10
13.7
 20
-150.0
 30
0.0
 11
104.3
 21
-150.0
 31
0.0
  0
LINE
  5
295
330
454
100
AcDbEntity
  8
DATA
  6
Continuous
 62
     7
100
AcDbLine
 10
12.5
 20
-125.1999999999999
 30
0.0
 11
12.5
 21
-148.8
 31
0.0
  0
LINE
  5
296
330
454
100
AcDbEntity
  8
DATA
  6
Continuous
 62
     7
100
AcDbLine
 10
105.5
 20
-123.9999999999999
 30
0.0
 11
105.5
 21
-148.8
 31
0.0
  0
ARC
  5
297
330
454
100
AcDbEntity
  8
DATA
  6
Continuous
 62
     7
100
AcDbCircle
 10
12.59863090900279
 20
-137.0
 30
0.0
 40
1.500000000000002
100
AcDbArc
 50
93.77014329877622
 51
266.2298567012238
  0
LINE
  5
298
330
454
100
AcDbEntity
  8
DATA
  6
Continuous
 62
     7
100
AcDbLine
 10
10.5
 20
-135.0
 30
0.0
 11
12.5
 21
-135.0
 31
0.0
  0
LINE
  5
299
330
454
100
AcDbEntity
  8
DATA
  6
Continuous
 62
     7
100
AcDbLine
 10
10.49999999999997
 20
-143.0
 30
0.0
 11
12.5
 21
-143.0
 31
0.0
  0
LINE
  5
29A
330
454
100
AcDbEntity
  8
DATA
  6
Continuous
 62
     7
100
AcDbLine
 10
10.5
 20
-143.0
 30
0.0
 11
10.5
 21
-135.0
 31
0.0
  0
LINE
  5
29B
330
454
100
AcDbEntity
  8
DATA
  6
Continuous
 62
     7
100
AcDbLine
 10
23.5
 20
-123.9999999999999
 30
0.0
 11
23.5
 21
-125.1999999999999
 31
0.0
  0
LINE
  5
29C
330
454
100
AcDbEntity
  8
DATA
  6
Continuous
 62
     7
100
AcDbLine
 10
17.5
 20
-148.8
 30
0.0
 11
17.5
 21
-150.0
 31
0.0
  0
LINE
  5
29D
330
454
100
AcDbEntity
  8
DATA
  6
Continuous
 62
     7
100
AcDbLine
 10
13.7
 20
-126.4
 30
0.0
 11
13.7
 21
-147.6
 31
0.0
  0
LINE
  5
29E
330
454
100
AcDbEntity
  8
DATA
  6
Continuous
 62
     7
100
AcDbLine
 10
14.9
 20
-125.1999999999999
 30
0.0
 11
23.5
 21
-125.1999999999999
 31
0.0
  0
LINE
  5
29F
330
454
100
AcDbEntity
  8
DATA
  6
Continuous
 62
     7
100
AcDbLine
 10
17.5
 20
-148.8
 30
0.0
 11
14.9
 21
-148.8
 31
0.0
  0
ARC
  5
2A0
330
454
100
AcDbEntity
  8
DATA
  6
Continuous
 62
     7
100
AcDbCircle
 10
13.7
 20
-125.1999999999999
 30
0.0
 40
1.199999999999988
100
AcDbArc
 50
90.0
 51
180.0000000000007
  0
ARC
  5
2A1
330
454
100
AcDbEntity
  8
DATA
  6
Continuous
 62
     7
100
AcDbCircle
 10
13.7
 20
-148.8
 30
0.0
 40
1.200000000000002
100
AcDbArc
 50
180.0
 51
270.0
  0
ARC
  5
2A2
330
454
100
AcDbEntity
  8
DATA
  6
Continuous
 62
     7
100
AcDbCircle
 10
14.9
 20
-147.6
 30
0.0
 40
1.200000000000002
100
AcDbArc
 50
180.0
 51
270.0
  0
ARC
  5
2A3
330
454
100
AcDbEntity
  8
DATA
  6
Continuous
 62
     7
100
AcDbCircle
 10
14.9
 20
-126.4
 30
0.0
 40
1.200000000000017
100
AcDbArc
 50
90.0
 51
179.9999999999993
  0
LINE
  5
2A4
330
454
100
AcDbEntity
  8
DATA
  6
Continuous
 62
     7
100
AcDbLine
 10
94.50000000000001
 20
-148.8
 30
0.0
 11
94.50000000000001
 21
-150.0
 31
0.0
  0
LINE
  5
2A5
330
454
100
AcDbEntity
  8
DATA
  6
Continuous
 62
     7
100
AcDbLine
 10
104.3
 20
-125.1999999999999
 30
0.0
 11
104.3
 21
-147.6
 31
0.0
  0
LINE
  5
2A6
330
454
100
AcDbEntity
  8
DATA
  6
Continuous
 62
     7
100
AcDbLine
 10
94.50000000000001
 20
-148.8
 30
0.0
 11
103.1
 21
-148.8
 31
0.0
  0
ARC
  5
2A7
330
454
100
AcDbEntity
  8
DATA
  6
Continuous
 62
     7
100
AcDbCircle
 10
103.1
 20
-147.5999999999999
 30
0.0
 40
1.200000000000045
100
AcDbArc
 50
270.0
 51
359.9999999999986
  0
ARC
  5
2A8
330
454
100
AcDbEntity
  8
DATA
  6
Continuous
 62
     7
100
AcDbCircle
 10
104.3
 20
-148.8
 30
0.0
 40
1.199999999999988
100
AcDbArc
 50
270.0
 51
0.0
  0
CIRCLE
  5
2A9
330
454
100
AcDbEntity
  8
DATA
  6
Continuous
 62
     7
100
AcDbCircle
 10
26.5
 20
-144.0
 30
0.0
 40
2.349999999999994
  0
LINE
  5
2AA
330
454
100
AcDbEntity
  8
DATA
  6
Continuous
 62
     7
100
AcDbLine
 10
26.5
 20
-145.3124404747931
 30
0.0
 11
26.5
 21
-142.6875595252068
 31
0.0
  0
LINE
  5
2AB
330
454
100
AcDbEntity
  8
DATA
  6
Continuous
 62
     7
100
AcDbLine
 10
25.18755952520688
 20
-144.0
 30
0.0
 11
27.81244047479312
 21
-144.0
 31
0.0
  0
CIRCLE
  5
2AC
330
454
100
AcDbEntity
  8
DATA
  6
Continuous
 62
     7
100
AcDbCircle
 10
26.5
 20
-130.5
 30
0.0
 40
2.349999999999994
  0
LINE
  5
2AD
330
454
100
AcDbEntity
  8
DATA
  6
Continuous
 62
     7
100
AcDbLine
 10
26.5
 20
-131.8124404747931
 30
0.0
 11
26.5
 21
-129.1875595252068
 31
0.0
  0
LINE
  5
2AE
330
454
100
AcDbEntity
  8
DATA
  6
Continuous
 62
     7
100
AcDbLine
 10
25.18755952520688
 20
-130.5
 30
0.0
 11
27.81244047479312
 21
-130.5
 31
0.0
  0
CIRCLE
  5
2AF
330
454
100
AcDbEntity
  8
DATA
  6
Continuous
 62
     7
100
AcDbCircle
 10
85.5
 20
-144.0
 30
0.0
 40
2.349999999999994
  0
LINE
  5
2B0
330
454
100
AcDbEntity
  8
DATA
  6
Continuous
 62
     7
100
AcDbLine
 10
85.5
 20
-145.3124404747931
 30
0.0
 11
85.5
 21
-142.6875595252068
 31
0.0
  0
LINE
  5
2B1
330
454
100
AcDbEntity
  8
DATA
  6
Continuous
 62
     7
100
AcDbLine
 10
84.18755952520687
 20
-144.0
 30
0.0
 11
86.81244047479314
 21
-144.0
 31
0.0
  0
CIRCLE
  5
2B2
330
454
100
AcDbEntity
  8
DATA
  6
Continuous
 62
     7
100
AcDbCircle
 10
50.5
 20
-137.0
 30
0.0
 40
1.5
  0
CIRCLE
  5
2B3
330
454
100
AcDbEntity
  8
DATA
  6
Continuous
 62
     7
100
AcDbCircle
 10
67.5
 20
-137.0
 30
0.0
 40
1.5
  0
LINE
  5
2B4
330
454
100
AcDbEntity
  8
DATA
  6
Continuous
 62
     7
100
AcDbLine
 10
107.0
 20
-134.0
 30
0.0
 11
107.0
 21
-140.0
 31
0.0
  0
LINE
  5
2B5
330
454
100
AcDbEntity
  8
DATA
  6
Continuous
 62
     7
100
AcDbLine
 10
107.0
 20
-140.0
 30
0.0
 11
105.5
 21
-140.0
 31
0.0
  0
LINE
  5
2B6
330
454
100
AcDbEntity
  8
DATA
  6
Continuous
 62
     7
100
AcDbLine
 10
107.0
 20
-134.0
 30
0.0
 11
105.5
 21
-134.0
 31
0.0
  0
LINE
  5
2B7
330
454
100
AcDbEntity
  8
DATA
  6
Continuous
 62
     7
100
AcDbLine
 10
111.5
 20
-132.0
 30
0.0
 11
111.5
 21
-126.9999999999999
 31
0.0
  0
LINE
  5
2B8
330
454
100
AcDbEntity
  8
DATA
  6
Continuous
 62
     7
100
AcDbLine
 10
111.5
 20
-126.9999999999999
 30
0.0
 11
105.5
 21
-126.9999999999999
 31
0.0
  0
LINE
  5
2B9
330
454
100
AcDbEntity
  8
DATA
  6
Continuous
 62
     7
100
AcDbLine
 10
111.5
 20
-132.0
 30
0.0
 11
105.5
 21
-132.0
 31
0.0
  0
LINE
  5
2BA
330
454
100
AcDbEntity
  8
DATA
  6
Continuous
 62
     7
100
AcDbLine
 10
111.5
 20
-129.4999999999999
 30
0.0
 11
105.5
 21
-129.4999999999999
 31
0.0
  0
LINE
  5
2BB
330
454
100
AcDbEntity
  8
DATA
  6
Continuous
 62
     7
100
AcDbLine
 10
112.0
 20
-138.8998196368567
 30
0.0
 11
112.0
 21
-131.1001803631432
 31
0.0
  0
LINE
  5
2BC
330
454
100
AcDbEntity
  8
DATA
  6
Continuous
 62
     7
100
AcDbLine
 10
108.0
 20
-140.4559600438419
 30
0.0
 11
105.5
 21
-140.4559600438419
 31
0.0
  0
LINE
  5
2BD
330
454
100
AcDbEntity
  8
DATA
  6
Continuous
 62
     7
100
AcDbLine
 10
108.0
 20
-132.2720199780789
 30
0.0
 11
105.5
 21
-132.2720199780789
 31
0.0
  0
LINE
  5
2BE
330
454
100
AcDbEntity
  8
DATA
  6
Continuous
 62
     7
100
AcDbLine
 10
108.0
 20
-132.0
 30
0.0
 11
108.0
 21
-133.1
 31
0.0
  0
LINE
  5
2BF
330
454
100
AcDbEntity
  8
DATA
  6
Continuous
 62
     7
100
AcDbLine
 10
108.0
 20
-139.3382685902181
 30
0.0
 11
108.0
 21
-140.4559600438419
 31
0.0
  0
LINE
  5
2C0
330
454
100
AcDbEntity
  8
DATA
  6
Continuous
 62
     7
100
AcDbLine
 10
112.0
 20
-131.1001803631432
 30
0.0
 11
111.5
 21
-131.1001803631432
 31
0.0
  0
LINE
  5
2C1
330
454
100
AcDbEntity
  8
DATA
  6
Continuous
 62
     7
100
AcDbLine
 10
112.0
 20
-138.8998196368567
 30
0.0
 11
109.9691575968135
 21
-138.8998196368567
 31
0.0
  0
LINE
  5
2C2
330
454
100
AcDbEntity
  8
DATA
  6
Continuous
 62
     7
100
AcDbLine
 10
108.0541252234338
 20
-132.0
 30
0.0
 11
108.1202915342572
 21
-133.1
 31
0.0
  0
LINE
  5
2C3
330
454
100
AcDbEntity
  8
DATA
  6
Continuous
 62
     7
100
AcDbLine
 10
109.5541252234338
 20
-132.0
 30
0.0
 11
109.6202915342572
 21
-133.1
 31
0.0
  0
LINE
  5
2C4
330
454
100
AcDbEntity
  8
DATA
  6
Continuous
 62
     7
100
AcDbLine
 10
111.0541252234338
 20
-132.0
 30
0.0
 11
111.4691575968135
 21
-138.8998196368567
 31
0.0
  0
LINE
  5
2C5
330
454
100
AcDbEntity
  8
DATA
  6
Continuous
 62
     7
100
AcDbLine
 10
110.0
 20
-140.9
 30
0.0
 11
105.5
 21
-140.9
 31
0.0
  0
LINE
  5
2C6
330
454
100
AcDbEntity
  8
DATA
  6
Continuous
 62
     7
100
AcDbLine
 10
110.0
 20
-133.1
 30
0.0
 11
110.0
 21
-140.9
 31
0.0
  0
LINE
  5
2C7
330
454
100
AcDbEntity
  8
DATA
  6
Continuous
 62
     7
100
AcDbLine
 10
105.5
 20
-133.1
 30
0.0
 11
110.0
 21
-133.1
 31
0.0
  0
LINE
  5
2C8
330
454
100
AcDbEntity
  8
DATA
  6
Continuous
 62
     7
100
AcDbLine
 10
110.0
 20
-139.3382685902181
 30
0.0
 11
107.0
 21
-139.3382685902181
 31
0.0
  0
LINE
  5
2C9
330
454
100
AcDbEntity
  8
DATA
  6
Continuous
 62
     7
100
AcDbLine
 10
110.0
 20
-134.6617314097819
 30
0.0
 11
107.0
 21
-134.6617314097819
 31
0.0
  0
LINE
  5
2CA
330
454
100
AcDbEntity
  8
DATA
  6
Continuous
 62
     7
100
AcDbLine
 10
110.0
 20
-137.0
 30
0.0
 11
105.5
 21
-137.0
 31
0.0
  0
LINE
  5
2CB
330
454
100
AcDbEntity
  8
DATA
  6
Continuous
 62
     7
100
AcDbLine
 10
-11.0
 20
-187.5
 30
0.0
 11
-225.0
 21
-187.5
 31
0.0
  0
LINE
  5
2CC
330
454
100
AcDbEntity
  8
DATA
  6
Continuous
 62
     7
100
AcDbLine
 10
-225.0
 20
-187.5
 30
0.0
 11
-225.0
 21
-280.5000000000001
 31
0.0
  0
LINE
  5
2CD
330
454
100
AcDbEntity
  8
DATA
  6
Continuous
 62
     7
100
AcDbLine
 10
-11.0
 20
-187.5
 30
0.0
 11
-11.0
 21
-280.5000000000001
 31
0.0
  0
LINE
  5
2CE
330
454
100
AcDbEntity
  8
DATA
  6
Continuous
 62
     7
100
AcDbLine
 10
-11.0
 20
-280.5000000000001
 30
0.0
 11
-225.0
 21
-280.5000000000001
 31
0.0
  0
LINE
  5
2CF
330
454
100
AcDbEntity
  8
DATA
  6
Continuous
 62
     7
100
AcDbLine
 10
-170.0
 20
-185.5
 30
0.0
 11
-170.0
 21
-187.5
 31
0.0
  0
LINE
  5
2D0
330
454
100
AcDbEntity
  8
DATA
  6
Continuous
 62
     7
100
AcDbLine
 10
-161.8567034424718
 20
-185.5
 30
0.0
 11
-161.8567034424718
 21
-187.5
 31
0.0
  0
LINE
  5
2D1
330
454
100
AcDbEntity
  8
DATA
  6
Continuous
 62
     7
100
AcDbLine
 10
-170.0
 20
-185.5
 30
0.0
 11
-161.8567034424718
 21
-185.5
 31
0.0
  0
ARC
  5
2D2
330
454
100
AcDbEntity
  8
DATA
  6
Continuous
 62
     7
100
AcDbCircle
 10
-115.5
 20
-187.6105612710586
 30
0.0
 40
1.249999999999999
100
AcDbArc
 50
5.074386439852299
 51
174.9256135601477
  0
ARC
  5
2D3
330
454
100
AcDbEntity
  8
DATA
  6
Continuous
 62
     7
100
AcDbCircle
 10
-125.5
 20
-187.6105612710586
 30
0.0
 40
1.249999999999999
100
AcDbArc
 50
5.074386439852299
 51
174.9256135601477
  0
ARC
  5
2D4
330
454
100
AcDbEntity
  8
DATA
  6
Continuous
 62
     7
100
AcDbCircle
 10
-135.5
 20
-187.6105612710586
 30
0.0
 40
1.249999999999999
100
AcDbArc
 50
5.074386439852299
 51
174.9256135601477
  0
ARC
  5
2D5
330
454
100
AcDbEntity
  8
DATA
  6
Continuous
 62
     7
100
AcDbCircle
 10
-145.5
 20
-187.6105612710586
 30
0.0
 40
1.249999999999999
100
AcDbArc
 50
5.074386439852299
 51
174.9256135601477
  0
ARC
  5
2D6
330
454
100
AcDbEntity
  8
DATA
  6
Continuous
 62
     7
100
AcDbCircle
 10
-155.5
 20
-187.6105612710586
 30
0.0
 40
1.249999999999999
100
AcDbArc
 50
5.074386439852299
 51
174.9256135601477
  0
ARC
  5
2D7
330
454
100
AcDbEntity
  8
DATA
  6
Continuous
 62
     7
100
AcDbCircle
 10
-25.5
 20
-187.6760596767186
 30
0.0
 40
1.500000000000001
100
AcDbArc
 50
6.740521863649381
 51
173.2594781363506
  0
LINE
  5
2D8
330
454
100
AcDbEntity
  8
DATA
  6
Continuous
 62
     7
100
AcDbLine
 10
-211.1001803631432
 20
-287.0
 30
0.0
 11
-218.8998196368566
 21
-287.0
 31
0.0
  0
LINE
  5
2D9
330
454
100
AcDbEntity
  8
DATA
  6
Continuous
 62
     7
100
AcDbLine
 10
-220.4559600438419
 20
-283.0
 30
0.0
 11
-220.4559600438419
 21
-280.5000000000001
 31
0.0
  0
LINE
  5
2DA
330
454
100
AcDbEntity
  8
DATA
  6
Continuous
 62
     7
100
AcDbLine
 10
-209.544039956158
 20
-283.0
 30
0.0
 11
-209.544039956158
 21
-280.5000000000001
 31
0.0
  0
LINE
  5
2DB
330
454
100
AcDbEntity
  8
DATA
  6
Continuous
 62
     7
100
AcDbLine
 10
-217.7279800219209
 20
-283.0
 30
0.0
 11
-217.7279800219209
 21
-280.5000000000001
 31
0.0
  0
LINE
  5
2DC
330
454
100
AcDbEntity
  8
DATA
  6
Continuous
 62
     7
100
AcDbLine
 10
-212.2720199780789
 20
-283.0
 30
0.0
 11
-212.2720199780789
 21
-280.5000000000001
 31
0.0
  0
LINE
  5
2DD
330
454
100
AcDbEntity
  8
DATA
  6
Continuous
 62
     7
100
AcDbLine
 10
-220.4559600438419
 20
-283.0
 30
0.0
 11
-209.544039956158
 21
-283.0
 31
0.0
  0
LINE
  5
2DE
330
454
100
AcDbEntity
  8
DATA
  6
Continuous
 62
     7
100
AcDbLine
 10
-218.8998196368566
 20
-287.0
 30
0.0
 11
-218.8998196368566
 21
-283.0
 31
0.0
  0
LINE
  5
2DF
330
454
100
AcDbEntity
  8
DATA
  6
Continuous
 62
     7
100
AcDbLine
 10
-211.1001803631432
 20
-287.0
 30
0.0
 11
-211.1001803631432
 21
-283.0
 31
0.0
  0
LINE
  5
2E0
330
454
100
AcDbEntity
  8
DATA
  6
Continuous
 62
     7
100
AcDbLine
 10
-218.8998196368566
 20
-283.0
 30
0.0
 11
-211.1001803631432
 21
-283.4691575968136
 31
0.0
  0
LINE
  5
2E1
330
454
100
AcDbEntity
  8
DATA
  6
Continuous
 62
     7
100
AcDbLine
 10
-218.8998196368566
 20
-284.5
 30
0.0
 11
-211.1001803631432
 21
-284.9691575968135
 31
0.0
  0
LINE
  5
2E2
330
454
100
AcDbEntity
  8
DATA
  6
Continuous
 62
     7
100
AcDbLine
 10
-218.8998196368566
 20
-286.0000000000001
 30
0.0
 11
-211.1001803631432
 21
-286.4691575968135
 31
0.0
  0
LINE
  5
2E3
330
454
100
AcDbEntity
  8
DATA
  6
Continuous
 62
     7
100
AcDbLine
 10
-204.85
 20
-280.7
 30
0.0
 11
-204.85
 21
-280.5000000000001
 31
0.0
  0
LINE
  5
2E4
330
454
100
AcDbEntity
  8
DATA
  6
Continuous
 62
     7
100
AcDbLine
 10
-189.15
 20
-280.7
 30
0.0
 11
-189.15
 21
-280.5000000000001
 31
0.0
  0
LINE
  5
2E5
330
454
100
AcDbEntity
  8
DATA
  6
Continuous
 62
     7
100
AcDbLine
 10
-204.85
 20
-280.7
 30
0.0
 11
-189.15
 21
-280.7
 31
0.0
  0
LINE
  5
2E6
330
454
100
AcDbEntity
  8
DATA
  6
Continuous
 62
     7
100
AcDbLine
 10
-159.8894510228863
 20
-285.0000000000001
 30
0.0
 11
-159.8894510228863
 21
-280.5000000000001
 31
0.0
  0
LINE
  5
2E7
330
454
100
AcDbEntity
  8
DATA
  6
Continuous
 62
     7
100
AcDbLine
 10
-176.1494510228863
 20
-285.0000000000001
 30
0.0
 11
-176.1494510228863
 21
-280.5000000000001
 31
0.0
  0
LINE
  5
2E8
330
454
100
AcDbEntity
  8
DATA
  6
Continuous
 62
     7
100
AcDbLine
 10
-159.8894510228863
 20
-285.0000000000001
 30
0.0
 11
-176.1494510228863
 21
-285.0000000000001
 31
0.0
  0
LINE
  5
2E9
330
454
100
AcDbEntity
  8
DATA
  6
Continuous
 62
     7
100
AcDbLine
 10
-153.1334820706854
 20
-285.0000000000001
 30
0.0
 11
-153.1334820706854
 21
-280.5000000000001
 31
0.0
  0
LINE
  5
2EA
330
454
100
AcDbEntity
  8
DATA
  6
Continuous
 62
     7
100
AcDbLine
 10
-157.8100192511216
 20
-285.0000000000001
 30
0.0
 11
-157.8100192511216
 21
-280.5000000000001
 31
0.0
  0
LINE
  5
2EB
330
454
100
AcDbEntity
  8
DATA
  6
Continuous
 62
     7
100
AcDbLine
 10
-157.8100192511216
 20
-285.0000000000001
 30
0.0
 11
-153.1334820706854
 21
-285.0000000000001
 31
0.0
  0
LINE
  5
2EC
330
454
100
AcDbEntity
  8
DATA
  6
Continuous
 62
     7
100
AcDbLine
 10
-155.4717506609035
 20
-285.0000000000001
 30
0.0
 11
-155.4717506609035
 21
-280.5000000000001
 31
0.0
  0
LINE
  5
2ED
330
454
100
AcDbEntity
  8
DATA
  6
Continuous
 62
     7
100
AcDbLine
 10
-178.1334820706854
 20
-285.0000000000001
 30
0.0
 11
-178.1334820706854
 21
-280.5000000000001
 31
0.0
  0
LINE
  5
2EE
330
454
100
AcDbEntity
  8
DATA
  6
Continuous
 62
     7
100
AcDbLine
 10
-182.8100192511216
 20
-285.0000000000001
 30
0.0
 11
-182.8100192511216
 21
-280.5000000000001
 31
0.0
  0
LINE
  5
2EF
330
454
100
AcDbEntity
  8
DATA
  6
Continuous
 62
     7
100
AcDbLine
 10
-182.8100192511216
 20
-285.0000000000001
 30
0.0
 11
-178.1334820706854
 21
-285.0000000000001
 31
0.0
  0
LINE
  5
2F0
330
454
100
AcDbEntity
  8
DATA
  6
Continuous
 62
     7
100
AcDbLine
 10
-180.4717506609035
 20
-285.0000000000001
 30
0.0
 11
-180.4717506609035
 21
-280.5000000000001
 31
0.0
  0
LINE
  5
2F1
330
454
100
AcDbEntity
  8
DATA
  6
Continuous
 62
     7
100
AcDbLine
 10
-135.4916522944211
 20
-286.5000000000001
 30
0.0
 11
-140.4916522944211
 21
-286.5000000000001
 31
0.0
  0
LINE
  5
2F2
330
454
100
AcDbEntity
  8
DATA
  6
Continuous
 62
     7
100
AcDbLine
 10
-140.4916522944211
 20
-286.5000000000001
 30
0.0
 11
-140.4916522944211
 21
-280.5000000000001
 31
0.0
  0
LINE
  5
2F3
330
454
100
AcDbEntity
  8
DATA
  6
Continuous
 62
     7
100
AcDbLine
 10
-135.4916522944211
 20
-286.5000000000001
 30
0.0
 11
-135.4916522944211
 21
-280.5000000000001
 31
0.0
  0
LINE
  5
2F4
330
454
100
AcDbEntity
  8
DATA
  6
Continuous
 62
     7
100
AcDbLine
 10
-137.9916522944211
 20
-286.5000000000001
 30
0.0
 11
-137.9916522944211
 21
-280.5000000000001
 31
0.0
  0
LINE
  5
2F5
330
454
100
AcDbEntity
  8
DATA
  6
Continuous
 62
     7
100
AcDbLine
 10
-110.4916522944211
 20
-286.5000000000001
 30
0.0
 11
-115.4916522944211
 21
-286.5000000000001
 31
0.0
  0
LINE
  5
2F6
330
454
100
AcDbEntity
  8
DATA
  6
Continuous
 62
     7
100
AcDbLine
 10
-115.4916522944211
 20
-286.5000000000001
 30
0.0
 11
-115.4916522944211
 21
-280.5000000000001
 31
0.0
  0
LINE
  5
2F7
330
454
100
AcDbEntity
  8
DATA
  6
Continuous
 62
     7
100
AcDbLine
 10
-110.4916522944211
 20
-286.5000000000001
 30
0.0
 11
-110.4916522944211
 21
-280.5000000000001
 31
0.0
  0
LINE
  5
2F8
330
454
100
AcDbEntity
  8
DATA
  6
Continuous
 62
     7
100
AcDbLine
 10
-112.9916522944211
 20
-286.5000000000001
 30
0.0
 11
-112.9916522944211
 21
-280.5000000000001
 31
0.0
  0
LINE
  5
2F9
330
454
100
AcDbEntity
  8
DATA
  6
Continuous
 62
     7
100
AcDbLine
 10
-85.49165229442108
 20
-286.5000000000001
 30
0.0
 11
-90.49165229442111
 21
-286.5000000000001
 31
0.0
  0
LINE
  5
2FA
330
454
100
AcDbEntity
  8
DATA
  6
Continuous
 62
     7
100
AcDbLine
 10
-90.49165229442111
 20
-286.5000000000001
 30
0.0
 11
-90.49165229442111
 21
-280.5000000000001
 31
0.0
  0
LINE
  5
2FB
330
454
100
AcDbEntity
  8
DATA
  6
Continuous
 62
     7
100
AcDbLine
 10
-85.49165229442108
 20
-286.5000000000001
 30
0.0
 11
-85.49165229442108
 21
-280.5000000000001
 31
0.0
  0
LINE
  5
2FC
330
454
100
AcDbEntity
  8
DATA
  6
Continuous
 62
     7
100
AcDbLine
 10
-87.9916522944211
 20
-286.5000000000001
 30
0.0
 11
-87.9916522944211
 21
-280.5000000000001
 31
0.0
  0
LINE
  5
2FD
330
454
100
AcDbEntity
  8
DATA
  6
Continuous
 62
     7
100
AcDbLine
 10
-60.49165229442112
 20
-286.5000000000001
 30
0.0
 11
-65.49165229442111
 21
-286.5000000000001
 31
0.0
  0
LINE
  5
2FE
330
454
100
AcDbEntity
  8
DATA
  6
Continuous
 62
     7
100
AcDbLine
 10
-65.49165229442111
 20
-286.5000000000001
 30
0.0
 11
-65.49165229442111
 21
-280.5000000000001
 31
0.0
  0
LINE
  5
2FF
330
454
100
AcDbEntity
  8
DATA
  6
Continuous
 62
     7
100
AcDbLine
 10
-60.49165229442112
 20
-286.5000000000001
 30
0.0
 11
-60.49165229442112
 21
-280.5000000000001
 31
0.0
  0
LINE
  5
300
330
454
100
AcDbEntity
  8
DATA
  6
Continuous
 62
     7
100
AcDbLine
 10
-62.99165229442112
 20
-286.5000000000001
 30
0.0
 11
-62.99165229442112
 21
-280.5000000000001
 31
0.0
  0
LINE
  5
301
330
454
100
AcDbEntity
  8
DATA
  6
Continuous
 62
     7
100
AcDbLine
 10
-35.49165229442112
 20
-286.5000000000001
 30
0.0
 11
-40.49165229442111
 21
-286.5000000000001
 31
0.0
  0
LINE
  5
302
330
454
100
AcDbEntity
  8
DATA
  6
Continuous
 62
     7
100
AcDbLine
 10
-40.49165229442111
 20
-286.5000000000001
 30
0.0
 11
-40.49165229442111
 21
-280.5000000000001
 31
0.0
  0
LINE
  5
303
330
454
100
AcDbEntity
  8
DATA
  6
Continuous
 62
     7
100
AcDbLine
 10
-35.49165229442112
 20
-286.5000000000001
 30
0.0
 11
-35.49165229442112
 21
-280.5000000000001
 31
0.0
  0
LINE
  5
304
330
454
100
AcDbEntity
  8
DATA
  6
Continuous
 62
     7
100
AcDbLine
 10
-37.99165229442112
 20
-286.5000000000001
 30
0.0
 11
-37.99165229442112
 21
-280.5000000000001
 31
0.0
  0
LINE
  5
305
330
454
100
AcDbEntity
  8
DATA
  6
Continuous
 62
     7
100
AcDbLine
 10
-23.5
 20
-282.0000000000001
 30
0.0
 11
-23.5
 21
-280.5000000000001
 31
0.0
  0
LINE
  5
306
330
454
100
AcDbEntity
  8
DATA
  6
Continuous
 62
     7
100
AcDbLine
 10
-17.5
 20
-282.0000000000001
 30
0.0
 11
-17.5
 21
-280.5000000000001
 31
0.0
  0
LINE
  5
307
330
454
100
AcDbEntity
  8
DATA
  6
Continuous
 62
     7
100
AcDbLine
 10
-23.5
 20
-282.0000000000001
 30
0.0
 11
-17.5
 21
-282.0000000000001
 31
0.0
  0
LINE
  5
308
330
454
100
AcDbEntity
  8
DATA
  6
Continuous
 62
     7
100
AcDbLine
 10
-225.0
 20
-269.5000000000001
 30
0.0
 11
-11.0
 21
-269.5000000000001
 31
0.0
  0
CIRCLE
  5
309
330
454
100
AcDbEntity
  8
DATA
  6
Continuous
 62
     7
100
AcDbCircle
 10
-118.0
 20
-275.0
 30
0.0
 40
2.349999999999994
  0
LINE
  5
30A
330
454
100
AcDbEntity
  8
DATA
  6
Continuous
 62
     7
100
AcDbLine
 10
-118.0
 20
-276.3124404747932
 30
0.0
 11
-118.0
 21
-273.6875595252069
 31
0.0
  0
LINE
  5
30B
330
454
100
AcDbEntity
  8
DATA
  6
Continuous
 62
     7
100
AcDbLine
 10
-119.3124404747931
 20
-275.0
 30
0.0
 11
-116.6875595252068
 21
-275.0
 31
0.0
  0
CIRCLE
  5
30C
330
454
100
AcDbEntity
  8
DATA
  6
Continuous
 62
     7
100
AcDbCircle
 10
-23.0
 20
-275.0
 30
0.0
 40
2.349999999999994
  0
LINE
  5
30D
330
454
100
AcDbEntity
  8
DATA
  6
Continuous
 62
     7
100
AcDbLine
 10
-23.0
 20
-276.3124404747932
 30
0.0
 11
-23.0
 21
-273.6875595252069
 31
0.0
  0
LINE
  5
30E
330
454
100
AcDbEntity
  8
DATA
  6
Continuous
 62
     7
100
AcDbLine
 10
-24.31244047479312
 20
-275.0
 30
0.0
 11
-21.68755952520688
 21
-275.0
 31
0.0
  0
CIRCLE
  5
30F
330
454
100
AcDbEntity
  8
DATA
  6
Continuous
 62
     7
100
AcDbCircle
 10
-213.0
 20
-275.0
 30
0.0
 40
2.349999999999994
  0
LINE
  5
310
330
454
100
AcDbEntity
  8
DATA
  6
Continuous
 62
     7
100
AcDbLine
 10
-213.0
 20
-276.3124404747932
 30
0.0
 11
-213.0
 21
-273.6875595252069
 31
0.0
  0
LINE
  5
311
330
454
100
AcDbEntity
  8
DATA
  6
Continuous
 62
     7
100
AcDbLine
 10
-211.6875595252069
 20
-275.0
 30
0.0
 11
-214.3124404747931
 21
-275.0
 31
0.0
  0
CIRCLE
  5
312
330
454
100
AcDbEntity
  8
DATA
  6
Continuous
 62
     7
100
AcDbCircle
 10
-153.0
 20
-244.5
 30
0.0
 40
1.5
  0
CIRCLE
  5
313
330
454
100
AcDbEntity
  8
DATA
  6
Continuous
 62
     7
100
AcDbCircle
 10
-83.0
 20
-244.5
 30
0.0
 40
1.5
  0
ARC
  5
314
330
454
100
AcDbEntity
  8
DATA
  6
Continuous
 62
     7
100
AcDbCircle
 10
-173.6
 20
-250.6000000000001
 30
0.0
 40
0.9000000000000341
100
AcDbArc
 50
89.99999999999818
 51
270.0000000000018
  0
ARC
  5
315
330
454
100
AcDbEntity
  8
DATA
  6
Continuous
 62
     7
100
AcDbCircle
 10
-160.3999999999999
 20
-250.6000000000001
 30
0.0
 40
0.8999999999999772
100
AcDbArc
 50
269.9999999999982
 51
90.00000000000179
  0
LINE
  5
316
330
454
100
AcDbEntity
  8
DATA
  6
Continuous
 62
     7
100
AcDbLine
 10
-173.6
 20
-249.7
 30
0.0
 11
-160.4
 21
-249.7
 31
0.0
  0
LINE
  5
317
330
454
100
AcDbEntity
  8
DATA
  6
Continuous
 62
     7
100
AcDbLine
 10
-160.4
 20
-251.5000000000001
 30
0.0
 11
-173.6
 21
-251.5000000000001
 31
0.0
  0
ARC
  5
318
330
454
100
AcDbEntity
  8
DATA
  6
Continuous
 62
     7
100
AcDbCircle
 10
-173.6
 20
-246.6000000000001
 30
0.0
 40
0.9000000000000056
100
AcDbArc
 50
89.99999999999818
 51
270.0000000000018
  0
ARC
  5
319
330
454
100
AcDbEntity
  8
DATA
  6
Continuous
 62
     7
100
AcDbCircle
 10
-160.3999999999999
 20
-246.6000000000001
 30
0.0
 40
0.9000000000000056
100
AcDbArc
 50
269.9999999999982
 51
90.00000000000179
  0
LINE
  5
31A
330
454
100
AcDbEntity
  8
DATA
  6
Continuous
 62
     7
100
AcDbLine
 10
-173.6
 20
-245.7
 30
0.0
 11
-160.4
 21
-245.7
 31
0.0
  0
LINE
  5
31B
330
454
100
AcDbEntity
  8
DATA
  6
Continuous
 62
     7
100
AcDbLine
 10
-160.4
 20
-247.5000000000001
 30
0.0
 11
-173.6
 21
-247.5000000000001
 31
0.0
  0
ARC
  5
31C
330
454
100
AcDbEntity
  8
DATA
  6
Continuous
 62
     7
100
AcDbCircle
 10
-173.6
 20
-242.6000000000001
 30
0.0
 40
0.9000000000000056
100
AcDbArc
 50
89.99999999999818
 51
270.0000000000018
  0
ARC
  5
31D
330
454
100
AcDbEntity
  8
DATA
  6
Continuous
 62
     7
100
AcDbCircle
 10
-160.3999999999999
 20
-242.6000000000001
 30
0.0
 40
0.9000000000000056
100
AcDbArc
 50
269.9999999999982
 51
90.00000000000179
  0
LINE
  5
31E
330
454
100
AcDbEntity
  8
DATA
  6
Continuous
 62
     7
100
AcDbLine
 10
-173.6
 20
-241.7000000000001
 30
0.0
 11
-160.4
 21
-241.7000000000001
 31
0.0
  0
LINE
  5
31F
330
454
100
AcDbEntity
  8
DATA
  6
Continuous
 62
     7
100
AcDbLine
 10
-160.4
 20
-243.5000000000001
 30
0.0
 11
-173.6
 21
-243.5000000000001
 31
0.0
  0
ARC
  5
320
330
454
100
AcDbEntity
  8
DATA
  6
Continuous
 62
     7
100
AcDbCircle
 10
-173.6
 20
-238.6000000000001
 30
0.0
 40
0.9000000000000056
100
AcDbArc
 50
89.99999999999818
 51
270.0000000000018
  0
ARC
  5
321
330
454
100
AcDbEntity
  8
DATA
  6
Continuous
 62
     7
100
AcDbCircle
 10
-160.3999999999999
 20
-238.6000000000001
 30
0.0
 40
0.9000000000000056
100
AcDbArc
 50
269.9999999999982
 51
90.00000000000179
  0
LINE
  5
322
330
454
100
AcDbEntity
  8
DATA
  6
Continuous
 62
     7
100
AcDbLine
 10
-173.6
 20
-237.7000000000001
 30
0.0
 11
-160.4
 21
-237.7000000000001
 31
0.0
  0
LINE
  5
323
330
454
100
AcDbEntity
  8
DATA
  6
Continuous
 62
     7
100
AcDbLine
 10
-160.4
 20
-239.5000000000001
 30
0.0
 11
-173.6
 21
-239.5000000000001
 31
0.0
  0
ARC
  5
324
330
454
100
AcDbEntity
  8
DATA
  6
Continuous
 62
     7
100
AcDbCircle
 10
-173.6
 20
-234.6
 30
0.0
 40
0.9000000000000056
100
AcDbArc
 50
89.99999999999818
 51
270.0000000000018
  0
ARC
  5
325
330
454
100
AcDbEntity
  8
DATA
  6
Continuous
 62
     7
100
AcDbCircle
 10
-160.3999999999999
 20
-234.6
 30
0.0
 40
0.9000000000000056
100
AcDbArc
 50
269.9999999999982
 51
90.00000000000179
  0
LINE
  5
326
330
454
100
AcDbEntity
  8
DATA
  6
Continuous
 62
     7
100
AcDbLine
 10
-173.6
 20
-233.7000000000001
 30
0.0
 11
-160.4
 21
-233.7000000000001
 31
0.0
  0
LINE
  5
327
330
454
100
AcDbEntity
  8
DATA
  6
Continuous
 62
     7
100
AcDbLine
 10
-160.4
 20
-235.5000000000001
 30
0.0
 11
-173.6
 21
-235.5000000000001
 31
0.0
  0
ARC
  5
328
330
454
100
AcDbEntity
  8
DATA
  6
Continuous
 62
     7
100
AcDbCircle
 10
-173.6
 20
-230.6
 30
0.0
 40
0.9000000000000056
100
AcDbArc
 50
89.99999999999818
 51
270.0000000000018
  0
ARC
  5
329
330
454
100
AcDbEntity
  8
DATA
  6
Continuous
 62
     7
100
AcDbCircle
 10
-160.3999999999999
 20
-230.6
 30
0.0
 40
0.9000000000000056
100
AcDbArc
 50
269.9999999999982
 51
90.00000000000179
  0
LINE
  5
32A
330
454
100
AcDbEntity
  8
DATA
  6
Continuous
 62
     7
100
AcDbLine
 10
-173.6
 20
-229.7000000000001
 30
0.0
 11
-160.4
 21
-229.7000000000001
 31
0.0
  0
LINE
  5
32B
330
454
100
AcDbEntity
  8
DATA
  6
Continuous
 62
     7
100
AcDbLine
 10
-160.4
 20
-231.5000000000001
 30
0.0
 11
-173.6
 21
-231.5000000000001
 31
0.0
  0
ARC
  5
32C
330
454
100
AcDbEntity
  8
DATA
  6
Continuous
 62
     7
100
AcDbCircle
 10
-173.6
 20
-226.6
 30
0.0
 40
0.9000000000000056
100
AcDbArc
 50
89.99999999999818
 51
270.0000000000018
  0
ARC
  5
32D
330
454
100
AcDbEntity
  8
DATA
  6
Continuous
 62
     7
100
AcDbCircle
 10
-160.3999999999999
 20
-226.6
 30
0.0
 40
0.9000000000000056
100
AcDbArc
 50
269.9999999999982
 51
90.00000000000179
  0
LINE
  5
32E
330
454
100
AcDbEntity
  8
DATA
  6
Continuous
 62
     7
100
AcDbLine
 10
-173.6
 20
-225.7000000000001
 30
0.0
 11
-160.4
 21
-225.7000000000001
 31
0.0
  0
LINE
  5
32F
330
454
100
AcDbEntity
  8
DATA
  6
Continuous
 62
     7
100
AcDbLine
 10
-160.4
 20
-227.5000000000001
 30
0.0
 11
-173.6
 21
-227.5000000000001
 31
0.0
  0
ARC
  5
330
330
454
100
AcDbEntity
  8
DATA
  6
Continuous
 62
     7
100
AcDbCircle
 10
-62.39999999999998
 20
-250.6000000000001
 30
0.0
 40
0.8999999999999772
100
AcDbArc
 50
269.9999999999982
 51
90.00000000000179
  0
ARC
  5
331
330
454
100
AcDbEntity
  8
DATA
  6
Continuous
 62
     7
100
AcDbCircle
 10
-75.60000000000002
 20
-250.6000000000001
 30
0.0
 40
0.9000000000000341
100
AcDbArc
 50
89.99999999999818
 51
270.0000000000018
  0
LINE
  5
332
330
454
100
AcDbEntity
  8
DATA
  6
Continuous
 62
     7
100
AcDbLine
 10
-62.40000000000001
 20
-249.7
 30
0.0
 11
-75.59999999999998
 21
-249.7
 31
0.0
  0
LINE
  5
333
330
454
100
AcDbEntity
  8
DATA
  6
Continuous
 62
     7
100
AcDbLine
 10
-75.59999999999998
 20
-251.5000000000001
 30
0.0
 11
-62.40000000000001
 21
-251.5000000000001
 31
0.0
  0
ARC
  5
334
330
454
100
AcDbEntity
  8
DATA
  6
Continuous
 62
     7
100
AcDbCircle
 10
-62.39999999999998
 20
-246.6000000000001
 30
0.0
 40
0.9000000000000056
100
AcDbArc
 50
269.9999999999982
 51
90.00000000000179
  0
ARC
  5
335
330
454
100
AcDbEntity
  8
DATA
  6
Continuous
 62
     7
100
AcDbCircle
 10
-75.60000000000002
 20
-246.6000000000001
 30
0.0
 40
0.9000000000000056
100
AcDbArc
 50
89.99999999999818
 51
270.0000000000018
  0
LINE
  5
336
330
454
100
AcDbEntity
  8
DATA
  6
Continuous
 62
     7
100
AcDbLine
 10
-62.40000000000001
 20
-245.7
 30
0.0
 11
-75.59999999999998
 21
-245.7
 31
0.0
  0
LINE
  5
337
330
454
100
AcDbEntity
  8
DATA
  6
Continuous
 62
     7
100
AcDbLine
 10
-75.59999999999998
 20
-247.5000000000001
 30
0.0
 11
-62.40000000000001
 21
-247.5000000000001
 31
0.0
  0
ARC
  5
338
330
454
100
AcDbEntity
  8
DATA
  6
Continuous
 62
     7
100
AcDbCircle
 10
-62.39999999999998
 20
-242.6000000000001
 30
0.0
 40
0.9000000000000056
100
AcDbArc
 50
269.9999999999982
 51
90.00000000000179
  0
ARC
  5
339
330
454
100
AcDbEntity
  8
DATA
  6
Continuous
 62
     7
100
AcDbCircle
 10
-75.60000000000002
 20
-242.6000000000001
 30
0.0
 40
0.9000000000000056
100
AcDbArc
 50
89.99999999999818
 51
270.0000000000018
  0
LINE
  5
33A
330
454
100
AcDbEntity
  8
DATA
  6
Continuous
 62
     7
100
AcDbLine
 10
-62.40000000000001
 20
-241.7000000000001
 30
0.0
 11
-75.59999999999998
 21
-241.7000000000001
 31
0.0
  0
LINE
  5
33B
330
454
100
AcDbEntity
  8
DATA
  6
Continuous
 62
     7
100
AcDbLine
 10
-75.59999999999998
 20
-243.5000000000001
 30
0.0
 11
-62.40000000000001
 21
-243.5000000000001
 31
0.0
  0
ARC
  5
33C
330
454
100
AcDbEntity
  8
DATA
  6
Continuous
 62
     7
100
AcDbCircle
 10
-62.39999999999998
 20
-238.6000000000001
 30
0.0
 40
0.9000000000000056
100
AcDbArc
 50
269.9999999999982
 51
90.00000000000179
  0
ARC
  5
33D
330
454
100
AcDbEntity
  8
DATA
  6
Continuous
 62
     7
100
AcDbCircle
 10
-75.60000000000002
 20
-238.6000000000001
 30
0.0
 40
0.9000000000000056
100
AcDbArc
 50
89.99999999999818
 51
270.0000000000018
  0
LINE
  5
33E
330
454
100
AcDbEntity
  8
DATA
  6
Continuous
 62
     7
100
AcDbLine
 10
-62.40000000000001
 20
-237.7000000000001
 30
0.0
 11
-75.59999999999998
 21
-237.7000000000001
 31
0.0
  0
LINE
  5
33F
330
454
100
AcDbEntity
  8
DATA
  6
Continuous
 62
     7
100
AcDbLine
 10
-75.59999999999998
 20
-239.5000000000001
 30
0.0
 11
-62.40000000000001
 21
-239.5000000000001
 31
0.0
  0
ARC
  5
340
330
454
100
AcDbEntity
  8
DATA
  6
Continuous
 62
     7
100
AcDbCircle
 10
-62.39999999999998
 20
-234.6
 30
0.0
 40
0.9000000000000056
100
AcDbArc
 50
269.9999999999982
 51
90.00000000000179
  0
ARC
  5
341
330
454
100
AcDbEntity
  8
DATA
  6
Continuous
 62
     7
100
AcDbCircle
 10
-75.60000000000002
 20
-234.6
 30
0.0
 40
0.9000000000000056
100
AcDbArc
 50
89.99999999999818
 51
270.0000000000018
  0
LINE
  5
342
330
454
100
AcDbEntity
  8
DATA
  6
Continuous
 62
     7
100
AcDbLine
 10
-62.40000000000001
 20
-233.7000000000001
 30
0.0
 11
-75.59999999999998
 21
-233.7000000000001
 31
0.0
  0
LINE
  5
343
330
454
100
AcDbEntity
  8
DATA
  6
Continuous
 62
     7
100
AcDbLine
 10
-75.59999999999998
 20
-235.5000000000001
 30
0.0
 11
-62.40000000000001
 21
-235.5000000000001
 31
0.0
  0
ARC
  5
344
330
454
100
AcDbEntity
  8
DATA
  6
Continuous
 62
     7
100
AcDbCircle
 10
-62.39999999999998
 20
-230.6
 30
0.0
 40
0.9000000000000056
100
AcDbArc
 50
269.9999999999982
 51
90.00000000000179
  0
ARC
  5
345
330
454
100
AcDbEntity
  8
DATA
  6
Continuous
 62
     7
100
AcDbCircle
 10
-75.60000000000002
 20
-230.6
 30
0.0
 40
0.9000000000000056
100
AcDbArc
 50
89.99999999999818
 51
270.0000000000018
  0
LINE
  5
346
330
454
100
AcDbEntity
  8
DATA
  6
Continuous
 62
     7
100
AcDbLine
 10
-62.40000000000001
 20
-229.7000000000001
 30
0.0
 11
-75.59999999999998
 21
-229.7000000000001
 31
0.0
  0
LINE
  5
347
330
454
100
AcDbEntity
  8
DATA
  6
Continuous
 62
     7
100
AcDbLine
 10
-75.59999999999998
 20
-231.5000000000001
 30
0.0
 11
-62.40000000000001
 21
-231.5000000000001
 31
0.0
  0
ARC
  5
348
330
454
100
AcDbEntity
  8
DATA
  6
Continuous
 62
     7
100
AcDbCircle
 10
-62.39999999999998
 20
-226.6
 30
0.0
 40
0.9000000000000056
100
AcDbArc
 50
269.9999999999982
 51
90.00000000000179
  0
ARC
  5
349
330
454
100
AcDbEntity
  8
DATA
  6
Continuous
 62
     7
100
AcDbCircle
 10
-75.60000000000002
 20
-226.6
 30
0.0
 40
0.9000000000000056
100
AcDbArc
 50
89.99999999999818
 51
270.0000000000018
  0
LINE
  5
34A
330
454
100
AcDbEntity
  8
DATA
  6
Continuous
 62
     7
100
AcDbLine
 10
-62.40000000000001
 20
-225.7000000000001
 30
0.0
 11
-75.59999999999998
 21
-225.7000000000001
 31
0.0
  0
LINE
  5
34B
330
454
100
AcDbEntity
  8
DATA
  6
Continuous
 62
     7
100
AcDbLine
 10
-75.59999999999998
 20
-227.5000000000001
 30
0.0
 11
-62.40000000000001
 21
-227.5000000000001
 31
0.0
  0
ARC
  5
34C
330
454
100
AcDbEntity
  8
DATA
  6
Continuous
 62
     7
100
AcDbCircle
 10
-37.39999999999998
 20
-250.6000000000001
 30
0.0
 40
0.8999999999999772
100
AcDbArc
 50
269.9999999999982
 51
90.00000000000179
  0
ARC
  5
34D
330
454
100
AcDbEntity
  8
DATA
  6
Continuous
 62
     7
100
AcDbCircle
 10
-50.60000000000002
 20
-250.6000000000001
 30
0.0
 40
0.9000000000000341
100
AcDbArc
 50
89.99999999999818
 51
270.0000000000018
  0
LINE
  5
34E
330
454
100
AcDbEntity
  8
DATA
  6
Continuous
 62
     7
100
AcDbLine
 10
-37.40000000000001
 20
-249.7
 30
0.0
 11
-50.6
 21
-249.7
 31
0.0
  0
LINE
  5
34F
330
454
100
AcDbEntity
  8
DATA
  6
Continuous
 62
     7
100
AcDbLine
 10
-50.6
 20
-251.5000000000001
 30
0.0
 11
-37.40000000000001
 21
-251.5000000000001
 31
0.0
  0
ARC
  5
350
330
454
100
AcDbEntity
  8
DATA
  6
Continuous
 62
     7
100
AcDbCircle
 10
-37.39999999999998
 20
-246.6000000000001
 30
0.0
 40
0.9000000000000056
100
AcDbArc
 50
269.9999999999982
 51
90.00000000000179
  0
ARC
  5
351
330
454
100
AcDbEntity
  8
DATA
  6
Continuous
 62
     7
100
AcDbCircle
 10
-50.60000000000002
 20
-246.6000000000001
 30
0.0
 40
0.9000000000000056
100
AcDbArc
 50
89.99999999999818
 51
270.0000000000018
  0
LINE
  5
352
330
454
100
AcDbEntity
  8
DATA
  6
Continuous
 62
     7
100
AcDbLine
 10
-37.40000000000001
 20
-245.7
 30
0.0
 11
-50.6
 21
-245.7
 31
0.0
  0
LINE
  5
353
330
454
100
AcDbEntity
  8
DATA
  6
Continuous
 62
     7
100
AcDbLine
 10
-50.6
 20
-247.5000000000001
 30
0.0
 11
-37.40000000000001
 21
-247.5000000000001
 31
0.0
  0
ARC
  5
354
330
454
100
AcDbEntity
  8
DATA
  6
Continuous
 62
     7
100
AcDbCircle
 10
-37.39999999999998
 20
-242.6000000000001
 30
0.0
 40
0.9000000000000056
100
AcDbArc
 50
269.9999999999982
 51
90.00000000000179
  0
ARC
  5
355
330
454
100
AcDbEntity
  8
DATA
  6
Continuous
 62
     7
100
AcDbCircle
 10
-50.60000000000002
 20
-242.6000000000001
 30
0.0
 40
0.9000000000000056
100
AcDbArc
 50
89.99999999999818
 51
270.0000000000018
  0
LINE
  5
356
330
454
100
AcDbEntity
  8
DATA
  6
Continuous
 62
     7
100
AcDbLine
 10
-37.40000000000001
 20
-241.7000000000001
 30
0.0
 11
-50.6
 21
-241.7000000000001
 31
0.0
  0
LINE
  5
357
330
454
100
AcDbEntity
  8
DATA
  6
Continuous
 62
     7
100
AcDbLine
 10
-50.6
 20
-243.5000000000001
 30
0.0
 11
-37.40000000000001
 21
-243.5000000000001
 31
0.0
  0
ARC
  5
358
330
454
100
AcDbEntity
  8
DATA
  6
Continuous
 62
     7
100
AcDbCircle
 10
-37.39999999999998
 20
-238.6000000000001
 30
0.0
 40
0.9000000000000056
100
AcDbArc
 50
269.9999999999982
 51
90.00000000000179
  0
ARC
  5
359
330
454
100
AcDbEntity
  8
DATA
  6
Continuous
 62
     7
100
AcDbCircle
 10
-50.60000000000002
 20
-238.6000000000001
 30
0.0
 40
0.9000000000000056
100
AcDbArc
 50
89.99999999999818
 51
270.0000000000018
  0
LINE
  5
35A
330
454
100
AcDbEntity
  8
DATA
  6
Continuous
 62
     7
100
AcDbLine
 10
-37.40000000000001
 20
-237.7000000000001
 30
0.0
 11
-50.6
 21
-237.7000000000001
 31
0.0
  0
LINE
  5
35B
330
454
100
AcDbEntity
  8
DATA
  6
Continuous
 62
     7
100
AcDbLine
 10
-50.6
 20
-239.5000000000001
 30
0.0
 11
-37.40000000000001
 21
-239.5000000000001
 31
0.0
  0
ARC
  5
35C
330
454
100
AcDbEntity
  8
DATA
  6
Continuous
 62
     7
100
AcDbCircle
 10
-37.39999999999998
 20
-234.6
 30
0.0
 40
0.9000000000000056
100
AcDbArc
 50
269.9999999999982
 51
90.00000000000179
  0
ARC
  5
35D
330
454
100
AcDbEntity
  8
DATA
  6
Continuous
 62
     7
100
AcDbCircle
 10
-50.60000000000002
 20
-234.6
 30
0.0
 40
0.9000000000000056
100
AcDbArc
 50
89.99999999999818
 51
270.0000000000018
  0
LINE
  5
35E
330
454
100
AcDbEntity
  8
DATA
  6
Continuous
 62
     7
100
AcDbLine
 10
-37.40000000000001
 20
-233.7000000000001
 30
0.0
 11
-50.6
 21
-233.7000000000001
 31
0.0
  0
LINE
  5
35F
330
454
100
AcDbEntity
  8
DATA
  6
Continuous
 62
     7
100
AcDbLine
 10
-50.6
 20
-235.5000000000001
 30
0.0
 11
-37.40000000000001
 21
-235.5000000000001
 31
0.0
  0
ARC
  5
360
330
454
100
AcDbEntity
  8
DATA
  6
Continuous
 62
     7
100
AcDbCircle
 10
-37.39999999999998
 20
-230.6
 30
0.0
 40
0.9000000000000056
100
AcDbArc
 50
269.9999999999982
 51
90.00000000000179
  0
ARC
  5
361
330
454
100
AcDbEntity
  8
DATA
  6
Continuous
 62
     7
100
AcDbCircle
 10
-50.60000000000002
 20
-230.6
 30
0.0
 40
0.9000000000000056
100
AcDbArc
 50
89.99999999999818
 51
270.0000000000018
  0
LINE
  5
362
330
454
100
AcDbEntity
  8
DATA
  6
Continuous
 62
     7
100
AcDbLine
 10
-37.40000000000001
 20
-229.7000000000001
 30
0.0
 11
-50.6
 21
-229.7000000000001
 31
0.0
  0
LINE
  5
363
330
454
100
AcDbEntity
  8
DATA
  6
Continuous
 62
     7
100
AcDbLine
 10
-50.6
 20
-231.5000000000001
 30
0.0
 11
-37.40000000000001
 21
-231.5000000000001
 31
0.0
  0
ARC
  5
364
330
454
100
AcDbEntity
  8
DATA
  6
Continuous
 62
     7
100
AcDbCircle
 10
-37.39999999999998
 20
-226.6
 30
0.0
 40
0.9000000000000056
100
AcDbArc
 50
269.9999999999982
 51
90.00000000000179
  0
ARC
  5
365
330
454
100
AcDbEntity
  8
DATA
  6
Continuous
 62
     7
100
AcDbCircle
 10
-50.60000000000002
 20
-226.6
 30
0.0
 40
0.9000000000000056
100
AcDbArc
 50
89.99999999999818
 51
270.0000000000018
  0
LINE
  5
366
330
454
100
AcDbEntity
  8
DATA
  6
Continuous
 62
     7
100
AcDbLine
 10
-37.40000000000001
 20
-225.7000000000001
 30
0.0
 11
-50.6
 21
-225.7000000000001
 31
0.0
  0
LINE
  5
367
330
454
100
AcDbEntity
  8
DATA
  6
Continuous
 62
     7
100
AcDbLine
 10
-50.6
 20
-227.5000000000001
 30
0.0
 11
-37.40000000000001
 21
-227.5000000000001
 31
0.0
  0
ARC
  5
368
330
454
100
AcDbEntity
  8
DATA
  6
Continuous
 62
     7
100
AcDbCircle
 10
-198.6
 20
-250.6000000000001
 30
0.0
 40
0.9000000000000341
100
AcDbArc
 50
89.99999999999818
 51
270.0000000000018
  0
ARC
  5
369
330
454
100
AcDbEntity
  8
DATA
  6
Continuous
 62
     7
100
AcDbCircle
 10
-185.4
 20
-250.6000000000001
 30
0.0
 40
0.8999999999999772
100
AcDbArc
 50
269.9999999999982
 51
90.00000000000179
  0
LINE
  5
36A
330
454
100
AcDbEntity
  8
DATA
  6
Continuous
 62
     7
100
AcDbLine
 10
-198.6
 20
-249.7
 30
0.0
 11
-185.4
 21
-249.7
 31
0.0
  0
LINE
  5
36B
330
454
100
AcDbEntity
  8
DATA
  6
Continuous
 62
     7
100
AcDbLine
 10
-185.4
 20
-251.5000000000001
 30
0.0
 11
-198.6
 21
-251.5000000000001
 31
0.0
  0
ARC
  5
36C
330
454
100
AcDbEntity
  8
DATA
  6
Continuous
 62
     7
100
AcDbCircle
 10
-198.6
 20
-246.6000000000001
 30
0.0
 40
0.9000000000000056
100
AcDbArc
 50
89.99999999999818
 51
270.0000000000018
  0
ARC
  5
36D
330
454
100
AcDbEntity
  8
DATA
  6
Continuous
 62
     7
100
AcDbCircle
 10
-185.4
 20
-246.6000000000001
 30
0.0
 40
0.9000000000000056
100
AcDbArc
 50
269.9999999999982
 51
90.00000000000179
  0
LINE
  5
36E
330
454
100
AcDbEntity
  8
DATA
  6
Continuous
 62
     7
100
AcDbLine
 10
-198.6
 20
-245.7
 30
0.0
 11
-185.4
 21
-245.7
 31
0.0
  0
LINE
  5
36F
330
454
100
AcDbEntity
  8
DATA
  6
Continuous
 62
     7
100
AcDbLine
 10
-185.4
 20
-247.5000000000001
 30
0.0
 11
-198.6
 21
-247.5000000000001
 31
0.0
  0
ARC
  5
370
330
454
100
AcDbEntity
  8
DATA
  6
Continuous
 62
     7
100
AcDbCircle
 10
-198.6
 20
-242.6000000000001
 30
0.0
 40
0.9000000000000056
100
AcDbArc
 50
89.99999999999818
 51
270.0000000000018
  0
ARC
  5
371
330
454
100
AcDbEntity
  8
DATA
  6
Continuous
 62
     7
100
AcDbCircle
 10
-185.4
 20
-242.6000000000001
 30
0.0
 40
0.9000000000000056
100
AcDbArc
 50
269.9999999999982
 51
90.00000000000179
  0
LINE
  5
372
330
454
100
AcDbEntity
  8
DATA
  6
Continuous
 62
     7
100
AcDbLine
 10
-198.6
 20
-241.7000000000001
 30
0.0
 11
-185.4
 21
-241.7000000000001
 31
0.0
  0
LINE
  5
373
330
454
100
AcDbEntity
  8
DATA
  6
Continuous
 62
     7
100
AcDbLine
 10
-185.4
 20
-243.5000000000001
 30
0.0
 11
-198.6
 21
-243.5000000000001
 31
0.0
  0
ARC
  5
374
330
454
100
AcDbEntity
  8
DATA
  6
Continuous
 62
     7
100
AcDbCircle
 10
-198.6
 20
-238.6000000000001
 30
0.0
 40
0.9000000000000056
100
AcDbArc
 50
89.99999999999818
 51
270.0000000000018
  0
ARC
  5
375
330
454
100
AcDbEntity
  8
DATA
  6
Continuous
 62
     7
100
AcDbCircle
 10
-185.4
 20
-238.6000000000001
 30
0.0
 40
0.9000000000000056
100
AcDbArc
 50
269.9999999999982
 51
90.00000000000179
  0
LINE
  5
376
330
454
100
AcDbEntity
  8
DATA
  6
Continuous
 62
     7
100
AcDbLine
 10
-198.6
 20
-237.7000000000001
 30
0.0
 11
-185.4
 21
-237.7000000000001
 31
0.0
  0
LINE
  5
377
330
454
100
AcDbEntity
  8
DATA
  6
Continuous
 62
     7
100
AcDbLine
 10
-185.4
 20
-239.5000000000001
 30
0.0
 11
-198.6
 21
-239.5000000000001
 31
0.0
  0
ARC
  5
378
330
454
100
AcDbEntity
  8
DATA
  6
Continuous
 62
     7
100
AcDbCircle
 10
-198.6
 20
-234.6
 30
0.0
 40
0.9000000000000056
100
AcDbArc
 50
89.99999999999818
 51
270.0000000000018
  0
ARC
  5
379
330
454
100
AcDbEntity
  8
DATA
  6
Continuous
 62
     7
100
AcDbCircle
 10
-185.4
 20
-234.6
 30
0.0
 40
0.9000000000000056
100
AcDbArc
 50
269.9999999999982
 51
90.00000000000179
  0
LINE
  5
37A
330
454
100
AcDbEntity
  8
DATA
  6
Continuous
 62
     7
100
AcDbLine
 10
-198.6
 20
-233.7000000000001
 30
0.0
 11
-185.4
 21
-233.7000000000001
 31
0.0
  0
LINE
  5
37B
330
454
100
AcDbEntity
  8
DATA
  6
Continuous
 62
     7
100
AcDbLine
 10
-185.4
 20
-235.5000000000001
 30
0.0
 11
-198.6
 21
-235.5000000000001
 31
0.0
  0
ARC
  5
37C
330
454
100
AcDbEntity
  8
DATA
  6
Continuous
 62
     7
100
AcDbCircle
 10
-198.6
 20
-230.6
 30
0.0
 40
0.9000000000000056
100
AcDbArc
 50
89.99999999999818
 51
270.0000000000018
  0
ARC
  5
37D
330
454
100
AcDbEntity
  8
DATA
  6
Continuous
 62
     7
100
AcDbCircle
 10
-185.4
 20
-230.6
 30
0.0
 40
0.9000000000000056
100
AcDbArc
 50
269.9999999999982
 51
90.00000000000179
  0
LINE
  5
37E
330
454
100
AcDbEntity
  8
DATA
  6
Continuous
 62
     7
100
AcDbLine
 10
-198.6
 20
-229.7000000000001
 30
0.0
 11
-185.4
 21
-229.7000000000001
 31
0.0
  0
LINE
  5
37F
330
454
100
AcDbEntity
  8
DATA
  6
Continuous
 62
     7
100
AcDbLine
 10
-185.4
 20
-231.5000000000001
 30
0.0
 11
-198.6
 21
-231.5000000000001
 31
0.0
  0
ARC
  5
380
330
454
100
AcDbEntity
  8
DATA
  6
Continuous
 62
     7
100
AcDbCircle
 10
-198.6
 20
-226.6
 30
0.0
 40
0.9000000000000056
100
AcDbArc
 50
89.99999999999818
 51
270.0000000000018
  0
ARC
  5
381
330
454
100
AcDbEntity
  8
DATA
  6
Continuous
 62
     7
100
AcDbCircle
 10
-185.4
 20
-226.6
 30
0.0
 40
0.9000000000000056
100
AcDbArc
 50
269.9999999999982
 51
90.00000000000179
  0
LINE
  5
382
330
454
100
AcDbEntity
  8
DATA
  6
Continuous
 62
     7
100
AcDbLine
 10
-198.6
 20
-225.7000000000001
 30
0.0
 11
-185.4
 21
-225.7000000000001
 31
0.0
  0
LINE
  5
383
330
454
100
AcDbEntity
  8
DATA
  6
Continuous
 62
     7
100
AcDbLine
 10
-185.4
 20
-227.5000000000001
 30
0.0
 11
-198.6
 21
-227.5000000000001
 31
0.0
  0
LINE
  5
384
330
454
100
AcDbEntity
  8
DATA
  6
Continuous
 62
     7
100
AcDbLine
 10
-223.8
 20
-192.5
 30
0.0
 11
-223.8
 21
-269.5000000000001
 31
0.0
  0
LINE
  5
385
330
454
100
AcDbEntity
  8
DATA
  6
Continuous
 62
     7
100
AcDbLine
 10
-223.8
 20
-192.5
 30
0.0
 11
-225.0
 21
-192.5
 31
0.0
  0
LINE
  5
386
330
454
100
AcDbEntity
  8
DATA
  6
Continuous
 62
     7
100
AcDbLine
 10
-12.19999999999999
 20
-192.5
 30
0.0
 11
-12.19999999999999
 21
-269.5000000000001
 31
0.0
  0
LINE
  5
387
330
454
100
AcDbEntity
  8
DATA
  6
Continuous
 62
     7
100
AcDbLine
 10
-12.19999999999999
 20
-192.5
 30
0.0
 11
-11.0
 21
-192.5
 31
0.0
  0
LINE
  5
388
330
454
100
AcDbEntity
  8
DATA
  6
Continuous
 62
     7
100
AcDbLine
 10
117.0
 20
37.5
 30
0.0
 11
100.0
 21
37.5
 31
0.0
  0
LINE
  5
389
330
454
100
AcDbEntity
  8
DATA
  6
Continuous
 62
     7
100
AcDbLine
 10
120.0
 20
64.5
 30
0.0
 11
120.0
 21
40.49999999999999
 31
0.0
  0
LINE
  5
38A
330
454
100
AcDbEntity
  8
DATA
  6
Continuous
 62
     7
100
AcDbLine
 10
100.0
 20
67.5
 30
0.0
 11
117.0
 21
67.5
 31
0.0
  0
LINE
  5
38B
330
454
100
AcDbEntity
  8
DATA
  6
Continuous
 62
     7
100
AcDbLine
 10
100.0
 20
37.5
 30
0.0
 11
100.0
 21
67.5
 31
0.0
  0
LINE
  5
38C
330
454
100
AcDbEntity
  8
DATA
  6
Continuous
 62
     7
100
AcDbLine
 10
101.6
 20
37.5
 30
0.0
 11
101.6
 21
67.5
 31
0.0
  0
LINE
  5
38D
330
454
100
AcDbEntity
  8
DATA
  6
Continuous
 62
     7
100
AcDbLine
 10
150.0
 20
0.0
 30
0.0
 11
180.0
 21
0.0
 31
0.0
  0
LINE
  5
38E
330
454
100
AcDbEntity
  8
DATA
  6
Continuous
 62
     7
100
AcDbLine
 10
150.0
 20
0.0
 30
0.0
 11
150.0
 21
23.0
 31
0.0
  0
LINE
  5
38F
330
454
100
AcDbEntity
  8
DATA
  6
Continuous
 62
     7
100
AcDbLine
 10
180.0
 20
0.0
 30
0.0
 11
180.0
 21
23.0
 31
0.0
  0
LINE
  5
390
330
454
100
AcDbEntity
  8
DATA
  6
Continuous
 62
     7
100
AcDbLine
 10
152.0
 20
25.0
 30
0.0
 11
178.0
 21
25.0
 31
0.0
  0
LINE
  5
391
330
454
100
AcDbEntity
  8
DATA
  6
Continuous
 62
     7
100
AcDbLine
 10
150.0
 20
1.599999999999994
 30
0.0
 11
180.0
 21
1.599999999999994
 31
0.0
  0
ARC
  5
392
330
454
100
AcDbEntity
  8
DATA
  6
Continuous
 62
     7
100
AcDbCircle
 10
117.0
 20
40.49999999999999
 30
0.0
 40
3.0
100
AcDbArc
 50
270.0
 51
0.0
  0
ARC
  5
393
330
454
100
AcDbEntity
  8
DATA
  6
Continuous
 62
     7
100
AcDbCircle
 10
117.0
 20
64.5
 30
0.0
 40
3.0
100
AcDbArc
 50
0.0
 51
90.0
  0
ARC
  5
394
330
454
100
AcDbEntity
  8
DATA
  6
Continuous
 62
     7
100
AcDbCircle
 10
152.0
 20
23.0
 30
0.0
 40
2.0
100
AcDbArc
 50
90.0
 51
180.0
  0
ARC
  5
395
330
454
100
AcDbEntity
  8
DATA
  6
Continuous
 62
     7
100
AcDbCircle
 10
178.0
 20
23.0
 30
0.0
 40
2.0
100
AcDbArc
 50
0.0
 51
90.0
  0
LINE
  5
396
330
454
100
AcDbEntity
  8
DATA
  6
Continuous
 62
     7
100
AcDbLine
 10
100.1625275728913
 20
-56.56536267509705
 30
0.0
 11
149.8374724271086
 21
-56.56536267509705
 31
0.0
  0
LINE
  5
397
330
454
100
AcDbEntity
  8
DATA
  6
Continuous
 62
     7
100
AcDbLine
 10
-56.0
 20
-106.35
 30
0.0
 11
-56.0
 21
-106.25
 31
0.0
  0
LINE
  5
398
330
454
100
AcDbEntity
  8
DATA
  6
Continuous
 62
     7
100
AcDbLine
 10
-46.0
 20
-106.35
 30
0.0
 11
-46.0
 21
-106.25
 31
0.0
  0
LINE
  5
399
330
454
100
AcDbEntity
  8
DATA
  6
Continuous
 62
     7
100
AcDbLine
 10
-56.0
 20
-106.35
 30
0.0
 11
-46.0
 21
-106.35
 31
0.0
  0
LINE
  5
39A
330
454
100
AcDbEntity
  8
DATA
  6
Continuous
 62
     7
100
AcDbLine
 10
-143.4916522944211
 20
13.29349995456105
 30
0.0
 11
-143.4916522944211
 21
13.79349995456105
 31
0.0
  0
LINE
  5
39B
330
454
100
AcDbEntity
  8
DATA
  6
Continuous
 62
     7
100
AcDbLine
 10
-132.4916522944211
 20
13.29349995456105
 30
0.0
 11
-143.4916522944211
 21
13.29349995456105
 31
0.0
  0
LINE
  5
39C
330
454
100
AcDbEntity
  8
DATA
  6
Continuous
 62
     7
100
AcDbLine
 10
-132.4916522944211
 20
13.79349995456105
 30
0.0
 11
-132.4916522944211
 21
13.29349995456105
 31
0.0
  0
LINE
  5
39D
330
454
100
AcDbEntity
  8
DATA
  6
Continuous
 62
     7
100
AcDbLine
 10
-143.4916522944211
 20
13.79349995456105
 30
0.0
 11
-132.4916522944211
 21
13.79349995456105
 31
0.0
  0
LINE
  5
39E
330
454
100
AcDbEntity
  8
DATA
  6
Continuous
 62
     7
100
AcDbLine
 10
-118.4916522944211
 20
13.29349995456105
 30
0.0
 11
-118.4916522944211
 21
13.79349995456105
 31
0.0
  0
LINE
  5
39F
330
454
100
AcDbEntity
  8
DATA
  6
Continuous
 62
     7
100
AcDbLine
 10
-107.4916522944211
 20
13.29349995456105
 30
0.0
 11
-118.4916522944211
 21
13.29349995456105
 31
0.0
  0
LINE
  5
3A0
330
454
100
AcDbEntity
  8
DATA
  6
Continuous
 62
     7
100
AcDbLine
 10
-107.4916522944211
 20
13.79349995456105
 30
0.0
 11
-107.4916522944211
 21
13.29349995456105
 31
0.0
  0
LINE
  5
3A1
330
454
100
AcDbEntity
  8
DATA
  6
Continuous
 62
     7
100
AcDbLine
 10
-118.4916522944211
 20
13.79349995456105
 30
0.0
 11
-107.4916522944211
 21
13.79349995456105
 31
0.0
  0
LINE
  5
3A2
330
454
100
AcDbEntity
  8
DATA
  6
Continuous
 62
     7
100
AcDbLine
 10
-93.49165229442112
 20
13.29349995456105
 30
0.0
 11
-93.49165229442112
 21
13.79349995456105
 31
0.0
  0
LINE
  5
3A3
330
454
100
AcDbEntity
  8
DATA
  6
Continuous
 62
     7
100
AcDbLine
 10
-82.49165229442109
 20
13.29349995456105
 30
0.0
 11
-93.49165229442112
 21
13.29349995456105
 31
0.0
  0
LINE
  5
3A4
330
454
100
AcDbEntity
  8
DATA
  6
Continuous
 62
     7
100
AcDbLine
 10
-82.49165229442109
 20
13.79349995456105
 30
0.0
 11
-82.49165229442109
 21
13.29349995456105
 31
0.0
  0
LINE
  5
3A5
330
454
100
AcDbEntity
  8
DATA
  6
Continuous
 62
     7
100
AcDbLine
 10
-93.49165229442112
 20
13.79349995456105
 30
0.0
 11
-82.49165229442109
 21
13.79349995456105
 31
0.0
  0
LINE
  5
3A6
330
454
100
AcDbEntity
  8
DATA
  6
Continuous
 62
     7
100
AcDbLine
 10
-68.49165229442111
 20
13.29349995456105
 30
0.0
 11
-68.49165229442111
 21
13.79349995456105
 31
0.0
  0
LINE
  5
3A7
330
454
100
AcDbEntity
  8
DATA
  6
Continuous
 62
     7
100
AcDbLine
 10
-57.49165229442112
 20
13.29349995456105
 30
0.0
 11
-68.49165229442111
 21
13.29349995456105
 31
0.0
  0
LINE
  5
3A8
330
454
100
AcDbEntity
  8
DATA
  6
Continuous
 62
     7
100
AcDbLine
 10
-57.49165229442112
 20
13.79349995456105
 30
0.0
 11
-57.49165229442112
 21
13.29349995456105
 31
0.0
  0
LINE
  5
3A9
330
454
100
AcDbEntity
  8
DATA
  6
Continuous
 62
     7
100
AcDbLine
 10
-68.49165229442111
 20
13.79349995456105
 30
0.0
 11
-57.49165229442112
 21
13.79349995456105
 31
0.0
  0
LINE
  5
3AA
330
454
100
AcDbEntity
  8
DATA
  6
Continuous
 62
     7
100
AcDbLine
 10
-43.49165229442112
 20
13.29349995456105
 30
0.0
 11
-43.49165229442112
 21
13.79349995456105
 31
0.0
  0
LINE
  5
3AB
330
454
100
AcDbEntity
  8
DATA
  6
Continuous
 62
     7
100
AcDbLine
 10
-32.49165229442112
 20
13.29349995456105
 30
0.0
 11
-43.49165229442112
 21
13.29349995456105
 31
0.0
  0
LINE
  5
3AC
330
454
100
AcDbEntity
  8
DATA
  6
Continuous
 62
     7
100
AcDbLine
 10
-32.49165229442112
 20
13.79349995456105
 30
0.0
 11
-32.49165229442112
 21
13.29349995456105
 31
0.0
  0
LINE
  5
3AD
330
454
100
AcDbEntity
  8
DATA
  6
Continuous
 62
     7
100
AcDbLine
 10
-43.49165229442112
 20
13.79349995456105
 30
0.0
 11
-32.49165229442112
 21
13.79349995456105
 31
0.0
  0
LINE
  5
3AE
330
454
100
AcDbEntity
  8
DATA
  6
Continuous
 62
     7
100
AcDbLine
 10
-155.0
 20
-96.05
 30
0.0
 11
-155.0
 21
-95.25
 31
0.0
  0
LINE
  5
3AF
330
454
100
AcDbEntity
  8
DATA
  6
Continuous
 62
     7
100
AcDbLine
 10
-204.0
 20
-96.05
 30
0.0
 11
-204.0
 21
-95.25
 31
0.0
  0
LINE
  5
3B0
330
454
100
AcDbEntity
  8
DATA
  6
Continuous
 62
     7
100
AcDbLine
 10
-204.0
 20
-96.05
 30
0.0
 11
-155.0
 21
-96.05
 31
0.0
  0
LINE
  5
3B1
330
454
100
AcDbEntity
  8
DATA
  6
Continuous
 62
     7
100
AcDbLine
 10
-81.0
 20
-96.05
 30
0.0
 11
-81.0
 21
-95.25
 31
0.0
  0
LINE
  5
3B2
330
454
100
AcDbEntity
  8
DATA
  6
Continuous
 62
     7
100
AcDbLine
 10
-32.0
 20
-96.05
 30
0.0
 11
-32.0
 21
-95.25
 31
0.0
  0
LINE
  5
3B3
330
454
100
AcDbEntity
  8
DATA
  6
Continuous
 62
     7
100
AcDbLine
 10
-32.0
 20
-96.05
 30
0.0
 11
-81.0
 21
-96.05
 31
0.0
  0
TEXT
  5
3B4
330
454
100
AcDbEntity
  8
DATA
 62
     7
100
AcDbText
 10
149.9999999999999
 20
-349.5897594444443
 30
0.0
 40
7.329785156249999
  1
EXT-UHD600-41
 41
0.7
 11
149.9999999999999
 21
-342.2599742881943
 31
0.0
100
AcDbText
 73
     3
  0
TEXT
  5
3B5
330
454
100
AcDbEntity
  8
DATA
 62
     7
100
AcDbText
 10
149.9999999999999
 20
-327.1014046797733
 30
0.0
 40
7.329785156249999
  1
Gefen
 41
0.7
 11
149.9999999999999
 21
-319.7716195235233
 31
0.0
100
AcDbText
 73
     3
  0
TEXT
  5
3B6
330
454
100
AcDbEntity
  8
DATA
 62
     7
100
AcDbText
 10
-262.5
 20
-359.353596111111
 30
0.0
 40
5.700944010416667
  1
※仕様及び外観は予告なく変更されることがあります。
 41
0.7
 11
-262.5
 21
-353.6526521006944
 31
0.0
100
AcDbText
 73
     3
  0
TEXT
  5
3B7
330
454
100
AcDbEntity
  8
DATA
 62
     7
100
AcDbText
 10
-262.5
 20
-366.7619294444444
 30
0.0
 40
5.700944010416667
  1
　また、同一商品でも若干の個体差があることがあります。ご了承ください。
 41
0.7
 11
-262.5
 21
-361.0609854340277
 31
0.0
100
AcDbText
 73
     3
  0
TEXT
  5
3B8
330
454
100
AcDbEntity
  8
DATA
 62
     7
100
AcDbText
 10
-27.86550655245836
 20
-133.0797291054787
 30
0.0
 40
1.407318750000001
  1
Power
 41
0.7
 72
     1
 11
-25.56688592745836
 21
-132.3760697304787
 31
0.0
100
AcDbText
 73
     2
  0
TEXT
  5
3B9
330
454
100
AcDbEntity
  8
DATA
 62
     7
100
AcDbText
 10
-44.95674874999999
 20
-132.789259375
 30
0.0
 40
1.407318750000001
  1
IR
 41
0.7
 72
     1
 11
-44.29999999999999
 21
-132.0856
 31
0.0
100
AcDbText
 73
     2
  0
TEXT
  5
3BA
330
454
100
AcDbEntity
  8
DATA
 62
     7
100
AcDbText
 10
-68.67655598741572
 20
-133.0797291054787
 30
0.0
 40
1.407318750000001
  1
Reset
 41
0.7
 72
     1
 11
-66.37793536241573
 21
-132.3760697304787
 31
0.0
100
AcDbText
 73
     2
  0
TEXT
  5
3BB
330
454
100
AcDbEntity
  8
DATA
 62
     7
100
AcDbText
 10
-116.8851968603593
 20
-133.0797291054787
 30
0.0
 40
1.407318750000001
  1
Off
 41
0.7
 72
     1
 11
-115.5716993603593
 21
-132.3760697304787
 31
0.0
100
AcDbText
 73
     2
  0
TEXT
  5
3BC
330
454
100
AcDbEntity
  8
DATA
 62
     7
100
AcDbText
 10
-126.0244751641715
 20
-133.0797291054787
 30
0.0
 40
1.407318750000001
  1
4
 41
0.7
 72
     1
 11
-125.6961007891715
 21
-132.3760697304787
 31
0.0
100
AcDbText
 73
     2
  0
TEXT
  5
3BD
330
454
100
AcDbEntity
  8
DATA
 62
     7
100
AcDbText
 10
-135.9393983924123
 20
-133.0797291054787
 30
0.0
 40
1.407318750000001
  1
3
 41
0.7
 72
     1
 11
-135.6110240174123
 21
-132.3760697304787
 31
0.0
100
AcDbText
 73
     2
  0
TEXT
  5
3BE
330
454
100
AcDbEntity
  8
DATA
 62
     7
100
AcDbText
 10
-145.747975655954
 20
-133.0797291054787
 30
0.0
 40
1.407318750000001
  1
2
 41
0.7
 72
     1
 11
-145.419601280954
 21
-132.3760697304787
 31
0.0
100
AcDbText
 73
     2
  0
TEXT
  5
3BF
330
454
100
AcDbEntity
  8
DATA
 62
     7
100
AcDbText
 10
-155.665826784079
 20
-133.0797291054787
 30
0.0
 40
1.407318750000001
  1
1
 41
0.7
 72
     1
 11
-155.501639596579
 21
-132.3760697304787
 31
0.0
100
AcDbText
 73
     2
  0
TEXT
  5
3C0
330
454
100
AcDbEntity
  8
DATA
 62
     7
100
AcDbText
 10
-168.8597654931013
 20
-133.0797291054787
 30
0.0
 40
1.407318750000001
  1
Select
 41
0.7
 72
     1
 11
-166.3148640868513
 21
-132.3760697304787
 31
0.0
100
AcDbText
 73
     2
  0
TEXT
  5
3C1
330
454
100
AcDbEntity
  8
DATA
 62
     7
100
AcDbText
 10
-78.48100577550403
 20
-148.0234068005365
 30
0.0
 40
2.533173750000002
  1
4K Ultra HD 600 MHz 4×1 Switcher w/HDR
 41
0.7
 11
-78.48100577550403
 21
-145.4902330505365
 31
0.0
100
AcDbText
 73
     3
  0
TEXT
  5
3C2
330
454
100
AcDbEntity
  8
DATA
 62
     7
100
AcDbText
 10
-220.3203663835924
 20
-148.0234068005365
 30
0.0
 40
2.533173750000002
  1
4K 60 Hz 4:4:4 HDMI2.0、HDCP 2.2
 41
0.7
 11
-220.3203663835924
 21
-145.4902330505365
 31
0.0
100
AcDbText
 73
     3
  0
TEXT
  5
3C3
330
454
100
AcDbEntity
  8
DATA
 62
     7
100
AcDbText
 10
-215.7059576011813
 20
-133.085730225616
 30
0.0
 40
5.130849609374999
  1
GEFEN
 41
0.7
 11
-215.7059576011813
 21
-127.954880616241
 31
0.0
100
AcDbText
 73
     3
  0
TEXT
  5
3C4
330
454
100
AcDbEntity
  8
DATA
 62
     7
100
AcDbText
 10
-212.4370535307071
 20
23.44887417722269
 30
0.0
 40
1.548050625000001
  1
5V DC
 50
180.0
 41
0.7
 72
     1
 11
-214.9294150369571
 21
22.67484886472269
 31
0.0
100
AcDbText
 73
     2
  0
TEXT
  5
3C5
330
454
100
AcDbEntity
  8
DATA
 62
     7
100
AcDbText
 10
-192.4087041841486
 20
23.44887417722269
 30
0.0
 40
1.548050625000001
  1
IP Control
 50
180.0
 41
0.7
 72
     1
 11
-196.9780336122736
 21
22.67484886472269
 31
0.0
100
AcDbText
 73
     2
  0
TEXT
  5
3C6
330
454
100
AcDbEntity
  8
DATA
 62
     7
100
AcDbText
 10
-164.9255088709091
 20
23.44887417722269
 30
0.0
 40
1.548050625000001
  1
RS-232
 50
180.0
 41
0.7
 72
     1
 11
-167.9958092771591
 21
22.67484886472269
 31
0.0
100
AcDbText
 73
     2
  0
TEXT
  5
3C7
330
454
100
AcDbEntity
  8
DATA
 62
     7
100
AcDbText
 10
-136.4298002886429
 20
23.44887417722269
 30
0.0
 40
1.548050625000001
  1
In 4
 50
180.0
 41
0.7
 72
     1
 11
-138.0191322636429
 21
22.67484886472269
 31
0.0
100
AcDbText
 73
     2
  0
TEXT
  5
3C8
330
454
100
AcDbEntity
  8
DATA
 62
     7
100
AcDbText
 10
-111.429800288643
 20
23.44887417722269
 30
0.0
 40
1.548050625000001
  1
In 3
 50
180.0
 41
0.7
 72
     1
 11
-113.019132263643
 21
22.67484886472269
 31
0.0
100
AcDbText
 73
     2
  0
TEXT
  5
3C9
330
454
100
AcDbEntity
  8
DATA
 62
     7
100
AcDbText
 10
-86.42980028864297
 20
23.44887417722269
 30
0.0
 40
1.548050625000001
  1
In 2
 50
180.0
 41
0.7
 72
     1
 11
-88.01913226364296
 21
22.67484886472269
 31
0.0
100
AcDbText
 73
     2
  0
TEXT
  5
3CA
330
454
100
AcDbEntity
  8
DATA
 62
     7
100
AcDbText
 10
-61.61040619489298
 20
23.44887417722269
 30
0.0
 40
1.548050625000001
  1
In 1
 50
180.0
 41
0.7
 72
     1
 11
-63.01913226364298
 21
22.67484886472269
 31
0.0
100
AcDbText
 73
     2
  0
TEXT
  5
3CB
330
454
100
AcDbEntity
  8
DATA
 62
     7
100
AcDbText
 10
-32.57736396667588
 20
23.44887417722269
 30
0.0
 40
1.548050625000001
  1
Output(LRP)
 50
180.0
 41
0.7
 72
     1
 11
-37.99554115417588
 21
22.67484886472269
 31
0.0
100
AcDbText
 73
     2
  0
TEXT
  5
3CC
330
454
100
AcDbEntity
  8
DATA
 62
     7
100
AcDbText
 10
-15.72844832491798
 20
23.44887417722269
 30
0.0
 40
1.548050625000001
  1
IR In/Ext
 50
180.0
 41
0.7
 72
     1
 11
-19.84626298741798
 21
22.67484886472269
 31
0.0
100
AcDbText
 73
     2
  0
TEXT
  5
3CD
330
454
100
AcDbEntity
  8
DATA
 62
     7
100
AcDbText
 10
-12.22083167917948
 20
3.88298071187242
 30
0.0
 40
2.322075937500002
  1
EXT-UHD600-41
 50
180.0
 41
0.7
 11
-12.22083167917948
 21
1.560904774372418
 31
0.0
100
AcDbText
 73
     3
  0
TEXT
  5
3CE
330
454
100
AcDbEntity
  8
DATA
 62
     7
100
AcDbText
 10
111.8878287760416
 20
-54.07210286458333
 30
0.0
 40
8.144205729166666
  1
固定金具
 41
0.7
 72
     1
 11
125.0
 21
-50.0
 31
0.0
100
AcDbText
 73
     2
  0
TEXT
  5
3CF
330
454
100
AcDbEntity
  8
DATA
 62
     7
100
AcDbText
 10
142.4999999999999
 20
-336.8057376427903
 30
0.0
 40
5.700944010416665
  1
HDMI切替機
 41
0.7
 11
142.4999999999999
 21
-331.1047936323737
 31
0.0
100
AcDbText
 73
     3
  0
LINE
  5
3D0
330
454
100
AcDbEntity
  8
DATA
  6
Continuous
 62
     7
100
AcDbLine
 10
100.0
 20
25.0
 30
0.0
 11
100.0
 21
3.0
 31
0.0
  0
LINE
  5
3D1
330
454
100
AcDbEntity
  8
DATA
  6
Continuous
 62
     7
100
AcDbLine
 10
100.0
 20
25.0
 30
0.0
 11
101.6
 21
25.0
 31
0.0
  0
LINE
  5
3D2
330
454
100
AcDbEntity
  8
DATA
  6
Continuous
 62
     7
100
AcDbLine
 10
103.0
 20
0.0
 30
0.0
 11
120.0
 21
0.0
 31
0.0
  0
LINE
  5
3D3
330
454
100
AcDbEntity
  8
DATA
  6
Continuous
 62
     7
100
AcDbLine
 10
120.0
 20
1.599999999999994
 30
0.0
 11
120.0
 21
0.0
 31
0.0
  0
LINE
  5
3D4
330
454
100
AcDbEntity
  8
DATA
  6
Continuous
 62
     7
100
AcDbLine
 10
101.6
 20
25.0
 30
0.0
 11
101.6
 21
2.999999999999994
 31
0.0
  0
LINE
  5
3D5
330
454
100
AcDbEntity
  8
DATA
  6
Continuous
 62
     7
100
AcDbLine
 10
103.0
 20
1.599999999999994
 30
0.0
 11
120.0
 21
1.599999999999994
 31
0.0
  0
LINE
  5
3D6
330
454
100
AcDbEntity
  8
DATA
  6
Continuous
 62
     7
100
AcDbLine
 10
113.5000000000012
 20
59.55
 30
0.0
 11
111.4999999999988
 21
59.55
 31
0.0
  0
LINE
  5
3D7
330
454
100
AcDbEntity
  8
DATA
  6
Continuous
 62
     7
100
AcDbLine
 10
111.4999999999988
 20
63.45
 30
0.0
 11
113.5000000000012
 21
63.45
 31
0.0
  0
ARC
  5
3D8
330
454
100
AcDbEntity
  8
DATA
  6
Continuous
 62
     7
100
AcDbCircle
 10
111.4999999999988
 20
61.5
 30
0.0
 40
1.950000000000002
100
AcDbArc
 50
90.0
 51
270.0
  0
ARC
  5
3D9
330
454
100
AcDbEntity
  8
DATA
  6
Continuous
 62
     7
100
AcDbCircle
 10
113.5000000000012
 20
61.5
 30
0.0
 40
1.950000000000002
100
AcDbArc
 50
270.0
 51
90.0
  0
LINE
  5
3DA
330
454
100
AcDbEntity
  8
DATA
  6
Continuous
 62
     7
100
AcDbLine
 10
113.5000000000012
 20
45.45
 30
0.0
 11
111.4999999999988
 21
45.45
 31
0.0
  0
LINE
  5
3DB
330
454
100
AcDbEntity
  8
DATA
  6
Continuous
 62
     7
100
AcDbLine
 10
111.4999999999988
 20
41.55
 30
0.0
 11
113.5000000000012
 21
41.55
 31
0.0
  0
ARC
  5
3DC
330
454
100
AcDbEntity
  8
DATA
  6
Continuous
 62
     7
100
AcDbCircle
 10
111.4999999999988
 20
43.5
 30
0.0
 40
1.950000000000002
100
AcDbArc
 50
90.0
 51
270.0
  0
ARC
  5
3DD
330
454
100
AcDbEntity
  8
DATA
  6
Continuous
 62
     7
100
AcDbCircle
 10
113.5000000000012
 20
43.5
 30
0.0
 40
1.950000000000002
100
AcDbArc
 50
270.0
 51
90.0
  0
CIRCLE
  5
3DE
330
454
100
AcDbEntity
  8
DATA
  6
Continuous
 62
     7
100
AcDbCircle
 10
156.5
 20
13.0
 30
0.0
 40
1.900000000000034
  0
CIRCLE
  5
3DF
330
454
100
AcDbEntity
  8
DATA
  6
Continuous
 62
     7
100
AcDbCircle
 10
156.5000000000423
 20
13.00000000000636
 30
0.0
 40
3.150000000000034
  0
CIRCLE
  5
3E0
330
454
100
AcDbEntity
  8
DATA
  6
Continuous
 62
     7
100
AcDbCircle
 10
173.4999999999577
 20
12.99999999999363
 30
0.0
 40
1.900000000000034
  0
CIRCLE
  5
3E1
330
454
100
AcDbEntity
  8
DATA
  6
Continuous
 62
     7
100
AcDbCircle
 10
173.5
 20
13.0
 30
0.0
 40
3.150000000000034
  0
ARC
  5
3E2
330
454
100
AcDbEntity
  8
DATA
  6
Continuous
 62
     7
100
AcDbCircle
 10
103.0
 20
3.0
 30
0.0
 40
3.0
100
AcDbArc
 50
180.0
 51
270.0
  0
ARC
  5
3E3
330
454
100
AcDbEntity
  8
DATA
  6
Continuous
 62
     7
100
AcDbCircle
 10
103.0
 20
2.999999999999994
 30
0.0
 40
1.400000000000005
100
AcDbArc
 50
180.0
 51
270.0
  0
ENDSEC
  0
SECTION
  2
OBJECTS
  0
DICTIONARY
  5
3F1
330
0
100
AcDbDictionary
281
     1
  3
ACAD_CIP_PREVIOUS_PRODUCT_INFO
350
46C
  3
ACAD_COLOR
350
447
  3
ACAD_DETAILVIEWSTYLE
350
44E
  3
ACAD_GROUP
350
3F2
  3
ACAD_LAYOUT
350
446
  3
ACAD_MATERIAL
350
3F5
  3
ACAD_MLEADERSTYLE
350
44A
  3
ACAD_MLINESTYLE
350
443
  3
ACAD_PLOTSETTINGS
350
445
  3
ACAD_PLOTSTYLENAME
350
3F3
  3
ACAD_SCALELIST
350
427
  3
ACAD_SECTIONVIEWSTYLE
350
44C
  3
ACAD_TABLESTYLE
350
448
  3
ACAD_VISUALSTYLE
350
40E
  3
ACDB_RECOMPOSE_DATA
350
484
  3
AcDbVariableDictionary
350
477
  3
DWGPROPS
350
485
  0
DICTIONARY
  5
46D
330
439
100
AcDbDictionary
280
     1
281
     1
  3
ADSK_XREC_LAYER_RECONCILED
360
46E
  0
DICTIONARY
  5
46F
330
458
100
AcDbDictionary
280
     1
281
     1
  3
ADSK_XREC_LAYER_RECONCILED
360
470
  0
DICTIONARY
  5
471
330
464
100
AcDbDictionary
280
     1
281
     1
  3
ADSK_XREC_LAYER_RECONCILED
360
472
  0
DICTIONARY
  5
473
330
465
100
AcDbDictionary
280
     1
281
     1
  3
ADSK_XREC_LAYER_RECONCILED
360
474
  0
DICTIONARY
  5
475
330
466
100
AcDbDictionary
280
     1
281
     1
  3
ADSK_XREC_LAYER_RECONCILED
360
476
  0
XRECORD
  5
46C
102
{ACAD_REACTORS
330
3F1
102
}
330
3F1
100
AcDbXrecord
280
     1
300
ACDLT
300
2018
300
ACDLT_F_S
  0
DICTIONARY
  5
447
102
{ACAD_REACTORS
330
3F1
102
}
330
3F1
100
AcDbDictionary
281
     1
  0
DICTIONARY
  5
44E
102
{ACAD_REACTORS
330
3F1
102
}
330
3F1
100
AcDbDictionary
281
     1
  3
Imperial24
350
44F
  0
DICTIONARY
  5
3F2
102
{ACAD_REACTORS
330
3F1
102
}
330
3F1
100
AcDbDictionary
281
     1
  0
DICTIONARY
  5
446
102
{ACAD_REACTORS
330
3F1
102
}
330
3F1
100
AcDbDictionary
281
     1
  3
Model
350
457
  3
レイアウト1
350
453
  0
DICTIONARY
  5
3F5
102
{ACAD_REACTORS
330
3F1
102
}
330
3F1
100
AcDbDictionary
281
     1
  3
ByBlock
350
3FE
  3
ByLayer
350
3F6
  3
Global
350
406
  0
DICTIONARY
  5
44A
102
{ACAD_REACTORS
330
3F1
102
}
330
3F1
100
AcDbDictionary
281
     1
  3
Standard
350
44B
  0
DICTIONARY
  5
443
102
{ACAD_REACTORS
330
3F1
102
}
330
3F1
100
AcDbDictionary
281
     1
  3
Standard
350
444
  0
DICTIONARY
  5
445
102
{ACAD_REACTORS
330
3F1
102
}
330
3F1
100
AcDbDictionary
281
     1
  0
ACDBDICTIONARYWDFLT
  5
3F3
102
{ACAD_REACTORS
330
3F1
102
}
330
3F1
100
AcDbDictionary
281
     1
  3
Normal
350
3F4
100
AcDbDictionaryWithDefault
340
3F4
  0
DICTIONARY
  5
427
102
{ACAD_REACTORS
330
3F1
102
}
330
3F1
100
AcDbDictionary
281
     1
  3
A0
350
428
  3
A1
350
429
  3
A2
350
42A
  3
A3
350
42B
  3
A4
350
42C
  3
A5
350
42D
  3
A6
350
42E
  3
A7
350
42F
  3
A8
350
430
  3
A9
350
431
  3
B0
350
432
  3
B1
350
433
  3
B2
350
434
  3
B3
350
435
  3
B4
350
436
  3
B5
350
437
  3
B6
350
438
  0
DICTIONARY
  5
44C
102
{ACAD_REACTORS
330
3F1
102
}
330
3F1
100
AcDbDictionary
281
     1
  3
Imperial24
350
44D
  0
DICTIONARY
  5
448
102
{ACAD_REACTORS
330
3F1
102
}
330
3F1
100
AcDbDictionary
281
     1
  3
Standard
350
449
  0
DICTIONARY
  5
40E
102
{ACAD_REACTORS
330
3F1
102
}
330
3F1
100
AcDbDictionary
281
     1
  3
2dWireframe
350
414
  3
Basic
350
413
  3
Brighten
350
41A
  3
ColorChange
350
41E
  3
Conceptual
350
417
  3
Dim
350
419
  3
EdgeColorOff
350
426
  3
Facepattern
350
41D
  3
Flat
350
40F
  3
FlatWithEdges
350
410
  3
Gouraud
350
411
  3
GouraudWithEdges
350
412
  3
Hidden
350
416
  3
JitterOff
350
424
  3
Linepattern
350
41C
  3
OverhangOff
350
425
  3
Realistic
350
418
  3
Shaded
350
423
  3
Shaded with edges
350
422
  3
Shades of Gray
350
41F
  3
Sketchy
350
420
  3
Thicken
350
41B
  3
Wireframe
350
415
  3
X-Ray
350
421
  0
XRECORD
  5
484
102
{ACAD_REACTORS
330
3F1
102
}
330
3F1
100
AcDbXrecord
280
     1
 90
        1
330
449
  0
DICTIONARY
  5
477
102
{ACAD_REACTORS
330
3F1
102
}
330
3F1
100
AcDbDictionary
281
     1
  3
CANNOSCALE
350
47C
  3
CMLEADERSTYLE
350
479
  3
CTABLESTYLE
350
478
  3
CVIEWDETAILSTYLE
350
47A
  3
CVIEWSECTIONSTYLE
350
47B
  3
DIMASSOC
350
47F
  3
INDEXCTL
350
47E
  3
SORTENTS
350
47D
  3
XCLIPFRAME
350
480
  0
XRECORD
  5
485
102
{ACAD_REACTORS
330
3F1
102
}
330
3F1
100
AcDbXrecord
280
     1
  1
DWGPROPS COOKIE
  2

  3

  4

  6

  7

  8
sasaki_n
  9

300
=
301
=
302
=
303
=
304
=
305
=
306
=
307
=
308
=
309
=
 40
0.0003009259259259
 41
2457919.473761574
 42
2457919.47988426
  1

 90
        0
  0
XRECORD
  5
46E
102
{ACAD_REACTORS
330
46D
102
}
330
46D
100
AcDbXrecord
280
     1
290
     1
  0
XRECORD
  5
470
102
{ACAD_REACTORS
330
46F
102
}
330
46F
100
AcDbXrecord
280
     1
290
     1
  0
XRECORD
  5
472
102
{ACAD_REACTORS
330
471
102
}
330
471
100
AcDbXrecord
280
     1
290
     1
  0
XRECORD
  5
474
102
{ACAD_REACTORS
330
473
102
}
330
473
100
AcDbXrecord
280
     1
290
     1
  0
XRECORD
  5
476
102
{ACAD_REACTORS
330
475
102
}
330
475
100
AcDbXrecord
280
     1
290
     1
  0
ACDBDETAILVIEWSTYLE
  5
44F
102
{ACAD_XDICTIONARY
360
4BD
102
}
102
{ACAD_REACTORS
330
44E
102
}
330
44E
100
AcDbModelDocViewStyle
 70
     0
  3
Imperial24
290
     0
100
AcDbDetailViewStyle
 70
     0
 71
     0
 90
        3
 71
     1
340
43A
 40
0.24
340
0
 40
0.24
300

 40
0.36
280
     3
 71
     2
340
441
 90
       25
 71
     3
340
43A
 40
0.24
 90
        1
 40
0.75
 90
        1
300
%<\AcVar ViewType \f "%tc1">% %<\AcVar ViewDetailId>%\PSCALE %<\AcVar ViewScale \f "%sn">%
 71
     4
340
441
 90
       25
340
441
 90
       25
280
     0
  0
LAYOUT
  5
457
102
{ACAD_XDICTIONARY
360
4C1
102
}
102
{ACAD_REACTORS
330
446
102
}
330
446
100
AcDbPlotSettings
  1

  2
DocuPrint 3000-2
  4

  6

 40
0.0
 41
0.0
 42
0.0
 43
0.0
 44
0.0
 45
0.0
 46
0.0
 47
0.0
 48
0.0
 49
0.0
140
0.0
141
0.0
142
1.0
143
1.0
 70
  1712
 72
     0
 73
     0
 74
     0
  7

 75
     0
147
1.0
148
0.0
149
0.0
100
AcDbLayout
  1
Model
 70
     1
 71
     0
 10
0.0
 20
0.0
 11
12.0
 21
9.0
 12
0.0
 22
0.0
 32
0.0
 14
0.0
 24
0.0
 34
0.0
 15
0.0
 25
0.0
 35
0.0
146
0.0
 13
0.0
 23
0.0
 33
0.0
 16
1.0
 26
0.0
 36
0.0
 17
0.0
 27
1.0
 37
0.0
 76
     0
330
454
331
459
  0
LAYOUT
  5
453
102
{ACAD_XDICTIONARY
360
4BF
102
}
102
{ACAD_REACTORS
330
446
102
}
330
446
100
AcDbPlotSettings
  1

  2
DocuPrint 3000-2
  4

  6

 40
0.0
 41
0.0
 42
0.0
 43
0.0
 44
0.0
 45
0.0
 46
0.0
 47
0.0
 48
0.0
 49
0.0
140
0.0
141
0.0
142
1.0
143
1.0
 70
   688
 72
     0
 73
     0
 74
     5
  7

 75
    16
147
1.0
148
0.0
149
0.0
100
AcDbLayout
  1
レイアウト1
 70
     0
 71
     1
 10
0.0
 20
0.0
 11
12.0
 21
9.0
 12
0.0
 22
0.0
 32
0.0
 14
1.000000000000000E+20
 24
1.000000000000000E+20
 34
1.000000000000000E+20
 15
-1.000000000000000E+20
 25
-1.000000000000000E+20
 35
-1.000000000000000E+20
146
0.0
 13
0.0
 23
0.0
 33
0.0
 16
1.0
 26
0.0
 36
0.0
 17
0.0
 27
1.0
 37
0.0
 76
     0
330
450
  0
MATERIAL
  5
3FE
102
{ACAD_XDICTIONARY
360
3FF
102
}
102
{ACAD_REACTORS
330
3F5
102
}
330
3F5
100
AcDbMaterial
  1
ByBlock
 72
     0
 43
0.0208333333333333
 43
0.0
 43
0.0
 43
0.0
 43
0.0
 43
0.0208333333333333
 43
0.0
 43
0.0
 43
0.0
 43
0.0
 43
1.0
 43
0.0
 43
0.0
 43
0.0
 43
0.0
 43
1.0
 77
     0
 47
0.0208333333333333
 47
0.0
 47
0.0
 47
0.0
 47
0.0
 47
0.0208333333333333
 47
0.0
 47
0.0
 47
0.0
 47
0.0
 47
1.0
 47
0.0
 47
0.0
 47
0.0
 47
0.0
 47
1.0
171
     0
 49
0.0208333333333333
 49
0.0
 49
0.0
 49
0.0
 49
0.0
 49
0.0208333333333333
 49
0.0
 49
0.0
 49
0.0
 49
0.0
 49
1.0
 49
0.0
 49
0.0
 49
0.0
 49
0.0
 49
1.0
175
     0
142
0.0208333333333333
142
0.0
142
0.0
142
0.0
142
0.0
142
0.0208333333333333
142
0.0
142
0.0
142
0.0
142
0.0
142
1.0
142
0.0
142
0.0
142
0.0
142
0.0
142
1.0
179
     0
144
0.0208333333333333
144
0.0
144
0.0
144
0.0
144
0.0
144
0.0208333333333333
144
0.0
144
0.0
144
0.0
144
0.0
144
1.0
144
0.0
144
0.0
144
0.0
144
0.0
144
1.0
147
0.0208333333333333
147
0.0
147
0.0
147
0.0
147
0.0
147
0.0208333333333333
147
0.0
147
0.0
147
0.0
147
0.0
147
1.0
147
0.0
147
0.0
147
0.0
147
0.0
147
1.0
  0
MATERIAL
  5
3F6
102
{ACAD_XDICTIONARY
360
3F7
102
}
102
{ACAD_REACTORS
330
3F5
102
}
330
3F5
100
AcDbMaterial
  1
ByLayer
 72
     0
 43
0.0208333333333333
 43
0.0
 43
0.0
 43
0.0
 43
0.0
 43
0.0208333333333333
 43
0.0
 43
0.0
 43
0.0
 43
0.0
 43
1.0
 43
0.0
 43
0.0
 43
0.0
 43
0.0
 43
1.0
 77
     0
 47
0.0208333333333333
 47
0.0
 47
0.0
 47
0.0
 47
0.0
 47
0.0208333333333333
 47
0.0
 47
0.0
 47
0.0
 47
0.0
 47
1.0
 47
0.0
 47
0.0
 47
0.0
 47
0.0
 47
1.0
171
     0
 49
0.0208333333333333
 49
0.0
 49
0.0
 49
0.0
 49
0.0
 49
0.0208333333333333
 49
0.0
 49
0.0
 49
0.0
 49
0.0
 49
1.0
 49
0.0
 49
0.0
 49
0.0
 49
0.0
 49
1.0
175
     0
142
0.0208333333333333
142
0.0
142
0.0
142
0.0
142
0.0
142
0.0208333333333333
142
0.0
142
0.0
142
0.0
142
0.0
142
1.0
142
0.0
142
0.0
142
0.0
142
0.0
142
1.0
179
     0
144
0.0208333333333333
144
0.0
144
0.0
144
0.0
144
0.0
144
0.0208333333333333
144
0.0
144
0.0
144
0.0
144
0.0
144
1.0
144
0.0
144
0.0
144
0.0
144
0.0
144
1.0
147
0.0208333333333333
147
0.0
147
0.0
147
0.0
147
0.0
147
0.0208333333333333
147
0.0
147
0.0
147
0.0
147
0.0
147
1.0
147
0.0
147
0.0
147
0.0
147
0.0
147
1.0
  0
MATERIAL
  5
406
102
{ACAD_XDICTIONARY
360
407
102
}
102
{ACAD_REACTORS
330
3F5
102
}
330
3F5
100
AcDbMaterial
  1
Global
 72
     0
 43
0.0208333333333333
 43
0.0
 43
0.0
 43
0.0
 43
0.0
 43
0.0208333333333333
 43
0.0
 43
0.0
 43
0.0
 43
0.0
 43
1.0
 43
0.0
 43
0.0
 43
0.0
 43
0.0
 43
1.0
 77
     0
 47
0.0208333333333333
 47
0.0
 47
0.0
 47
0.0
 47
0.0
 47
0.0208333333333333
 47
0.0
 47
0.0
 47
0.0
 47
0.0
 47
1.0
 47
0.0
 47
0.0
 47
0.0
 47
0.0
 47
1.0
171
     0
 49
0.0208333333333333
 49
0.0
 49
0.0
 49
0.0
 49
0.0
 49
0.0208333333333333
 49
0.0
 49
0.0
 49
0.0
 49
0.0
 49
1.0
 49
0.0
 49
0.0
 49
0.0
 49
0.0
 49
1.0
175
     0
142
0.0208333333333333
142
0.0
142
0.0
142
0.0
142
0.0
142
0.0208333333333333
142
0.0
142
0.0
142
0.0
142
0.0
142
1.0
142
0.0
142
0.0
142
0.0
142
0.0
142
1.0
179
     0
144
0.0208333333333333
144
0.0
144
0.0
144
0.0
144
0.0
144
0.0208333333333333
144
0.0
144
0.0
144
0.0
144
0.0
144
1.0
144
0.0
144
0.0
144
0.0
144
0.0
144
1.0
147
0.0208333333333333
147
0.0
147
0.0
147
0.0
147
0.0
147
0.0208333333333333
147
0.0
147
0.0
147
0.0
147
0.0
147
1.0
147
0.0
147
0.0
147
0.0
147
0.0
147
1.0
  0
MLEADERSTYLE
  5
44B
102
{ACAD_REACTORS
330
44A
102
}
330
44A
100
AcDbMLeaderStyle
170
     2
171
     1
172
     0
 90
        2
 40
0.0
 41
0.0
173
     1
 91
-1056964608
340
43F
 92
       -2
290
     1
 42
0.09
291
     1
 43
0.36
  3
Standard
 44
0.18
300

342
43A
174
     1
178
     6
175
     1
176
     0
 93
-1056964608
 45
0.18
292
     0
297
     0
 46
0.18
 94
-1056964608
 47
1.0
 49
1.0
140
1.0
293
     1
141
0.0
294
     1
177
     0
142
1.0
295
     0
296
     0
143
0.125
1001
ACAD_MLEADERVER
1070
     2
  0
MLINESTYLE
  5
444
102
{ACAD_REACTORS
330
443
102
}
330
443
100
AcDbMlineStyle
  2
STANDARD
 70
     0
  3

 62
   256
 51
90.0
 52
90.0
 71
     2
 49
0.5
 62
   256
  6
BYLAYER
 49
-0.5
 62
   256
  6
BYLAYER
  0
ACDBPLACEHOLDER
  5
3F4
102
{ACAD_REACTORS
330
3F3
102
}
330
3F3
  0
SCALE
  5
428
102
{ACAD_REACTORS
330
427
102
}
330
427
100
AcDbScale
 70
     0
300
1:1
140
1.0
141
1.0
290
     1
  0
SCALE
  5
429
102
{ACAD_REACTORS
330
427
102
}
330
427
100
AcDbScale
 70
     0
300
1/128" = 1'-0"
140
0.0078125
141
12.0
290
     0
  0
SCALE
  5
42A
102
{ACAD_REACTORS
330
427
102
}
330
427
100
AcDbScale
 70
     0
300
1/64" = 1'-0"
140
0.015625
141
12.0
290
     0
  0
SCALE
  5
42B
102
{ACAD_REACTORS
330
427
102
}
330
427
100
AcDbScale
 70
     0
300
1/32" = 1'-0"
140
0.03125
141
12.0
290
     0
  0
SCALE
  5
42C
102
{ACAD_REACTORS
330
427
102
}
330
427
100
AcDbScale
 70
     0
300
1/16" = 1'-0"
140
0.0625
141
12.0
290
     0
  0
SCALE
  5
42D
102
{ACAD_REACTORS
330
427
102
}
330
427
100
AcDbScale
 70
     0
300
3/32" = 1'-0"
140
0.09375
141
12.0
290
     0
  0
SCALE
  5
42E
102
{ACAD_REACTORS
330
427
102
}
330
427
100
AcDbScale
 70
     0
300
1/8" = 1'-0"
140
0.125
141
12.0
290
     0
  0
SCALE
  5
42F
102
{ACAD_REACTORS
330
427
102
}
330
427
100
AcDbScale
 70
     0
300
3/16" = 1'-0"
140
0.1875
141
12.0
290
     0
  0
SCALE
  5
430
102
{ACAD_REACTORS
330
427
102
}
330
427
100
AcDbScale
 70
     0
300
1/4" = 1'-0"
140
0.25
141
12.0
290
     0
  0
SCALE
  5
431
102
{ACAD_REACTORS
330
427
102
}
330
427
100
AcDbScale
 70
     0
300
3/8" = 1'-0"
140
0.375
141
12.0
290
     0
  0
SCALE
  5
432
102
{ACAD_REACTORS
330
427
102
}
330
427
100
AcDbScale
 70
     0
300
1/2" = 1'-0"
140
0.5
141
12.0
290
     0
  0
SCALE
  5
433
102
{ACAD_REACTORS
330
427
102
}
330
427
100
AcDbScale
 70
     0
300
3/4" = 1'-0"
140
0.75
141
12.0
290
     0
  0
SCALE
  5
434
102
{ACAD_REACTORS
330
427
102
}
330
427
100
AcDbScale
 70
     0
300
1" = 1'-0"
140
1.0
141
12.0
290
     0
  0
SCALE
  5
435
102
{ACAD_REACTORS
330
427
102
}
330
427
100
AcDbScale
 70
     0
300
1-1/2" = 1'-0"
140
1.5
141
12.0
290
     0
  0
SCALE
  5
436
102
{ACAD_REACTORS
330
427
102
}
330
427
100
AcDbScale
 70
     0
300
3" = 1'-0"
140
3.0
141
12.0
290
     0
  0
SCALE
  5
437
102
{ACAD_REACTORS
330
427
102
}
330
427
100
AcDbScale
 70
     0
300
6" = 1'-0"
140
6.0
141
12.0
290
     0
  0
SCALE
  5
438
102
{ACAD_REACTORS
330
427
102
}
330
427
100
AcDbScale
 70
     0
300
1'-0" = 1'-0"
140
12.0
141
12.0
290
     0
  0
ACDBSECTIONVIEWSTYLE
  5
44D
102
{ACAD_XDICTIONARY
360
4BB
102
}
102
{ACAD_REACTORS
330
44C
102
}
330
44C
100
AcDbModelDocViewStyle
 70
     0
  3
Imperial24
290
     0
100
AcDbSectionViewStyle
 70
     0
 71
     0
 90
       78
 71
     1
340
43A
 40
0.24
340
0
340
0
 40
0.24
300
I, O, Q, S, X, Z
 40
0.48
 90
        3
 40
0.18
 90
        1
 71
     2
340
441
 90
       25
340
441
 90
       50
 40
0.24
 40
0.0
 40
0.24
 71
     3
340
43A
 40
0.24
 90
        1
 40
0.75
 90
        1
300
%<\AcVar ViewType \f "%tc1">% %<\AcVar ViewSectionStartId>%-%<\AcVar ViewSectionEndId>%\PSCALE %<\AcVar ViewScale \f "%sn">%
 71
     4
300
ANSI31
 40
1.0
 90
        0
290
     0
290
     0
 90
        6
 40
0.0
 40
1.570796326794896
 40
0.2617993877991494
 40
1.308996938995747
 40
-0.2617993877991494
 40
1.832595714594046
  0
TABLESTYLE
  5
449
102
{ACAD_XDICTIONARY
360
482
102
}
102
{ACAD_REACTORS
330
448
102
}
330
448
100
AcDbTableStyle
  3
Standard
 70
     0
 71
     0
 40
0.06
 41
0.06
280
     0
281
     0
  7
STANDARD
140
0.18
170
     2
 62
     0
 63
     7
283
     0
274
    -2
284
     1
 64
     0
275
    -2
285
     1
 65
     0
276
    -2
286
     1
 66
     0
277
    -2
287
     1
 67
     0
278
    -2
288
     1
 68
     0
279
    -2
289
     1
 69
     0
  7
STANDARD
140
0.25
170
     5
 62
     0
 63
     7
283
     0
274
    -2
284
     1
 64
     0
275
    -2
285
     1
 65
     0
276
    -2
286
     1
 66
     0
277
    -2
287
     1
 67
     0
278
    -2
288
     1
 68
     0
279
    -2
289
     1
 69
     0
  7
STANDARD
140
0.18
170
     5
 62
     0
 63
     7
283
     0
274
    -2
284
     1
 64
     0
275
    -2
285
     1
 65
     0
276
    -2
286
     1
 66
     0
277
    -2
287
     1
 67
     0
278
    -2
288
     1
 68
     0
279
    -2
289
     1
 69
     0
  0
VISUALSTYLE
  5
414
102
{ACAD_XDICTIONARY
360
493
102
}
102
{ACAD_REACTORS
330
40E
102
}
330
40E
100
AcDbVisualStyle
  2
2dWireframe
 70
     4
 71
     0
 72
     2
 73
     0
 90
        0
 40
-0.6
 41
-30.0
 62
     5
 63
     7
 74
     1
 91
        4
 64
     7
 65
   257
 75
     1
175
     1
 42
1.0
 92
        0
 66
   257
 43
1.0
 76
     1
 77
     6
 78
     2
 67
     7
 79
     5
170
     0
171
     0
290
     0
174
     0
 93
        1
 44
0.0
173
     0
291
     0
 45
0.0
1001
ACAD
1000
AcDbSavedByObjectVersion
1070
     0
  0
VISUALSTYLE
  5
413
102
{ACAD_XDICTIONARY
360
491
102
}
102
{ACAD_REACTORS
330
40E
102
}
330
40E
100
AcDbVisualStyle
  2
Basic
 70
     7
 71
     1
 72
     0
 73
     1
 90
        0
 40
-0.6
 41
-30.0
 62
     5
 63
     7
 74
     0
 91
        4
 64
     7
 65
   257
 75
     1
175
     1
 42
1.0
 92
        8
 66
     7
 43
1.0
 76
     1
 77
     6
 78
     2
 67
     7
 79
     5
170
     0
171
     0
290
     0
174
     0
 93
        1
 44
0.0
173
     0
291
     1
 45
0.0
1001
ACAD
1000
AcDbSavedByObjectVersion
1070
     0
  0
VISUALSTYLE
  5
41A
102
{ACAD_XDICTIONARY
360
49F
102
}
102
{ACAD_REACTORS
330
40E
102
}
330
40E
100
AcDbVisualStyle
  2
Brighten
 70
    12
 71
     2
 72
     2
 73
     0
 90
        0
 40
-0.6
 41
-30.0
 62
     5
 63
     7
 74
     1
 91
        4
 64
     7
 65
   257
 75
     1
175
     1
 42
1.0
 92
        8
 66
     7
 43
1.0
 76
     1
 77
     6
 78
     2
 67
     7
 79
     5
170
     0
171
     0
290
     0
174
     0
 93
        1
 44
50.0
173
     0
291
     1
 45
0.0
1001
ACAD
1000
AcDbSavedByObjectVersion
1070
     0
  0
VISUALSTYLE
  5
41E
102
{ACAD_XDICTIONARY
360
4A7
102
}
102
{ACAD_REACTORS
330
40E
102
}
330
40E
100
AcDbVisualStyle
  2
ColorChange
 70
    16
 71
     2
 72
     2
 73
     3
 90
        0
 40
-0.6
 41
-30.0
 62
     5
 63
     8
 74
     1
 91
        4
 64
     7
 65
   257
 75
     1
175
     1
 42
1.0
 92
        8
 66
     8
 43
1.0
 76
     1
 77
     6
 78
     2
 67
     7
 79
     5
170
     0
171
     0
290
     0
174
     0
 93
        1
 44
0.0
173
     0
291
     1
 45
0.0
1001
ACAD
1000
AcDbSavedByObjectVersion
1070
     0
  0
VISUALSTYLE
  5
417
102
{ACAD_XDICTIONARY
360
499
102
}
102
{ACAD_REACTORS
330
40E
102
}
330
40E
100
AcDbVisualStyle
  2
Conceptual
 70
     9
 71
     3
 72
     2
 73
     0
 90
        0
 40
-0.6
 41
-30.0
 62
     5
 63
     7
 74
     2
 91
        2
 64
     7
 65
   257
 75
     1
175
     1
 42
179.0
 92
        8
 66
     7
 43
1.0
 76
     1
 77
     6
 78
     2
 67
     7
 79
     3
170
     0
171
     0
290
     0
174
     0
 93
        1
 44
0.0
173
     0
291
     0
 45
0.0
1001
ACAD
1000
AcDbSavedByObjectVersion
1070
     0
  0
VISUALSTYLE
  5
419
102
{ACAD_XDICTIONARY
360
49D
102
}
102
{ACAD_REACTORS
330
40E
102
}
330
40E
100
AcDbVisualStyle
  2
Dim
 70
    11
 71
     2
 72
     2
 73
     0
 90
        0
 40
-0.6
 41
-30.0
 62
     5
 63
     7
 74
     1
 91
        4
 64
     7
 65
   257
 75
     1
175
     1
 42
1.0
 92
        8
 66
     7
 43
1.0
 76
     1
 77
     6
 78
     2
 67
     7
 79
     5
170
     0
171
     0
290
     0
174
     0
 93
        1
 44
-50.0
173
     0
291
     1
 45
0.0
1001
ACAD
1000
AcDbSavedByObjectVersion
1070
     0
  0
VISUALSTYLE
  5
426
102
{ACAD_XDICTIONARY
360
4B7
102
}
102
{ACAD_REACTORS
330
40E
102
}
330
40E
100
AcDbVisualStyle
  2
EdgeColorOff
 70
    22
 71
     2
 72
     2
 73
     0
 90
        0
 40
-0.6
 41
-30.0
 62
     5
 63
     7
 74
     1
 91
        4
 64
     7
 65
   257
 75
     1
175
     1
 42
1.0
 92
        8
 66
     7
 43
1.0
 76
     1
 77
     6
 78
     2
 67
     7
 79
     5
170
     0
171
     0
290
     0
174
     0
 93
        1
 44
0.0
173
     0
291
     1
 45
0.0
1001
ACAD
1000
AcDbSavedByObjectVersion
1070
     0
  0
VISUALSTYLE
  5
41D
102
{ACAD_XDICTIONARY
360
4A5
102
}
102
{ACAD_REACTORS
330
40E
102
}
330
40E
100
AcDbVisualStyle
  2
Facepattern
 70
    15
 71
     2
 72
     2
 73
     0
 90
        0
 40
-0.6
 41
-30.0
 62
     5
 63
     7
 74
     1
 91
        4
 64
     7
 65
   257
 75
     1
175
     1
 42
1.0
 92
        8
 66
     7
 43
1.0
 76
     1
 77
     6
 78
     2
 67
     7
 79
     5
170
     0
171
     0
290
     0
174
     0
 93
        1
 44
0.0
173
     0
291
     1
 45
0.0
1001
ACAD
1000
AcDbSavedByObjectVersion
1070
     0
  0
VISUALSTYLE
  5
40F
102
{ACAD_XDICTIONARY
360
489
102
}
102
{ACAD_REACTORS
330
40E
102
}
330
40E
100
AcDbVisualStyle
  2
Flat
 70
     0
 71
     2
 72
     1
 73
     1
 90
        2
 40
-0.6
 41
30.0
 62
     5
 63
     7
 74
     0
 91
        0
 64
     7
 65
   257
 75
     1
175
     1
 42
1.0
 92
        8
 66
     7
 43
1.0
 76
     1
 77
     6
 78
     2
 67
     7
 79
     5
170
     0
171
     0
290
     0
174
     0
 93
       13
 44
0.0
173
     0
291
     1
 45
0.0
1001
ACAD
1000
AcDbSavedByObjectVersion
1070
     0
  0
VISUALSTYLE
  5
410
102
{ACAD_XDICTIONARY
360
48B
102
}
102
{ACAD_REACTORS
330
40E
102
}
330
40E
100
AcDbVisualStyle
  2
FlatWithEdges
 70
     1
 71
     2
 72
     1
 73
     1
 90
        2
 40
-0.6
 41
30.0
 62
     5
 63
     7
 74
     1
 91
        0
 64
     7
 65
   257
 75
     1
175
     1
 42
1.0
 92
        0
 66
   257
 43
1.0
 76
     1
 77
     6
 78
     2
 67
     7
 79
     5
170
     0
171
     0
290
     0
174
     0
 93
       13
 44
0.0
173
     0
291
     1
 45
0.0
1001
ACAD
1000
AcDbSavedByObjectVersion
1070
     0
  0
VISUALSTYLE
  5
411
102
{ACAD_XDICTIONARY
360
48D
102
}
102
{ACAD_REACTORS
330
40E
102
}
330
40E
100
AcDbVisualStyle
  2
Gouraud
 70
     2
 71
     2
 72
     2
 73
     1
 90
        2
 40
-0.6
 41
30.0
 62
     5
 63
     7
 74
     0
 91
        0
 64
     7
 65
   257
 75
     1
175
     1
 42
1.0
 92
        0
 66
     7
 43
1.0
 76
     1
 77
     6
 78
     2
 67
     7
 79
     5
170
     0
171
     0
290
     0
174
     0
 93
       13
 44
0.0
173
     0
291
     1
 45
0.0
1001
ACAD
1000
AcDbSavedByObjectVersion
1070
     0
  0
VISUALSTYLE
  5
412
102
{ACAD_XDICTIONARY
360
48F
102
}
102
{ACAD_REACTORS
330
40E
102
}
330
40E
100
AcDbVisualStyle
  2
GouraudWithEdges
 70
     3
 71
     2
 72
     2
 73
     1
 90
        2
 40
-0.6
 41
30.0
 62
     5
 63
     7
 74
     1
 91
        0
 64
     7
 65
   257
 75
     1
175
     1
 42
1.0
 92
        0
 66
   257
 43
1.0
 76
     1
 77
     6
 78
     2
 67
     7
 79
     5
170
     0
171
     0
290
     0
174
     0
 93
       13
 44
0.0
173
     0
291
     1
 45
0.0
1001
ACAD
1000
AcDbSavedByObjectVersion
1070
     0
  0
VISUALSTYLE
  5
416
102
{ACAD_XDICTIONARY
360
497
102
}
102
{ACAD_REACTORS
330
40E
102
}
330
40E
100
AcDbVisualStyle
  2
Hidden
 70
     6
 71
     1
 72
     2
 73
     2
 90
        0
 40
-0.6
 41
-30.0
 62
     5
 63
     7
 74
     2
 91
        2
 64
     7
 65
   257
 75
     2
175
     1
 42
40.0
 92
        0
 66
   257
 43
1.0
 76
     1
 77
     6
 78
     2
 67
     7
 79
     3
170
     0
171
     0
290
     0
174
     0
 93
        1
 44
0.0
173
     0
291
     0
 45
0.0
1001
ACAD
1000
AcDbSavedByObjectVersion
1070
     0
  0
VISUALSTYLE
  5
424
102
{ACAD_XDICTIONARY
360
4B3
102
}
102
{ACAD_REACTORS
330
40E
102
}
330
40E
100
AcDbVisualStyle
  2
JitterOff
 70
    20
 71
     2
 72
     2
 73
     0
 90
        0
 40
-0.6
 41
-30.0
 62
     5
 63
     7
 74
     1
 91
        4
 64
     7
 65
   257
 75
     1
175
     1
 42
1.0
 92
       10
 66
     7
 43
1.0
 76
     1
 77
     6
 78
     2
 67
     7
 79
     5
170
     0
171
     0
290
     0
174
     0
 93
        1
 44
0.0
173
     0
291
     1
 45
0.0
1001
ACAD
1000
AcDbSavedByObjectVersion
1070
     0
  0
VISUALSTYLE
  5
41C
102
{ACAD_XDICTIONARY
360
4A3
102
}
102
{ACAD_REACTORS
330
40E
102
}
330
40E
100
AcDbVisualStyle
  2
Linepattern
 70
    14
 71
     2
 72
     2
 73
     0
 90
        0
 40
-0.6
 41
-30.0
 62
     5
 63
     7
 74
     1
 91
        4
 64
     7
 65
   257
 75
     7
175
     7
 42
1.0
 92
        8
 66
     7
 43
1.0
 76
     1
 77
     6
 78
     2
 67
     7
 79
     5
170
     0
171
     0
290
     0
174
     0
 93
        1
 44
0.0
173
     0
291
     1
 45
0.0
1001
ACAD
1000
AcDbSavedByObjectVersion
1070
     0
  0
VISUALSTYLE
  5
425
102
{ACAD_XDICTIONARY
360
4B5
102
}
102
{ACAD_REACTORS
330
40E
102
}
330
40E
100
AcDbVisualStyle
  2
OverhangOff
 70
    21
 71
     2
 72
     2
 73
     0
 90
        0
 40
-0.6
 41
-30.0
 62
     5
 63
     7
 74
     1
 91
        4
 64
     7
 65
   257
 75
     1
175
     1
 42
1.0
 92
        9
 66
     7
 43
1.0
 76
     1
 77
     6
 78
     2
 67
     7
 79
     5
170
     0
171
     0
290
     0
174
     0
 93
        1
 44
0.0
173
     0
291
     1
 45
0.0
1001
ACAD
1000
AcDbSavedByObjectVersion
1070
     0
  0
VISUALSTYLE
  5
418
102
{ACAD_XDICTIONARY
360
49B
102
}
102
{ACAD_REACTORS
330
40E
102
}
330
40E
100
AcDbVisualStyle
  2
Realistic
 70
     8
 71
     2
 72
     3
 73
     0
 90
        2
 40
-0.6
 41
30.0
 62
     5
 63
     7
 74
     0
 91
        0
 64
     7
 65
   257
 75
     1
175
     1
 42
1.0
 92
        8
 66
   257
 43
1.0
 76
     1
 77
     6
 78
     2
 67
     7
 79
     3
170
     0
171
     0
290
     0
174
     0
 93
       13
 44
0.0
173
     0
291
     0
 45
0.0
1001
ACAD
1000
AcDbSavedByObjectVersion
1070
     0
  0
VISUALSTYLE
  5
423
102
{ACAD_XDICTIONARY
360
4B1
102
}
102
{ACAD_REACTORS
330
40E
102
}
330
40E
100
AcDbVisualStyle
  2
Shaded
 70
    27
 71
     2
 72
     2
 73
     1
 90
        2
 40
-0.6
 41
30.0
 62
     5
 63
     7
 74
     0
 91
        4
 64
     7
 65
   257
 75
     1
175
     1
 42
1.0
 92
        8
 66
   257
 43
1.0
 76
     1
 77
     6
 78
     2
 67
     8
 79
     3
170
     0
171
     0
290
     0
174
     0
 93
        5
 44
0.0
173
     0
291
     0
 45
0.0
1001
ACAD
1000
AcDbSavedByObjectVersion
1070
     0
  0
VISUALSTYLE
  5
422
102
{ACAD_XDICTIONARY
360
4AF
102
}
102
{ACAD_REACTORS
330
40E
102
}
330
40E
100
AcDbVisualStyle
  2
Shaded with edges
 70
    26
 71
     2
 72
     2
 73
     1
 90
        2
 40
-0.6
 41
30.0
 62
     5
 63
     7
 74
     1
 91
        2
 64
     7
 65
   257
 75
     2
175
     1
 42
1.0
 92
        8
 66
   257
 43
1.0
 76
     1
 77
     6
 78
     2
 67
     7
 79
     3
170
     0
171
     0
290
     0
174
     0
 93
        5
 44
0.0
173
     0
291
     0
 45
0.0
1001
ACAD
1000
AcDbSavedByObjectVersion
1070
     0
  0
VISUALSTYLE
  5
41F
102
{ACAD_XDICTIONARY
360
4A9
102
}
102
{ACAD_REACTORS
330
40E
102
}
330
40E
100
AcDbVisualStyle
  2
Shades of Gray
 70
    23
 71
     2
 72
     2
 73
     3
 90
        0
 40
-0.6
 41
-30.0
 62
     5
 63
     7
 74
     2
 91
        2
 64
     7
 65
     7
 75
     1
175
     1
 42
40.0
 92
        8
 66
     7
 43
1.0
 76
     1
 77
     6
 78
     2
 67
     7
 79
     3
170
     0
171
     0
290
     0
174
     0
 93
        1
 44
0.0
173
     0
291
     0
 45
0.0
1001
ACAD
1000
AcDbSavedByObjectVersion
1070
     0
  0
VISUALSTYLE
  5
420
102
{ACAD_XDICTIONARY
360
4AB
102
}
102
{ACAD_REACTORS
330
40E
102
}
330
40E
100
AcDbVisualStyle
  2
Sketchy
 70
    24
 71
     1
 72
     2
 73
     2
 90
        0
 40
-0.6
 41
-30.0
 62
     5
 63
     7
 74
     2
 91
        2
 64
     7
 65
     7
 75
     1
175
     1
 42
40.0
 92
       11
 66
     7
 43
1.0
 76
     1
 77
     6
 78
     2
 67
     7
 79
     6
170
     0
171
     0
290
     0
174
     0
 93
        1
 44
0.0
173
     0
291
     0
 45
0.0
1001
ACAD
1000
AcDbSavedByObjectVersion
1070
     0
  0
VISUALSTYLE
  5
41B
102
{ACAD_XDICTIONARY
360
4A1
102
}
102
{ACAD_REACTORS
330
40E
102
}
330
40E
100
AcDbVisualStyle
  2
Thicken
 70
    13
 71
     2
 72
     2
 73
     0
 90
        0
 40
-0.6
 41
-30.0
 62
     5
 63
     7
 74
     1
 91
        4
 64
     7
 65
   257
 75
     1
175
     1
 42
1.0
 92
       12
 66
     7
 43
1.0
 76
     1
 77
     6
 78
     2
 67
     7
 79
     5
170
     0
171
     0
290
     0
174
     0
 93
        1
 44
0.0
173
     0
291
     1
 45
0.0
1001
ACAD
1000
AcDbSavedByObjectVersion
1070
     0
  0
VISUALSTYLE
  5
415
102
{ACAD_XDICTIONARY
360
495
102
}
102
{ACAD_REACTORS
330
40E
102
}
330
40E
100
AcDbVisualStyle
  2
Wireframe
 70
     5
 71
     0
 72
     2
 73
     0
 90
        0
 40
-0.6
 41
-30.0
 62
     5
 63
     7
 74
     1
 91
        4
 64
     7
 65
   257
 75
     1
175
     1
 42
1.0
 92
        0
 66
   257
 43
1.0
 76
     1
 77
     6
 78
     2
 67
     7
 79
     3
170
     0
171
     0
290
     0
174
     0
 93
        1
 44
0.0
173
     0
291
     0
 45
0.0
1001
ACAD
1000
AcDbSavedByObjectVersion
1070
     0
  0
VISUALSTYLE
  5
421
102
{ACAD_XDICTIONARY
360
4AD
102
}
102
{ACAD_REACTORS
330
40E
102
}
330
40E
100
AcDbVisualStyle
  2
X-Ray
 70
    25
 71
     2
 72
     2
 73
     1
 90
        1
 40
0.5
 41
-30.0
 62
     5
 63
     7
 74
     1
 91
        0
 64
     7
 65
   257
 75
     1
175
     1
 42
1.0
 92
        8
 66
     7
 43
1.0
 76
     1
 77
     6
 78
     2
 67
     7
 79
     3
170
     0
171
     0
290
     0
174
     0
 93
       13
 44
0.0
173
     0
291
     0
 45
0.0
1001
ACAD
1000
AcDbSavedByObjectVersion
1070
     0
  0
DICTIONARYVAR
  5
47C
102
{ACAD_REACTORS
330
477
102
}
330
477
100
DictionaryVariables
280
     0
  1
1:1
  0
DICTIONARYVAR
  5
479
102
{ACAD_REACTORS
330
477
102
}
330
477
100
DictionaryVariables
280
     0
  1
STANDARD
  0
DICTIONARYVAR
  5
478
102
{ACAD_REACTORS
330
477
102
}
330
477
100
DictionaryVariables
280
     0
  1
STANDARD
  0
DICTIONARYVAR
  5
47A
102
{ACAD_REACTORS
330
477
102
}
330
477
100
DictionaryVariables
280
     0
  1
Imperial24
  0
DICTIONARYVAR
  5
47B
102
{ACAD_REACTORS
330
477
102
}
330
477
100
DictionaryVariables
280
     0
  1
Imperial24
  0
DICTIONARYVAR
  5
47F
102
{ACAD_REACTORS
330
477
102
}
330
477
100
DictionaryVariables
280
     0
  1
1
  0
DICTIONARYVAR
  5
47E
102
{ACAD_REACTORS
330
477
102
}
330
477
100
DictionaryVariables
280
     0
  1
0
  0
DICTIONARYVAR
  5
47D
102
{ACAD_REACTORS
330
477
102
}
330
477
100
DictionaryVariables
280
     0
  1
127
  0
DICTIONARYVAR
  5
480
102
{ACAD_REACTORS
330
477
102
}
330
477
100
DictionaryVariables
280
     0
  1
2
  0
DICTIONARY
  5
4BD
330
44F
100
AcDbDictionary
280
     1
281
     1
  3
ACAD_XREC_ROUNDTRIP
360
4BE
  0
DICTIONARY
  5
4C1
330
457
100
AcDbDictionary
280
     1
281
     1
  3
ACAD_XREC_ROUNDTRIP
360
4C2
  0
DICTIONARY
  5
4BF
330
453
100
AcDbDictionary
280
     1
281
     1
  3
ACAD_XREC_ROUNDTRIP
360
4C0
  0
DICTIONARY
  5
3FF
330
3FE
100
AcDbDictionary
280
     1
281
     1
  3
ACAD_XREC_ROUNDTRIP
360
487
  3
BUMPTILE
360
401
  3
DIFFUSETILE
360
400
  3
OPACITYTILE
360
404
  3
REFLECTIONTILE
360
403
  3
REFRACTIONTILE
360
405
  3
SPECULARTILE
360
402
  0
DICTIONARY
  5
3F7
330
3F6
100
AcDbDictionary
280
     1
281
     1
  3
ACAD_XREC_ROUNDTRIP
360
486
  3
BUMPTILE
360
3F9
  3
DIFFUSETILE
360
3F8
  3
OPACITYTILE
360
3FC
  3
REFLECTIONTILE
360
3FB
  3
REFRACTIONTILE
360
3FD
  3
SPECULARTILE
360
3FA
  0
DICTIONARY
  5
407
330
406
100
AcDbDictionary
280
     1
281
     1
  3
ACAD_XREC_ROUNDTRIP
360
488
  3
BUMPTILE
360
409
  3
DIFFUSETILE
360
408
  3
OPACITYTILE
360
40C
  3
REFLECTIONTILE
360
40B
  3
REFRACTIONTILE
360
40D
  3
SPECULARTILE
360
40A
  0
DICTIONARY
  5
4BB
330
44D
100
AcDbDictionary
280
     1
281
     1
  3
ACAD_XREC_ROUNDTRIP
360
4BC
  0
DICTIONARY
  5
482
330
449
100
AcDbDictionary
280
     1
281
     1
  3
ACAD_ROUNDTRIP_2008_TABLESTYLE_CELLSTYLEMAP
360
483
  3
ACAD_XREC_ROUNDTRIP
360
4B9
  0
DICTIONARY
  5
493
330
414
100
AcDbDictionary
280
     1
281
     1
  3
ACAD_XREC_ROUNDTRIP
360
494
  0
DICTIONARY
  5
491
330
413
100
AcDbDictionary
280
     1
281
     1
  3
ACAD_XREC_ROUNDTRIP
360
492
  0
DICTIONARY
  5
49F
330
41A
100
AcDbDictionary
280
     1
281
     1
  3
ACAD_XREC_ROUNDTRIP
360
4A0
  0
DICTIONARY
  5
4A7
330
41E
100
AcDbDictionary
280
     1
281
     1
  3
ACAD_XREC_ROUNDTRIP
360
4A8
  0
DICTIONARY
  5
499
330
417
100
AcDbDictionary
280
     1
281
     1
  3
ACAD_XREC_ROUNDTRIP
360
49A
  0
DICTIONARY
  5
49D
330
419
100
AcDbDictionary
280
     1
281
     1
  3
ACAD_XREC_ROUNDTRIP
360
49E
  0
DICTIONARY
  5
4B7
330
426
100
AcDbDictionary
280
     1
281
     1
  3
ACAD_XREC_ROUNDTRIP
360
4B8
  0
DICTIONARY
  5
4A5
330
41D
100
AcDbDictionary
280
     1
281
     1
  3
ACAD_XREC_ROUNDTRIP
360
4A6
  0
DICTIONARY
  5
489
330
40F
100
AcDbDictionary
280
     1
281
     1
  3
ACAD_XREC_ROUNDTRIP
360
48A
  0
DICTIONARY
  5
48B
330
410
100
AcDbDictionary
280
     1
281
     1
  3
ACAD_XREC_ROUNDTRIP
360
48C
  0
DICTIONARY
  5
48D
330
411
100
AcDbDictionary
280
     1
281
     1
  3
ACAD_XREC_ROUNDTRIP
360
48E
  0
DICTIONARY
  5
48F
330
412
100
AcDbDictionary
280
     1
281
     1
  3
ACAD_XREC_ROUNDTRIP
360
490
  0
DICTIONARY
  5
497
330
416
100
AcDbDictionary
280
     1
281
     1
  3
ACAD_XREC_ROUNDTRIP
360
498
  0
DICTIONARY
  5
4B3
330
424
100
AcDbDictionary
280
     1
281
     1
  3
ACAD_XREC_ROUNDTRIP
360
4B4
  0
DICTIONARY
  5
4A3
330
41C
100
AcDbDictionary
280
     1
281
     1
  3
ACAD_XREC_ROUNDTRIP
360
4A4
  0
DICTIONARY
  5
4B5
330
425
100
AcDbDictionary
280
     1
281
     1
  3
ACAD_XREC_ROUNDTRIP
360
4B6
  0
DICTIONARY
  5
49B
330
418
100
AcDbDictionary
280
     1
281
     1
  3
ACAD_XREC_ROUNDTRIP
360
49C
  0
DICTIONARY
  5
4B1
330
423
100
AcDbDictionary
280
     1
281
     1
  3
ACAD_XREC_ROUNDTRIP
360
4B2
  0
DICTIONARY
  5
4AF
330
422
100
AcDbDictionary
280
     1
281
     1
  3
ACAD_XREC_ROUNDTRIP
360
4B0
  0
DICTIONARY
  5
4A9
330
41F
100
AcDbDictionary
280
     1
281
     1
  3
ACAD_XREC_ROUNDTRIP
360
4AA
  0
DICTIONARY
  5
4AB
330
420
100
AcDbDictionary
280
     1
281
     1
  3
ACAD_XREC_ROUNDTRIP
360
4AC
  0
DICTIONARY
  5
4A1
330
41B
100
AcDbDictionary
280
     1
281
     1
  3
ACAD_XREC_ROUNDTRIP
360
4A2
  0
DICTIONARY
  5
495
330
415
100
AcDbDictionary
280
     1
281
     1
  3
ACAD_XREC_ROUNDTRIP
360
496
  0
DICTIONARY
  5
4AD
330
421
100
AcDbDictionary
280
     1
281
     1
  3
ACAD_XREC_ROUNDTRIP
360
4AE
  0
XRECORD
  5
4BE
102
{ACAD_REACTORS
330
4BD
102
}
330
4BD
100
AcDbXrecord
280
     1
102
DISPLAYNAME
  1
Imperial24
102
FLAGS
 90
        0
  0
XRECORD
  5
4C2
102
{ACAD_REACTORS
330
4C1
102
}
330
4C1
100
AcDbXrecord
280
     1
102
SHADEPLOT
 70
     0
102
SHADEPLOTRESLEVEL
 70
     2
102
SHADEPLOTCUSTOMDPI
 70
   300
  0
XRECORD
  5
4C0
102
{ACAD_REACTORS
330
4BF
102
}
330
4BF
100
AcDbXrecord
280
     1
102
SHADEPLOT
 70
     0
102
SHADEPLOTRESLEVEL
 70
     2
102
SHADEPLOTCUSTOMDPI
 70
   300
  0
XRECORD
  5
487
102
{ACAD_REACTORS
330
3FF
102
}
330
3FF
100
AcDbXrecord
280
     1
102
MATERIAL
148
0.0
149
0.0
149
0.0
 93
        0
 94
      127
282
     0
 72
     0
 77
     0
171
     0
175
     0
179
     0
273
     0
  0
XRECORD
  5
401
102
{ACAD_REACTORS
330
3FF
102
}
330
3FF
100
AcDbXrecord
280
     1
270
     1
271
     1
  0
XRECORD
  5
400
102
{ACAD_REACTORS
330
3FF
102
}
330
3FF
100
AcDbXrecord
280
     1
270
     1
271
     1
  0
XRECORD
  5
404
102
{ACAD_REACTORS
330
3FF
102
}
330
3FF
100
AcDbXrecord
280
     1
270
     1
271
     1
  0
XRECORD
  5
403
102
{ACAD_REACTORS
330
3FF
102
}
330
3FF
100
AcDbXrecord
280
     1
270
     1
271
     1
  0
XRECORD
  5
405
102
{ACAD_REACTORS
330
3FF
102
}
330
3FF
100
AcDbXrecord
280
     1
270
     1
271
     1
  0
XRECORD
  5
402
102
{ACAD_REACTORS
330
3FF
102
}
330
3FF
100
AcDbXrecord
280
     1
270
     1
271
     1
  0
XRECORD
  5
486
102
{ACAD_REACTORS
330
3F7
102
}
330
3F7
100
AcDbXrecord
280
     1
102
MATERIAL
148
0.0
149
0.0
149
0.0
 93
        0
 94
      127
282
     0
 72
     0
 77
     0
171
     0
175
     0
179
     0
273
     0
  0
XRECORD
  5
3F9
102
{ACAD_REACTORS
330
3F7
102
}
330
3F7
100
AcDbXrecord
280
     1
270
     1
271
     1
  0
XRECORD
  5
3F8
102
{ACAD_REACTORS
330
3F7
102
}
330
3F7
100
AcDbXrecord
280
     1
270
     1
271
     1
  0
XRECORD
  5
3FC
102
{ACAD_REACTORS
330
3F7
102
}
330
3F7
100
AcDbXrecord
280
     1
270
     1
271
     1
  0
XRECORD
  5
3FB
102
{ACAD_REACTORS
330
3F7
102
}
330
3F7
100
AcDbXrecord
280
     1
270
     1
271
     1
  0
XRECORD
  5
3FD
102
{ACAD_REACTORS
330
3F7
102
}
330
3F7
100
AcDbXrecord
280
     1
270
     1
271
     1
  0
XRECORD
  5
3FA
102
{ACAD_REACTORS
330
3F7
102
}
330
3F7
100
AcDbXrecord
280
     1
270
     1
271
     1
  0
XRECORD
  5
488
102
{ACAD_REACTORS
330
407
102
}
330
407
100
AcDbXrecord
280
     1
102
MATERIAL
148
0.0
149
0.0
149
0.0
 93
        0
 94
      127
282
     0
 72
     0
 77
     0
171
     0
175
     0
179
     0
273
     0
  0
XRECORD
  5
409
102
{ACAD_REACTORS
330
407
102
}
330
407
100
AcDbXrecord
280
     1
270
     1
271
     1
  0
XRECORD
  5
408
102
{ACAD_REACTORS
330
407
102
}
330
407
100
AcDbXrecord
280
     1
270
     1
271
     1
  0
XRECORD
  5
40C
102
{ACAD_REACTORS
330
407
102
}
330
407
100
AcDbXrecord
280
     1
270
     1
271
     1
  0
XRECORD
  5
40B
102
{ACAD_REACTORS
330
407
102
}
330
407
100
AcDbXrecord
280
     1
270
     1
271
     1
  0
XRECORD
  5
40D
102
{ACAD_REACTORS
330
407
102
}
330
407
100
AcDbXrecord
280
     1
270
     1
271
     1
  0
XRECORD
  5
40A
102
{ACAD_REACTORS
330
407
102
}
330
407
100
AcDbXrecord
280
     1
270
     1
271
     1
  0
XRECORD
  5
4BC
102
{ACAD_REACTORS
330
4BB
102
}
330
4BB
100
AcDbXrecord
280
     1
102
DISPLAYNAME
  1
Imperial24
102
FLAGS
 90
        0
  0
CELLSTYLEMAP
  5
483
102
{ACAD_REACTORS
330
482
102
}
330
482
100
AcDbCellStyleMap
 90
        3
300
CELLSTYLE
  1
TABLEFORMAT_BEGIN
 90
        5
170
     1
 91
        0
 92
    32768
 62
   257
 93
        1
300
CONTENTFORMAT
  1
CONTENTFORMAT_BEGIN
 90
        0
 91
        0
 92
      512
 93
        0
300

 40
0.0
140
1.0
 94
        5
 62
     0
340
43A
144
0.25
309
CONTENTFORMAT_END
171
     0
 94
        0
309
TABLEFORMAT_END
  1
CELLSTYLE_BEGIN
 90
        1
 91
        1
300
_TITLE
309
CELLSTYLE_END
300
CELLSTYLE
  1
TABLEFORMAT_BEGIN
 90
        5
170
     1
 91
        0
 92
        0
 62
   257
 93
        1
300
CONTENTFORMAT
  1
CONTENTFORMAT_BEGIN
 90
        0
 91
        0
 92
      512
 93
        0
300

 40
0.0
140
1.0
 94
        5
 62
     0
340
43A
144
0.18
309
CONTENTFORMAT_END
171
     0
 94
        0
309
TABLEFORMAT_END
  1
CELLSTYLE_BEGIN
 90
        2
 91
        1
300
_HEADER
309
CELLSTYLE_END
300
CELLSTYLE
  1
TABLEFORMAT_BEGIN
 90
        5
170
     1
 91
        0
 92
        0
 62
   257
 93
        1
300
CONTENTFORMAT
  1
CONTENTFORMAT_BEGIN
 90
        0
 91
        0
 92
      512
 93
        0
300

 40
0.0
140
1.0
 94
        2
 62
     0
340
43A
144
0.18
309
CONTENTFORMAT_END
171
     0
 94
        0
309
TABLEFORMAT_END
  1
CELLSTYLE_BEGIN
 90
        3
 91
        2
300
_DATA
309
CELLSTYLE_END
  0
XRECORD
  5
4B9
102
{ACAD_REACTORS
330
482
102
}
330
482
100
AcDbXrecord
280
     1
102
ACAD_ROUNDTRIP_PRE2007_TABLESTYLE
 90
      512
 91
        0
  1

 92
      512
 93
        0
  2

 94
      512
 95
        0
  3

  0
XRECORD
  5
494
102
{ACAD_REACTORS
330
493
102
}
330
493
100
AcDbXrecord
280
     1
102
RTVSPost2010Prop28
280
     1
102
RTVSPost2010PropOp28
 70
     1
102
RTVSPost2010Prop29
280
     1
102
RTVSPost2010PropOp29
 70
     1
102
RTVSPost2010Prop30
280
     0
102
RTVSPost2010PropOp30
 70
     1
102
RTVSPost2010Prop31
280
     0
102
RTVSPost2010PropOp31
 70
     1
102
RTVSPost2010Prop32
280
     0
102
RTVSPost2010PropOp32
 70
     1
102
RTVSPost2010Prop33
280
     0
102
RTVSPost2010PropOp33
 70
     1
102
RTVSPost2010Prop34
280
     0
102
RTVSPost2010PropOp34
 70
     1
102
RTVSPost2010Prop35
280
     0
102
RTVSPost2010PropOp35
 70
     1
102
RTVSPost2010Prop36
280
     0
102
RTVSPost2010PropOp36
 70
     1
102
RTVSPost2010Prop37
 90
       50
102
RTVSPost2010PropOp37
 70
     1
102
RTVSPost2010Prop38
140
0.0
102
RTVSPost2010PropOp38
 70
     1
102
RTVSPost2010Prop39
140
1.0
102
RTVSPost2010PropOp39
 70
     1
102
RTVSPost2010Prop40
 90
        0
102
RTVSPost2010PropOp40
 70
     1
102
RTVSPost2010Prop41ColorIndex
 90
       18
102
RTVSPost2010Prop41ColorRGB
 90
        0
102
RTVSPost2010PropOp41
 70
     1
102
RTVSPost2010Prop42
 90
       50
102
RTVSPost2010PropOp42
 70
     1
102
RTVSPost2010Prop43
 90
        3
102
RTVSPost2010PropOp43
 70
     1
102
RTVSPost2010Prop44ColorIndex
 90
        5
102
RTVSPost2010Prop44ColorRGB
 90
      255
102
RTVSPost2010PropOp44
 70
     1
102
RTVSPost2010Prop45
280
     0
102
RTVSPost2010PropOp45
 70
     1
102
RTVSPost2010Prop46
 90
       50
102
RTVSPost2010PropOp46
 70
     1
102
RTVSPost2010Prop47
 90
       50
102
RTVSPost2010PropOp47
 70
     1
102
RTVSPost2010Prop48
 90
       50
102
RTVSPost2010PropOp48
 70
     1
102
RTVSPost2010Prop49
280
     0
102
RTVSPost2010PropOp49
 70
     1
102
RTVSPost2010Prop50
 90
       50
102
RTVSPost2010PropOp50
 70
     1
102
RTVSPost2010Prop51ColorIndex
 90
      256
102
RTVSPost2010Prop51ColorRGB
 90
-16777216
102
RTVSPost2010PropOp51
 70
     0
102
RTVSPost2010Prop52
140
1.0
102
RTVSPost2010PropOp52
 70
     0
102
RTVSPost2010Prop53
 90
        2
102
RTVSPost2010PropOp53
 70
     1
102
RTVSPost2010Prop54
  1
strokes_ogs.tif
102
RTVSPost2010PropOp54
 70
     1
102
RTVSPost2010Prop55
280
     0
102
RTVSPost2010PropOp55
 70
     1
102
RTVSPost2010Prop56
140
1.0
102
RTVSPost2010PropOp56
 70
     1
102
RTVSPost2010Prop57
140
1.0
102
RTVSPost2010PropOp57
 70
     1
102
RTVSPropertyOp0
 70
     1
102
RTVSPropertyOp1
 70
     1
102
RTVSPropertyOp2
 70
     1
102
RTVSPropertyOp3
 70
     1
102
RTVSPropertyOp4
 70
     1
102
RTVSPropertyOp5
 70
     1
102
RTVSPropertyOp6
 70
     1
102
RTVSPropertyOp7
 70
     1
102
RTVSPropertyOp8
 70
     1
102
RTVSPropertyOp9
 70
     1
102
RTVSPropertyOp10
 70
     1
102
RTVSPropertyOp11
 70
     1
102
RTVSPropertyOp12
 70
     1
102
RTVSPropertyOp13
 70
     1
102
RTVSPropertyOp14
 70
     1
102
RTVSPropertyOp15
 70
     1
102
RTVSPropertyOp16
 70
     1
102
RTVSPropertyOp17
 70
     1
102
RTVSPropertyOp18
 70
     1
102
RTVSPropertyOp19
 70
     1
102
RTVSPropertyOp20
 70
     1
102
RTVSPropertyOp21
 70
     1
102
RTVSPropertyOp22
 70
     1
102
RTVSPropertyOp23
 70
     1
102
RTVSPropertyOp24
 70
     1
102
RTVSPropertyOp25
 70
     1
102
RTVSPropertyOp26
 70
     1
102
RTVSPropertyOp27
 70
     1
102
RTVSPropertyOp28
 70
     1
102
RTVSPropertyOp29
 70
     1
102
RTVSPropertyOp30
 70
     1
102
RTVSPropertyOp31
 70
     1
102
RTVSPropertyOp32
 70
     1
102
RTVSPropertyOp33
 70
     1
102
RTVSPropertyOp34
 70
     1
102
RTVSPropertyOp35
 70
     1
102
RTVSPropertyOp36
 70
     1
102
RTVSPropertyOp37
 70
     1
102
RTVSPropertyOp38
 70
     1
102
RTVSPropertyOp39
 70
     1
102
RTVSPropertyOp40
 70
     1
102
RTVSPropertyOp41
 70
     1
102
RTVSPropertyOp42
 70
     1
102
RTVSPropertyOp43
 70
     1
102
RTVSPropertyOp44
 70
     1
102
RTVSPropertyOp45
 70
     1
102
RTVSPropertyOp46
 70
     1
102
RTVSPropertyOp47
 70
     1
102
RTVSPropertyOp48
 70
     1
102
RTVSPropertyOp49
 70
     1
102
RTVSPropertyOp50
 70
     1
102
RTVSPropertyOp51
 70
     0
102
RTVSPropertyOp52
 70
     0
102
RTVSPropertyOp53
 70
     1
102
RTVSPropertyOp54
 70
     1
102
RTVSPropertyOp55
 70
     1
102
RTVSPropertyOp56
 70
     1
102
RTVSPropertyOp57
 70
     1
102
RTVSPropertyOp58
 70
     1
102
RTVSPropertyOp59
 70
     1
102
RTVSPropertyOp60
 70
     1
102
RTVSPropertyOp61
 70
     1
102
RTVSPropertyOp62
 70
     1
  0
XRECORD
  5
492
102
{ACAD_REACTORS
330
491
102
}
330
491
100
AcDbXrecord
280
     1
102
RTVSPost2010Prop28
280
     0
102
RTVSPost2010PropOp28
 70
     1
102
RTVSPost2010Prop29
280
     1
102
RTVSPost2010PropOp29
 70
     1
102
RTVSPost2010Prop30
280
     1
102
RTVSPost2010PropOp30
 70
     1
102
RTVSPost2010Prop31
280
     0
102
RTVSPost2010PropOp31
 70
     1
102
RTVSPost2010Prop32
280
     0
102
RTVSPost2010PropOp32
 70
     1
102
RTVSPost2010Prop33
280
     0
102
RTVSPost2010PropOp33
 70
     1
102
RTVSPost2010Prop34
280
     0
102
RTVSPost2010PropOp34
 70
     1
102
RTVSPost2010Prop35
280
     0
102
RTVSPost2010PropOp35
 70
     1
102
RTVSPost2010Prop36
280
     0
102
RTVSPost2010PropOp36
 70
     1
102
RTVSPost2010Prop37
 90
       50
102
RTVSPost2010PropOp37
 70
     1
102
RTVSPost2010Prop38
140
0.0
102
RTVSPost2010PropOp38
 70
     1
102
RTVSPost2010Prop39
140
1.0
102
RTVSPost2010PropOp39
 70
     1
102
RTVSPost2010Prop40
 90
        0
102
RTVSPost2010PropOp40
 70
     1
102
RTVSPost2010Prop41ColorIndex
 90
       18
102
RTVSPost2010Prop41ColorRGB
 90
        0
102
RTVSPost2010PropOp41
 70
     1
102
RTVSPost2010Prop42
 90
       50
102
RTVSPost2010PropOp42
 70
     1
102
RTVSPost2010Prop43
 90
        3
102
RTVSPost2010PropOp43
 70
     1
102
RTVSPost2010Prop44ColorIndex
 90
        5
102
RTVSPost2010Prop44ColorRGB
 90
      255
102
RTVSPost2010PropOp44
 70
     1
102
RTVSPost2010Prop45
280
     0
102
RTVSPost2010PropOp45
 70
     1
102
RTVSPost2010Prop46
 90
       50
102
RTVSPost2010PropOp46
 70
     1
102
RTVSPost2010Prop47
 90
       50
102
RTVSPost2010PropOp47
 70
     1
102
RTVSPost2010Prop48
 90
       50
102
RTVSPost2010PropOp48
 70
     1
102
RTVSPost2010Prop49
280
     0
102
RTVSPost2010PropOp49
 70
     1
102
RTVSPost2010Prop50
 90
       50
102
RTVSPost2010PropOp50
 70
     1
102
RTVSPost2010Prop51ColorIndex
 90
      256
102
RTVSPost2010Prop51ColorRGB
 90
-16777216
102
RTVSPost2010PropOp51
 70
     0
102
RTVSPost2010Prop52
140
1.0
102
RTVSPost2010PropOp52
 70
     0
102
RTVSPost2010Prop53
 90
        2
102
RTVSPost2010PropOp53
 70
     1
102
RTVSPost2010Prop54
  1
strokes_ogs.tif
102
RTVSPost2010PropOp54
 70
     1
102
RTVSPost2010Prop55
280
     0
102
RTVSPost2010PropOp55
 70
     1
102
RTVSPost2010Prop56
140
1.0
102
RTVSPost2010PropOp56
 70
     1
102
RTVSPost2010Prop57
140
1.0
102
RTVSPost2010PropOp57
 70
     1
102
RTVSPropertyOp0
 70
     1
102
RTVSPropertyOp1
 70
     1
102
RTVSPropertyOp2
 70
     1
102
RTVSPropertyOp3
 70
     1
102
RTVSPropertyOp4
 70
     1
102
RTVSPropertyOp5
 70
     1
102
RTVSPropertyOp6
 70
     1
102
RTVSPropertyOp7
 70
     1
102
RTVSPropertyOp8
 70
     1
102
RTVSPropertyOp9
 70
     1
102
RTVSPropertyOp10
 70
     1
102
RTVSPropertyOp11
 70
     1
102
RTVSPropertyOp12
 70
     1
102
RTVSPropertyOp13
 70
     1
102
RTVSPropertyOp14
 70
     1
102
RTVSPropertyOp15
 70
     1
102
RTVSPropertyOp16
 70
     1
102
RTVSPropertyOp17
 70
     1
102
RTVSPropertyOp18
 70
     1
102
RTVSPropertyOp19
 70
     1
102
RTVSPropertyOp20
 70
     1
102
RTVSPropertyOp21
 70
     1
102
RTVSPropertyOp22
 70
     1
102
RTVSPropertyOp23
 70
     1
102
RTVSPropertyOp24
 70
     1
102
RTVSPropertyOp25
 70
     1
102
RTVSPropertyOp26
 70
     1
102
RTVSPropertyOp27
 70
     1
102
RTVSPropertyOp28
 70
     1
102
RTVSPropertyOp29
 70
     1
102
RTVSPropertyOp30
 70
     1
102
RTVSPropertyOp31
 70
     1
102
RTVSPropertyOp32
 70
     1
102
RTVSPropertyOp33
 70
     1
102
RTVSPropertyOp34
 70
     1
102
RTVSPropertyOp35
 70
     1
102
RTVSPropertyOp36
 70
     1
102
RTVSPropertyOp37
 70
     1
102
RTVSPropertyOp38
 70
     1
102
RTVSPropertyOp39
 70
     1
102
RTVSPropertyOp40
 70
     1
102
RTVSPropertyOp41
 70
     1
102
RTVSPropertyOp42
 70
     1
102
RTVSPropertyOp43
 70
     1
102
RTVSPropertyOp44
 70
     1
102
RTVSPropertyOp45
 70
     1
102
RTVSPropertyOp46
 70
     1
102
RTVSPropertyOp47
 70
     1
102
RTVSPropertyOp48
 70
     1
102
RTVSPropertyOp49
 70
     1
102
RTVSPropertyOp50
 70
     1
102
RTVSPropertyOp51
 70
     0
102
RTVSPropertyOp52
 70
     0
102
RTVSPropertyOp53
 70
     1
102
RTVSPropertyOp54
 70
     1
102
RTVSPropertyOp55
 70
     1
102
RTVSPropertyOp56
 70
     1
102
RTVSPropertyOp57
 70
     1
102
RTVSPropertyOp58
 70
     1
102
RTVSPropertyOp59
 70
     1
102
RTVSPropertyOp60
 70
     1
102
RTVSPropertyOp61
 70
     1
102
RTVSPropertyOp62
 70
     1
  0
XRECORD
  5
4A0
102
{ACAD_REACTORS
330
49F
102
}
330
49F
100
AcDbXrecord
280
     1
102
RTVSPost2010Prop28
280
     0
102
RTVSPost2010PropOp28
 70
     1
102
RTVSPost2010Prop29
280
     1
102
RTVSPost2010PropOp29
 70
     1
102
RTVSPost2010Prop30
280
     1
102
RTVSPost2010PropOp30
 70
     1
102
RTVSPost2010Prop31
280
     0
102
RTVSPost2010PropOp31
 70
     1
102
RTVSPost2010Prop32
280
     0
102
RTVSPost2010PropOp32
 70
     1
102
RTVSPost2010Prop33
280
     0
102
RTVSPost2010PropOp33
 70
     1
102
RTVSPost2010Prop34
280
     0
102
RTVSPost2010PropOp34
 70
     1
102
RTVSPost2010Prop35
280
     0
102
RTVSPost2010PropOp35
 70
     1
102
RTVSPost2010Prop36
280
     0
102
RTVSPost2010PropOp36
 70
     1
102
RTVSPost2010Prop37
 90
       50
102
RTVSPost2010PropOp37
 70
     1
102
RTVSPost2010Prop38
140
0.0
102
RTVSPost2010PropOp38
 70
     1
102
RTVSPost2010Prop39
140
1.0
102
RTVSPost2010PropOp39
 70
     1
102
RTVSPost2010Prop40
 90
        0
102
RTVSPost2010PropOp40
 70
     1
102
RTVSPost2010Prop41ColorIndex
 90
       18
102
RTVSPost2010Prop41ColorRGB
 90
        0
102
RTVSPost2010PropOp41
 70
     1
102
RTVSPost2010Prop42
 90
       50
102
RTVSPost2010PropOp42
 70
     1
102
RTVSPost2010Prop43
 90
        3
102
RTVSPost2010PropOp43
 70
     1
102
RTVSPost2010Prop44ColorIndex
 90
        5
102
RTVSPost2010Prop44ColorRGB
 90
      255
102
RTVSPost2010PropOp44
 70
     1
102
RTVSPost2010Prop45
280
     0
102
RTVSPost2010PropOp45
 70
     1
102
RTVSPost2010Prop46
 90
       50
102
RTVSPost2010PropOp46
 70
     1
102
RTVSPost2010Prop47
 90
       50
102
RTVSPost2010PropOp47
 70
     1
102
RTVSPost2010Prop48
 90
       50
102
RTVSPost2010PropOp48
 70
     1
102
RTVSPost2010Prop49
280
     0
102
RTVSPost2010PropOp49
 70
     1
102
RTVSPost2010Prop50
 90
       50
102
RTVSPost2010PropOp50
 70
     1
102
RTVSPost2010Prop51ColorIndex
 90
      256
102
RTVSPost2010Prop51ColorRGB
 90
-16777216
102
RTVSPost2010PropOp51
 70
     0
102
RTVSPost2010Prop52
140
1.0
102
RTVSPost2010PropOp52
 70
     0
102
RTVSPost2010Prop53
 90
        2
102
RTVSPost2010PropOp53
 70
     1
102
RTVSPost2010Prop54
  1
strokes_ogs.tif
102
RTVSPost2010PropOp54
 70
     1
102
RTVSPost2010Prop55
280
     0
102
RTVSPost2010PropOp55
 70
     1
102
RTVSPost2010Prop56
140
1.0
102
RTVSPost2010PropOp56
 70
     1
102
RTVSPost2010Prop57
140
1.0
102
RTVSPost2010PropOp57
 70
     1
102
RTVSPropertyOp0
 70
     1
102
RTVSPropertyOp1
 70
     1
102
RTVSPropertyOp2
 70
     1
102
RTVSPropertyOp3
 70
     1
102
RTVSPropertyOp4
 70
     1
102
RTVSPropertyOp5
 70
     1
102
RTVSPropertyOp6
 70
     1
102
RTVSPropertyOp7
 70
     1
102
RTVSPropertyOp8
 70
     1
102
RTVSPropertyOp9
 70
     1
102
RTVSPropertyOp10
 70
     1
102
RTVSPropertyOp11
 70
     1
102
RTVSPropertyOp12
 70
     1
102
RTVSPropertyOp13
 70
     1
102
RTVSPropertyOp14
 70
     1
102
RTVSPropertyOp15
 70
     1
102
RTVSPropertyOp16
 70
     1
102
RTVSPropertyOp17
 70
     1
102
RTVSPropertyOp18
 70
     1
102
RTVSPropertyOp19
 70
     1
102
RTVSPropertyOp20
 70
     1
102
RTVSPropertyOp21
 70
     1
102
RTVSPropertyOp22
 70
     1
102
RTVSPropertyOp23
 70
     1
102
RTVSPropertyOp24
 70
     1
102
RTVSPropertyOp25
 70
     1
102
RTVSPropertyOp26
 70
     1
102
RTVSPropertyOp27
 70
     1
102
RTVSPropertyOp28
 70
     1
102
RTVSPropertyOp29
 70
     1
102
RTVSPropertyOp30
 70
     1
102
RTVSPropertyOp31
 70
     1
102
RTVSPropertyOp32
 70
     1
102
RTVSPropertyOp33
 70
     1
102
RTVSPropertyOp34
 70
     1
102
RTVSPropertyOp35
 70
     1
102
RTVSPropertyOp36
 70
     1
102
RTVSPropertyOp37
 70
     1
102
RTVSPropertyOp38
 70
     1
102
RTVSPropertyOp39
 70
     1
102
RTVSPropertyOp40
 70
     1
102
RTVSPropertyOp41
 70
     1
102
RTVSPropertyOp42
 70
     1
102
RTVSPropertyOp43
 70
     1
102
RTVSPropertyOp44
 70
     1
102
RTVSPropertyOp45
 70
     1
102
RTVSPropertyOp46
 70
     1
102
RTVSPropertyOp47
 70
     1
102
RTVSPropertyOp48
 70
     1
102
RTVSPropertyOp49
 70
     1
102
RTVSPropertyOp50
 70
     1
102
RTVSPropertyOp51
 70
     0
102
RTVSPropertyOp52
 70
     0
102
RTVSPropertyOp53
 70
     1
102
RTVSPropertyOp54
 70
     1
102
RTVSPropertyOp55
 70
     1
102
RTVSPropertyOp56
 70
     1
102
RTVSPropertyOp57
 70
     1
102
RTVSPropertyOp58
 70
     1
102
RTVSPropertyOp59
 70
     1
102
RTVSPropertyOp60
 70
     1
102
RTVSPropertyOp61
 70
     1
102
RTVSPropertyOp62
 70
     1
  0
XRECORD
  5
4A8
102
{ACAD_REACTORS
330
4A7
102
}
330
4A7
100
AcDbXrecord
280
     1
102
RTVSPost2010Prop28
280
     0
102
RTVSPost2010PropOp28
 70
     1
102
RTVSPost2010Prop29
280
     1
102
RTVSPost2010PropOp29
 70
     1
102
RTVSPost2010Prop30
280
     1
102
RTVSPost2010PropOp30
 70
     1
102
RTVSPost2010Prop31
280
     0
102
RTVSPost2010PropOp31
 70
     1
102
RTVSPost2010Prop32
280
     0
102
RTVSPost2010PropOp32
 70
     1
102
RTVSPost2010Prop33
280
     0
102
RTVSPost2010PropOp33
 70
     1
102
RTVSPost2010Prop34
280
     0
102
RTVSPost2010PropOp34
 70
     1
102
RTVSPost2010Prop35
280
     0
102
RTVSPost2010PropOp35
 70
     1
102
RTVSPost2010Prop36
280
     0
102
RTVSPost2010PropOp36
 70
     1
102
RTVSPost2010Prop37
 90
       50
102
RTVSPost2010PropOp37
 70
     1
102
RTVSPost2010Prop38
140
0.0
102
RTVSPost2010PropOp38
 70
     1
102
RTVSPost2010Prop39
140
1.0
102
RTVSPost2010PropOp39
 70
     1
102
RTVSPost2010Prop40
 90
        0
102
RTVSPost2010PropOp40
 70
     1
102
RTVSPost2010Prop41ColorIndex
 90
       18
102
RTVSPost2010Prop41ColorRGB
 90
        0
102
RTVSPost2010PropOp41
 70
     1
102
RTVSPost2010Prop42
 90
       50
102
RTVSPost2010PropOp42
 70
     1
102
RTVSPost2010Prop43
 90
        3
102
RTVSPost2010PropOp43
 70
     1
102
RTVSPost2010Prop44ColorIndex
 90
        5
102
RTVSPost2010Prop44ColorRGB
 90
      255
102
RTVSPost2010PropOp44
 70
     1
102
RTVSPost2010Prop45
280
     0
102
RTVSPost2010PropOp45
 70
     1
102
RTVSPost2010Prop46
 90
       50
102
RTVSPost2010PropOp46
 70
     1
102
RTVSPost2010Prop47
 90
       50
102
RTVSPost2010PropOp47
 70
     1
102
RTVSPost2010Prop48
 90
       50
102
RTVSPost2010PropOp48
 70
     1
102
RTVSPost2010Prop49
280
     0
102
RTVSPost2010PropOp49
 70
     1
102
RTVSPost2010Prop50
 90
       50
102
RTVSPost2010PropOp50
 70
     1
102
RTVSPost2010Prop51ColorIndex
 90
      256
102
RTVSPost2010Prop51ColorRGB
 90
-16777216
102
RTVSPost2010PropOp51
 70
     0
102
RTVSPost2010Prop52
140
1.0
102
RTVSPost2010PropOp52
 70
     0
102
RTVSPost2010Prop53
 90
        2
102
RTVSPost2010PropOp53
 70
     1
102
RTVSPost2010Prop54
  1
strokes_ogs.tif
102
RTVSPost2010PropOp54
 70
     1
102
RTVSPost2010Prop55
280
     0
102
RTVSPost2010PropOp55
 70
     1
102
RTVSPost2010Prop56
140
1.0
102
RTVSPost2010PropOp56
 70
     1
102
RTVSPost2010Prop57
140
1.0
102
RTVSPost2010PropOp57
 70
     1
102
RTVSPropertyOp0
 70
     1
102
RTVSPropertyOp1
 70
     1
102
RTVSPropertyOp2
 70
     1
102
RTVSPropertyOp3
 70
     1
102
RTVSPropertyOp4
 70
     1
102
RTVSPropertyOp5
 70
     1
102
RTVSPropertyOp6
 70
     1
102
RTVSPropertyOp7
 70
     1
102
RTVSPropertyOp8
 70
     1
102
RTVSPropertyOp9
 70
     1
102
RTVSPropertyOp10
 70
     1
102
RTVSPropertyOp11
 70
     1
102
RTVSPropertyOp12
 70
     1
102
RTVSPropertyOp13
 70
     1
102
RTVSPropertyOp14
 70
     1
102
RTVSPropertyOp15
 70
     1
102
RTVSPropertyOp16
 70
     1
102
RTVSPropertyOp17
 70
     1
102
RTVSPropertyOp18
 70
     1
102
RTVSPropertyOp19
 70
     1
102
RTVSPropertyOp20
 70
     1
102
RTVSPropertyOp21
 70
     1
102
RTVSPropertyOp22
 70
     1
102
RTVSPropertyOp23
 70
     1
102
RTVSPropertyOp24
 70
     1
102
RTVSPropertyOp25
 70
     1
102
RTVSPropertyOp26
 70
     1
102
RTVSPropertyOp27
 70
     1
102
RTVSPropertyOp28
 70
     1
102
RTVSPropertyOp29
 70
     1
102
RTVSPropertyOp30
 70
     1
102
RTVSPropertyOp31
 70
     1
102
RTVSPropertyOp32
 70
     1
102
RTVSPropertyOp33
 70
     1
102
RTVSPropertyOp34
 70
     1
102
RTVSPropertyOp35
 70
     1
102
RTVSPropertyOp36
 70
     1
102
RTVSPropertyOp37
 70
     1
102
RTVSPropertyOp38
 70
     1
102
RTVSPropertyOp39
 70
     1
102
RTVSPropertyOp40
 70
     1
102
RTVSPropertyOp41
 70
     1
102
RTVSPropertyOp42
 70
     1
102
RTVSPropertyOp43
 70
     1
102
RTVSPropertyOp44
 70
     1
102
RTVSPropertyOp45
 70
     1
102
RTVSPropertyOp46
 70
     1
102
RTVSPropertyOp47
 70
     1
102
RTVSPropertyOp48
 70
     1
102
RTVSPropertyOp49
 70
     1
102
RTVSPropertyOp50
 70
     1
102
RTVSPropertyOp51
 70
     0
102
RTVSPropertyOp52
 70
     0
102
RTVSPropertyOp53
 70
     1
102
RTVSPropertyOp54
 70
     1
102
RTVSPropertyOp55
 70
     1
102
RTVSPropertyOp56
 70
     1
102
RTVSPropertyOp57
 70
     1
102
RTVSPropertyOp58
 70
     1
102
RTVSPropertyOp59
 70
     1
102
RTVSPropertyOp60
 70
     1
102
RTVSPropertyOp61
 70
     1
102
RTVSPropertyOp62
 70
     1
  0
XRECORD
  5
49A
102
{ACAD_REACTORS
330
499
102
}
330
499
100
AcDbXrecord
280
     1
102
RTVSPost2010Prop28
280
     0
102
RTVSPost2010PropOp28
 70
     1
102
RTVSPost2010Prop29
280
     1
102
RTVSPost2010PropOp29
 70
     1
102
RTVSPost2010Prop30
280
     1
102
RTVSPost2010PropOp30
 70
     1
102
RTVSPost2010Prop31
280
     0
102
RTVSPost2010PropOp31
 70
     1
102
RTVSPost2010Prop32
280
     0
102
RTVSPost2010PropOp32
 70
     1
102
RTVSPost2010Prop33
280
     0
102
RTVSPost2010PropOp33
 70
     1
102
RTVSPost2010Prop34
280
     0
102
RTVSPost2010PropOp34
 70
     1
102
RTVSPost2010Prop35
280
     0
102
RTVSPost2010PropOp35
 70
     1
102
RTVSPost2010Prop36
280
     0
102
RTVSPost2010PropOp36
 70
     1
102
RTVSPost2010Prop37
 90
       50
102
RTVSPost2010PropOp37
 70
     1
102
RTVSPost2010Prop38
140
0.0
102
RTVSPost2010PropOp38
 70
     1
102
RTVSPost2010Prop39
140
1.0
102
RTVSPost2010PropOp39
 70
     1
102
RTVSPost2010Prop40
 90
        0
102
RTVSPost2010PropOp40
 70
     1
102
RTVSPost2010Prop41ColorIndex
 90
       18
102
RTVSPost2010Prop41ColorRGB
 90
        0
102
RTVSPost2010PropOp41
 70
     1
102
RTVSPost2010Prop42
 90
       50
102
RTVSPost2010PropOp42
 70
     1
102
RTVSPost2010Prop43
 90
        3
102
RTVSPost2010PropOp43
 70
     1
102
RTVSPost2010Prop44ColorIndex
 90
        5
102
RTVSPost2010Prop44ColorRGB
 90
      255
102
RTVSPost2010PropOp44
 70
     1
102
RTVSPost2010Prop45
280
     0
102
RTVSPost2010PropOp45
 70
     1
102
RTVSPost2010Prop46
 90
       50
102
RTVSPost2010PropOp46
 70
     1
102
RTVSPost2010Prop47
 90
       50
102
RTVSPost2010PropOp47
 70
     1
102
RTVSPost2010Prop48
 90
       50
102
RTVSPost2010PropOp48
 70
     1
102
RTVSPost2010Prop49
280
     0
102
RTVSPost2010PropOp49
 70
     1
102
RTVSPost2010Prop50
 90
       50
102
RTVSPost2010PropOp50
 70
     1
102
RTVSPost2010Prop51ColorIndex
 90
      256
102
RTVSPost2010Prop51ColorRGB
 90
-16777216
102
RTVSPost2010PropOp51
 70
     0
102
RTVSPost2010Prop52
140
1.0
102
RTVSPost2010PropOp52
 70
     0
102
RTVSPost2010Prop53
 90
        2
102
RTVSPost2010PropOp53
 70
     1
102
RTVSPost2010Prop54
  1
strokes_ogs.tif
102
RTVSPost2010PropOp54
 70
     1
102
RTVSPost2010Prop55
280
     0
102
RTVSPost2010PropOp55
 70
     1
102
RTVSPost2010Prop56
140
1.0
102
RTVSPost2010PropOp56
 70
     1
102
RTVSPost2010Prop57
140
1.0
102
RTVSPost2010PropOp57
 70
     1
102
RTVSPropertyOp0
 70
     1
102
RTVSPropertyOp1
 70
     1
102
RTVSPropertyOp2
 70
     1
102
RTVSPropertyOp3
 70
     1
102
RTVSPropertyOp4
 70
     1
102
RTVSPropertyOp5
 70
     1
102
RTVSPropertyOp6
 70
     1
102
RTVSPropertyOp7
 70
     1
102
RTVSPropertyOp8
 70
     1
102
RTVSPropertyOp9
 70
     1
102
RTVSPropertyOp10
 70
     1
102
RTVSPropertyOp11
 70
     1
102
RTVSPropertyOp12
 70
     1
102
RTVSPropertyOp13
 70
     1
102
RTVSPropertyOp14
 70
     1
102
RTVSPropertyOp15
 70
     1
102
RTVSPropertyOp16
 70
     1
102
RTVSPropertyOp17
 70
     1
102
RTVSPropertyOp18
 70
     1
102
RTVSPropertyOp19
 70
     1
102
RTVSPropertyOp20
 70
     1
102
RTVSPropertyOp21
 70
     1
102
RTVSPropertyOp22
 70
     1
102
RTVSPropertyOp23
 70
     1
102
RTVSPropertyOp24
 70
     1
102
RTVSPropertyOp25
 70
     1
102
RTVSPropertyOp26
 70
     1
102
RTVSPropertyOp27
 70
     1
102
RTVSPropertyOp28
 70
     1
102
RTVSPropertyOp29
 70
     1
102
RTVSPropertyOp30
 70
     1
102
RTVSPropertyOp31
 70
     1
102
RTVSPropertyOp32
 70
     1
102
RTVSPropertyOp33
 70
     1
102
RTVSPropertyOp34
 70
     1
102
RTVSPropertyOp35
 70
     1
102
RTVSPropertyOp36
 70
     1
102
RTVSPropertyOp37
 70
     1
102
RTVSPropertyOp38
 70
     1
102
RTVSPropertyOp39
 70
     1
102
RTVSPropertyOp40
 70
     1
102
RTVSPropertyOp41
 70
     1
102
RTVSPropertyOp42
 70
     1
102
RTVSPropertyOp43
 70
     1
102
RTVSPropertyOp44
 70
     1
102
RTVSPropertyOp45
 70
     1
102
RTVSPropertyOp46
 70
     1
102
RTVSPropertyOp47
 70
     1
102
RTVSPropertyOp48
 70
     1
102
RTVSPropertyOp49
 70
     1
102
RTVSPropertyOp50
 70
     1
102
RTVSPropertyOp51
 70
     0
102
RTVSPropertyOp52
 70
     0
102
RTVSPropertyOp53
 70
     1
102
RTVSPropertyOp54
 70
     1
102
RTVSPropertyOp55
 70
     1
102
RTVSPropertyOp56
 70
     1
102
RTVSPropertyOp57
 70
     1
102
RTVSPropertyOp58
 70
     1
102
RTVSPropertyOp59
 70
     1
102
RTVSPropertyOp60
 70
     1
102
RTVSPropertyOp61
 70
     1
102
RTVSPropertyOp62
 70
     1
  0
XRECORD
  5
49E
102
{ACAD_REACTORS
330
49D
102
}
330
49D
100
AcDbXrecord
280
     1
102
RTVSPost2010Prop28
280
     0
102
RTVSPost2010PropOp28
 70
     1
102
RTVSPost2010Prop29
280
     1
102
RTVSPost2010PropOp29
 70
     1
102
RTVSPost2010Prop30
280
     1
102
RTVSPost2010PropOp30
 70
     1
102
RTVSPost2010Prop31
280
     0
102
RTVSPost2010PropOp31
 70
     1
102
RTVSPost2010Prop32
280
     0
102
RTVSPost2010PropOp32
 70
     1
102
RTVSPost2010Prop33
280
     0
102
RTVSPost2010PropOp33
 70
     1
102
RTVSPost2010Prop34
280
     0
102
RTVSPost2010PropOp34
 70
     1
102
RTVSPost2010Prop35
280
     0
102
RTVSPost2010PropOp35
 70
     1
102
RTVSPost2010Prop36
280
     0
102
RTVSPost2010PropOp36
 70
     1
102
RTVSPost2010Prop37
 90
       50
102
RTVSPost2010PropOp37
 70
     1
102
RTVSPost2010Prop38
140
0.0
102
RTVSPost2010PropOp38
 70
     1
102
RTVSPost2010Prop39
140
1.0
102
RTVSPost2010PropOp39
 70
     1
102
RTVSPost2010Prop40
 90
        0
102
RTVSPost2010PropOp40
 70
     1
102
RTVSPost2010Prop41ColorIndex
 90
       18
102
RTVSPost2010Prop41ColorRGB
 90
        0
102
RTVSPost2010PropOp41
 70
     1
102
RTVSPost2010Prop42
 90
       50
102
RTVSPost2010PropOp42
 70
     1
102
RTVSPost2010Prop43
 90
        3
102
RTVSPost2010PropOp43
 70
     1
102
RTVSPost2010Prop44ColorIndex
 90
        5
102
RTVSPost2010Prop44ColorRGB
 90
      255
102
RTVSPost2010PropOp44
 70
     1
102
RTVSPost2010Prop45
280
     0
102
RTVSPost2010PropOp45
 70
     1
102
RTVSPost2010Prop46
 90
       50
102
RTVSPost2010PropOp46
 70
     1
102
RTVSPost2010Prop47
 90
       50
102
RTVSPost2010PropOp47
 70
     1
102
RTVSPost2010Prop48
 90
       50
102
RTVSPost2010PropOp48
 70
     1
102
RTVSPost2010Prop49
280
     0
102
RTVSPost2010PropOp49
 70
     1
102
RTVSPost2010Prop50
 90
       50
102
RTVSPost2010PropOp50
 70
     1
102
RTVSPost2010Prop51ColorIndex
 90
      256
102
RTVSPost2010Prop51ColorRGB
 90
-16777216
102
RTVSPost2010PropOp51
 70
     0
102
RTVSPost2010Prop52
140
1.0
102
RTVSPost2010PropOp52
 70
     0
102
RTVSPost2010Prop53
 90
        2
102
RTVSPost2010PropOp53
 70
     1
102
RTVSPost2010Prop54
  1
strokes_ogs.tif
102
RTVSPost2010PropOp54
 70
     1
102
RTVSPost2010Prop55
280
     0
102
RTVSPost2010PropOp55
 70
     1
102
RTVSPost2010Prop56
140
1.0
102
RTVSPost2010PropOp56
 70
     1
102
RTVSPost2010Prop57
140
1.0
102
RTVSPost2010PropOp57
 70
     1
102
RTVSPropertyOp0
 70
     1
102
RTVSPropertyOp1
 70
     1
102
RTVSPropertyOp2
 70
     1
102
RTVSPropertyOp3
 70
     1
102
RTVSPropertyOp4
 70
     1
102
RTVSPropertyOp5
 70
     1
102
RTVSPropertyOp6
 70
     1
102
RTVSPropertyOp7
 70
     1
102
RTVSPropertyOp8
 70
     1
102
RTVSPropertyOp9
 70
     1
102
RTVSPropertyOp10
 70
     1
102
RTVSPropertyOp11
 70
     1
102
RTVSPropertyOp12
 70
     1
102
RTVSPropertyOp13
 70
     1
102
RTVSPropertyOp14
 70
     1
102
RTVSPropertyOp15
 70
     1
102
RTVSPropertyOp16
 70
     1
102
RTVSPropertyOp17
 70
     1
102
RTVSPropertyOp18
 70
     1
102
RTVSPropertyOp19
 70
     1
102
RTVSPropertyOp20
 70
     1
102
RTVSPropertyOp21
 70
     1
102
RTVSPropertyOp22
 70
     1
102
RTVSPropertyOp23
 70
     1
102
RTVSPropertyOp24
 70
     1
102
RTVSPropertyOp25
 70
     1
102
RTVSPropertyOp26
 70
     1
102
RTVSPropertyOp27
 70
     1
102
RTVSPropertyOp28
 70
     1
102
RTVSPropertyOp29
 70
     1
102
RTVSPropertyOp30
 70
     1
102
RTVSPropertyOp31
 70
     1
102
RTVSPropertyOp32
 70
     1
102
RTVSPropertyOp33
 70
     1
102
RTVSPropertyOp34
 70
     1
102
RTVSPropertyOp35
 70
     1
102
RTVSPropertyOp36
 70
     1
102
RTVSPropertyOp37
 70
     1
102
RTVSPropertyOp38
 70
     1
102
RTVSPropertyOp39
 70
     1
102
RTVSPropertyOp40
 70
     1
102
RTVSPropertyOp41
 70
     1
102
RTVSPropertyOp42
 70
     1
102
RTVSPropertyOp43
 70
     1
102
RTVSPropertyOp44
 70
     1
102
RTVSPropertyOp45
 70
     1
102
RTVSPropertyOp46
 70
     1
102
RTVSPropertyOp47
 70
     1
102
RTVSPropertyOp48
 70
     1
102
RTVSPropertyOp49
 70
     1
102
RTVSPropertyOp50
 70
     1
102
RTVSPropertyOp51
 70
     0
102
RTVSPropertyOp52
 70
     0
102
RTVSPropertyOp53
 70
     1
102
RTVSPropertyOp54
 70
     1
102
RTVSPropertyOp55
 70
     1
102
RTVSPropertyOp56
 70
     1
102
RTVSPropertyOp57
 70
     1
102
RTVSPropertyOp58
 70
     1
102
RTVSPropertyOp59
 70
     1
102
RTVSPropertyOp60
 70
     1
102
RTVSPropertyOp61
 70
     1
102
RTVSPropertyOp62
 70
     1
  0
XRECORD
  5
4B8
102
{ACAD_REACTORS
330
4B7
102
}
330
4B7
100
AcDbXrecord
280
     1
102
RTVSPost2010Prop28
280
     0
102
RTVSPost2010PropOp28
 70
     1
102
RTVSPost2010Prop29
280
     1
102
RTVSPost2010PropOp29
 70
     1
102
RTVSPost2010Prop30
280
     1
102
RTVSPost2010PropOp30
 70
     1
102
RTVSPost2010Prop31
280
     0
102
RTVSPost2010PropOp31
 70
     1
102
RTVSPost2010Prop32
280
     0
102
RTVSPost2010PropOp32
 70
     1
102
RTVSPost2010Prop33
280
     0
102
RTVSPost2010PropOp33
 70
     1
102
RTVSPost2010Prop34
280
     0
102
RTVSPost2010PropOp34
 70
     1
102
RTVSPost2010Prop35
280
     0
102
RTVSPost2010PropOp35
 70
     1
102
RTVSPost2010Prop36
280
     0
102
RTVSPost2010PropOp36
 70
     1
102
RTVSPost2010Prop37
 90
       50
102
RTVSPost2010PropOp37
 70
     0
102
RTVSPost2010Prop38
140
0.0
102
RTVSPost2010PropOp38
 70
     0
102
RTVSPost2010Prop39
140
1.0
102
RTVSPost2010PropOp39
 70
     0
102
RTVSPost2010Prop40
 90
        0
102
RTVSPost2010PropOp40
 70
     0
102
RTVSPost2010Prop41ColorIndex
 90
       18
102
RTVSPost2010Prop41ColorRGB
 90
        0
102
RTVSPost2010PropOp41
 70
     0
102
RTVSPost2010Prop42
 90
       50
102
RTVSPost2010PropOp42
 70
     0
102
RTVSPost2010Prop43
 90
        3
102
RTVSPost2010PropOp43
 70
     0
102
RTVSPost2010Prop44ColorIndex
 90
        5
102
RTVSPost2010Prop44ColorRGB
 90
      255
102
RTVSPost2010PropOp44
 70
     0
102
RTVSPost2010Prop45
280
     0
102
RTVSPost2010PropOp45
 70
     1
102
RTVSPost2010Prop46
 90
       50
102
RTVSPost2010PropOp46
 70
     0
102
RTVSPost2010Prop47
 90
       50
102
RTVSPost2010PropOp47
 70
     0
102
RTVSPost2010Prop48
 90
       50
102
RTVSPost2010PropOp48
 70
     0
102
RTVSPost2010Prop49
280
     0
102
RTVSPost2010PropOp49
 70
     1
102
RTVSPost2010Prop50
 90
       50
102
RTVSPost2010PropOp50
 70
     0
102
RTVSPost2010Prop51ColorIndex
 90
      256
102
RTVSPost2010Prop51ColorRGB
 90
-16777216
102
RTVSPost2010PropOp51
 70
     0
102
RTVSPost2010Prop52
140
1.0
102
RTVSPost2010PropOp52
 70
     0
102
RTVSPost2010Prop53
 90
        2
102
RTVSPost2010PropOp53
 70
     0
102
RTVSPost2010Prop54
  1
strokes_ogs.tif
102
RTVSPost2010PropOp54
 70
     0
102
RTVSPost2010Prop55
280
     0
102
RTVSPost2010PropOp55
 70
     1
102
RTVSPost2010Prop56
140
1.0
102
RTVSPost2010PropOp56
 70
     0
102
RTVSPost2010Prop57
140
1.0
102
RTVSPost2010PropOp57
 70
     0
102
RTVSPropertyOp0
 70
     0
102
RTVSPropertyOp1
 70
     0
102
RTVSPropertyOp2
 70
     0
102
RTVSPropertyOp3
 70
     0
102
RTVSPropertyOp4
 70
     0
102
RTVSPropertyOp5
 70
     0
102
RTVSPropertyOp6
 70
     0
102
RTVSPropertyOp7
 70
     0
102
RTVSPropertyOp8
 70
     0
102
RTVSPropertyOp9
 70
     0
102
RTVSPropertyOp10
 70
     0
102
RTVSPropertyOp11
 70
     0
102
RTVSPropertyOp12
 70
     0
102
RTVSPropertyOp13
 70
     0
102
RTVSPropertyOp14
 70
     2
102
RTVSPropertyOp15
 70
     0
102
RTVSPropertyOp16
 70
     0
102
RTVSPropertyOp17
 70
     0
102
RTVSPropertyOp18
 70
     0
102
RTVSPropertyOp19
 70
     0
102
RTVSPropertyOp20
 70
     0
102
RTVSPropertyOp21
 70
     0
102
RTVSPropertyOp22
 70
     0
102
RTVSPropertyOp23
 70
     0
102
RTVSPropertyOp24
 70
     0
102
RTVSPropertyOp25
 70
     0
102
RTVSPropertyOp26
 70
     0
102
RTVSPropertyOp27
 70
     0
102
RTVSPropertyOp28
 70
     1
102
RTVSPropertyOp29
 70
     1
102
RTVSPropertyOp30
 70
     1
102
RTVSPropertyOp31
 70
     1
102
RTVSPropertyOp32
 70
     1
102
RTVSPropertyOp33
 70
     1
102
RTVSPropertyOp34
 70
     1
102
RTVSPropertyOp35
 70
     1
102
RTVSPropertyOp36
 70
     1
102
RTVSPropertyOp37
 70
     0
102
RTVSPropertyOp38
 70
     0
102
RTVSPropertyOp39
 70
     0
102
RTVSPropertyOp40
 70
     0
102
RTVSPropertyOp41
 70
     0
102
RTVSPropertyOp42
 70
     0
102
RTVSPropertyOp43
 70
     0
102
RTVSPropertyOp44
 70
     0
102
RTVSPropertyOp45
 70
     1
102
RTVSPropertyOp46
 70
     0
102
RTVSPropertyOp47
 70
     0
102
RTVSPropertyOp48
 70
     0
102
RTVSPropertyOp49
 70
     1
102
RTVSPropertyOp50
 70
     0
102
RTVSPropertyOp51
 70
     0
102
RTVSPropertyOp52
 70
     0
102
RTVSPropertyOp53
 70
     0
102
RTVSPropertyOp54
 70
     0
102
RTVSPropertyOp55
 70
     1
102
RTVSPropertyOp56
 70
     0
102
RTVSPropertyOp57
 70
     0
102
RTVSPropertyOp58
 70
     0
102
RTVSPropertyOp59
 70
     0
102
RTVSPropertyOp60
 70
     0
102
RTVSPropertyOp61
 70
     0
102
RTVSPropertyOp62
 70
     0
  0
XRECORD
  5
4A6
102
{ACAD_REACTORS
330
4A5
102
}
330
4A5
100
AcDbXrecord
280
     1
102
RTVSPost2010Prop28
280
     0
102
RTVSPost2010PropOp28
 70
     1
102
RTVSPost2010Prop29
280
     1
102
RTVSPost2010PropOp29
 70
     1
102
RTVSPost2010Prop30
280
     1
102
RTVSPost2010PropOp30
 70
     1
102
RTVSPost2010Prop31
280
     0
102
RTVSPost2010PropOp31
 70
     1
102
RTVSPost2010Prop32
280
     0
102
RTVSPost2010PropOp32
 70
     1
102
RTVSPost2010Prop33
280
     0
102
RTVSPost2010PropOp33
 70
     1
102
RTVSPost2010Prop34
280
     0
102
RTVSPost2010PropOp34
 70
     1
102
RTVSPost2010Prop35
280
     0
102
RTVSPost2010PropOp35
 70
     1
102
RTVSPost2010Prop36
280
     0
102
RTVSPost2010PropOp36
 70
     1
102
RTVSPost2010Prop37
 90
       50
102
RTVSPost2010PropOp37
 70
     1
102
RTVSPost2010Prop38
140
0.0
102
RTVSPost2010PropOp38
 70
     1
102
RTVSPost2010Prop39
140
1.0
102
RTVSPost2010PropOp39
 70
     1
102
RTVSPost2010Prop40
 90
        0
102
RTVSPost2010PropOp40
 70
     1
102
RTVSPost2010Prop41ColorIndex
 90
       18
102
RTVSPost2010Prop41ColorRGB
 90
        0
102
RTVSPost2010PropOp41
 70
     1
102
RTVSPost2010Prop42
 90
       50
102
RTVSPost2010PropOp42
 70
     1
102
RTVSPost2010Prop43
 90
        3
102
RTVSPost2010PropOp43
 70
     1
102
RTVSPost2010Prop44ColorIndex
 90
        5
102
RTVSPost2010Prop44ColorRGB
 90
      255
102
RTVSPost2010PropOp44
 70
     1
102
RTVSPost2010Prop45
280
     0
102
RTVSPost2010PropOp45
 70
     1
102
RTVSPost2010Prop46
 90
       50
102
RTVSPost2010PropOp46
 70
     1
102
RTVSPost2010Prop47
 90
       50
102
RTVSPost2010PropOp47
 70
     1
102
RTVSPost2010Prop48
 90
       50
102
RTVSPost2010PropOp48
 70
     1
102
RTVSPost2010Prop49
280
     0
102
RTVSPost2010PropOp49
 70
     1
102
RTVSPost2010Prop50
 90
       50
102
RTVSPost2010PropOp50
 70
     1
102
RTVSPost2010Prop51ColorIndex
 90
      256
102
RTVSPost2010Prop51ColorRGB
 90
-16777216
102
RTVSPost2010PropOp51
 70
     0
102
RTVSPost2010Prop52
140
1.0
102
RTVSPost2010PropOp52
 70
     0
102
RTVSPost2010Prop53
 90
        2
102
RTVSPost2010PropOp53
 70
     1
102
RTVSPost2010Prop54
  1
strokes_ogs.tif
102
RTVSPost2010PropOp54
 70
     1
102
RTVSPost2010Prop55
280
     0
102
RTVSPost2010PropOp55
 70
     1
102
RTVSPost2010Prop56
140
1.0
102
RTVSPost2010PropOp56
 70
     1
102
RTVSPost2010Prop57
140
1.0
102
RTVSPost2010PropOp57
 70
     1
102
RTVSPropertyOp0
 70
     1
102
RTVSPropertyOp1
 70
     1
102
RTVSPropertyOp2
 70
     1
102
RTVSPropertyOp3
 70
     1
102
RTVSPropertyOp4
 70
     1
102
RTVSPropertyOp5
 70
     1
102
RTVSPropertyOp6
 70
     1
102
RTVSPropertyOp7
 70
     1
102
RTVSPropertyOp8
 70
     1
102
RTVSPropertyOp9
 70
     1
102
RTVSPropertyOp10
 70
     1
102
RTVSPropertyOp11
 70
     1
102
RTVSPropertyOp12
 70
     1
102
RTVSPropertyOp13
 70
     1
102
RTVSPropertyOp14
 70
     1
102
RTVSPropertyOp15
 70
     1
102
RTVSPropertyOp16
 70
     1
102
RTVSPropertyOp17
 70
     1
102
RTVSPropertyOp18
 70
     1
102
RTVSPropertyOp19
 70
     1
102
RTVSPropertyOp20
 70
     1
102
RTVSPropertyOp21
 70
     1
102
RTVSPropertyOp22
 70
     1
102
RTVSPropertyOp23
 70
     1
102
RTVSPropertyOp24
 70
     1
102
RTVSPropertyOp25
 70
     1
102
RTVSPropertyOp26
 70
     1
102
RTVSPropertyOp27
 70
     1
102
RTVSPropertyOp28
 70
     1
102
RTVSPropertyOp29
 70
     1
102
RTVSPropertyOp30
 70
     1
102
RTVSPropertyOp31
 70
     1
102
RTVSPropertyOp32
 70
     1
102
RTVSPropertyOp33
 70
     1
102
RTVSPropertyOp34
 70
     1
102
RTVSPropertyOp35
 70
     1
102
RTVSPropertyOp36
 70
     1
102
RTVSPropertyOp37
 70
     1
102
RTVSPropertyOp38
 70
     1
102
RTVSPropertyOp39
 70
     1
102
RTVSPropertyOp40
 70
     1
102
RTVSPropertyOp41
 70
     1
102
RTVSPropertyOp42
 70
     1
102
RTVSPropertyOp43
 70
     1
102
RTVSPropertyOp44
 70
     1
102
RTVSPropertyOp45
 70
     1
102
RTVSPropertyOp46
 70
     1
102
RTVSPropertyOp47
 70
     1
102
RTVSPropertyOp48
 70
     1
102
RTVSPropertyOp49
 70
     1
102
RTVSPropertyOp50
 70
     1
102
RTVSPropertyOp51
 70
     0
102
RTVSPropertyOp52
 70
     0
102
RTVSPropertyOp53
 70
     1
102
RTVSPropertyOp54
 70
     1
102
RTVSPropertyOp55
 70
     1
102
RTVSPropertyOp56
 70
     1
102
RTVSPropertyOp57
 70
     1
102
RTVSPropertyOp58
 70
     1
102
RTVSPropertyOp59
 70
     1
102
RTVSPropertyOp60
 70
     1
102
RTVSPropertyOp61
 70
     1
102
RTVSPropertyOp62
 70
     1
  0
XRECORD
  5
48A
102
{ACAD_REACTORS
330
489
102
}
330
489
100
AcDbXrecord
280
     1
102
RTVSPost2010Prop28
280
     0
102
RTVSPost2010PropOp28
 70
     1
102
RTVSPost2010Prop29
280
     1
102
RTVSPost2010PropOp29
 70
     1
102
RTVSPost2010Prop30
280
     1
102
RTVSPost2010PropOp30
 70
     1
102
RTVSPost2010Prop31
280
     0
102
RTVSPost2010PropOp31
 70
     1
102
RTVSPost2010Prop32
280
     0
102
RTVSPost2010PropOp32
 70
     1
102
RTVSPost2010Prop33
280
     0
102
RTVSPost2010PropOp33
 70
     1
102
RTVSPost2010Prop34
280
     0
102
RTVSPost2010PropOp34
 70
     1
102
RTVSPost2010Prop35
280
     0
102
RTVSPost2010PropOp35
 70
     1
102
RTVSPost2010Prop36
280
     0
102
RTVSPost2010PropOp36
 70
     1
102
RTVSPost2010Prop37
 90
       50
102
RTVSPost2010PropOp37
 70
     1
102
RTVSPost2010Prop38
140
0.0
102
RTVSPost2010PropOp38
 70
     1
102
RTVSPost2010Prop39
140
1.0
102
RTVSPost2010PropOp39
 70
     1
102
RTVSPost2010Prop40
 90
        0
102
RTVSPost2010PropOp40
 70
     1
102
RTVSPost2010Prop41ColorIndex
 90
       18
102
RTVSPost2010Prop41ColorRGB
 90
        0
102
RTVSPost2010PropOp41
 70
     1
102
RTVSPost2010Prop42
 90
       50
102
RTVSPost2010PropOp42
 70
     1
102
RTVSPost2010Prop43
 90
        3
102
RTVSPost2010PropOp43
 70
     1
102
RTVSPost2010Prop44ColorIndex
 90
        5
102
RTVSPost2010Prop44ColorRGB
 90
      255
102
RTVSPost2010PropOp44
 70
     1
102
RTVSPost2010Prop45
280
     0
102
RTVSPost2010PropOp45
 70
     1
102
RTVSPost2010Prop46
 90
       50
102
RTVSPost2010PropOp46
 70
     1
102
RTVSPost2010Prop47
 90
       50
102
RTVSPost2010PropOp47
 70
     1
102
RTVSPost2010Prop48
 90
       50
102
RTVSPost2010PropOp48
 70
     1
102
RTVSPost2010Prop49
280
     0
102
RTVSPost2010PropOp49
 70
     1
102
RTVSPost2010Prop50
 90
       50
102
RTVSPost2010PropOp50
 70
     1
102
RTVSPost2010Prop51ColorIndex
 90
      256
102
RTVSPost2010Prop51ColorRGB
 90
-16777216
102
RTVSPost2010PropOp51
 70
     0
102
RTVSPost2010Prop52
140
1.0
102
RTVSPost2010PropOp52
 70
     0
102
RTVSPost2010Prop53
 90
        2
102
RTVSPost2010PropOp53
 70
     1
102
RTVSPost2010Prop54
  1
strokes_ogs.tif
102
RTVSPost2010PropOp54
 70
     1
102
RTVSPost2010Prop55
280
     0
102
RTVSPost2010PropOp55
 70
     1
102
RTVSPost2010Prop56
140
1.0
102
RTVSPost2010PropOp56
 70
     1
102
RTVSPost2010Prop57
140
1.0
102
RTVSPost2010PropOp57
 70
     1
102
RTVSPropertyOp0
 70
     1
102
RTVSPropertyOp1
 70
     1
102
RTVSPropertyOp2
 70
     1
102
RTVSPropertyOp3
 70
     1
102
RTVSPropertyOp4
 70
     1
102
RTVSPropertyOp5
 70
     1
102
RTVSPropertyOp6
 70
     1
102
RTVSPropertyOp7
 70
     1
102
RTVSPropertyOp8
 70
     1
102
RTVSPropertyOp9
 70
     1
102
RTVSPropertyOp10
 70
     1
102
RTVSPropertyOp11
 70
     1
102
RTVSPropertyOp12
 70
     1
102
RTVSPropertyOp13
 70
     1
102
RTVSPropertyOp14
 70
     1
102
RTVSPropertyOp15
 70
     1
102
RTVSPropertyOp16
 70
     1
102
RTVSPropertyOp17
 70
     1
102
RTVSPropertyOp18
 70
     1
102
RTVSPropertyOp19
 70
     1
102
RTVSPropertyOp20
 70
     1
102
RTVSPropertyOp21
 70
     1
102
RTVSPropertyOp22
 70
     1
102
RTVSPropertyOp23
 70
     1
102
RTVSPropertyOp24
 70
     1
102
RTVSPropertyOp25
 70
     1
102
RTVSPropertyOp26
 70
     1
102
RTVSPropertyOp27
 70
     1
102
RTVSPropertyOp28
 70
     1
102
RTVSPropertyOp29
 70
     1
102
RTVSPropertyOp30
 70
     1
102
RTVSPropertyOp31
 70
     1
102
RTVSPropertyOp32
 70
     1
102
RTVSPropertyOp33
 70
     1
102
RTVSPropertyOp34
 70
     1
102
RTVSPropertyOp35
 70
     1
102
RTVSPropertyOp36
 70
     1
102
RTVSPropertyOp37
 70
     1
102
RTVSPropertyOp38
 70
     1
102
RTVSPropertyOp39
 70
     1
102
RTVSPropertyOp40
 70
     1
102
RTVSPropertyOp41
 70
     1
102
RTVSPropertyOp42
 70
     1
102
RTVSPropertyOp43
 70
     1
102
RTVSPropertyOp44
 70
     1
102
RTVSPropertyOp45
 70
     1
102
RTVSPropertyOp46
 70
     1
102
RTVSPropertyOp47
 70
     1
102
RTVSPropertyOp48
 70
     1
102
RTVSPropertyOp49
 70
     1
102
RTVSPropertyOp50
 70
     1
102
RTVSPropertyOp51
 70
     0
102
RTVSPropertyOp52
 70
     0
102
RTVSPropertyOp53
 70
     1
102
RTVSPropertyOp54
 70
     1
102
RTVSPropertyOp55
 70
     1
102
RTVSPropertyOp56
 70
     1
102
RTVSPropertyOp57
 70
     1
102
RTVSPropertyOp58
 70
     1
102
RTVSPropertyOp59
 70
     1
102
RTVSPropertyOp60
 70
     1
102
RTVSPropertyOp61
 70
     1
102
RTVSPropertyOp62
 70
     1
  0
XRECORD
  5
48C
102
{ACAD_REACTORS
330
48B
102
}
330
48B
100
AcDbXrecord
280
     1
102
RTVSPost2010Prop28
280
     0
102
RTVSPost2010PropOp28
 70
     1
102
RTVSPost2010Prop29
280
     1
102
RTVSPost2010PropOp29
 70
     1
102
RTVSPost2010Prop30
280
     1
102
RTVSPost2010PropOp30
 70
     1
102
RTVSPost2010Prop31
280
     0
102
RTVSPost2010PropOp31
 70
     1
102
RTVSPost2010Prop32
280
     0
102
RTVSPost2010PropOp32
 70
     1
102
RTVSPost2010Prop33
280
     0
102
RTVSPost2010PropOp33
 70
     1
102
RTVSPost2010Prop34
280
     0
102
RTVSPost2010PropOp34
 70
     1
102
RTVSPost2010Prop35
280
     0
102
RTVSPost2010PropOp35
 70
     1
102
RTVSPost2010Prop36
280
     0
102
RTVSPost2010PropOp36
 70
     1
102
RTVSPost2010Prop37
 90
       50
102
RTVSPost2010PropOp37
 70
     1
102
RTVSPost2010Prop38
140
0.0
102
RTVSPost2010PropOp38
 70
     1
102
RTVSPost2010Prop39
140
1.0
102
RTVSPost2010PropOp39
 70
     1
102
RTVSPost2010Prop40
 90
        0
102
RTVSPost2010PropOp40
 70
     1
102
RTVSPost2010Prop41ColorIndex
 90
       18
102
RTVSPost2010Prop41ColorRGB
 90
        0
102
RTVSPost2010PropOp41
 70
     1
102
RTVSPost2010Prop42
 90
       50
102
RTVSPost2010PropOp42
 70
     1
102
RTVSPost2010Prop43
 90
        3
102
RTVSPost2010PropOp43
 70
     1
102
RTVSPost2010Prop44ColorIndex
 90
        5
102
RTVSPost2010Prop44ColorRGB
 90
      255
102
RTVSPost2010PropOp44
 70
     1
102
RTVSPost2010Prop45
280
     0
102
RTVSPost2010PropOp45
 70
     1
102
RTVSPost2010Prop46
 90
       50
102
RTVSPost2010PropOp46
 70
     1
102
RTVSPost2010Prop47
 90
       50
102
RTVSPost2010PropOp47
 70
     1
102
RTVSPost2010Prop48
 90
       50
102
RTVSPost2010PropOp48
 70
     1
102
RTVSPost2010Prop49
280
     0
102
RTVSPost2010PropOp49
 70
     1
102
RTVSPost2010Prop50
 90
       50
102
RTVSPost2010PropOp50
 70
     1
102
RTVSPost2010Prop51ColorIndex
 90
      256
102
RTVSPost2010Prop51ColorRGB
 90
-16777216
102
RTVSPost2010PropOp51
 70
     0
102
RTVSPost2010Prop52
140
1.0
102
RTVSPost2010PropOp52
 70
     0
102
RTVSPost2010Prop53
 90
        2
102
RTVSPost2010PropOp53
 70
     1
102
RTVSPost2010Prop54
  1
strokes_ogs.tif
102
RTVSPost2010PropOp54
 70
     1
102
RTVSPost2010Prop55
280
     0
102
RTVSPost2010PropOp55
 70
     1
102
RTVSPost2010Prop56
140
1.0
102
RTVSPost2010PropOp56
 70
     1
102
RTVSPost2010Prop57
140
1.0
102
RTVSPost2010PropOp57
 70
     1
102
RTVSPropertyOp0
 70
     1
102
RTVSPropertyOp1
 70
     1
102
RTVSPropertyOp2
 70
     1
102
RTVSPropertyOp3
 70
     1
102
RTVSPropertyOp4
 70
     1
102
RTVSPropertyOp5
 70
     1
102
RTVSPropertyOp6
 70
     1
102
RTVSPropertyOp7
 70
     1
102
RTVSPropertyOp8
 70
     1
102
RTVSPropertyOp9
 70
     1
102
RTVSPropertyOp10
 70
     1
102
RTVSPropertyOp11
 70
     1
102
RTVSPropertyOp12
 70
     1
102
RTVSPropertyOp13
 70
     1
102
RTVSPropertyOp14
 70
     1
102
RTVSPropertyOp15
 70
     1
102
RTVSPropertyOp16
 70
     1
102
RTVSPropertyOp17
 70
     1
102
RTVSPropertyOp18
 70
     1
102
RTVSPropertyOp19
 70
     1
102
RTVSPropertyOp20
 70
     1
102
RTVSPropertyOp21
 70
     1
102
RTVSPropertyOp22
 70
     1
102
RTVSPropertyOp23
 70
     1
102
RTVSPropertyOp24
 70
     1
102
RTVSPropertyOp25
 70
     1
102
RTVSPropertyOp26
 70
     1
102
RTVSPropertyOp27
 70
     1
102
RTVSPropertyOp28
 70
     1
102
RTVSPropertyOp29
 70
     1
102
RTVSPropertyOp30
 70
     1
102
RTVSPropertyOp31
 70
     1
102
RTVSPropertyOp32
 70
     1
102
RTVSPropertyOp33
 70
     1
102
RTVSPropertyOp34
 70
     1
102
RTVSPropertyOp35
 70
     1
102
RTVSPropertyOp36
 70
     1
102
RTVSPropertyOp37
 70
     1
102
RTVSPropertyOp38
 70
     1
102
RTVSPropertyOp39
 70
     1
102
RTVSPropertyOp40
 70
     1
102
RTVSPropertyOp41
 70
     1
102
RTVSPropertyOp42
 70
     1
102
RTVSPropertyOp43
 70
     1
102
RTVSPropertyOp44
 70
     1
102
RTVSPropertyOp45
 70
     1
102
RTVSPropertyOp46
 70
     1
102
RTVSPropertyOp47
 70
     1
102
RTVSPropertyOp48
 70
     1
102
RTVSPropertyOp49
 70
     1
102
RTVSPropertyOp50
 70
     1
102
RTVSPropertyOp51
 70
     0
102
RTVSPropertyOp52
 70
     0
102
RTVSPropertyOp53
 70
     1
102
RTVSPropertyOp54
 70
     1
102
RTVSPropertyOp55
 70
     1
102
RTVSPropertyOp56
 70
     1
102
RTVSPropertyOp57
 70
     1
102
RTVSPropertyOp58
 70
     1
102
RTVSPropertyOp59
 70
     1
102
RTVSPropertyOp60
 70
     1
102
RTVSPropertyOp61
 70
     1
102
RTVSPropertyOp62
 70
     1
  0
XRECORD
  5
48E
102
{ACAD_REACTORS
330
48D
102
}
330
48D
100
AcDbXrecord
280
     1
102
RTVSPost2010Prop28
280
     0
102
RTVSPost2010PropOp28
 70
     1
102
RTVSPost2010Prop29
280
     1
102
RTVSPost2010PropOp29
 70
     1
102
RTVSPost2010Prop30
280
     1
102
RTVSPost2010PropOp30
 70
     1
102
RTVSPost2010Prop31
280
     0
102
RTVSPost2010PropOp31
 70
     1
102
RTVSPost2010Prop32
280
     0
102
RTVSPost2010PropOp32
 70
     1
102
RTVSPost2010Prop33
280
     0
102
RTVSPost2010PropOp33
 70
     1
102
RTVSPost2010Prop34
280
     0
102
RTVSPost2010PropOp34
 70
     1
102
RTVSPost2010Prop35
280
     0
102
RTVSPost2010PropOp35
 70
     1
102
RTVSPost2010Prop36
280
     0
102
RTVSPost2010PropOp36
 70
     1
102
RTVSPost2010Prop37
 90
       50
102
RTVSPost2010PropOp37
 70
     1
102
RTVSPost2010Prop38
140
0.0
102
RTVSPost2010PropOp38
 70
     1
102
RTVSPost2010Prop39
140
1.0
102
RTVSPost2010PropOp39
 70
     1
102
RTVSPost2010Prop40
 90
        0
102
RTVSPost2010PropOp40
 70
     1
102
RTVSPost2010Prop41ColorIndex
 90
       18
102
RTVSPost2010Prop41ColorRGB
 90
        0
102
RTVSPost2010PropOp41
 70
     1
102
RTVSPost2010Prop42
 90
       50
102
RTVSPost2010PropOp42
 70
     1
102
RTVSPost2010Prop43
 90
        3
102
RTVSPost2010PropOp43
 70
     1
102
RTVSPost2010Prop44ColorIndex
 90
        5
102
RTVSPost2010Prop44ColorRGB
 90
      255
102
RTVSPost2010PropOp44
 70
     1
102
RTVSPost2010Prop45
280
     0
102
RTVSPost2010PropOp45
 70
     1
102
RTVSPost2010Prop46
 90
       50
102
RTVSPost2010PropOp46
 70
     1
102
RTVSPost2010Prop47
 90
       50
102
RTVSPost2010PropOp47
 70
     1
102
RTVSPost2010Prop48
 90
       50
102
RTVSPost2010PropOp48
 70
     1
102
RTVSPost2010Prop49
280
     0
102
RTVSPost2010PropOp49
 70
     1
102
RTVSPost2010Prop50
 90
       50
102
RTVSPost2010PropOp50
 70
     1
102
RTVSPost2010Prop51ColorIndex
 90
      256
102
RTVSPost2010Prop51ColorRGB
 90
-16777216
102
RTVSPost2010PropOp51
 70
     0
102
RTVSPost2010Prop52
140
1.0
102
RTVSPost2010PropOp52
 70
     0
102
RTVSPost2010Prop53
 90
        2
102
RTVSPost2010PropOp53
 70
     1
102
RTVSPost2010Prop54
  1
strokes_ogs.tif
102
RTVSPost2010PropOp54
 70
     1
102
RTVSPost2010Prop55
280
     0
102
RTVSPost2010PropOp55
 70
     1
102
RTVSPost2010Prop56
140
1.0
102
RTVSPost2010PropOp56
 70
     1
102
RTVSPost2010Prop57
140
1.0
102
RTVSPost2010PropOp57
 70
     1
102
RTVSPropertyOp0
 70
     1
102
RTVSPropertyOp1
 70
     1
102
RTVSPropertyOp2
 70
     1
102
RTVSPropertyOp3
 70
     1
102
RTVSPropertyOp4
 70
     1
102
RTVSPropertyOp5
 70
     1
102
RTVSPropertyOp6
 70
     1
102
RTVSPropertyOp7
 70
     1
102
RTVSPropertyOp8
 70
     1
102
RTVSPropertyOp9
 70
     1
102
RTVSPropertyOp10
 70
     1
102
RTVSPropertyOp11
 70
     1
102
RTVSPropertyOp12
 70
     1
102
RTVSPropertyOp13
 70
     1
102
RTVSPropertyOp14
 70
     1
102
RTVSPropertyOp15
 70
     1
102
RTVSPropertyOp16
 70
     1
102
RTVSPropertyOp17
 70
     1
102
RTVSPropertyOp18
 70
     1
102
RTVSPropertyOp19
 70
     1
102
RTVSPropertyOp20
 70
     1
102
RTVSPropertyOp21
 70
     1
102
RTVSPropertyOp22
 70
     1
102
RTVSPropertyOp23
 70
     1
102
RTVSPropertyOp24
 70
     1
102
RTVSPropertyOp25
 70
     1
102
RTVSPropertyOp26
 70
     1
102
RTVSPropertyOp27
 70
     1
102
RTVSPropertyOp28
 70
     1
102
RTVSPropertyOp29
 70
     1
102
RTVSPropertyOp30
 70
     1
102
RTVSPropertyOp31
 70
     1
102
RTVSPropertyOp32
 70
     1
102
RTVSPropertyOp33
 70
     1
102
RTVSPropertyOp34
 70
     1
102
RTVSPropertyOp35
 70
     1
102
RTVSPropertyOp36
 70
     1
102
RTVSPropertyOp37
 70
     1
102
RTVSPropertyOp38
 70
     1
102
RTVSPropertyOp39
 70
     1
102
RTVSPropertyOp40
 70
     1
102
RTVSPropertyOp41
 70
     1
102
RTVSPropertyOp42
 70
     1
102
RTVSPropertyOp43
 70
     1
102
RTVSPropertyOp44
 70
     1
102
RTVSPropertyOp45
 70
     1
102
RTVSPropertyOp46
 70
     1
102
RTVSPropertyOp47
 70
     1
102
RTVSPropertyOp48
 70
     1
102
RTVSPropertyOp49
 70
     1
102
RTVSPropertyOp50
 70
     1
102
RTVSPropertyOp51
 70
     0
102
RTVSPropertyOp52
 70
     0
102
RTVSPropertyOp53
 70
     1
102
RTVSPropertyOp54
 70
     1
102
RTVSPropertyOp55
 70
     1
102
RTVSPropertyOp56
 70
     1
102
RTVSPropertyOp57
 70
     1
102
RTVSPropertyOp58
 70
     1
102
RTVSPropertyOp59
 70
     1
102
RTVSPropertyOp60
 70
     1
102
RTVSPropertyOp61
 70
     1
102
RTVSPropertyOp62
 70
     1
  0
XRECORD
  5
490
102
{ACAD_REACTORS
330
48F
102
}
330
48F
100
AcDbXrecord
280
     1
102
RTVSPost2010Prop28
280
     0
102
RTVSPost2010PropOp28
 70
     1
102
RTVSPost2010Prop29
280
     1
102
RTVSPost2010PropOp29
 70
     1
102
RTVSPost2010Prop30
280
     1
102
RTVSPost2010PropOp30
 70
     1
102
RTVSPost2010Prop31
280
     0
102
RTVSPost2010PropOp31
 70
     1
102
RTVSPost2010Prop32
280
     0
102
RTVSPost2010PropOp32
 70
     1
102
RTVSPost2010Prop33
280
     0
102
RTVSPost2010PropOp33
 70
     1
102
RTVSPost2010Prop34
280
     0
102
RTVSPost2010PropOp34
 70
     1
102
RTVSPost2010Prop35
280
     0
102
RTVSPost2010PropOp35
 70
     1
102
RTVSPost2010Prop36
280
     0
102
RTVSPost2010PropOp36
 70
     1
102
RTVSPost2010Prop37
 90
       50
102
RTVSPost2010PropOp37
 70
     1
102
RTVSPost2010Prop38
140
0.0
102
RTVSPost2010PropOp38
 70
     1
102
RTVSPost2010Prop39
140
1.0
102
RTVSPost2010PropOp39
 70
     1
102
RTVSPost2010Prop40
 90
        0
102
RTVSPost2010PropOp40
 70
     1
102
RTVSPost2010Prop41ColorIndex
 90
       18
102
RTVSPost2010Prop41ColorRGB
 90
        0
102
RTVSPost2010PropOp41
 70
     1
102
RTVSPost2010Prop42
 90
       50
102
RTVSPost2010PropOp42
 70
     1
102
RTVSPost2010Prop43
 90
        3
102
RTVSPost2010PropOp43
 70
     1
102
RTVSPost2010Prop44ColorIndex
 90
        5
102
RTVSPost2010Prop44ColorRGB
 90
      255
102
RTVSPost2010PropOp44
 70
     1
102
RTVSPost2010Prop45
280
     0
102
RTVSPost2010PropOp45
 70
     1
102
RTVSPost2010Prop46
 90
       50
102
RTVSPost2010PropOp46
 70
     1
102
RTVSPost2010Prop47
 90
       50
102
RTVSPost2010PropOp47
 70
     1
102
RTVSPost2010Prop48
 90
       50
102
RTVSPost2010PropOp48
 70
     1
102
RTVSPost2010Prop49
280
     0
102
RTVSPost2010PropOp49
 70
     1
102
RTVSPost2010Prop50
 90
       50
102
RTVSPost2010PropOp50
 70
     1
102
RTVSPost2010Prop51ColorIndex
 90
      256
102
RTVSPost2010Prop51ColorRGB
 90
-16777216
102
RTVSPost2010PropOp51
 70
     0
102
RTVSPost2010Prop52
140
1.0
102
RTVSPost2010PropOp52
 70
     0
102
RTVSPost2010Prop53
 90
        2
102
RTVSPost2010PropOp53
 70
     1
102
RTVSPost2010Prop54
  1
strokes_ogs.tif
102
RTVSPost2010PropOp54
 70
     1
102
RTVSPost2010Prop55
280
     0
102
RTVSPost2010PropOp55
 70
     1
102
RTVSPost2010Prop56
140
1.0
102
RTVSPost2010PropOp56
 70
     1
102
RTVSPost2010Prop57
140
1.0
102
RTVSPost2010PropOp57
 70
     1
102
RTVSPropertyOp0
 70
     1
102
RTVSPropertyOp1
 70
     1
102
RTVSPropertyOp2
 70
     1
102
RTVSPropertyOp3
 70
     1
102
RTVSPropertyOp4
 70
     1
102
RTVSPropertyOp5
 70
     1
102
RTVSPropertyOp6
 70
     1
102
RTVSPropertyOp7
 70
     1
102
RTVSPropertyOp8
 70
     1
102
RTVSPropertyOp9
 70
     1
102
RTVSPropertyOp10
 70
     1
102
RTVSPropertyOp11
 70
     1
102
RTVSPropertyOp12
 70
     1
102
RTVSPropertyOp13
 70
     1
102
RTVSPropertyOp14
 70
     1
102
RTVSPropertyOp15
 70
     1
102
RTVSPropertyOp16
 70
     1
102
RTVSPropertyOp17
 70
     1
102
RTVSPropertyOp18
 70
     1
102
RTVSPropertyOp19
 70
     1
102
RTVSPropertyOp20
 70
     1
102
RTVSPropertyOp21
 70
     1
102
RTVSPropertyOp22
 70
     1
102
RTVSPropertyOp23
 70
     1
102
RTVSPropertyOp24
 70
     1
102
RTVSPropertyOp25
 70
     1
102
RTVSPropertyOp26
 70
     1
102
RTVSPropertyOp27
 70
     1
102
RTVSPropertyOp28
 70
     1
102
RTVSPropertyOp29
 70
     1
102
RTVSPropertyOp30
 70
     1
102
RTVSPropertyOp31
 70
     1
102
RTVSPropertyOp32
 70
     1
102
RTVSPropertyOp33
 70
     1
102
RTVSPropertyOp34
 70
     1
102
RTVSPropertyOp35
 70
     1
102
RTVSPropertyOp36
 70
     1
102
RTVSPropertyOp37
 70
     1
102
RTVSPropertyOp38
 70
     1
102
RTVSPropertyOp39
 70
     1
102
RTVSPropertyOp40
 70
     1
102
RTVSPropertyOp41
 70
     1
102
RTVSPropertyOp42
 70
     1
102
RTVSPropertyOp43
 70
     1
102
RTVSPropertyOp44
 70
     1
102
RTVSPropertyOp45
 70
     1
102
RTVSPropertyOp46
 70
     1
102
RTVSPropertyOp47
 70
     1
102
RTVSPropertyOp48
 70
     1
102
RTVSPropertyOp49
 70
     1
102
RTVSPropertyOp50
 70
     1
102
RTVSPropertyOp51
 70
     0
102
RTVSPropertyOp52
 70
     0
102
RTVSPropertyOp53
 70
     1
102
RTVSPropertyOp54
 70
     1
102
RTVSPropertyOp55
 70
     1
102
RTVSPropertyOp56
 70
     1
102
RTVSPropertyOp57
 70
     1
102
RTVSPropertyOp58
 70
     1
102
RTVSPropertyOp59
 70
     1
102
RTVSPropertyOp60
 70
     1
102
RTVSPropertyOp61
 70
     1
102
RTVSPropertyOp62
 70
     1
  0
XRECORD
  5
498
102
{ACAD_REACTORS
330
497
102
}
330
497
100
AcDbXrecord
280
     1
102
RTVSPost2010Prop28
280
     0
102
RTVSPost2010PropOp28
 70
     1
102
RTVSPost2010Prop29
280
     1
102
RTVSPost2010PropOp29
 70
     1
102
RTVSPost2010Prop30
280
     1
102
RTVSPost2010PropOp30
 70
     1
102
RTVSPost2010Prop31
280
     0
102
RTVSPost2010PropOp31
 70
     1
102
RTVSPost2010Prop32
280
     0
102
RTVSPost2010PropOp32
 70
     1
102
RTVSPost2010Prop33
280
     0
102
RTVSPost2010PropOp33
 70
     1
102
RTVSPost2010Prop34
280
     0
102
RTVSPost2010PropOp34
 70
     1
102
RTVSPost2010Prop35
280
     0
102
RTVSPost2010PropOp35
 70
     1
102
RTVSPost2010Prop36
280
     0
102
RTVSPost2010PropOp36
 70
     1
102
RTVSPost2010Prop37
 90
       50
102
RTVSPost2010PropOp37
 70
     1
102
RTVSPost2010Prop38
140
0.0
102
RTVSPost2010PropOp38
 70
     1
102
RTVSPost2010Prop39
140
1.0
102
RTVSPost2010PropOp39
 70
     1
102
RTVSPost2010Prop40
 90
        0
102
RTVSPost2010PropOp40
 70
     1
102
RTVSPost2010Prop41ColorIndex
 90
       18
102
RTVSPost2010Prop41ColorRGB
 90
        0
102
RTVSPost2010PropOp41
 70
     1
102
RTVSPost2010Prop42
 90
       50
102
RTVSPost2010PropOp42
 70
     1
102
RTVSPost2010Prop43
 90
        3
102
RTVSPost2010PropOp43
 70
     1
102
RTVSPost2010Prop44ColorIndex
 90
        5
102
RTVSPost2010Prop44ColorRGB
 90
      255
102
RTVSPost2010PropOp44
 70
     1
102
RTVSPost2010Prop45
280
     0
102
RTVSPost2010PropOp45
 70
     1
102
RTVSPost2010Prop46
 90
       50
102
RTVSPost2010PropOp46
 70
     1
102
RTVSPost2010Prop47
 90
       50
102
RTVSPost2010PropOp47
 70
     1
102
RTVSPost2010Prop48
 90
       50
102
RTVSPost2010PropOp48
 70
     1
102
RTVSPost2010Prop49
280
     0
102
RTVSPost2010PropOp49
 70
     1
102
RTVSPost2010Prop50
 90
       50
102
RTVSPost2010PropOp50
 70
     1
102
RTVSPost2010Prop51ColorIndex
 90
      256
102
RTVSPost2010Prop51ColorRGB
 90
-16777216
102
RTVSPost2010PropOp51
 70
     0
102
RTVSPost2010Prop52
140
1.0
102
RTVSPost2010PropOp52
 70
     0
102
RTVSPost2010Prop53
 90
        2
102
RTVSPost2010PropOp53
 70
     1
102
RTVSPost2010Prop54
  1
strokes_ogs.tif
102
RTVSPost2010PropOp54
 70
     1
102
RTVSPost2010Prop55
280
     0
102
RTVSPost2010PropOp55
 70
     1
102
RTVSPost2010Prop56
140
1.0
102
RTVSPost2010PropOp56
 70
     1
102
RTVSPost2010Prop57
140
1.0
102
RTVSPost2010PropOp57
 70
     1
102
RTVSPropertyOp0
 70
     1
102
RTVSPropertyOp1
 70
     1
102
RTVSPropertyOp2
 70
     1
102
RTVSPropertyOp3
 70
     1
102
RTVSPropertyOp4
 70
     1
102
RTVSPropertyOp5
 70
     1
102
RTVSPropertyOp6
 70
     1
102
RTVSPropertyOp7
 70
     1
102
RTVSPropertyOp8
 70
     1
102
RTVSPropertyOp9
 70
     1
102
RTVSPropertyOp10
 70
     1
102
RTVSPropertyOp11
 70
     1
102
RTVSPropertyOp12
 70
     1
102
RTVSPropertyOp13
 70
     1
102
RTVSPropertyOp14
 70
     1
102
RTVSPropertyOp15
 70
     1
102
RTVSPropertyOp16
 70
     1
102
RTVSPropertyOp17
 70
     1
102
RTVSPropertyOp18
 70
     1
102
RTVSPropertyOp19
 70
     1
102
RTVSPropertyOp20
 70
     1
102
RTVSPropertyOp21
 70
     1
102
RTVSPropertyOp22
 70
     1
102
RTVSPropertyOp23
 70
     1
102
RTVSPropertyOp24
 70
     1
102
RTVSPropertyOp25
 70
     1
102
RTVSPropertyOp26
 70
     1
102
RTVSPropertyOp27
 70
     1
102
RTVSPropertyOp28
 70
     1
102
RTVSPropertyOp29
 70
     1
102
RTVSPropertyOp30
 70
     1
102
RTVSPropertyOp31
 70
     1
102
RTVSPropertyOp32
 70
     1
102
RTVSPropertyOp33
 70
     1
102
RTVSPropertyOp34
 70
     1
102
RTVSPropertyOp35
 70
     1
102
RTVSPropertyOp36
 70
     1
102
RTVSPropertyOp37
 70
     1
102
RTVSPropertyOp38
 70
     1
102
RTVSPropertyOp39
 70
     1
102
RTVSPropertyOp40
 70
     1
102
RTVSPropertyOp41
 70
     1
102
RTVSPropertyOp42
 70
     1
102
RTVSPropertyOp43
 70
     1
102
RTVSPropertyOp44
 70
     1
102
RTVSPropertyOp45
 70
     1
102
RTVSPropertyOp46
 70
     1
102
RTVSPropertyOp47
 70
     1
102
RTVSPropertyOp48
 70
     1
102
RTVSPropertyOp49
 70
     1
102
RTVSPropertyOp50
 70
     1
102
RTVSPropertyOp51
 70
     0
102
RTVSPropertyOp52
 70
     0
102
RTVSPropertyOp53
 70
     1
102
RTVSPropertyOp54
 70
     1
102
RTVSPropertyOp55
 70
     1
102
RTVSPropertyOp56
 70
     1
102
RTVSPropertyOp57
 70
     1
102
RTVSPropertyOp58
 70
     1
102
RTVSPropertyOp59
 70
     1
102
RTVSPropertyOp60
 70
     1
102
RTVSPropertyOp61
 70
     1
102
RTVSPropertyOp62
 70
     1
  0
XRECORD
  5
4B4
102
{ACAD_REACTORS
330
4B3
102
}
330
4B3
100
AcDbXrecord
280
     1
102
RTVSPost2010Prop28
280
     0
102
RTVSPost2010PropOp28
 70
     1
102
RTVSPost2010Prop29
280
     1
102
RTVSPost2010PropOp29
 70
     1
102
RTVSPost2010Prop30
280
     1
102
RTVSPost2010PropOp30
 70
     1
102
RTVSPost2010Prop31
280
     0
102
RTVSPost2010PropOp31
 70
     1
102
RTVSPost2010Prop32
280
     0
102
RTVSPost2010PropOp32
 70
     1
102
RTVSPost2010Prop33
280
     0
102
RTVSPost2010PropOp33
 70
     1
102
RTVSPost2010Prop34
280
     0
102
RTVSPost2010PropOp34
 70
     1
102
RTVSPost2010Prop35
280
     0
102
RTVSPost2010PropOp35
 70
     1
102
RTVSPost2010Prop36
280
     0
102
RTVSPost2010PropOp36
 70
     1
102
RTVSPost2010Prop37
 90
       50
102
RTVSPost2010PropOp37
 70
     0
102
RTVSPost2010Prop38
140
0.0
102
RTVSPost2010PropOp38
 70
     0
102
RTVSPost2010Prop39
140
1.0
102
RTVSPost2010PropOp39
 70
     0
102
RTVSPost2010Prop40
 90
        0
102
RTVSPost2010PropOp40
 70
     0
102
RTVSPost2010Prop41ColorIndex
 90
       18
102
RTVSPost2010Prop41ColorRGB
 90
        0
102
RTVSPost2010PropOp41
 70
     0
102
RTVSPost2010Prop42
 90
       50
102
RTVSPost2010PropOp42
 70
     0
102
RTVSPost2010Prop43
 90
        3
102
RTVSPost2010PropOp43
 70
     0
102
RTVSPost2010Prop44ColorIndex
 90
        5
102
RTVSPost2010Prop44ColorRGB
 90
      255
102
RTVSPost2010PropOp44
 70
     0
102
RTVSPost2010Prop45
280
     0
102
RTVSPost2010PropOp45
 70
     1
102
RTVSPost2010Prop46
 90
       50
102
RTVSPost2010PropOp46
 70
     0
102
RTVSPost2010Prop47
 90
       50
102
RTVSPost2010PropOp47
 70
     0
102
RTVSPost2010Prop48
 90
       50
102
RTVSPost2010PropOp48
 70
     0
102
RTVSPost2010Prop49
280
     0
102
RTVSPost2010PropOp49
 70
     1
102
RTVSPost2010Prop50
 90
       50
102
RTVSPost2010PropOp50
 70
     0
102
RTVSPost2010Prop51ColorIndex
 90
      256
102
RTVSPost2010Prop51ColorRGB
 90
-16777216
102
RTVSPost2010PropOp51
 70
     0
102
RTVSPost2010Prop52
140
1.0
102
RTVSPost2010PropOp52
 70
     0
102
RTVSPost2010Prop53
 90
        2
102
RTVSPost2010PropOp53
 70
     0
102
RTVSPost2010Prop54
  1
strokes_ogs.tif
102
RTVSPost2010PropOp54
 70
     0
102
RTVSPost2010Prop55
280
     0
102
RTVSPost2010PropOp55
 70
     1
102
RTVSPost2010Prop56
140
1.0
102
RTVSPost2010PropOp56
 70
     0
102
RTVSPost2010Prop57
140
1.0
102
RTVSPost2010PropOp57
 70
     0
102
RTVSPropertyOp0
 70
     0
102
RTVSPropertyOp1
 70
     0
102
RTVSPropertyOp2
 70
     0
102
RTVSPropertyOp3
 70
     0
102
RTVSPropertyOp4
 70
     0
102
RTVSPropertyOp5
 70
     0
102
RTVSPropertyOp6
 70
     0
102
RTVSPropertyOp7
 70
     0
102
RTVSPropertyOp8
 70
     0
102
RTVSPropertyOp9
 70
     0
102
RTVSPropertyOp10
 70
     0
102
RTVSPropertyOp11
 70
     0
102
RTVSPropertyOp12
 70
     0
102
RTVSPropertyOp13
 70
     0
102
RTVSPropertyOp14
 70
     2
102
RTVSPropertyOp15
 70
     0
102
RTVSPropertyOp16
 70
     0
102
RTVSPropertyOp17
 70
     0
102
RTVSPropertyOp18
 70
     0
102
RTVSPropertyOp19
 70
     0
102
RTVSPropertyOp20
 70
     0
102
RTVSPropertyOp21
 70
     0
102
RTVSPropertyOp22
 70
     0
102
RTVSPropertyOp23
 70
     0
102
RTVSPropertyOp24
 70
     0
102
RTVSPropertyOp25
 70
     0
102
RTVSPropertyOp26
 70
     0
102
RTVSPropertyOp27
 70
     0
102
RTVSPropertyOp28
 70
     1
102
RTVSPropertyOp29
 70
     1
102
RTVSPropertyOp30
 70
     1
102
RTVSPropertyOp31
 70
     1
102
RTVSPropertyOp32
 70
     1
102
RTVSPropertyOp33
 70
     1
102
RTVSPropertyOp34
 70
     1
102
RTVSPropertyOp35
 70
     1
102
RTVSPropertyOp36
 70
     1
102
RTVSPropertyOp37
 70
     0
102
RTVSPropertyOp38
 70
     0
102
RTVSPropertyOp39
 70
     0
102
RTVSPropertyOp40
 70
     0
102
RTVSPropertyOp41
 70
     0
102
RTVSPropertyOp42
 70
     0
102
RTVSPropertyOp43
 70
     0
102
RTVSPropertyOp44
 70
     0
102
RTVSPropertyOp45
 70
     1
102
RTVSPropertyOp46
 70
     0
102
RTVSPropertyOp47
 70
     0
102
RTVSPropertyOp48
 70
     0
102
RTVSPropertyOp49
 70
     1
102
RTVSPropertyOp50
 70
     0
102
RTVSPropertyOp51
 70
     0
102
RTVSPropertyOp52
 70
     0
102
RTVSPropertyOp53
 70
     0
102
RTVSPropertyOp54
 70
     0
102
RTVSPropertyOp55
 70
     1
102
RTVSPropertyOp56
 70
     0
102
RTVSPropertyOp57
 70
     0
102
RTVSPropertyOp58
 70
     0
102
RTVSPropertyOp59
 70
     0
102
RTVSPropertyOp60
 70
     0
102
RTVSPropertyOp61
 70
     0
102
RTVSPropertyOp62
 70
     0
  0
XRECORD
  5
4A4
102
{ACAD_REACTORS
330
4A3
102
}
330
4A3
100
AcDbXrecord
280
     1
102
RTVSPost2010Prop28
280
     0
102
RTVSPost2010PropOp28
 70
     1
102
RTVSPost2010Prop29
280
     1
102
RTVSPost2010PropOp29
 70
     1
102
RTVSPost2010Prop30
280
     1
102
RTVSPost2010PropOp30
 70
     1
102
RTVSPost2010Prop31
280
     0
102
RTVSPost2010PropOp31
 70
     1
102
RTVSPost2010Prop32
280
     0
102
RTVSPost2010PropOp32
 70
     1
102
RTVSPost2010Prop33
280
     0
102
RTVSPost2010PropOp33
 70
     1
102
RTVSPost2010Prop34
280
     0
102
RTVSPost2010PropOp34
 70
     1
102
RTVSPost2010Prop35
280
     0
102
RTVSPost2010PropOp35
 70
     1
102
RTVSPost2010Prop36
280
     0
102
RTVSPost2010PropOp36
 70
     1
102
RTVSPost2010Prop37
 90
       50
102
RTVSPost2010PropOp37
 70
     1
102
RTVSPost2010Prop38
140
0.0
102
RTVSPost2010PropOp38
 70
     1
102
RTVSPost2010Prop39
140
1.0
102
RTVSPost2010PropOp39
 70
     1
102
RTVSPost2010Prop40
 90
        0
102
RTVSPost2010PropOp40
 70
     1
102
RTVSPost2010Prop41ColorIndex
 90
       18
102
RTVSPost2010Prop41ColorRGB
 90
        0
102
RTVSPost2010PropOp41
 70
     1
102
RTVSPost2010Prop42
 90
       50
102
RTVSPost2010PropOp42
 70
     1
102
RTVSPost2010Prop43
 90
        3
102
RTVSPost2010PropOp43
 70
     1
102
RTVSPost2010Prop44ColorIndex
 90
        5
102
RTVSPost2010Prop44ColorRGB
 90
      255
102
RTVSPost2010PropOp44
 70
     1
102
RTVSPost2010Prop45
280
     0
102
RTVSPost2010PropOp45
 70
     1
102
RTVSPost2010Prop46
 90
       50
102
RTVSPost2010PropOp46
 70
     1
102
RTVSPost2010Prop47
 90
       50
102
RTVSPost2010PropOp47
 70
     1
102
RTVSPost2010Prop48
 90
       50
102
RTVSPost2010PropOp48
 70
     1
102
RTVSPost2010Prop49
280
     0
102
RTVSPost2010PropOp49
 70
     1
102
RTVSPost2010Prop50
 90
       50
102
RTVSPost2010PropOp50
 70
     1
102
RTVSPost2010Prop51ColorIndex
 90
      256
102
RTVSPost2010Prop51ColorRGB
 90
-16777216
102
RTVSPost2010PropOp51
 70
     0
102
RTVSPost2010Prop52
140
1.0
102
RTVSPost2010PropOp52
 70
     0
102
RTVSPost2010Prop53
 90
        2
102
RTVSPost2010PropOp53
 70
     1
102
RTVSPost2010Prop54
  1
strokes_ogs.tif
102
RTVSPost2010PropOp54
 70
     1
102
RTVSPost2010Prop55
280
     0
102
RTVSPost2010PropOp55
 70
     1
102
RTVSPost2010Prop56
140
1.0
102
RTVSPost2010PropOp56
 70
     1
102
RTVSPost2010Prop57
140
1.0
102
RTVSPost2010PropOp57
 70
     1
102
RTVSPropertyOp0
 70
     1
102
RTVSPropertyOp1
 70
     1
102
RTVSPropertyOp2
 70
     1
102
RTVSPropertyOp3
 70
     1
102
RTVSPropertyOp4
 70
     1
102
RTVSPropertyOp5
 70
     1
102
RTVSPropertyOp6
 70
     1
102
RTVSPropertyOp7
 70
     1
102
RTVSPropertyOp8
 70
     1
102
RTVSPropertyOp9
 70
     1
102
RTVSPropertyOp10
 70
     1
102
RTVSPropertyOp11
 70
     1
102
RTVSPropertyOp12
 70
     1
102
RTVSPropertyOp13
 70
     1
102
RTVSPropertyOp14
 70
     1
102
RTVSPropertyOp15
 70
     1
102
RTVSPropertyOp16
 70
     1
102
RTVSPropertyOp17
 70
     1
102
RTVSPropertyOp18
 70
     1
102
RTVSPropertyOp19
 70
     1
102
RTVSPropertyOp20
 70
     1
102
RTVSPropertyOp21
 70
     1
102
RTVSPropertyOp22
 70
     1
102
RTVSPropertyOp23
 70
     1
102
RTVSPropertyOp24
 70
     1
102
RTVSPropertyOp25
 70
     1
102
RTVSPropertyOp26
 70
     1
102
RTVSPropertyOp27
 70
     1
102
RTVSPropertyOp28
 70
     1
102
RTVSPropertyOp29
 70
     1
102
RTVSPropertyOp30
 70
     1
102
RTVSPropertyOp31
 70
     1
102
RTVSPropertyOp32
 70
     1
102
RTVSPropertyOp33
 70
     1
102
RTVSPropertyOp34
 70
     1
102
RTVSPropertyOp35
 70
     1
102
RTVSPropertyOp36
 70
     1
102
RTVSPropertyOp37
 70
     1
102
RTVSPropertyOp38
 70
     1
102
RTVSPropertyOp39
 70
     1
102
RTVSPropertyOp40
 70
     1
102
RTVSPropertyOp41
 70
     1
102
RTVSPropertyOp42
 70
     1
102
RTVSPropertyOp43
 70
     1
102
RTVSPropertyOp44
 70
     1
102
RTVSPropertyOp45
 70
     1
102
RTVSPropertyOp46
 70
     1
102
RTVSPropertyOp47
 70
     1
102
RTVSPropertyOp48
 70
     1
102
RTVSPropertyOp49
 70
     1
102
RTVSPropertyOp50
 70
     1
102
RTVSPropertyOp51
 70
     0
102
RTVSPropertyOp52
 70
     0
102
RTVSPropertyOp53
 70
     1
102
RTVSPropertyOp54
 70
     1
102
RTVSPropertyOp55
 70
     1
102
RTVSPropertyOp56
 70
     1
102
RTVSPropertyOp57
 70
     1
102
RTVSPropertyOp58
 70
     1
102
RTVSPropertyOp59
 70
     1
102
RTVSPropertyOp60
 70
     1
102
RTVSPropertyOp61
 70
     1
102
RTVSPropertyOp62
 70
     1
  0
XRECORD
  5
4B6
102
{ACAD_REACTORS
330
4B5
102
}
330
4B5
100
AcDbXrecord
280
     1
102
RTVSPost2010Prop28
280
     0
102
RTVSPost2010PropOp28
 70
     1
102
RTVSPost2010Prop29
280
     1
102
RTVSPost2010PropOp29
 70
     1
102
RTVSPost2010Prop30
280
     1
102
RTVSPost2010PropOp30
 70
     1
102
RTVSPost2010Prop31
280
     0
102
RTVSPost2010PropOp31
 70
     1
102
RTVSPost2010Prop32
280
     0
102
RTVSPost2010PropOp32
 70
     1
102
RTVSPost2010Prop33
280
     0
102
RTVSPost2010PropOp33
 70
     1
102
RTVSPost2010Prop34
280
     0
102
RTVSPost2010PropOp34
 70
     1
102
RTVSPost2010Prop35
280
     0
102
RTVSPost2010PropOp35
 70
     1
102
RTVSPost2010Prop36
280
     0
102
RTVSPost2010PropOp36
 70
     1
102
RTVSPost2010Prop37
 90
       50
102
RTVSPost2010PropOp37
 70
     0
102
RTVSPost2010Prop38
140
0.0
102
RTVSPost2010PropOp38
 70
     0
102
RTVSPost2010Prop39
140
1.0
102
RTVSPost2010PropOp39
 70
     0
102
RTVSPost2010Prop40
 90
        0
102
RTVSPost2010PropOp40
 70
     0
102
RTVSPost2010Prop41ColorIndex
 90
       18
102
RTVSPost2010Prop41ColorRGB
 90
        0
102
RTVSPost2010PropOp41
 70
     0
102
RTVSPost2010Prop42
 90
       50
102
RTVSPost2010PropOp42
 70
     0
102
RTVSPost2010Prop43
 90
        3
102
RTVSPost2010PropOp43
 70
     0
102
RTVSPost2010Prop44ColorIndex
 90
        5
102
RTVSPost2010Prop44ColorRGB
 90
      255
102
RTVSPost2010PropOp44
 70
     0
102
RTVSPost2010Prop45
280
     0
102
RTVSPost2010PropOp45
 70
     1
102
RTVSPost2010Prop46
 90
       50
102
RTVSPost2010PropOp46
 70
     0
102
RTVSPost2010Prop47
 90
       50
102
RTVSPost2010PropOp47
 70
     0
102
RTVSPost2010Prop48
 90
       50
102
RTVSPost2010PropOp48
 70
     0
102
RTVSPost2010Prop49
280
     0
102
RTVSPost2010PropOp49
 70
     1
102
RTVSPost2010Prop50
 90
       50
102
RTVSPost2010PropOp50
 70
     0
102
RTVSPost2010Prop51ColorIndex
 90
      256
102
RTVSPost2010Prop51ColorRGB
 90
-16777216
102
RTVSPost2010PropOp51
 70
     0
102
RTVSPost2010Prop52
140
1.0
102
RTVSPost2010PropOp52
 70
     0
102
RTVSPost2010Prop53
 90
        2
102
RTVSPost2010PropOp53
 70
     0
102
RTVSPost2010Prop54
  1
strokes_ogs.tif
102
RTVSPost2010PropOp54
 70
     0
102
RTVSPost2010Prop55
280
     0
102
RTVSPost2010PropOp55
 70
     1
102
RTVSPost2010Prop56
140
1.0
102
RTVSPost2010PropOp56
 70
     0
102
RTVSPost2010Prop57
140
1.0
102
RTVSPost2010PropOp57
 70
     0
102
RTVSPropertyOp0
 70
     0
102
RTVSPropertyOp1
 70
     0
102
RTVSPropertyOp2
 70
     0
102
RTVSPropertyOp3
 70
     0
102
RTVSPropertyOp4
 70
     0
102
RTVSPropertyOp5
 70
     0
102
RTVSPropertyOp6
 70
     0
102
RTVSPropertyOp7
 70
     0
102
RTVSPropertyOp8
 70
     0
102
RTVSPropertyOp9
 70
     0
102
RTVSPropertyOp10
 70
     0
102
RTVSPropertyOp11
 70
     0
102
RTVSPropertyOp12
 70
     0
102
RTVSPropertyOp13
 70
     0
102
RTVSPropertyOp14
 70
     2
102
RTVSPropertyOp15
 70
     0
102
RTVSPropertyOp16
 70
     0
102
RTVSPropertyOp17
 70
     0
102
RTVSPropertyOp18
 70
     0
102
RTVSPropertyOp19
 70
     0
102
RTVSPropertyOp20
 70
     0
102
RTVSPropertyOp21
 70
     0
102
RTVSPropertyOp22
 70
     0
102
RTVSPropertyOp23
 70
     0
102
RTVSPropertyOp24
 70
     0
102
RTVSPropertyOp25
 70
     0
102
RTVSPropertyOp26
 70
     0
102
RTVSPropertyOp27
 70
     0
102
RTVSPropertyOp28
 70
     1
102
RTVSPropertyOp29
 70
     1
102
RTVSPropertyOp30
 70
     1
102
RTVSPropertyOp31
 70
     1
102
RTVSPropertyOp32
 70
     1
102
RTVSPropertyOp33
 70
     1
102
RTVSPropertyOp34
 70
     1
102
RTVSPropertyOp35
 70
     1
102
RTVSPropertyOp36
 70
     1
102
RTVSPropertyOp37
 70
     0
102
RTVSPropertyOp38
 70
     0
102
RTVSPropertyOp39
 70
     0
102
RTVSPropertyOp40
 70
     0
102
RTVSPropertyOp41
 70
     0
102
RTVSPropertyOp42
 70
     0
102
RTVSPropertyOp43
 70
     0
102
RTVSPropertyOp44
 70
     0
102
RTVSPropertyOp45
 70
     1
102
RTVSPropertyOp46
 70
     0
102
RTVSPropertyOp47
 70
     0
102
RTVSPropertyOp48
 70
     0
102
RTVSPropertyOp49
 70
     1
102
RTVSPropertyOp50
 70
     0
102
RTVSPropertyOp51
 70
     0
102
RTVSPropertyOp52
 70
     0
102
RTVSPropertyOp53
 70
     0
102
RTVSPropertyOp54
 70
     0
102
RTVSPropertyOp55
 70
     1
102
RTVSPropertyOp56
 70
     0
102
RTVSPropertyOp57
 70
     0
102
RTVSPropertyOp58
 70
     0
102
RTVSPropertyOp59
 70
     0
102
RTVSPropertyOp60
 70
     0
102
RTVSPropertyOp61
 70
     0
102
RTVSPropertyOp62
 70
     0
  0
XRECORD
  5
49C
102
{ACAD_REACTORS
330
49B
102
}
330
49B
100
AcDbXrecord
280
     1
102
RTVSPost2010Prop28
280
     0
102
RTVSPost2010PropOp28
 70
     1
102
RTVSPost2010Prop29
280
     1
102
RTVSPost2010PropOp29
 70
     1
102
RTVSPost2010Prop30
280
     1
102
RTVSPost2010PropOp30
 70
     1
102
RTVSPost2010Prop31
280
     0
102
RTVSPost2010PropOp31
 70
     1
102
RTVSPost2010Prop32
280
     0
102
RTVSPost2010PropOp32
 70
     1
102
RTVSPost2010Prop33
280
     0
102
RTVSPost2010PropOp33
 70
     1
102
RTVSPost2010Prop34
280
     0
102
RTVSPost2010PropOp34
 70
     1
102
RTVSPost2010Prop35
280
     0
102
RTVSPost2010PropOp35
 70
     1
102
RTVSPost2010Prop36
280
     0
102
RTVSPost2010PropOp36
 70
     1
102
RTVSPost2010Prop37
 90
       50
102
RTVSPost2010PropOp37
 70
     1
102
RTVSPost2010Prop38
140
0.0
102
RTVSPost2010PropOp38
 70
     1
102
RTVSPost2010Prop39
140
1.0
102
RTVSPost2010PropOp39
 70
     1
102
RTVSPost2010Prop40
 90
        0
102
RTVSPost2010PropOp40
 70
     1
102
RTVSPost2010Prop41ColorIndex
 90
       18
102
RTVSPost2010Prop41ColorRGB
 90
        0
102
RTVSPost2010PropOp41
 70
     1
102
RTVSPost2010Prop42
 90
       50
102
RTVSPost2010PropOp42
 70
     1
102
RTVSPost2010Prop43
 90
        3
102
RTVSPost2010PropOp43
 70
     1
102
RTVSPost2010Prop44ColorIndex
 90
        5
102
RTVSPost2010Prop44ColorRGB
 90
      255
102
RTVSPost2010PropOp44
 70
     1
102
RTVSPost2010Prop45
280
     0
102
RTVSPost2010PropOp45
 70
     1
102
RTVSPost2010Prop46
 90
       50
102
RTVSPost2010PropOp46
 70
     1
102
RTVSPost2010Prop47
 90
       50
102
RTVSPost2010PropOp47
 70
     1
102
RTVSPost2010Prop48
 90
       50
102
RTVSPost2010PropOp48
 70
     1
102
RTVSPost2010Prop49
280
     0
102
RTVSPost2010PropOp49
 70
     1
102
RTVSPost2010Prop50
 90
       50
102
RTVSPost2010PropOp50
 70
     1
102
RTVSPost2010Prop51ColorIndex
 90
      256
102
RTVSPost2010Prop51ColorRGB
 90
-16777216
102
RTVSPost2010PropOp51
 70
     0
102
RTVSPost2010Prop52
140
1.0
102
RTVSPost2010PropOp52
 70
     0
102
RTVSPost2010Prop53
 90
        2
102
RTVSPost2010PropOp53
 70
     1
102
RTVSPost2010Prop54
  1
strokes_ogs.tif
102
RTVSPost2010PropOp54
 70
     1
102
RTVSPost2010Prop55
280
     0
102
RTVSPost2010PropOp55
 70
     1
102
RTVSPost2010Prop56
140
1.0
102
RTVSPost2010PropOp56
 70
     1
102
RTVSPost2010Prop57
140
1.0
102
RTVSPost2010PropOp57
 70
     1
102
RTVSPropertyOp0
 70
     1
102
RTVSPropertyOp1
 70
     1
102
RTVSPropertyOp2
 70
     1
102
RTVSPropertyOp3
 70
     1
102
RTVSPropertyOp4
 70
     1
102
RTVSPropertyOp5
 70
     1
102
RTVSPropertyOp6
 70
     1
102
RTVSPropertyOp7
 70
     1
102
RTVSPropertyOp8
 70
     1
102
RTVSPropertyOp9
 70
     1
102
RTVSPropertyOp10
 70
     1
102
RTVSPropertyOp11
 70
     1
102
RTVSPropertyOp12
 70
     1
102
RTVSPropertyOp13
 70
     1
102
RTVSPropertyOp14
 70
     1
102
RTVSPropertyOp15
 70
     1
102
RTVSPropertyOp16
 70
     1
102
RTVSPropertyOp17
 70
     1
102
RTVSPropertyOp18
 70
     1
102
RTVSPropertyOp19
 70
     1
102
RTVSPropertyOp20
 70
     1
102
RTVSPropertyOp21
 70
     1
102
RTVSPropertyOp22
 70
     1
102
RTVSPropertyOp23
 70
     1
102
RTVSPropertyOp24
 70
     1
102
RTVSPropertyOp25
 70
     1
102
RTVSPropertyOp26
 70
     1
102
RTVSPropertyOp27
 70
     1
102
RTVSPropertyOp28
 70
     1
102
RTVSPropertyOp29
 70
     1
102
RTVSPropertyOp30
 70
     1
102
RTVSPropertyOp31
 70
     1
102
RTVSPropertyOp32
 70
     1
102
RTVSPropertyOp33
 70
     1
102
RTVSPropertyOp34
 70
     1
102
RTVSPropertyOp35
 70
     1
102
RTVSPropertyOp36
 70
     1
102
RTVSPropertyOp37
 70
     1
102
RTVSPropertyOp38
 70
     1
102
RTVSPropertyOp39
 70
     1
102
RTVSPropertyOp40
 70
     1
102
RTVSPropertyOp41
 70
     1
102
RTVSPropertyOp42
 70
     1
102
RTVSPropertyOp43
 70
     1
102
RTVSPropertyOp44
 70
     1
102
RTVSPropertyOp45
 70
     1
102
RTVSPropertyOp46
 70
     1
102
RTVSPropertyOp47
 70
     1
102
RTVSPropertyOp48
 70
     1
102
RTVSPropertyOp49
 70
     1
102
RTVSPropertyOp50
 70
     1
102
RTVSPropertyOp51
 70
     0
102
RTVSPropertyOp52
 70
     0
102
RTVSPropertyOp53
 70
     1
102
RTVSPropertyOp54
 70
     1
102
RTVSPropertyOp55
 70
     1
102
RTVSPropertyOp56
 70
     1
102
RTVSPropertyOp57
 70
     1
102
RTVSPropertyOp58
 70
     1
102
RTVSPropertyOp59
 70
     1
102
RTVSPropertyOp60
 70
     1
102
RTVSPropertyOp61
 70
     1
102
RTVSPropertyOp62
 70
     1
  0
XRECORD
  5
4B2
102
{ACAD_REACTORS
330
4B1
102
}
330
4B1
100
AcDbXrecord
280
     1
102
RTVSPost2010Prop28
280
     0
102
RTVSPost2010PropOp28
 70
     1
102
RTVSPost2010Prop29
280
     1
102
RTVSPost2010PropOp29
 70
     1
102
RTVSPost2010Prop30
280
     1
102
RTVSPost2010PropOp30
 70
     1
102
RTVSPost2010Prop31
280
     0
102
RTVSPost2010PropOp31
 70
     1
102
RTVSPost2010Prop32
280
     0
102
RTVSPost2010PropOp32
 70
     1
102
RTVSPost2010Prop33
280
     0
102
RTVSPost2010PropOp33
 70
     1
102
RTVSPost2010Prop34
280
     0
102
RTVSPost2010PropOp34
 70
     1
102
RTVSPost2010Prop35
280
     0
102
RTVSPost2010PropOp35
 70
     1
102
RTVSPost2010Prop36
280
     0
102
RTVSPost2010PropOp36
 70
     1
102
RTVSPost2010Prop37
 90
       50
102
RTVSPost2010PropOp37
 70
     1
102
RTVSPost2010Prop38
140
0.0
102
RTVSPost2010PropOp38
 70
     1
102
RTVSPost2010Prop39
140
1.0
102
RTVSPost2010PropOp39
 70
     1
102
RTVSPost2010Prop40
 90
        0
102
RTVSPost2010PropOp40
 70
     1
102
RTVSPost2010Prop41ColorIndex
 90
       18
102
RTVSPost2010Prop41ColorRGB
 90
        0
102
RTVSPost2010PropOp41
 70
     1
102
RTVSPost2010Prop42
 90
       50
102
RTVSPost2010PropOp42
 70
     1
102
RTVSPost2010Prop43
 90
        3
102
RTVSPost2010PropOp43
 70
     1
102
RTVSPost2010Prop44ColorIndex
 90
        5
102
RTVSPost2010Prop44ColorRGB
 90
      255
102
RTVSPost2010PropOp44
 70
     1
102
RTVSPost2010Prop45
280
     0
102
RTVSPost2010PropOp45
 70
     1
102
RTVSPost2010Prop46
 90
       50
102
RTVSPost2010PropOp46
 70
     1
102
RTVSPost2010Prop47
 90
       50
102
RTVSPost2010PropOp47
 70
     1
102
RTVSPost2010Prop48
 90
       50
102
RTVSPost2010PropOp48
 70
     1
102
RTVSPost2010Prop49
280
     0
102
RTVSPost2010PropOp49
 70
     1
102
RTVSPost2010Prop50
 90
       50
102
RTVSPost2010PropOp50
 70
     1
102
RTVSPost2010Prop51ColorIndex
 90
      256
102
RTVSPost2010Prop51ColorRGB
 90
-16777216
102
RTVSPost2010PropOp51
 70
     0
102
RTVSPost2010Prop52
140
1.0
102
RTVSPost2010PropOp52
 70
     0
102
RTVSPost2010Prop53
 90
        2
102
RTVSPost2010PropOp53
 70
     1
102
RTVSPost2010Prop54
  1
strokes_ogs.tif
102
RTVSPost2010PropOp54
 70
     1
102
RTVSPost2010Prop55
280
     0
102
RTVSPost2010PropOp55
 70
     1
102
RTVSPost2010Prop56
140
1.0
102
RTVSPost2010PropOp56
 70
     1
102
RTVSPost2010Prop57
140
1.0
102
RTVSPost2010PropOp57
 70
     1
102
RTVSPropertyOp0
 70
     1
102
RTVSPropertyOp1
 70
     1
102
RTVSPropertyOp2
 70
     1
102
RTVSPropertyOp3
 70
     1
102
RTVSPropertyOp4
 70
     1
102
RTVSPropertyOp5
 70
     1
102
RTVSPropertyOp6
 70
     1
102
RTVSPropertyOp7
 70
     1
102
RTVSPropertyOp8
 70
     1
102
RTVSPropertyOp9
 70
     1
102
RTVSPropertyOp10
 70
     1
102
RTVSPropertyOp11
 70
     1
102
RTVSPropertyOp12
 70
     1
102
RTVSPropertyOp13
 70
     1
102
RTVSPropertyOp14
 70
     1
102
RTVSPropertyOp15
 70
     1
102
RTVSPropertyOp16
 70
     1
102
RTVSPropertyOp17
 70
     1
102
RTVSPropertyOp18
 70
     1
102
RTVSPropertyOp19
 70
     1
102
RTVSPropertyOp20
 70
     1
102
RTVSPropertyOp21
 70
     1
102
RTVSPropertyOp22
 70
     1
102
RTVSPropertyOp23
 70
     1
102
RTVSPropertyOp24
 70
     1
102
RTVSPropertyOp25
 70
     1
102
RTVSPropertyOp26
 70
     1
102
RTVSPropertyOp27
 70
     1
102
RTVSPropertyOp28
 70
     1
102
RTVSPropertyOp29
 70
     1
102
RTVSPropertyOp30
 70
     1
102
RTVSPropertyOp31
 70
     1
102
RTVSPropertyOp32
 70
     1
102
RTVSPropertyOp33
 70
     1
102
RTVSPropertyOp34
 70
     1
102
RTVSPropertyOp35
 70
     1
102
RTVSPropertyOp36
 70
     1
102
RTVSPropertyOp37
 70
     1
102
RTVSPropertyOp38
 70
     1
102
RTVSPropertyOp39
 70
     1
102
RTVSPropertyOp40
 70
     1
102
RTVSPropertyOp41
 70
     1
102
RTVSPropertyOp42
 70
     1
102
RTVSPropertyOp43
 70
     1
102
RTVSPropertyOp44
 70
     1
102
RTVSPropertyOp45
 70
     1
102
RTVSPropertyOp46
 70
     1
102
RTVSPropertyOp47
 70
     1
102
RTVSPropertyOp48
 70
     1
102
RTVSPropertyOp49
 70
     1
102
RTVSPropertyOp50
 70
     1
102
RTVSPropertyOp51
 70
     0
102
RTVSPropertyOp52
 70
     0
102
RTVSPropertyOp53
 70
     1
102
RTVSPropertyOp54
 70
     1
102
RTVSPropertyOp55
 70
     1
102
RTVSPropertyOp56
 70
     1
102
RTVSPropertyOp57
 70
     1
102
RTVSPropertyOp58
 70
     1
102
RTVSPropertyOp59
 70
     1
102
RTVSPropertyOp60
 70
     1
102
RTVSPropertyOp61
 70
     1
102
RTVSPropertyOp62
 70
     1
  0
XRECORD
  5
4B0
102
{ACAD_REACTORS
330
4AF
102
}
330
4AF
100
AcDbXrecord
280
     1
102
RTVSPost2010Prop28
280
     0
102
RTVSPost2010PropOp28
 70
     1
102
RTVSPost2010Prop29
280
     1
102
RTVSPost2010PropOp29
 70
     1
102
RTVSPost2010Prop30
280
     1
102
RTVSPost2010PropOp30
 70
     1
102
RTVSPost2010Prop31
280
     0
102
RTVSPost2010PropOp31
 70
     1
102
RTVSPost2010Prop32
280
     0
102
RTVSPost2010PropOp32
 70
     1
102
RTVSPost2010Prop33
280
     0
102
RTVSPost2010PropOp33
 70
     1
102
RTVSPost2010Prop34
280
     0
102
RTVSPost2010PropOp34
 70
     1
102
RTVSPost2010Prop35
280
     0
102
RTVSPost2010PropOp35
 70
     1
102
RTVSPost2010Prop36
280
     0
102
RTVSPost2010PropOp36
 70
     1
102
RTVSPost2010Prop37
 90
       50
102
RTVSPost2010PropOp37
 70
     1
102
RTVSPost2010Prop38
140
0.0
102
RTVSPost2010PropOp38
 70
     1
102
RTVSPost2010Prop39
140
1.0
102
RTVSPost2010PropOp39
 70
     1
102
RTVSPost2010Prop40
 90
        0
102
RTVSPost2010PropOp40
 70
     1
102
RTVSPost2010Prop41ColorIndex
 90
       18
102
RTVSPost2010Prop41ColorRGB
 90
        0
102
RTVSPost2010PropOp41
 70
     1
102
RTVSPost2010Prop42
 90
       50
102
RTVSPost2010PropOp42
 70
     1
102
RTVSPost2010Prop43
 90
        3
102
RTVSPost2010PropOp43
 70
     1
102
RTVSPost2010Prop44ColorIndex
 90
        5
102
RTVSPost2010Prop44ColorRGB
 90
      255
102
RTVSPost2010PropOp44
 70
     1
102
RTVSPost2010Prop45
280
     0
102
RTVSPost2010PropOp45
 70
     1
102
RTVSPost2010Prop46
 90
       50
102
RTVSPost2010PropOp46
 70
     1
102
RTVSPost2010Prop47
 90
       50
102
RTVSPost2010PropOp47
 70
     1
102
RTVSPost2010Prop48
 90
       50
102
RTVSPost2010PropOp48
 70
     1
102
RTVSPost2010Prop49
280
     0
102
RTVSPost2010PropOp49
 70
     1
102
RTVSPost2010Prop50
 90
       50
102
RTVSPost2010PropOp50
 70
     1
102
RTVSPost2010Prop51ColorIndex
 90
      256
102
RTVSPost2010Prop51ColorRGB
 90
-16777216
102
RTVSPost2010PropOp51
 70
     0
102
RTVSPost2010Prop52
140
1.0
102
RTVSPost2010PropOp52
 70
     0
102
RTVSPost2010Prop53
 90
        2
102
RTVSPost2010PropOp53
 70
     1
102
RTVSPost2010Prop54
  1
strokes_ogs.tif
102
RTVSPost2010PropOp54
 70
     1
102
RTVSPost2010Prop55
280
     0
102
RTVSPost2010PropOp55
 70
     1
102
RTVSPost2010Prop56
140
1.0
102
RTVSPost2010PropOp56
 70
     1
102
RTVSPost2010Prop57
140
1.0
102
RTVSPost2010PropOp57
 70
     1
102
RTVSPropertyOp0
 70
     1
102
RTVSPropertyOp1
 70
     1
102
RTVSPropertyOp2
 70
     1
102
RTVSPropertyOp3
 70
     1
102
RTVSPropertyOp4
 70
     1
102
RTVSPropertyOp5
 70
     1
102
RTVSPropertyOp6
 70
     1
102
RTVSPropertyOp7
 70
     1
102
RTVSPropertyOp8
 70
     1
102
RTVSPropertyOp9
 70
     1
102
RTVSPropertyOp10
 70
     1
102
RTVSPropertyOp11
 70
     1
102
RTVSPropertyOp12
 70
     1
102
RTVSPropertyOp13
 70
     1
102
RTVSPropertyOp14
 70
     1
102
RTVSPropertyOp15
 70
     1
102
RTVSPropertyOp16
 70
     1
102
RTVSPropertyOp17
 70
     1
102
RTVSPropertyOp18
 70
     1
102
RTVSPropertyOp19
 70
     1
102
RTVSPropertyOp20
 70
     1
102
RTVSPropertyOp21
 70
     1
102
RTVSPropertyOp22
 70
     1
102
RTVSPropertyOp23
 70
     1
102
RTVSPropertyOp24
 70
     1
102
RTVSPropertyOp25
 70
     1
102
RTVSPropertyOp26
 70
     1
102
RTVSPropertyOp27
 70
     1
102
RTVSPropertyOp28
 70
     1
102
RTVSPropertyOp29
 70
     1
102
RTVSPropertyOp30
 70
     1
102
RTVSPropertyOp31
 70
     1
102
RTVSPropertyOp32
 70
     1
102
RTVSPropertyOp33
 70
     1
102
RTVSPropertyOp34
 70
     1
102
RTVSPropertyOp35
 70
     1
102
RTVSPropertyOp36
 70
     1
102
RTVSPropertyOp37
 70
     1
102
RTVSPropertyOp38
 70
     1
102
RTVSPropertyOp39
 70
     1
102
RTVSPropertyOp40
 70
     1
102
RTVSPropertyOp41
 70
     1
102
RTVSPropertyOp42
 70
     1
102
RTVSPropertyOp43
 70
     1
102
RTVSPropertyOp44
 70
     1
102
RTVSPropertyOp45
 70
     1
102
RTVSPropertyOp46
 70
     1
102
RTVSPropertyOp47
 70
     1
102
RTVSPropertyOp48
 70
     1
102
RTVSPropertyOp49
 70
     1
102
RTVSPropertyOp50
 70
     1
102
RTVSPropertyOp51
 70
     0
102
RTVSPropertyOp52
 70
     0
102
RTVSPropertyOp53
 70
     1
102
RTVSPropertyOp54
 70
     1
102
RTVSPropertyOp55
 70
     1
102
RTVSPropertyOp56
 70
     1
102
RTVSPropertyOp57
 70
     1
102
RTVSPropertyOp58
 70
     1
102
RTVSPropertyOp59
 70
     1
102
RTVSPropertyOp60
 70
     1
102
RTVSPropertyOp61
 70
     1
102
RTVSPropertyOp62
 70
     1
  0
XRECORD
  5
4AA
102
{ACAD_REACTORS
330
4A9
102
}
330
4A9
100
AcDbXrecord
280
     1
102
RTVSPost2010Prop28
280
     0
102
RTVSPost2010PropOp28
 70
     1
102
RTVSPost2010Prop29
280
     1
102
RTVSPost2010PropOp29
 70
     1
102
RTVSPost2010Prop30
280
     1
102
RTVSPost2010PropOp30
 70
     1
102
RTVSPost2010Prop31
280
     0
102
RTVSPost2010PropOp31
 70
     1
102
RTVSPost2010Prop32
280
     0
102
RTVSPost2010PropOp32
 70
     1
102
RTVSPost2010Prop33
280
     0
102
RTVSPost2010PropOp33
 70
     1
102
RTVSPost2010Prop34
280
     0
102
RTVSPost2010PropOp34
 70
     1
102
RTVSPost2010Prop35
280
     0
102
RTVSPost2010PropOp35
 70
     1
102
RTVSPost2010Prop36
280
     0
102
RTVSPost2010PropOp36
 70
     1
102
RTVSPost2010Prop37
 90
       50
102
RTVSPost2010PropOp37
 70
     1
102
RTVSPost2010Prop38
140
0.0
102
RTVSPost2010PropOp38
 70
     1
102
RTVSPost2010Prop39
140
1.0
102
RTVSPost2010PropOp39
 70
     1
102
RTVSPost2010Prop40
 90
        0
102
RTVSPost2010PropOp40
 70
     1
102
RTVSPost2010Prop41ColorIndex
 90
       18
102
RTVSPost2010Prop41ColorRGB
 90
        0
102
RTVSPost2010PropOp41
 70
     1
102
RTVSPost2010Prop42
 90
       50
102
RTVSPost2010PropOp42
 70
     1
102
RTVSPost2010Prop43
 90
        3
102
RTVSPost2010PropOp43
 70
     1
102
RTVSPost2010Prop44ColorIndex
 90
        5
102
RTVSPost2010Prop44ColorRGB
 90
      255
102
RTVSPost2010PropOp44
 70
     1
102
RTVSPost2010Prop45
280
     0
102
RTVSPost2010PropOp45
 70
     1
102
RTVSPost2010Prop46
 90
       50
102
RTVSPost2010PropOp46
 70
     1
102
RTVSPost2010Prop47
 90
       50
102
RTVSPost2010PropOp47
 70
     1
102
RTVSPost2010Prop48
 90
       50
102
RTVSPost2010PropOp48
 70
     1
102
RTVSPost2010Prop49
280
     0
102
RTVSPost2010PropOp49
 70
     1
102
RTVSPost2010Prop50
 90
       50
102
RTVSPost2010PropOp50
 70
     1
102
RTVSPost2010Prop51ColorIndex
 90
      256
102
RTVSPost2010Prop51ColorRGB
 90
-16777216
102
RTVSPost2010PropOp51
 70
     0
102
RTVSPost2010Prop52
140
1.0
102
RTVSPost2010PropOp52
 70
     0
102
RTVSPost2010Prop53
 90
        2
102
RTVSPost2010PropOp53
 70
     1
102
RTVSPost2010Prop54
  1
strokes_ogs.tif
102
RTVSPost2010PropOp54
 70
     1
102
RTVSPost2010Prop55
280
     0
102
RTVSPost2010PropOp55
 70
     1
102
RTVSPost2010Prop56
140
1.0
102
RTVSPost2010PropOp56
 70
     1
102
RTVSPost2010Prop57
140
1.0
102
RTVSPost2010PropOp57
 70
     1
102
RTVSPropertyOp0
 70
     1
102
RTVSPropertyOp1
 70
     1
102
RTVSPropertyOp2
 70
     1
102
RTVSPropertyOp3
 70
     1
102
RTVSPropertyOp4
 70
     1
102
RTVSPropertyOp5
 70
     1
102
RTVSPropertyOp6
 70
     1
102
RTVSPropertyOp7
 70
     1
102
RTVSPropertyOp8
 70
     1
102
RTVSPropertyOp9
 70
     1
102
RTVSPropertyOp10
 70
     1
102
RTVSPropertyOp11
 70
     1
102
RTVSPropertyOp12
 70
     1
102
RTVSPropertyOp13
 70
     1
102
RTVSPropertyOp14
 70
     1
102
RTVSPropertyOp15
 70
     1
102
RTVSPropertyOp16
 70
     1
102
RTVSPropertyOp17
 70
     1
102
RTVSPropertyOp18
 70
     1
102
RTVSPropertyOp19
 70
     1
102
RTVSPropertyOp20
 70
     1
102
RTVSPropertyOp21
 70
     1
102
RTVSPropertyOp22
 70
     1
102
RTVSPropertyOp23
 70
     1
102
RTVSPropertyOp24
 70
     1
102
RTVSPropertyOp25
 70
     1
102
RTVSPropertyOp26
 70
     1
102
RTVSPropertyOp27
 70
     1
102
RTVSPropertyOp28
 70
     1
102
RTVSPropertyOp29
 70
     1
102
RTVSPropertyOp30
 70
     1
102
RTVSPropertyOp31
 70
     1
102
RTVSPropertyOp32
 70
     1
102
RTVSPropertyOp33
 70
     1
102
RTVSPropertyOp34
 70
     1
102
RTVSPropertyOp35
 70
     1
102
RTVSPropertyOp36
 70
     1
102
RTVSPropertyOp37
 70
     1
102
RTVSPropertyOp38
 70
     1
102
RTVSPropertyOp39
 70
     1
102
RTVSPropertyOp40
 70
     1
102
RTVSPropertyOp41
 70
     1
102
RTVSPropertyOp42
 70
     1
102
RTVSPropertyOp43
 70
     1
102
RTVSPropertyOp44
 70
     1
102
RTVSPropertyOp45
 70
     1
102
RTVSPropertyOp46
 70
     1
102
RTVSPropertyOp47
 70
     1
102
RTVSPropertyOp48
 70
     1
102
RTVSPropertyOp49
 70
     1
102
RTVSPropertyOp50
 70
     1
102
RTVSPropertyOp51
 70
     0
102
RTVSPropertyOp52
 70
     0
102
RTVSPropertyOp53
 70
     1
102
RTVSPropertyOp54
 70
     1
102
RTVSPropertyOp55
 70
     1
102
RTVSPropertyOp56
 70
     1
102
RTVSPropertyOp57
 70
     1
102
RTVSPropertyOp58
 70
     1
102
RTVSPropertyOp59
 70
     1
102
RTVSPropertyOp60
 70
     1
102
RTVSPropertyOp61
 70
     1
102
RTVSPropertyOp62
 70
     1
  0
XRECORD
  5
4AC
102
{ACAD_REACTORS
330
4AB
102
}
330
4AB
100
AcDbXrecord
280
     1
102
RTVSPost2010Prop28
280
     0
102
RTVSPost2010PropOp28
 70
     1
102
RTVSPost2010Prop29
280
     1
102
RTVSPost2010PropOp29
 70
     1
102
RTVSPost2010Prop30
280
     1
102
RTVSPost2010PropOp30
 70
     1
102
RTVSPost2010Prop31
280
     0
102
RTVSPost2010PropOp31
 70
     1
102
RTVSPost2010Prop32
280
     0
102
RTVSPost2010PropOp32
 70
     1
102
RTVSPost2010Prop33
280
     0
102
RTVSPost2010PropOp33
 70
     1
102
RTVSPost2010Prop34
280
     0
102
RTVSPost2010PropOp34
 70
     1
102
RTVSPost2010Prop35
280
     0
102
RTVSPost2010PropOp35
 70
     1
102
RTVSPost2010Prop36
280
     0
102
RTVSPost2010PropOp36
 70
     1
102
RTVSPost2010Prop37
 90
       50
102
RTVSPost2010PropOp37
 70
     1
102
RTVSPost2010Prop38
140
0.0
102
RTVSPost2010PropOp38
 70
     1
102
RTVSPost2010Prop39
140
1.0
102
RTVSPost2010PropOp39
 70
     1
102
RTVSPost2010Prop40
 90
        0
102
RTVSPost2010PropOp40
 70
     1
102
RTVSPost2010Prop41ColorIndex
 90
       18
102
RTVSPost2010Prop41ColorRGB
 90
        0
102
RTVSPost2010PropOp41
 70
     1
102
RTVSPost2010Prop42
 90
       50
102
RTVSPost2010PropOp42
 70
     1
102
RTVSPost2010Prop43
 90
        3
102
RTVSPost2010PropOp43
 70
     1
102
RTVSPost2010Prop44ColorIndex
 90
        5
102
RTVSPost2010Prop44ColorRGB
 90
      255
102
RTVSPost2010PropOp44
 70
     1
102
RTVSPost2010Prop45
280
     0
102
RTVSPost2010PropOp45
 70
     1
102
RTVSPost2010Prop46
 90
       50
102
RTVSPost2010PropOp46
 70
     1
102
RTVSPost2010Prop47
 90
       50
102
RTVSPost2010PropOp47
 70
     1
102
RTVSPost2010Prop48
 90
       50
102
RTVSPost2010PropOp48
 70
     1
102
RTVSPost2010Prop49
280
     0
102
RTVSPost2010PropOp49
 70
     1
102
RTVSPost2010Prop50
 90
       50
102
RTVSPost2010PropOp50
 70
     1
102
RTVSPost2010Prop51ColorIndex
 90
      256
102
RTVSPost2010Prop51ColorRGB
 90
-16777216
102
RTVSPost2010PropOp51
 70
     0
102
RTVSPost2010Prop52
140
1.0
102
RTVSPost2010PropOp52
 70
     0
102
RTVSPost2010Prop53
 90
        2
102
RTVSPost2010PropOp53
 70
     1
102
RTVSPost2010Prop54
  1
strokes_ogs.tif
102
RTVSPost2010PropOp54
 70
     1
102
RTVSPost2010Prop55
280
     0
102
RTVSPost2010PropOp55
 70
     1
102
RTVSPost2010Prop56
140
1.0
102
RTVSPost2010PropOp56
 70
     1
102
RTVSPost2010Prop57
140
1.0
102
RTVSPost2010PropOp57
 70
     1
102
RTVSPropertyOp0
 70
     1
102
RTVSPropertyOp1
 70
     1
102
RTVSPropertyOp2
 70
     1
102
RTVSPropertyOp3
 70
     1
102
RTVSPropertyOp4
 70
     1
102
RTVSPropertyOp5
 70
     1
102
RTVSPropertyOp6
 70
     1
102
RTVSPropertyOp7
 70
     1
102
RTVSPropertyOp8
 70
     1
102
RTVSPropertyOp9
 70
     1
102
RTVSPropertyOp10
 70
     1
102
RTVSPropertyOp11
 70
     1
102
RTVSPropertyOp12
 70
     1
102
RTVSPropertyOp13
 70
     1
102
RTVSPropertyOp14
 70
     1
102
RTVSPropertyOp15
 70
     1
102
RTVSPropertyOp16
 70
     1
102
RTVSPropertyOp17
 70
     1
102
RTVSPropertyOp18
 70
     1
102
RTVSPropertyOp19
 70
     1
102
RTVSPropertyOp20
 70
     1
102
RTVSPropertyOp21
 70
     1
102
RTVSPropertyOp22
 70
     1
102
RTVSPropertyOp23
 70
     1
102
RTVSPropertyOp24
 70
     1
102
RTVSPropertyOp25
 70
     1
102
RTVSPropertyOp26
 70
     1
102
RTVSPropertyOp27
 70
     1
102
RTVSPropertyOp28
 70
     1
102
RTVSPropertyOp29
 70
     1
102
RTVSPropertyOp30
 70
     1
102
RTVSPropertyOp31
 70
     1
102
RTVSPropertyOp32
 70
     1
102
RTVSPropertyOp33
 70
     1
102
RTVSPropertyOp34
 70
     1
102
RTVSPropertyOp35
 70
     1
102
RTVSPropertyOp36
 70
     1
102
RTVSPropertyOp37
 70
     1
102
RTVSPropertyOp38
 70
     1
102
RTVSPropertyOp39
 70
     1
102
RTVSPropertyOp40
 70
     1
102
RTVSPropertyOp41
 70
     1
102
RTVSPropertyOp42
 70
     1
102
RTVSPropertyOp43
 70
     1
102
RTVSPropertyOp44
 70
     1
102
RTVSPropertyOp45
 70
     1
102
RTVSPropertyOp46
 70
     1
102
RTVSPropertyOp47
 70
     1
102
RTVSPropertyOp48
 70
     1
102
RTVSPropertyOp49
 70
     1
102
RTVSPropertyOp50
 70
     1
102
RTVSPropertyOp51
 70
     0
102
RTVSPropertyOp52
 70
     0
102
RTVSPropertyOp53
 70
     1
102
RTVSPropertyOp54
 70
     1
102
RTVSPropertyOp55
 70
     1
102
RTVSPropertyOp56
 70
     1
102
RTVSPropertyOp57
 70
     1
102
RTVSPropertyOp58
 70
     1
102
RTVSPropertyOp59
 70
     1
102
RTVSPropertyOp60
 70
     1
102
RTVSPropertyOp61
 70
     1
102
RTVSPropertyOp62
 70
     1
  0
XRECORD
  5
4A2
102
{ACAD_REACTORS
330
4A1
102
}
330
4A1
100
AcDbXrecord
280
     1
102
RTVSPost2010Prop28
280
     0
102
RTVSPost2010PropOp28
 70
     1
102
RTVSPost2010Prop29
280
     1
102
RTVSPost2010PropOp29
 70
     1
102
RTVSPost2010Prop30
280
     1
102
RTVSPost2010PropOp30
 70
     1
102
RTVSPost2010Prop31
280
     0
102
RTVSPost2010PropOp31
 70
     1
102
RTVSPost2010Prop32
280
     0
102
RTVSPost2010PropOp32
 70
     1
102
RTVSPost2010Prop33
280
     0
102
RTVSPost2010PropOp33
 70
     1
102
RTVSPost2010Prop34
280
     0
102
RTVSPost2010PropOp34
 70
     1
102
RTVSPost2010Prop35
280
     0
102
RTVSPost2010PropOp35
 70
     1
102
RTVSPost2010Prop36
280
     0
102
RTVSPost2010PropOp36
 70
     1
102
RTVSPost2010Prop37
 90
       50
102
RTVSPost2010PropOp37
 70
     1
102
RTVSPost2010Prop38
140
0.0
102
RTVSPost2010PropOp38
 70
     1
102
RTVSPost2010Prop39
140
1.0
102
RTVSPost2010PropOp39
 70
     1
102
RTVSPost2010Prop40
 90
        0
102
RTVSPost2010PropOp40
 70
     1
102
RTVSPost2010Prop41ColorIndex
 90
       18
102
RTVSPost2010Prop41ColorRGB
 90
        0
102
RTVSPost2010PropOp41
 70
     1
102
RTVSPost2010Prop42
 90
       50
102
RTVSPost2010PropOp42
 70
     1
102
RTVSPost2010Prop43
 90
        3
102
RTVSPost2010PropOp43
 70
     1
102
RTVSPost2010Prop44ColorIndex
 90
        5
102
RTVSPost2010Prop44ColorRGB
 90
      255
102
RTVSPost2010PropOp44
 70
     1
102
RTVSPost2010Prop45
280
     0
102
RTVSPost2010PropOp45
 70
     1
102
RTVSPost2010Prop46
 90
       50
102
RTVSPost2010PropOp46
 70
     1
102
RTVSPost2010Prop47
 90
       50
102
RTVSPost2010PropOp47
 70
     1
102
RTVSPost2010Prop48
 90
       50
102
RTVSPost2010PropOp48
 70
     1
102
RTVSPost2010Prop49
280
     0
102
RTVSPost2010PropOp49
 70
     1
102
RTVSPost2010Prop50
 90
       50
102
RTVSPost2010PropOp50
 70
     1
102
RTVSPost2010Prop51ColorIndex
 90
      256
102
RTVSPost2010Prop51ColorRGB
 90
-16777216
102
RTVSPost2010PropOp51
 70
     0
102
RTVSPost2010Prop52
140
1.0
102
RTVSPost2010PropOp52
 70
     0
102
RTVSPost2010Prop53
 90
        2
102
RTVSPost2010PropOp53
 70
     1
102
RTVSPost2010Prop54
  1
strokes_ogs.tif
102
RTVSPost2010PropOp54
 70
     1
102
RTVSPost2010Prop55
280
     0
102
RTVSPost2010PropOp55
 70
     1
102
RTVSPost2010Prop56
140
1.0
102
RTVSPost2010PropOp56
 70
     1
102
RTVSPost2010Prop57
140
1.0
102
RTVSPost2010PropOp57
 70
     1
102
RTVSPropertyOp0
 70
     1
102
RTVSPropertyOp1
 70
     1
102
RTVSPropertyOp2
 70
     1
102
RTVSPropertyOp3
 70
     1
102
RTVSPropertyOp4
 70
     1
102
RTVSPropertyOp5
 70
     1
102
RTVSPropertyOp6
 70
     1
102
RTVSPropertyOp7
 70
     1
102
RTVSPropertyOp8
 70
     1
102
RTVSPropertyOp9
 70
     1
102
RTVSPropertyOp10
 70
     1
102
RTVSPropertyOp11
 70
     1
102
RTVSPropertyOp12
 70
     1
102
RTVSPropertyOp13
 70
     1
102
RTVSPropertyOp14
 70
     1
102
RTVSPropertyOp15
 70
     1
102
RTVSPropertyOp16
 70
     1
102
RTVSPropertyOp17
 70
     1
102
RTVSPropertyOp18
 70
     1
102
RTVSPropertyOp19
 70
     1
102
RTVSPropertyOp20
 70
     1
102
RTVSPropertyOp21
 70
     1
102
RTVSPropertyOp22
 70
     1
102
RTVSPropertyOp23
 70
     1
102
RTVSPropertyOp24
 70
     1
102
RTVSPropertyOp25
 70
     1
102
RTVSPropertyOp26
 70
     1
102
RTVSPropertyOp27
 70
     1
102
RTVSPropertyOp28
 70
     1
102
RTVSPropertyOp29
 70
     1
102
RTVSPropertyOp30
 70
     1
102
RTVSPropertyOp31
 70
     1
102
RTVSPropertyOp32
 70
     1
102
RTVSPropertyOp33
 70
     1
102
RTVSPropertyOp34
 70
     1
102
RTVSPropertyOp35
 70
     1
102
RTVSPropertyOp36
 70
     1
102
RTVSPropertyOp37
 70
     1
102
RTVSPropertyOp38
 70
     1
102
RTVSPropertyOp39
 70
     1
102
RTVSPropertyOp40
 70
     1
102
RTVSPropertyOp41
 70
     1
102
RTVSPropertyOp42
 70
     1
102
RTVSPropertyOp43
 70
     1
102
RTVSPropertyOp44
 70
     1
102
RTVSPropertyOp45
 70
     1
102
RTVSPropertyOp46
 70
     1
102
RTVSPropertyOp47
 70
     1
102
RTVSPropertyOp48
 70
     1
102
RTVSPropertyOp49
 70
     1
102
RTVSPropertyOp50
 70
     1
102
RTVSPropertyOp51
 70
     0
102
RTVSPropertyOp52
 70
     0
102
RTVSPropertyOp53
 70
     1
102
RTVSPropertyOp54
 70
     1
102
RTVSPropertyOp55
 70
     1
102
RTVSPropertyOp56
 70
     1
102
RTVSPropertyOp57
 70
     1
102
RTVSPropertyOp58
 70
     1
102
RTVSPropertyOp59
 70
     1
102
RTVSPropertyOp60
 70
     1
102
RTVSPropertyOp61
 70
     1
102
RTVSPropertyOp62
 70
     1
  0
XRECORD
  5
496
102
{ACAD_REACTORS
330
495
102
}
330
495
100
AcDbXrecord
280
     1
102
RTVSPost2010Prop28
280
     0
102
RTVSPost2010PropOp28
 70
     1
102
RTVSPost2010Prop29
280
     1
102
RTVSPost2010PropOp29
 70
     1
102
RTVSPost2010Prop30
280
     1
102
RTVSPost2010PropOp30
 70
     1
102
RTVSPost2010Prop31
280
     0
102
RTVSPost2010PropOp31
 70
     1
102
RTVSPost2010Prop32
280
     0
102
RTVSPost2010PropOp32
 70
     1
102
RTVSPost2010Prop33
280
     0
102
RTVSPost2010PropOp33
 70
     1
102
RTVSPost2010Prop34
280
     0
102
RTVSPost2010PropOp34
 70
     1
102
RTVSPost2010Prop35
280
     0
102
RTVSPost2010PropOp35
 70
     1
102
RTVSPost2010Prop36
280
     0
102
RTVSPost2010PropOp36
 70
     1
102
RTVSPost2010Prop37
 90
       50
102
RTVSPost2010PropOp37
 70
     1
102
RTVSPost2010Prop38
140
0.0
102
RTVSPost2010PropOp38
 70
     1
102
RTVSPost2010Prop39
140
1.0
102
RTVSPost2010PropOp39
 70
     1
102
RTVSPost2010Prop40
 90
        0
102
RTVSPost2010PropOp40
 70
     1
102
RTVSPost2010Prop41ColorIndex
 90
       18
102
RTVSPost2010Prop41ColorRGB
 90
        0
102
RTVSPost2010PropOp41
 70
     1
102
RTVSPost2010Prop42
 90
       50
102
RTVSPost2010PropOp42
 70
     1
102
RTVSPost2010Prop43
 90
        3
102
RTVSPost2010PropOp43
 70
     1
102
RTVSPost2010Prop44ColorIndex
 90
        5
102
RTVSPost2010Prop44ColorRGB
 90
      255
102
RTVSPost2010PropOp44
 70
     1
102
RTVSPost2010Prop45
280
     0
102
RTVSPost2010PropOp45
 70
     1
102
RTVSPost2010Prop46
 90
       50
102
RTVSPost2010PropOp46
 70
     1
102
RTVSPost2010Prop47
 90
       50
102
RTVSPost2010PropOp47
 70
     1
102
RTVSPost2010Prop48
 90
       50
102
RTVSPost2010PropOp48
 70
     1
102
RTVSPost2010Prop49
280
     0
102
RTVSPost2010PropOp49
 70
     1
102
RTVSPost2010Prop50
 90
       50
102
RTVSPost2010PropOp50
 70
     1
102
RTVSPost2010Prop51ColorIndex
 90
      256
102
RTVSPost2010Prop51ColorRGB
 90
-16777216
102
RTVSPost2010PropOp51
 70
     0
102
RTVSPost2010Prop52
140
1.0
102
RTVSPost2010PropOp52
 70
     0
102
RTVSPost2010Prop53
 90
        2
102
RTVSPost2010PropOp53
 70
     1
102
RTVSPost2010Prop54
  1
strokes_ogs.tif
102
RTVSPost2010PropOp54
 70
     1
102
RTVSPost2010Prop55
280
     0
102
RTVSPost2010PropOp55
 70
     1
102
RTVSPost2010Prop56
140
1.0
102
RTVSPost2010PropOp56
 70
     1
102
RTVSPost2010Prop57
140
1.0
102
RTVSPost2010PropOp57
 70
     1
102
RTVSPropertyOp0
 70
     1
102
RTVSPropertyOp1
 70
     1
102
RTVSPropertyOp2
 70
     1
102
RTVSPropertyOp3
 70
     1
102
RTVSPropertyOp4
 70
     1
102
RTVSPropertyOp5
 70
     1
102
RTVSPropertyOp6
 70
     1
102
RTVSPropertyOp7
 70
     1
102
RTVSPropertyOp8
 70
     1
102
RTVSPropertyOp9
 70
     1
102
RTVSPropertyOp10
 70
     1
102
RTVSPropertyOp11
 70
     1
102
RTVSPropertyOp12
 70
     1
102
RTVSPropertyOp13
 70
     1
102
RTVSPropertyOp14
 70
     1
102
RTVSPropertyOp15
 70
     1
102
RTVSPropertyOp16
 70
     1
102
RTVSPropertyOp17
 70
     1
102
RTVSPropertyOp18
 70
     1
102
RTVSPropertyOp19
 70
     1
102
RTVSPropertyOp20
 70
     1
102
RTVSPropertyOp21
 70
     1
102
RTVSPropertyOp22
 70
     1
102
RTVSPropertyOp23
 70
     1
102
RTVSPropertyOp24
 70
     1
102
RTVSPropertyOp25
 70
     1
102
RTVSPropertyOp26
 70
     1
102
RTVSPropertyOp27
 70
     1
102
RTVSPropertyOp28
 70
     1
102
RTVSPropertyOp29
 70
     1
102
RTVSPropertyOp30
 70
     1
102
RTVSPropertyOp31
 70
     1
102
RTVSPropertyOp32
 70
     1
102
RTVSPropertyOp33
 70
     1
102
RTVSPropertyOp34
 70
     1
102
RTVSPropertyOp35
 70
     1
102
RTVSPropertyOp36
 70
     1
102
RTVSPropertyOp37
 70
     1
102
RTVSPropertyOp38
 70
     1
102
RTVSPropertyOp39
 70
     1
102
RTVSPropertyOp40
 70
     1
102
RTVSPropertyOp41
 70
     1
102
RTVSPropertyOp42
 70
     1
102
RTVSPropertyOp43
 70
     1
102
RTVSPropertyOp44
 70
     1
102
RTVSPropertyOp45
 70
     1
102
RTVSPropertyOp46
 70
     1
102
RTVSPropertyOp47
 70
     1
102
RTVSPropertyOp48
 70
     1
102
RTVSPropertyOp49
 70
     1
102
RTVSPropertyOp50
 70
     1
102
RTVSPropertyOp51
 70
     0
102
RTVSPropertyOp52
 70
     0
102
RTVSPropertyOp53
 70
     1
102
RTVSPropertyOp54
 70
     1
102
RTVSPropertyOp55
 70
     1
102
RTVSPropertyOp56
 70
     1
102
RTVSPropertyOp57
 70
     1
102
RTVSPropertyOp58
 70
     1
102
RTVSPropertyOp59
 70
     1
102
RTVSPropertyOp60
 70
     1
102
RTVSPropertyOp61
 70
     1
102
RTVSPropertyOp62
 70
     1
  0
XRECORD
  5
4AE
102
{ACAD_REACTORS
330
4AD
102
}
330
4AD
100
AcDbXrecord
280
     1
102
RTVSPost2010Prop28
280
     0
102
RTVSPost2010PropOp28
 70
     1
102
RTVSPost2010Prop29
280
     1
102
RTVSPost2010PropOp29
 70
     1
102
RTVSPost2010Prop30
280
     1
102
RTVSPost2010PropOp30
 70
     1
102
RTVSPost2010Prop31
280
     0
102
RTVSPost2010PropOp31
 70
     1
102
RTVSPost2010Prop32
280
     0
102
RTVSPost2010PropOp32
 70
     1
102
RTVSPost2010Prop33
280
     0
102
RTVSPost2010PropOp33
 70
     1
102
RTVSPost2010Prop34
280
     0
102
RTVSPost2010PropOp34
 70
     1
102
RTVSPost2010Prop35
280
     0
102
RTVSPost2010PropOp35
 70
     1
102
RTVSPost2010Prop36
280
     0
102
RTVSPost2010PropOp36
 70
     1
102
RTVSPost2010Prop37
 90
       50
102
RTVSPost2010PropOp37
 70
     1
102
RTVSPost2010Prop38
140
0.0
102
RTVSPost2010PropOp38
 70
     1
102
RTVSPost2010Prop39
140
1.0
102
RTVSPost2010PropOp39
 70
     1
102
RTVSPost2010Prop40
 90
        0
102
RTVSPost2010PropOp40
 70
     1
102
RTVSPost2010Prop41ColorIndex
 90
       18
102
RTVSPost2010Prop41ColorRGB
 90
        0
102
RTVSPost2010PropOp41
 70
     1
102
RTVSPost2010Prop42
 90
       50
102
RTVSPost2010PropOp42
 70
     1
102
RTVSPost2010Prop43
 90
        3
102
RTVSPost2010PropOp43
 70
     1
102
RTVSPost2010Prop44ColorIndex
 90
        5
102
RTVSPost2010Prop44ColorRGB
 90
      255
102
RTVSPost2010PropOp44
 70
     1
102
RTVSPost2010Prop45
280
     0
102
RTVSPost2010PropOp45
 70
     1
102
RTVSPost2010Prop46
 90
       50
102
RTVSPost2010PropOp46
 70
     1
102
RTVSPost2010Prop47
 90
       50
102
RTVSPost2010PropOp47
 70
     1
102
RTVSPost2010Prop48
 90
       50
102
RTVSPost2010PropOp48
 70
     1
102
RTVSPost2010Prop49
280
     0
102
RTVSPost2010PropOp49
 70
     1
102
RTVSPost2010Prop50
 90
       50
102
RTVSPost2010PropOp50
 70
     1
102
RTVSPost2010Prop51ColorIndex
 90
      256
102
RTVSPost2010Prop51ColorRGB
 90
-16777216
102
RTVSPost2010PropOp51
 70
     0
102
RTVSPost2010Prop52
140
1.0
102
RTVSPost2010PropOp52
 70
     0
102
RTVSPost2010Prop53
 90
        2
102
RTVSPost2010PropOp53
 70
     1
102
RTVSPost2010Prop54
  1
strokes_ogs.tif
102
RTVSPost2010PropOp54
 70
     1
102
RTVSPost2010Prop55
280
     0
102
RTVSPost2010PropOp55
 70
     1
102
RTVSPost2010Prop56
140
1.0
102
RTVSPost2010PropOp56
 70
     1
102
RTVSPost2010Prop57
140
1.0
102
RTVSPost2010PropOp57
 70
     1
102
RTVSPropertyOp0
 70
     1
102
RTVSPropertyOp1
 70
     1
102
RTVSPropertyOp2
 70
     1
102
RTVSPropertyOp3
 70
     1
102
RTVSPropertyOp4
 70
     1
102
RTVSPropertyOp5
 70
     1
102
RTVSPropertyOp6
 70
     1
102
RTVSPropertyOp7
 70
     1
102
RTVSPropertyOp8
 70
     1
102
RTVSPropertyOp9
 70
     1
102
RTVSPropertyOp10
 70
     1
102
RTVSPropertyOp11
 70
     1
102
RTVSPropertyOp12
 70
     1
102
RTVSPropertyOp13
 70
     1
102
RTVSPropertyOp14
 70
     1
102
RTVSPropertyOp15
 70
     1
102
RTVSPropertyOp16
 70
     1
102
RTVSPropertyOp17
 70
     1
102
RTVSPropertyOp18
 70
     1
102
RTVSPropertyOp19
 70
     1
102
RTVSPropertyOp20
 70
     1
102
RTVSPropertyOp21
 70
     1
102
RTVSPropertyOp22
 70
     1
102
RTVSPropertyOp23
 70
     1
102
RTVSPropertyOp24
 70
     1
102
RTVSPropertyOp25
 70
     1
102
RTVSPropertyOp26
 70
     1
102
RTVSPropertyOp27
 70
     1
102
RTVSPropertyOp28
 70
     1
102
RTVSPropertyOp29
 70
     1
102
RTVSPropertyOp30
 70
     1
102
RTVSPropertyOp31
 70
     1
102
RTVSPropertyOp32
 70
     1
102
RTVSPropertyOp33
 70
     1
102
RTVSPropertyOp34
 70
     1
102
RTVSPropertyOp35
 70
     1
102
RTVSPropertyOp36
 70
     1
102
RTVSPropertyOp37
 70
     1
102
RTVSPropertyOp38
 70
     1
102
RTVSPropertyOp39
 70
     1
102
RTVSPropertyOp40
 70
     1
102
RTVSPropertyOp41
 70
     1
102
RTVSPropertyOp42
 70
     1
102
RTVSPropertyOp43
 70
     1
102
RTVSPropertyOp44
 70
     1
102
RTVSPropertyOp45
 70
     1
102
RTVSPropertyOp46
 70
     1
102
RTVSPropertyOp47
 70
     1
102
RTVSPropertyOp48
 70
     1
102
RTVSPropertyOp49
 70
     1
102
RTVSPropertyOp50
 70
     1
102
RTVSPropertyOp51
 70
     0
102
RTVSPropertyOp52
 70
     0
102
RTVSPropertyOp53
 70
     1
102
RTVSPropertyOp54
 70
     1
102
RTVSPropertyOp55
 70
     1
102
RTVSPropertyOp56
 70
     1
102
RTVSPropertyOp57
 70
     1
102
RTVSPropertyOp58
 70
     1
102
RTVSPropertyOp59
 70
     1
102
RTVSPropertyOp60
 70
     1
102
RTVSPropertyOp61
 70
     1
102
RTVSPropertyOp62
 70
     1
  0
ENDSEC
  0
EOF
