  0
SECTION
  2
HEADER
  9
$ACADVER
  1
AC1009
  9
$INSBASE
 10
0.0
 20
0.0
 30
0.0
  9
$EXTMIN
 10
-240.02242311723811
 20
-160.88655501561789
 30
-0.0015258207003583
  9
$EXTMAX
 10
480.02148219287182
 20
909.63356227370241
 30
0.0000000349246037
  9
$LIMMIN
 10
0.0
 20
0.0
  9
$LIMMAX
 10
0.0
 20
0.0
  9
$ORTHOMODE
 70
     0
  9
$REGENMODE
 70
     1
  9
$FILLMODE
 70
     1
  9
$QTEXTMODE
 70
     0
  9
$MIRRTEXT
 70
     1
  9
$DRAGMODE
 70
     2
  9
$LTSCALE
 40
20.32
  9
$OSMODE
 70
   231
  9
$ATTMODE
 70
     1
  9
$TEXTSIZE
 40
0.0
  9
$TRACEWID
 40
1.0
  9
$TEXTSTYLE
  7
STANDARD
  9
$CLAYER
  8
DATA
  9
$CELTYPE
  6
BYLAYER
  9
$CECOLOR
 62
   256
  9
$DIMSCALE
 40
1.0
  9
$DIMASZ
 40
0.18
  9
$DIMEXO
 40
0.0625
  9
$DIMDLI
 40
0.38
  9
$DIMRND
 40
0.0
  9
$DIMDLE
 40
0.0
  9
$DIMEXE
 40
0.18
  9
$DIMTP
 40
0.0
  9
$DIMTM
 40
0.0
  9
$DIMTXT
 40
0.18
  9
$DIMCEN
 40
0.09
  9
$DIMTSZ
 40
0.0
  9
$DIMTOL
 70
     0
  9
$DIMLIM
 70
     0
  9
$DIMTIH
 70
     1
  9
$DIMTOH
 70
     1
  9
$DIMSE1
 70
     0
  9
$DIMSE2
 70
     0
  9
$DIMTAD
 70
     0
  9
$DIMZIN
 70
     0
  9
$DIMBLK
  1

  9
$DIMASO
 70
     1
  9
$DIMSHO
 70
     1
  9
$DIMPOST
  1

  9
$DIMAPOST
  1

  9
$DIMALT
 70
     0
  9
$DIMALTD
 70
     2
  9
$DIMALTF
 40
25.399999999999999
  9
$DIMLFAC
 40
1.0
  9
$DIMTOFL
 70
     0
  9
$DIMTVP
 40
0.0
  9
$DIMTIX
 70
     0
  9
$DIMSOXD
 70
     0
  9
$DIMSAH
 70
     0
  9
$DIMBLK1
  1

  9
$DIMBLK2
  1

  9
$DIMSTYLE
  2
STANDARD
  9
$DIMCLRD
 70
     0
  9
$DIMCLRE
 70
     0
  9
$DIMCLRT
 70
     0
  9
$DIMTFAC
 40
1.0
  9
$DIMGAP
 40
0.09
  9
$LUNITS
 70
     2
  9
$LUPREC
 70
     4
  9
$SKETCHINC
 40
0.1
  9
$FILLETRAD
 40
0.0
  9
$AUNITS
 70
     0
  9
$AUPREC
 70
     0
  9
$MENU
  1
acad
  9
$ELEVATION
 40
0.0
  9
$PELEVATION
 40
0.0
  9
$THICKNESS
 40
0.0
  9
$LIMCHECK
 70
     0
  9
$BLIPMODE
 70
     0
  9
$CHAMFERA
 40
0.0
  9
$CHAMFERB
 40
0.0
  9
$SKPOLY
 70
     0
  9
$TDCREATE
 40
2454490.7506365739
  9
$TDUPDATE
 40
2454490.7596583911
  9
$TDINDWG
 40
0.0003373148
  9
$TDUSRTIMER
 40
0.000336956
  9
$USRTIMER
 70
     1
  9
$ANGBASE
 50
0.0
  9
$ANGDIR
 70
     0
  9
$PDMODE
 70
     1
  9
$PDSIZE
 40
-2.0
  9
$PLINEWID
 40
0.0
  9
$COORDS
 70
     1
  9
$SPLFRAME
 70
     0
  9
$SPLINETYPE
 70
     6
  9
$SPLINESEGS
 70
     8
  9
$ATTDIA
 70
     0
  9
$ATTREQ
 70
     1
  9
$HANDLING
 70
     1
  9
$HANDSEED
  5
24A
  9
$SURFTAB1
 70
     6
  9
$SURFTAB2
 70
     6
  9
$SURFTYPE
 70
     6
  9
$SURFU
 70
     6
  9
$SURFV
 70
     6
  9
$UCSNAME
  2

  9
$UCSORG
 10
0.0
 20
0.0
 30
0.0
  9
$UCSXDIR
 10
1.0
 20
0.0
 30
0.0
  9
$UCSYDIR
 10
0.0
 20
1.0
 30
0.0
  9
$PUCSNAME
  2

  9
$PUCSORG
 10
0.0
 20
0.0
 30
0.0
  9
$PUCSXDIR
 10
1.0
 20
0.0
 30
0.0
  9
$PUCSYDIR
 10
0.0
 20
1.0
 30
0.0
  9
$USERI1
 70
     0
  9
$USERI2
 70
     0
  9
$USERI3
 70
     0
  9
$USERI4
 70
     0
  9
$USERI5
 70
     0
  9
$USERR1
 40
0.0
  9
$USERR2
 40
0.0
  9
$USERR3
 40
0.0
  9
$USERR4
 40
0.0
  9
$USERR5
 40
0.0
  9
$WORLDVIEW
 70
     1
  9
$SHADEDGE
 70
     3
  9
$SHADEDIF
 70
    70
  9
$TILEMODE
 70
     1
  9
$MAXACTVP
 70
    64
  9
$PLIMCHECK
 70
     0
  9
$PEXTMIN
 10
1.0000000000000000E+020
 20
1.0000000000000000E+020
 30
1.0000000000000000E+020
  9
$PEXTMAX
 10
-1.0000000000000000E+020
 20
-1.0000000000000000E+020
 30
-1.0000000000000000E+020
  9
$PLIMMIN
 10
0.0
 20
0.0
  9
$PLIMMAX
 10
12.0
 20
9.0
  9
$UNITMODE
 70
     0
  9
$VISRETAIN
 70
     0
  9
$PLINEGEN
 70
     1
  9
$PSLTSCALE
 70
     0
  0
ENDSEC
  0
SECTION
  2
TABLES
  0
TABLE
  2
VPORT
 70
     1
  0
VPORT
  2
*ACTIVE
 70
     0
 10
0.0
 20
0.0
 11
1.0
 21
1.0
 12
119.9995295378169
 22
374.3735036290422
 13
0.0
 23
0.0
 14
1.0
 24
1.0
 15
0.0
 25
0.0
 16
0.0
 26
0.0
 36
1.0
 17
0.0
 27
0.0
 37
0.0
 40
1079.4041016651649
 41
1.6703601108033239
 42
50.0
 43
0.0
 44
0.0
 50
0.0
 51
0.0
 71
     0
 72
  2000
 73
     1
 74
     1
 75
     0
 76
     0
 77
     0
 78
     0
  0
ENDTAB
  0
TABLE
  2
LTYPE
 70
    11
  0
LTYPE
  2
CONTINUOUS
 70
     0
  3
Solid line
 72
    65
 73
     0
 40
0.0
  0
ENDTAB
  0
TABLE
  2
LAYER
 70
     5
  0
LAYER
  2
0
 70
     0
 62
     7
  6
CONTINUOUS
  0
LAYER
  2
DIMNSIONS
 70
     0
 62
     7
  6
CONTINUOUS
  0
LAYER
  2
HIBINO-BASE
 70
     0
 62
     7
  6
CONTINUOUS
  0
LAYER
  2
SPEC
 70
     0
 62
     7
  6
CONTINUOUS
  0
LAYER
  2
DATA
 70
     0
 62
     7
  6
CONTINUOUS
  0
ENDTAB
  0
TABLE
  2
STYLE
 70
     2
  0
STYLE
  2
STANDARD
 70
     0
 40
0.0
 41
1.0
 50
0.0
 71
     0
 42
0.0
  3
txt
  4
BIGFONT.SHX
  0
ENDTAB
  0
TABLE
  2
VIEW
 70
     0
  0
ENDTAB
  0
TABLE
  2
UCS
 70
     0
  0
ENDTAB
  0
TABLE
  2
APPID
 70
     1
  0
APPID
  2
ACAD
 70
     0
  0
ENDTAB
  0
TABLE
  2
DIMSTYLE
 70
     1
  0
DIMSTYLE
  2
STANDARD
 70
     0
  3

  4

  5

  6

  7

 40
1.0
 41
0.18
 42
0.0625
 43
0.38
 44
0.18
 45
0.0
 46
0.0
 47
0.0
 48
0.0
140
0.18
141
0.09
142
0.0
143
25.399999999999999
144
1.0
145
0.0
146
1.0
147
0.09
 71
     0
 72
     0
 73
     1
 74
     1
 75
     0
 76
     0
 77
     0
 78
     0
170
     0
171
     2
172
     0
173
     0
174
     0
175
     0
176
     0
177
     0
178
     0
  0
ENDTAB
  0
ENDSEC
  0
SECTION
  2
BLOCKS
  0
BLOCK
  8
0
  2
$MODEL_SPACE
 70
     0
 10
0.0
 20
0.0
 30
0.0
  3
$MODEL_SPACE
  1

  0
ENDBLK
  5
21D
  8
0
  0
BLOCK
 67
     1
  8
0
  2
$PAPER_SPACE
 70
     0
 10
0.0
 20
0.0
 30
0.0
  3
$PAPER_SPACE
  1

  0
ENDBLK
  5
219
 67
     1
  8
0
  0
ENDSEC
  0
SECTION
  2
ENTITIES
  0
LINE
  5
2C
  8
HIBINO-BASE
  6
CONTINUOUS
 62
     7
 10
-240.00045213856379
 20
909.60095924994152
 30
0.0
 11
479.99950786143609
 21
909.60095924994152
 31
0.0
  0
LINE
  5
2D
  8
HIBINO-BASE
  6
CONTINUOUS
 62
     7
 10
479.99950786143609
 20
-130.39896075005851
 30
0.0
 11
-240.00045213856379
 21
-130.39896075005851
 31
0.0
  0
LINE
  5
2E
  8
HIBINO-BASE
  6
CONTINUOUS
 62
     7
 10
-240.00045213856379
 20
-130.39896075005851
 30
0.0
 11
-240.00045213856379
 21
909.60095924994152
 31
0.0
  0
TEXT
  5
2F
  8
HIBINO-BASE
 62
     7
 10
-211.26443213856379
 20
-156.03362035005861
 30
0.0
 40
14.400130546874999
  1
Hibino Corporation
 41
0.7
 11
-211.26443213856379
 21
-141.63348980318361
 31
0.0
 73
     3
  0
LINE
  5
30
  8
HIBINO-BASE
  6
CONTINUOUS
 62
     7
 10
479.99950786143609
 20
909.60095924994152
 30
0.0
 11
479.99950786143609
 21
-130.39896075005851
 31
0.0
  0
LINE
  5
31
  8
HIBINO-BASE
  6
CONTINUOUS
 62
     7
 10
119.99952786143611
 20
-40.39898075005857
 30
0.0
 11
479.99950786143609
 21
-40.39898075005857
 31
0.0
  0
LINE
  5
32
  8
HIBINO-BASE
  6
CONTINUOUS
 62
     7
 10
119.99952786143611
 20
-130.39896075005851
 30
0.0
 11
119.99952786143611
 21
-40.39898075005857
 31
0.0
  0
TEXT
  5
33
  8
HIBINO-BASE
 62
     7
 10
123.5994878614361
 20
-51.198993550058532
 30
0.0
 40
7.2001037500000002
  1
NOTE
 41
0.7
 11
123.5994878614361
 21
-43.998889800058528
 31
0.0
 73
     3
  0
LINE
  5
34
  8
HIBINO-BASE
  6
CONTINUOUS
 62
     7
 10
259.99952786143609
 20
-130.39896075005851
 30
0.0
 11
259.99952786143609
 21
-40.39898075005857
 31
0.0
  0
TEXT
  5
35
  8
HIBINO-BASE
 62
     7
 10
263.59952786143612
 20
-51.198993550058532
 30
0.0
 40
7.2001037500000002
  1
TITLE
 41
0.7
 11
263.59952786143612
 21
-43.998889800058528
 31
0.0
 73
     3
  0
TEXT
  5
36
  8
HIBINO-BASE
 62
     7
 10
320.27304786143623
 20
-156.03362035005861
 30
0.0
 40
14.400130546874999
  1
ヒビノ株式会社
 41
0.7
 11
320.27304786143623
 21
-141.63348980318361
 31
0.0
 73
     3
  0
LINE
  5
37
  8
HIBINO-BASE
  6
CONTINUOUS
 62
     7
 10
119.99952786143611
 20
-90.398980750058556
 30
0.0
 11
479.99950786143609
 21
-90.398980750058556
 31
0.0
  0
TEXT
  5
38
  8
HIBINO-BASE
 62
     7
 10
313.59952786143612
 20
-100.97367355005851
 30
0.0
 40
7.2001037500000002
  1
DRAWN
 41
0.7
 11
313.59952786143612
 21
-93.773569800058524
 31
0.0
 73
     3
  0
TEXT
  5
39
  8
HIBINO-BASE
 62
     7
 10
213.59952786143609
 20
-100.97367355005851
 30
0.0
 40
7.2001037500000002
  1
DATE
 41
0.7
 11
213.59952786143609
 21
-93.773569800058524
 31
0.0
 73
     3
  0
TEXT
  5
3A
  8
HIBINO-BASE
 62
     7
 10
124.39946786143609
 20
-100.8767511500585
 30
0.0
 40
6.5153440624999996
  1
図面サイズ
 41
0.7
 11
124.39946786143609
 21
-94.361407087558518
 31
0.0
 73
     3
  0
TEXT
  5
3B
  8
HIBINO-BASE
 62
     7
 10
173.5994878614361
 20
-100.97367355005851
 30
0.0
 40
7.2001037500000002
  1
SCALE
 41
0.7
 11
173.5994878614361
 21
-93.773569800058524
 31
0.0
 73
     3
  0
TEXT
  5
3C
  8
HIBINO-BASE
 62
     7
 10
263.59952786143612
 20
-100.97367355005851
 30
0.0
 40
7.2001037500000002
  1
DESIGN
 41
0.7
 11
263.59952786143612
 21
-93.773569800058524
 31
0.0
 73
     3
  0
TEXT
  5
3D
  8
HIBINO-BASE
 62
     7
 10
413.5994678614361
 20
-100.97367355005851
 30
0.0
 40
7.2001037500000002
  1
DRAWING NO.
 41
0.7
 11
413.5994678614361
 21
-93.773569800058524
 31
0.0
 73
     3
  0
TEXT
  5
3E
  8
HIBINO-BASE
 62
     7
 10
363.59950786143611
 20
-100.97367355005851
 30
0.0
 40
7.2001037500000002
  1
CHECK
 41
0.7
 11
363.59950786143611
 21
-93.773569800058524
 31
0.0
 73
     3
  0
LINE
  5
3F
  8
HIBINO-BASE
  6
CONTINUOUS
 62
     7
 10
177.4994678614361
 20
-125.3989807500585
 30
0.0
 11
192.49952786143609
 21
-110.3989807500585
 31
0.0
  0
TEXT
  5
40
  8
HIBINO-BASE
 62
     7
 10
174.9994678614361
 20
-117.2618175500584
 30
0.0
 40
8.6871459375000004
  1
1
 41
0.7
 11
174.9994678614361
 21
-108.5746716125584
 31
0.0
 73
     3
  0
LINE
  5
41
  8
HIBINO-BASE
  6
CONTINUOUS
 62
     7
 10
169.9994678614361
 20
-130.39896075005851
 30
0.0
 11
169.9994678614361
 21
-90.398980750058556
 31
0.0
  0
LINE
  5
42
  8
HIBINO-BASE
  6
CONTINUOUS
 62
     7
 10
209.99950786143609
 20
-130.39896075005851
 30
0.0
 11
209.99950786143609
 21
-90.398980750058556
 31
0.0
  0
LINE
  5
43
  8
HIBINO-BASE
  6
CONTINUOUS
 62
     7
 10
309.99950786143609
 20
-90.398980750058556
 30
0.0
 11
309.99950786143609
 21
-130.39896075005851
 31
0.0
  0
LINE
  5
44
  8
HIBINO-BASE
  6
CONTINUOUS
 62
     7
 10
409.99952786143609
 20
-90.398980750058556
 30
0.0
 11
409.99952786143609
 21
-130.39896075005851
 31
0.0
  0
LINE
  5
45
  8
HIBINO-BASE
  6
CONTINUOUS
 62
     7
 10
359.99948786143608
 20
-130.39896075005851
 30
0.0
 11
359.99948786143608
 21
-90.398980750058556
 31
0.0
  0
TEXT
  5
46
  8
HIBINO-BASE
 62
     7
 10
135.6430878614361
 20
-120.4050987500584
 30
0.0
 40
13.030703515625
  1
A4
 41
0.7
 11
135.6430878614361
 21
-107.37439523443339
 31
0.0
 73
     3
  0
TEXT
  5
47
  8
HIBINO-BASE
 62
     7
 10
213.42568786143619
 20
-119.7095935500585
 30
0.0
 40
7.2001037500000002
  1
'08.1.
 41
0.7
 11
213.42568786143619
 21
-112.5094898000585
 31
0.0
 73
     3
  0
TEXT
  5
48
  8
HIBINO-BASE
 62
     7
 10
189.99952786143609
 20
-124.7618175500584
 30
0.0
 40
8.6871459375000004
  1
4
 41
0.7
 11
189.99952786143609
 21
-116.0746716125584
 31
0.0
 73
     3
  0
TEXT
  5
49
  8
HIBINO-BASE
 62
     7
 10
315.24404334780729
 20
-118.9550649580447
 30
0.0
 40
7.6012586805555546
  1
N.Sasaki
 41
0.7
 11
315.24404334780729
 21
-111.3538062774892
 31
0.0
 73
     3
  0
LINE
  5
4A
  8
SPEC
  6
CONTINUOUS
 62
     7
 10
-210.0004521385637
 20
869.60095924994141
 30
0.0
 11
329.99954786143621
 21
869.60095924994141
 31
0.0
  0
LINE
  5
4B
  8
SPEC
  6
CONTINUOUS
 62
     7
 10
-210.0004521385637
 20
854.60095924994141
 30
0.0
 11
329.99954786143621
 21
854.60095924994141
 31
0.0
  0
LINE
  5
4C
  8
SPEC
  6
CONTINUOUS
 62
     7
 10
-210.0004521385637
 20
839.60095924994164
 30
0.0
 11
329.99954786143621
 21
839.60095924994164
 31
0.0
  0
LINE
  5
4D
  8
SPEC
  6
CONTINUOUS
 62
     7
 10
-210.0004521385637
 20
869.6009592499413
 30
0.0
 11
-210.0004521385637
 21
569.60099924994154
 31
0.0
  0
TEXT
  5
4E
  8
SPEC
 62
     7
 10
-205.00045213856379
 20
875.17405924994125
 30
0.0
 40
9.7730468749999986
  1
仕様
 41
0.7
 11
-205.00045213856379
 21
884.94710612494123
 31
0.0
 73
     3
  0
TEXT
  5
4F
  8
SPEC
 62
     7
 10
-206.40041213856369
 20
857.75089036105226
 30
0.0
 40
7.6012586805555546
  1
電波形式
 41
0.7
 11
-206.40041213856369
 21
865.35214904160796
 31
0.0
 73
     3
  0
TEXT
  5
50
  8
SPEC
 62
     7
 10
-206.40041213856369
 20
842.75089036105237
 30
0.0
 40
7.6012586805555546
  1
発振方式
 41
0.7
 11
-206.40041213856369
 21
850.35214904160796
 31
0.0
 73
     3
  0
TEXT
  5
51
  8
SPEC
 62
     7
 10
-206.40041213856369
 20
797.75089036105226
 30
0.0
 40
7.6012586805555546
  1
周波数特性
 41
0.7
 11
-206.40041213856369
 21
805.35214904160784
 31
0.0
 73
     3
  0
LINE
  5
52
  8
SPEC
  6
CONTINUOUS
 62
     7
 10
-210.0004521385637
 20
779.60095924994118
 30
0.0
 11
329.99954786143621
 21
779.60095924994118
 31
0.0
  0
TEXT
  5
53
  8
SPEC
 62
     7
 10
-206.40041213856369
 20
752.75091036105243
 30
0.0
 40
7.6012586805555546
  1
指向特性(1kHz)
 41
0.7
 11
-206.40041213856369
 21
760.35216904160802
 31
0.0
 73
     3
  0
LINE
  5
54
  8
SPEC
  6
CONTINUOUS
 62
     7
 10
-210.0004521385637
 20
764.6009592499413
 30
0.0
 11
329.99954786143621
 21
764.6009592499413
 31
0.0
  0
TEXT
  5
55
  8
SPEC
 62
     7
 10
-206.40041213856369
 20
632.75091036105243
 30
0.0
 40
7.6012586805555546
  1
使用電源
 41
0.7
 11
-206.40041213856369
 21
640.35216904160802
 31
0.0
 73
     3
  0
LINE
  5
56
  8
SPEC
  6
CONTINUOUS
 62
     7
 10
-210.0004521385637
 20
734.6009592499413
 30
0.0
 11
329.99954786143621
 21
734.6009592499413
 31
0.0
  0
TEXT
  5
57
  8
SPEC
 62
     7
 10
-206.40041213856369
 20
602.75091036105243
 30
0.0
 40
7.6012586805555546
  1
電池寿命
 41
0.7
 11
-206.40041213856369
 21
610.35216904160802
 31
0.0
 73
     3
  0
TEXT
  5
58
  8
SPEC
 62
     7
 10
-206.40041213856369
 20
572.75091036105243
 30
0.0
 40
7.6012586805555546
  1
質量
 41
0.7
 11
-206.40041213856369
 21
580.35216904160802
 31
0.0
 73
     3
  0
LINE
  5
59
  8
SPEC
  6
CONTINUOUS
 62
     7
 10
-210.0004521385637
 20
584.60095924994152
 30
0.0
 11
329.99954786143621
 21
584.60095924994152
 31
0.0
  0
LINE
  5
5A
  8
SPEC
  6
CONTINUOUS
 62
     7
 10
-210.0004521385637
 20
614.6009592499413
 30
0.0
 11
329.99954786143621
 21
614.6009592499413
 31
0.0
  0
LINE
  5
5B
  8
SPEC
  6
CONTINUOUS
 62
     7
 10
-210.0004521385637
 20
569.60095924994141
 30
0.0
 11
329.99954786143621
 21
569.60095924994141
 31
0.0
  0
LINE
  5
5C
  8
SPEC
  6
CONTINUOUS
 62
     7
 10
29.999547861436231
 20
869.6009592499413
 30
0.0
 11
29.999547861436231
 21
569.60099924994154
 31
0.0
  0
LINE
  5
5D
  8
SPEC
  6
CONTINUOUS
 62
     7
 10
329.99954786143621
 20
869.6009592499413
 30
0.0
 11
329.99954786143621
 21
569.60099924994154
 31
0.0
  0
TEXT
  5
5E
  8
SPEC
 62
     7
 10
33.599547861436179
 20
857.75089036105226
 30
0.0
 40
7.6012586805555546
  1
F3E
 41
0.7
 11
33.599547861436179
 21
865.35214904160796
 31
0.0
 73
     3
  0
TEXT
  5
5F
  8
SPEC
 62
     7
 10
33.599547861436179
 20
842.75089036105237
 30
0.0
 40
7.6012586805555546
  1
位相固定ループPLL制御シンセサイザー方式
 41
0.7
 11
33.599547861436179
 21
850.35214904160796
 31
0.0
 73
     3
  0
TEXT
  5
60
  8
SPEC
 62
     7
 10
33.599547861436179
 20
797.75089036105226
 30
0.0
 40
7.6012586805555546
  1
50～15,000Hz
 41
0.7
 11
33.599547861436179
 21
805.35214904160784
 31
0.0
 73
     3
  0
TEXT
  5
61
  8
SPEC
 62
     7
 10
33.599547861436179
 20
767.75091036105243
 30
0.0
 40
7.6012586805555546
  1
エレクトレットコンデンサ型 
 41
0.7
 11
33.599547861436179
 21
775.35216904160791
 31
0.0
 73
     3
  0
TEXT
  5
62
  8
SPEC
 62
     7
 10
33.599547861436179
 20
752.75091036105243
 30
0.0
 40
7.6012586805555546
  1
MX410LP/C:カーディオイド
 41
0.7
 11
33.599547861436179
 21
760.35216904160802
 31
0.0
 73
     3
  0
TEXT
  5
63
  8
SPEC
 62
     7
 10
33.599547861436179
 20
741.46202147216366
 30
0.0
 40
7.6012586805555546
  1
MX410LP/S:スーパーカーディオイド
 41
0.7
 11
33.599547861436179
 21
749.06328015271924
 31
0.0
 73
     3
  0
TEXT
  5
64
  8
SPEC
 62
     7
 10
33.599547861436179
 20
632.75091036105243
 30
0.0
 40
7.6012586805555546
  1
単3形アルカリ乾電池×2　または
 41
0.7
 11
33.599547861436179
 21
640.35216904160802
 31
0.0
 73
     3
  0
TEXT
  5
65
  8
SPEC
 62
     7
 10
33.599547861436179
 20
621.46202147216366
 30
0.0
 40
7.6012586805555546
  1
単3形ニッケル水素充電式電池×2 
 41
0.7
 11
33.599547861436179
 21
629.06328015271924
 31
0.0
 73
     3
  0
TEXT
  5
66
  8
SPEC
 62
     7
 10
33.599547861436179
 20
602.75091036105243
 30
0.0
 40
7.6012586805555546
  1
約8時間(アルカリ電池使用時)
 41
0.7
 11
33.599547861436179
 21
610.35216904160802
 31
0.0
 73
     3
  0
TEXT
  5
67
  8
SPEC
 62
     7
 10
33.599547861436179
 20
572.75091036105243
 30
0.0
 40
7.6012586805555546
  1
約388g(MX410LP:約62g、MX890-JB:約326g)
 41
0.7
 11
33.599547861436179
 21
580.35216904160802
 31
0.0
 73
     3
  0
TEXT
  5
68
  8
SPEC
 62
     7
 10
-206.40041213856369
 20
767.75267036105242
 30
0.0
 40
7.6012586805555546
  1
型 
 41
0.7
 11
-206.40041213856369
 21
775.35392904160801
 31
0.0
 73
     3
  0
LINE
  5
69
  8
SPEC
  6
CONTINUOUS
 62
     7
 10
-210.0004521385637
 20
824.60095924994152
 30
0.0
 11
329.99954786143621
 21
824.60095924994152
 31
0.0
  0
TEXT
  5
6A
  8
SPEC
 62
     7
 10
-206.40041213856369
 20
827.75089036105237
 30
0.0
 40
7.6012586805555546
  1
使用距離範囲
 41
0.7
 11
-206.40041213856369
 21
835.35214904160784
 31
0.0
 73
     3
  0
TEXT
  5
6B
  8
SPEC
 62
     7
 10
33.599547861436179
 20
827.75089036105237
 30
0.0
 40
7.6012586805555546
  1
約30m ※標準環境における最大値
 41
0.7
 11
33.599547861436179
 21
835.35214904160784
 31
0.0
 73
     3
  0
LINE
  5
6C
  8
SPEC
  6
CONTINUOUS
 62
     7
 10
-210.0004521385637
 20
809.60095924994152
 30
0.0
 11
329.99954786143621
 21
809.60095924994152
 31
0.0
  0
TEXT
  5
6D
  8
SPEC
 62
     7
 10
-206.40041213856369
 20
812.75089036105226
 30
0.0
 40
7.6012586805555546
  1
トーン信号周波数
 41
0.7
 11
-206.40041213856369
 21
820.35214904160784
 31
0.0
 73
     3
  0
TEXT
  5
6E
  8
SPEC
 62
     7
 10
33.599547861436179
 20
812.75089036105226
 30
0.0
 40
7.6012586805555546
  1
32.768kHz
 41
0.7
 11
33.599547861436179
 21
820.35214904160784
 31
0.0
 73
     3
  0
TEXT
  5
6F
  8
SPEC
 62
     7
 10
-206.40041213856369
 20
722.75091036105243
 30
0.0
 40
7.6012586805555546
  1
空中線電力
 41
0.7
 11
-206.40041213856369
 21
730.35216904160802
 31
0.0
 73
     3
  0
LINE
  5
70
  8
SPEC
  6
CONTINUOUS
 62
     7
 10
-210.0004521385637
 20
719.6009592499413
 30
0.0
 11
329.99954786143621
 21
719.6009592499413
 31
0.0
  0
TEXT
  5
71
  8
SPEC
 62
     7
 10
33.599547861436179
 20
722.75091036105243
 30
0.0
 40
7.6012586805555546
  1
10mW
 41
0.7
 11
33.599547861436179
 21
730.35216904160802
 31
0.0
 73
     3
  0
TEXT
  5
72
  8
SPEC
 62
     7
 10
-206.40041213856369
 20
707.75091036105243
 30
0.0
 40
7.6012586805555546
  1
開回路感度(1kHz、1Pa=94dB SPL)
 41
0.7
 11
-206.40041213856369
 21
715.35216904160802
 31
0.0
 73
     3
  0
LINE
  5
73
  8
SPEC
  6
CONTINUOUS
 62
     7
 10
-210.0004521385637
 20
689.6009592499413
 30
0.0
 11
329.99954786143621
 21
689.6009592499413
 31
0.0
  0
TEXT
  5
74
  8
SPEC
 62
     7
 10
33.599547861436179
 20
707.75091036105243
 30
0.0
 40
7.6012586805555546
  1
MX410LP/C:-35dBV/Pa(18mV)
 41
0.7
 11
33.599547861436179
 21
715.35216904160802
 31
0.0
 73
     3
  0
TEXT
  5
75
  8
SPEC
 62
     7
 10
33.599547861436179
 20
696.46202147216366
 30
0.0
 40
7.6012586805555546
  1
MX410LP/S:-34dBV/Pa(21mV)
 41
0.7
 11
33.599547861436179
 21
704.06328015271924
 31
0.0
 73
     3
  0
TEXT
  5
76
  8
SPEC
 62
     7
 10
-206.40041213856369
 20
677.75091036105243
 30
0.0
 40
7.6012586805555546
  1
ダイナミックレンジ (1kΩ負荷、1kHz)
 41
0.7
 11
-206.40041213856369
 21
685.35216904160802
 31
0.0
 73
     3
  0
LINE
  5
77
  8
SPEC
  6
CONTINUOUS
 62
     7
 10
-210.0004521385637
 20
674.6009592499413
 30
0.0
 11
329.99954786143621
 21
674.6009592499413
 31
0.0
  0
TEXT
  5
78
  8
SPEC
 62
     7
 10
33.599547861436179
 20
677.75091036105243
 30
0.0
 40
7.6012586805555546
  1
93dB
 41
0.7
 11
33.599547861436179
 21
685.35216904160802
 31
0.0
 73
     3
  0
TEXT
  5
79
  8
SPEC
 62
     7
 10
-206.40041213856369
 20
662.75091036105243
 30
0.0
 40
7.6012586805555546
  1
同相信号除去比(10Hz～100kHz )
 41
0.7
 11
-206.40041213856369
 21
670.35216904160802
 31
0.0
 73
     3
  0
LINE
  5
7A
  8
SPEC
  6
CONTINUOUS
 62
     7
 10
-210.0004521385637
 20
659.6009592499413
 30
0.0
 11
329.99954786143621
 21
659.6009592499413
 31
0.0
  0
TEXT
  5
7B
  8
SPEC
 62
     7
 10
33.599547861436179
 20
662.75091036105243
 30
0.0
 40
7.6012586805555546
  1
45dB以上
 41
0.7
 11
33.599547861436179
 21
670.35216904160802
 31
0.0
 73
     3
  0
TEXT
  5
7C
  8
SPEC
 62
     7
 10
-206.40041213856369
 20
647.75091036105243
 30
0.0
 40
7.6012586805555546
  1
プリアンプ出力クリッピングレベル(1%%%THD)
 41
0.7
 11
-206.40041213856369
 21
655.35216904160802
 31
0.0
 73
     3
  0
LINE
  5
7D
  8
SPEC
  6
CONTINUOUS
 62
     7
 10
-210.0004521385637
 20
644.6009592499413
 30
0.0
 11
296.66561095869639
 21
644.6009592499413
 31
0.0
  0
TEXT
  5
7E
  8
SPEC
 62
     7
 10
33.599547861436179
 20
647.75091036105243
 30
0.0
 40
7.6012586805555546
  1
-8dBV(0.4V)
 41
0.7
 11
33.599547861436179
 21
655.35216904160802
 31
0.0
 73
     3
  0
LINE
  5
7F
  8
SPEC
  6
CONTINUOUS
 62
     7
 10
-210.0004521385637
 20
644.6009592499413
 30
0.0
 11
329.99954786143621
 21
644.6009592499413
 31
0.0
  0
TEXT
  5
80
  8
SPEC
 62
     7
 10
-206.40041213856369
 20
782.75089036105237
 30
0.0
 40
7.6012586805555546
  1
送信周波数
 41
0.7
 11
-206.40041213856369
 21
790.35214904160784
 31
0.0
 73
     3
  0
TEXT
  5
81
  8
SPEC
 62
     7
 10
33.599547861436179
 20
782.75089036105237
 30
0.0
 40
7.6012586805555546
  1
B型 (806～810MHz)30チャンネルのうち任意の1チャンネル
 41
0.7
 11
33.599547861436179
 21
790.35214904160784
 31
0.0
 73
     3
  0
LINE
  5
82
  8
SPEC
  6
CONTINUOUS
 62
     7
 10
-210.0004521385637
 20
794.60095924994152
 30
0.0
 11
329.99954786143621
 21
794.60095924994152
 31
0.0
  0
TEXT
  5
83
  8
SPEC
 62
     7
 10
-206.40041213856369
 20
587.75091036105243
 30
0.0
 40
7.6012586805555546
  1
寸法(W×H×D)
 41
0.7
 11
-206.40041213856369
 21
595.35216904160802
 31
0.0
 73
     3
  0
TEXT
  5
84
  8
SPEC
 62
     7
 10
33.599547861436179
 20
587.75091036105243
 30
0.0
 40
7.6012586805555546
  1
MX410LP:φ12×253mm、MX890-JB:87×43×147mm
 41
0.7
 11
33.599547861436179
 21
595.35216904160802
 31
0.0
 73
     3
  0
LINE
  5
85
  8
SPEC
  6
CONTINUOUS
 62
     7
 10
-210.0004521385637
 20
599.60095924994152
 30
0.0
 11
329.99954786143621
 21
599.60095924994152
 31
0.0
  0
LINE
  5
86
  8
DIMNSIONS
  6
CONTINUOUS
 62
     7
 10
-15.26108316294768
 20
38.061138503522997
 30
0.0
 11
-61.455044752311601
 21
57.195346422336158
 31
0.0
  0
LINE
  5
87
  8
DIMNSIONS
  6
CONTINUOUS
 62
     7
 10
81.558204393974975
 20
271.80305609377967
 30
0.0
 11
35.364242804611081
 21
290.937264012593
 31
0.0
  0
LINE
  5
88
  8
DIMNSIONS
  6
CONTINUOUS
 62
     7
 10
-54.064010925547123
 20
54.13387316673095
 30
0.0
 11
42.755276631375537
 21
287.87579075698778
 31
0.0
  0
LINE
  5
89
  8
DIMNSIONS
  6
CONTINUOUS
 62
     7
 10
-54.064010925547123
 20
54.13387316673095
 30
0.0
 11
-52.234161951549517
 21
67.15392515284924
 31
0.0
  0
LINE
  5
8A
  8
DIMNSIONS
  6
CONTINUOUS
 62
     7
 10
-54.064010925547123
 20
54.13387316673095
 30
0.0
 11
-45.969289235917167
 21
64.494644458304606
 31
0.0
  0
LINE
  5
8B
  8
DIMNSIONS
  6
CONTINUOUS
 62
     7
 10
42.755276631375537
 20
287.87579075698778
 30
0.0
 11
41.152937591336062
 21
274.82578651983789
 31
0.0
  0
LINE
  5
8C
  8
DIMNSIONS
  6
CONTINUOUS
 62
     7
 10
42.755276631375537
 20
287.87579075698778
 30
0.0
 11
34.842608198650872
 21
277.37532508814121
 31
0.0
  0
TEXT
  5
8D
  8
DIMNSIONS
 62
     7
 10
-15.22513281896989
 20
163.51386053501659
 30
0.0
 40
10.85894097222222
  1
253
 50
67.499954975317237
 41
0.7
 11
-25.257482862409962
 21
167.66940522182901
 31
0.0
 73
     3
  0
TEXT
  5
8E
  8
DIMNSIONS
 62
     7
 10
39.999527861436157
 20
-81.321000750058516
 30
0.0
 40
9.7730468750000004
  1
(単位：mm)
 41
0.7
 11
39.999527861436157
 21
-71.547953875058511
 31
0.0
 73
     3
  0
LINE
  5
8F
  8
DIMNSIONS
  6
CONTINUOUS
 62
     7
 10
50.41599997019766
 20
43.0
 30
0.0
 11
160.4159999701977
 21
43.0
 31
0.0
  0
LINE
  5
90
  8
DIMNSIONS
  6
CONTINUOUS
 62
     7
 10
121.4159999701976
 20
0.0
 30
0.0
 11
160.4159999701977
 21
0.0
 31
0.0
  0
LINE
  5
91
  8
DIMNSIONS
  6
CONTINUOUS
 62
     7
 10
152.416
 20
43.0
 30
0.0
 11
152.416
 21
0.0
 31
0.0
  0
LINE
  5
92
  8
DIMNSIONS
  6
CONTINUOUS
 62
     7
 10
152.416
 20
43.0
 30
0.0
 11
155.8189547438752
 21
30.300000000000011
 31
0.0
  0
LINE
  5
93
  8
DIMNSIONS
  6
CONTINUOUS
 62
     7
 10
152.416
 20
43.0
 30
0.0
 11
149.01304525612471
 21
30.300000000000011
 31
0.0
  0
LINE
  5
94
  8
DIMNSIONS
  6
CONTINUOUS
 62
     7
 10
152.416
 20
0.0
 30
0.0
 11
149.01304525612471
 21
12.69999999999999
 31
0.0
  0
LINE
  5
95
  8
DIMNSIONS
  6
CONTINUOUS
 62
     7
 10
152.416
 20
0.0
 30
0.0
 11
155.8189547438752
 21
12.69999999999999
 31
0.0
  0
TEXT
  5
96
  8
DIMNSIONS
 62
     7
 10
147.44044445562031
 20
14.44444444444445
 30
0.0
 40
10.85894097222222
  1
43
 50
90.0
 41
0.7
 11
136.58150348339811
 21
14.44444444444445
 31
0.0
 73
     3
  0
LINE
  5
97
  8
DIMNSIONS
  6
CONTINUOUS
 62
     7
 10
82.066569000989091
 20
267.80410504104179
 30
0.0
 11
97.373906295592704
 21
304.75928634149318
 31
0.0
  0
LINE
  5
98
  8
DIMNSIONS
  6
CONTINUOUS
 62
     7
 10
93.153123391124495
 20
263.21190385266078
 30
0.0
 11
108.46046068572809
 21
300.16708515311228
 31
0.0
  0
LINE
  5
99
  8
DIMNSIONS
  6
CONTINUOUS
 62
     7
 10
105.3989932382122
 20
292.7760489205557
 30
0.0
 11
94.312438848076823
 21
297.36825010893682
 31
0.0
  0
LINE
  5
9A
  8
DIMNSIONS
  6
CONTINUOUS
 62
     7
 10
94.312438848076823
 20
297.36825010893682
 30
0.0
 11
75.834848179265791
 21
305.02191876393681
 31
0.0
  0
LINE
  5
9B
  8
DIMNSIONS
  6
CONTINUOUS
 62
     7
 10
94.312438848076823
 20
297.36825010893682
 30
0.0
 11
81.292386861958519
 21
299.19809908293439
 31
0.0
  0
LINE
  5
9C
  8
DIMNSIONS
  6
CONTINUOUS
 62
     7
 10
94.312438848076823
 20
297.36825010893682
 30
0.0
 11
83.951667556503153
 21
305.4629717985668
 31
0.0
  0
LINE
  5
9D
  8
DIMNSIONS
  6
CONTINUOUS
 62
     7
 10
105.3989932382122
 20
292.7760489205557
 30
0.0
 11
131.69776875143199
 21
281.88273942917459
 31
0.0
  0
LINE
  5
9E
  8
DIMNSIONS
  6
CONTINUOUS
 62
     7
 10
105.3989932382122
 20
292.7760489205557
 30
0.0
 11
118.44899747536211
 21
291.17370988051618
 31
0.0
  0
LINE
  5
9F
  8
DIMNSIONS
  6
CONTINUOUS
 62
     7
 10
105.3989932382122
 20
292.7760489205557
 30
0.0
 11
115.8994589070588
 21
284.86338048783108
 31
0.0
  0
TEXT
  5
A0
  8
DIMNSIONS
 62
     7
 10
120.9475481194697
 20
292.80352132305478
 30
0.0
 40
10.85894097222222
  1
12
 50
337.5
 41
0.7
 11
125.10308492256959
 21
302.83587463203912
 31
0.0
 73
     3
  0
LINE
  5
A1
  8
DIMNSIONS
  6
CONTINUOUS
 62
     7
 10
92.329840528380757
 20
270.65499999999997
 30
0.0
 11
187.99999997019759
 21
270.65499999999997
 31
0.0
  0
LINE
  5
A2
  8
DIMNSIONS
  6
CONTINUOUS
 62
     7
 10
116.49999997019761
 20
0.0
 30
0.0
 11
187.99999997019759
 21
0.0
 31
0.0
  0
LINE
  5
A3
  8
DIMNSIONS
  6
CONTINUOUS
 62
     7
 10
180.0
 20
270.65499999999997
 30
0.0
 11
180.0
 21
0.0
 31
0.0
  0
LINE
  5
A4
  8
DIMNSIONS
  6
CONTINUOUS
 62
     7
 10
180.0
 20
270.65499999999997
 30
0.0
 11
183.40295474387531
 21
257.9550000000001
 31
0.0
  0
LINE
  5
A5
  8
DIMNSIONS
  6
CONTINUOUS
 62
     7
 10
180.0
 20
270.65499999999997
 30
0.0
 11
176.5970452561248
 21
257.9550000000001
 31
0.0
  0
LINE
  5
A6
  8
DIMNSIONS
  6
CONTINUOUS
 62
     7
 10
180.0
 20
0.0
 30
0.0
 11
176.5970452561248
 21
12.69999999999999
 31
0.0
  0
LINE
  5
A7
  8
DIMNSIONS
  6
CONTINUOUS
 62
     7
 10
180.0
 20
0.0
 30
0.0
 11
183.40295474387531
 21
12.69999999999999
 31
0.0
  0
TEXT
  5
A8
  8
DIMNSIONS
 62
     7
 10
174.0244444593456
 20
124.7441666666667
 30
0.0
 40
10.85894097222222
  1
271
 50
90.0
 41
0.7
 11
163.1655034871234
 21
124.7441666666667
 31
0.0
 73
     3
  0
LINE
  5
A9
  8
DIMNSIONS
  6
CONTINUOUS
 62
     7
 10
104.6491083798785
 20
463.4305491897785
 30
0.0
 11
157.99999997019771
 21
463.4305491897785
 31
0.0
  0
LINE
  5
AA
  8
DIMNSIONS
  6
CONTINUOUS
 62
     7
 10
104.6491083798787
 20
376.56945081022161
 30
0.0
 11
157.99999997019771
 21
376.56945081022161
 31
0.0
  0
LINE
  5
AB
  8
DIMNSIONS
  6
CONTINUOUS
 62
     7
 10
150.0
 20
463.4305491897785
 30
0.0
 11
150.0
 21
376.56945081022161
 31
0.0
  0
LINE
  5
AC
  8
DIMNSIONS
  6
CONTINUOUS
 62
     7
 10
150.0
 20
463.4305491897785
 30
0.0
 11
153.4029547438752
 21
450.73054918977851
 31
0.0
  0
LINE
  5
AD
  8
DIMNSIONS
  6
CONTINUOUS
 62
     7
 10
150.0
 20
463.4305491897785
 30
0.0
 11
146.59704525612469
 21
450.73054918977851
 31
0.0
  0
LINE
  5
AE
  8
DIMNSIONS
  6
CONTINUOUS
 62
     7
 10
150.0
 20
376.56945081022161
 30
0.0
 11
146.59704525612469
 21
389.26945081022171
 31
0.0
  0
LINE
  5
AF
  8
DIMNSIONS
  6
CONTINUOUS
 62
     7
 10
150.0
 20
376.56945081022161
 30
0.0
 11
153.4029547438752
 21
389.26945081022171
 31
0.0
  0
TEXT
  5
B0
  8
DIMNSIONS
 62
     7
 10
145.02444445562031
 20
412.94444444444451
 30
0.0
 40
10.85894097222222
  1
87
 50
90.0
 41
0.7
 11
134.16550348339811
 21
412.94444444444451
 31
0.0
 73
     3
  0
LINE
  5
B1
  8
DIMNSIONS
  6
CONTINUOUS
 62
     7
 10
-34.584000000000053
 20
393.00000002980232
 30
0.0
 11
-34.584000000000053
 21
332.00000002980232
 31
0.0
  0
LINE
  5
B2
  8
DIMNSIONS
  6
CONTINUOUS
 62
     7
 10
111.9159999999999
 20
412.00000002980232
 30
0.0
 11
111.9159999999999
 21
332.00000002980232
 31
0.0
  0
LINE
  5
B3
  8
DIMNSIONS
  6
CONTINUOUS
 62
     7
 10
-34.584000000000053
 20
340.0
 30
0.0
 11
111.9159999999999
 21
340.0
 31
0.0
  0
LINE
  5
B4
  8
DIMNSIONS
  6
CONTINUOUS
 62
     7
 10
-34.584000000000053
 20
340.0
 30
0.0
 11
-21.88400000000005
 21
343.40295474387523
 31
0.0
  0
LINE
  5
B5
  8
DIMNSIONS
  6
CONTINUOUS
 62
     7
 10
-34.584000000000053
 20
340.0
 30
0.0
 11
-21.88400000000005
 21
336.59704525612477
 31
0.0
  0
LINE
  5
B6
  8
DIMNSIONS
  6
CONTINUOUS
 62
     7
 10
111.9159999999999
 20
340.0
 30
0.0
 11
99.215999999999966
 21
336.59704525612477
 31
0.0
  0
LINE
  5
B7
  8
DIMNSIONS
  6
CONTINUOUS
 62
     7
 10
111.9159999999999
 20
340.0
 30
0.0
 11
99.215999999999966
 21
343.40295474387523
 31
0.0
  0
TEXT
  5
B8
  8
DIMNSIONS
 62
     7
 10
28.082666666666629
 20
344.97555554437969
 30
0.0
 40
10.85894097222222
  1
147
 41
0.7
 11
28.082666666666629
 21
355.83449651660192
 31
0.0
 73
     3
  0
TEXT
  5
B9
  8
DATA
 62
     7
 10
276.33284119476951
 20
-85.87542075005851
 30
0.0
 40
9.7730468749999986
  1
MX410LP/C MX410LP/S + MX890-JB
 41
0.7
 11
276.33284119476951
 21
-76.102373875058504
 31
0.0
 73
     3
  0
TEXT
  5
BA
  8
DATA
 62
     7
 10
319.9995078614362
 20
-56.875420750058503
 30
0.0
 40
9.7730468749999986
  1
SHURE
 41
0.7
 11
319.9995078614362
 21
-47.10237387505849
 31
0.0
 73
     3
  0
TEXT
  5
BB
  8
DATA
 62
     7
 10
309.99950786143609
 20
-69.996749638947364
 30
0.0
 40
7.6012586805555546
  1
グ－スネック・マイクロフォン
 41
0.7
 11
309.99950786143609
 21
-62.395490958391811
 31
0.0
 73
     3
  0
LINE
  5
BC
  8
DATA
  6
CONTINUOUS
 62
     7
 10
-9.4903936203026955
 20
36.29803189848657
 30
0.0
 11
-7.7500000000000142
 21
45.0
 31
0.0
  0
LINE
  5
BD
  8
DATA
  6
CONTINUOUS
 62
     7
 10
-35.999999999999993
 20
0.0
 30
0.0
 11
108.5
 21
0.0
 31
0.0
  0
LINE
  5
BE
  8
DATA
  6
CONTINUOUS
 62
     7
 10
12.99999999999998
 20
42.0
 30
0.0
 11
40.0
 21
43.0
 31
0.0
  0
ARC
  5
BF
  8
DATA
  6
CONTINUOUS
 62
     7
 10
-5.2326465323888689
 20
66.709761968422185
 30
0.0
 40
30.70833333333341
 50
255.34846915215169
 51
306.42258495716572
  0
LINE
  5
C0
  8
DATA
  6
CONTINUOUS
 62
     7
 10
-37.000000000000007
 20
9.0
 30
0.0
 11
-37.000000000000007
 21
8.0
 31
0.0
  0
LINE
  5
C1
  8
DATA
  6
CONTINUOUS
 62
     7
 10
109.5
 20
9.0
 30
0.0
 11
72.156903765690444
 21
23.818688981868888
 31
0.0
  0
LINE
  5
C2
  8
DATA
  6
CONTINUOUS
 62
     7
 10
109.4375
 20
7.5
 30
0.0
 11
-37.000000000000043
 21
7.5
 31
0.0
  0
LINE
  5
C3
  8
DATA
  6
CONTINUOUS
 62
     7
 10
109.5
 20
9.0
 30
0.0
 11
-37.000000000000007
 21
9.0
 31
0.0
  0
LINE
  5
C4
  8
DATA
  6
CONTINUOUS
 62
     7
 10
109.5
 20
8.0
 30
0.0
 11
-37.000000000000007
 21
8.0
 31
0.0
  0
LINE
  5
C5
  8
DATA
  6
CONTINUOUS
 62
     7
 10
109.5
 20
9.0
 30
0.0
 11
109.5
 21
8.0
 31
0.0
  0
LINE
  5
C6
  8
DATA
  6
CONTINUOUS
 62
     7
 10
109.4375
 20
7.5
 30
0.0
 11
108.5
 21
0.0
 31
0.0
  0
LINE
  5
C7
  8
DATA
  6
CONTINUOUS
 62
     7
 10
109.0
 20
8.0
 30
0.0
 11
109.0
 21
7.5
 31
0.0
  0
LINE
  5
C8
  8
DATA
  6
CONTINUOUS
 62
     7
 10
-35.999999999999993
 20
0.0
 30
0.0
 11
-37.000000000000007
 21
7.5
 31
0.0
  0
LINE
  5
C9
  8
DATA
  6
CONTINUOUS
 62
     7
 10
-36.499999999999993
 20
8.0
 30
0.0
 11
-36.499999999999993
 21
7.5
 31
0.0
  0
LINE
  5
CA
  8
DATA
  6
CONTINUOUS
 62
     7
 10
-34.999999999999993
 20
25.0
 30
0.0
 11
-37.000000000000007
 21
9.0
 31
0.0
  0
LINE
  5
CB
  8
DATA
  6
CONTINUOUS
 62
     7
 10
-13.000000000000011
 20
37.0
 30
0.0
 11
-28.000000000000011
 21
32.0
 31
0.0
  0
ARC
  5
CC
  8
DATA
  6
CONTINUOUS
 62
     7
 10
-24.499999999999989
 20
21.5
 30
0.0
 40
11.067971810589331
 50
108.4349488229221
 51
161.565051177078
  0
LINE
  5
CD
  8
DATA
  6
CONTINUOUS
 62
     7
 10
40.0
 20
43.0
 30
0.0
 11
96.999999999999986
 21
9.0
 31
0.0
  0
LINE
  5
CE
  8
DATA
  6
CONTINUOUS
 62
     7
 10
-36.399999999999991
 20
7.5
 30
0.0
 11
-36.499999999999993
 21
7.5
 31
0.0
  0
LINE
  5
CF
  8
DATA
  6
CONTINUOUS
 62
     7
 10
-7.7500000000000142
 20
44.999665247917719
 30
0.0
 11
7.7500000000000142
 21
44.999665247917719
 31
0.0
  0
LINE
  5
D0
  8
DATA
  6
CONTINUOUS
 62
     7
 10
-5.9999999999999849
 20
46.999665247917783
 30
0.0
 11
6.0000000000000142
 21
46.999665247917783
 31
0.0
  0
LINE
  5
D1
  8
DATA
  6
CONTINUOUS
 62
     7
 10
-9.4903284934679402
 20
36.298022780578151
 30
0.0
 11
-7.7500000000000142
 21
44.999665247917719
 31
0.0
  0
LINE
  5
D2
  8
DATA
  6
CONTINUOUS
 62
     7
 10
8.8642744690651067
 20
39.428292902592261
 30
0.0
 11
7.7500000000000142
 21
44.999665247917719
 31
0.0
  0
LINE
  5
D3
  8
DATA
  6
CONTINUOUS
 62
     7
 10
6.0000000000000142
 20
46.999665247917783
 30
0.0
 11
7.7500000000000142
 21
44.999665247917719
 31
0.0
  0
LINE
  5
D4
  8
DATA
  6
CONTINUOUS
 62
     7
 10
-3.9999999999999849
 20
48.999665247917783
 30
0.0
 11
4.0000000000000142
 21
48.999665247917783
 31
0.0
  0
LINE
  5
D5
  8
DATA
  6
CONTINUOUS
 62
     7
 10
-3.9999999999999849
 20
48.999665247917783
 30
0.0
 11
-5.4999999999999849
 21
46.999665247917783
 31
0.0
  0
LINE
  5
D6
  8
DATA
  6
CONTINUOUS
 62
     7
 10
4.0000000000000142
 20
48.999665247917783
 30
0.0
 11
5.5000000000000142
 21
46.999665247917783
 31
0.0
  0
LINE
  5
D7
  8
DATA
  6
CONTINUOUS
 62
     7
 10
-5.9999999999999849
 20
46.999665247917783
 30
0.0
 11
-7.7500000000000142
 21
44.999665247917719
 31
0.0
  0
LINE
  5
D8
  8
DATA
  6
CONTINUOUS
 62
     7
 10
5.0224093497742643
 20
56.325611779359463
 30
0.0
 11
56.632885541520942
 21
180.9237836770001
 31
0.0
  0
LINE
  5
D9
  8
DATA
  6
CONTINUOUS
 62
     7
 10
-1.2163859753385819
 20
60.862271965747773
 30
0.0
 11
49.703789047686271
 21
183.79390941973841
 31
0.0
  0
LINE
  5
DA
  8
DATA
  6
CONTINUOUS
 62
     7
 10
-3.4999999999999849
 20
48.999665247917783
 30
0.0
 11
-3.4999999999999849
 21
49.381768994795102
 31
0.0
  0
ARC
  5
DB
  8
DATA
  6
CONTINUOUS
 62
     7
 10
26.500000000000011
 20
49.381768994795038
 30
0.0
 40
30.000000000000011
 50
157.49999999999989
 51
179.99999999999989
  0
ARC
  5
DC
  8
DATA
  6
CONTINUOUS
 62
     7
 10
23.500000000000011
 20
48.671943132057649
 30
0.0
 40
20.000000000000011
 50
157.5
 51
179.0611032758822
  0
LINE
  5
DD
  8
DATA
  6
CONTINUOUS
 62
     7
 10
56.632885541520942
 20
180.9237836770001
 30
0.0
 11
49.703789047686271
 21
183.79390941973841
 31
0.0
  0
LINE
  5
DE
  8
DATA
  6
CONTINUOUS
 62
     7
 10
56.362287491447823
 20
181.57706515943829
 30
0.0
 11
56.744970923812922
 21
182.5009446919496
 31
0.0
  0
LINE
  5
DF
  8
DATA
  6
CONTINUOUS
 62
     7
 10
50.931095678672101
 20
185.45032676857841
 30
0.0
 11
50.548412246307002
 21
184.5264472360671
 31
0.0
  0
LINE
  5
E0
  8
DATA
  6
CONTINUOUS
 62
     7
 10
50.357070530124467
 20
184.06450746981139
 30
0.0
 11
50.16572881394189
 21
183.60256770355579
 31
0.0
  0
LINE
  5
E1
  8
DATA
  6
CONTINUOUS
 62
     7
 10
56.170945775265281
 20
181.11512539318269
 30
0.0
 11
50.357070530124467
 21
184.06450746981139
 31
0.0
  0
LINE
  5
E2
  8
DATA
  6
CONTINUOUS
 62
     7
 10
55.915066318744678
 20
181.80394070379441
 30
0.0
 11
55.72372460256215
 21
181.34200093753881
 31
0.0
  0
LINE
  5
E3
  8
DATA
  6
CONTINUOUS
 62
     7
 10
50.99563341901014
 20
184.29957169171101
 30
0.0
 11
50.804291702827598
 21
183.83763192545541
 31
0.0
  0
LINE
  5
E4
  8
DATA
  6
CONTINUOUS
 62
     7
 10
56.362287491447823
 20
181.57706515943829
 30
0.0
 11
50.548412246307002
 21
184.5264472360671
 31
0.0
  0
LINE
  5
E5
  8
DATA
  6
CONTINUOUS
 62
     7
 10
56.744970923812922
 20
182.5009446919496
 30
0.0
 11
50.931095678672101
 21
185.45032676857841
 31
0.0
  0
LINE
  5
E6
  8
DATA
  6
CONTINUOUS
 62
     7
 10
56.93631263999545
 20
182.96288445820531
 30
0.0
 11
57.31899607236052
 21
183.8867639907165
 31
0.0
  0
LINE
  5
E7
  8
DATA
  6
CONTINUOUS
 62
     7
 10
51.505120827219727
 20
186.83614606734531
 30
0.0
 11
51.122437394854629
 21
185.91226653483389
 31
0.0
  0
LINE
  5
E8
  8
DATA
  6
CONTINUOUS
 62
     7
 10
56.93631263999545
 20
182.96288445820531
 30
0.0
 11
51.122437394854629
 21
185.91226653483389
 31
0.0
  0
LINE
  5
E9
  8
DATA
  6
CONTINUOUS
 62
     7
 10
57.31899607236052
 20
183.8867639907165
 30
0.0
 11
51.505120827219727
 21
186.83614606734531
 31
0.0
  0
LINE
  5
EA
  8
DATA
  6
CONTINUOUS
 62
     7
 10
57.510337788543062
 20
184.34870375697221
 30
0.0
 11
57.893021220908182
 21
185.27258328948349
 31
0.0
  0
LINE
  5
EB
  8
DATA
  6
CONTINUOUS
 62
     7
 10
52.079145975767346
 20
188.22196536611219
 30
0.0
 11
51.696462543402262
 21
187.29808583360099
 31
0.0
  0
LINE
  5
EC
  8
DATA
  6
CONTINUOUS
 62
     7
 10
57.510337788543062
 20
184.34870375697221
 30
0.0
 11
51.696462543402262
 21
187.29808583360099
 31
0.0
  0
LINE
  5
ED
  8
DATA
  6
CONTINUOUS
 62
     7
 10
57.893021220908182
 20
185.27258328948349
 30
0.0
 11
52.079145975767346
 21
188.22196536611219
 31
0.0
  0
LINE
  5
EE
  8
DATA
  6
CONTINUOUS
 62
     7
 10
58.084362937090717
 20
185.7345230557392
 30
0.0
 11
58.46704636945578
 21
186.6584025882504
 31
0.0
  0
LINE
  5
EF
  8
DATA
  6
CONTINUOUS
 62
     7
 10
52.653171124315001
 20
189.60778466487909
 30
0.0
 11
52.270487691949903
 21
188.6839051323679
 31
0.0
  0
LINE
  5
F0
  8
DATA
  6
CONTINUOUS
 62
     7
 10
58.084362937090717
 20
185.7345230557392
 30
0.0
 11
52.270487691949903
 21
188.6839051323679
 31
0.0
  0
LINE
  5
F1
  8
DATA
  6
CONTINUOUS
 62
     7
 10
58.46704636945578
 20
186.6584025882504
 30
0.0
 11
52.653171124315001
 21
189.60778466487909
 31
0.0
  0
LINE
  5
F2
  8
DATA
  6
CONTINUOUS
 62
     7
 10
58.658388085638322
 20
187.12034235450611
 30
0.0
 11
59.041071518003463
 21
188.0442218870173
 31
0.0
  0
LINE
  5
F3
  8
DATA
  6
CONTINUOUS
 62
     7
 10
53.227196272862642
 20
190.99360396364611
 30
0.0
 11
52.844512840497529
 21
190.0697244311348
 31
0.0
  0
LINE
  5
F4
  8
DATA
  6
CONTINUOUS
 62
     7
 10
58.658388085638322
 20
187.12034235450611
 30
0.0
 11
52.844512840497529
 21
190.0697244311348
 31
0.0
  0
LINE
  5
F5
  8
DATA
  6
CONTINUOUS
 62
     7
 10
59.041071518003463
 20
188.0442218870173
 30
0.0
 11
53.227196272862642
 21
190.99360396364611
 31
0.0
  0
LINE
  5
F6
  8
DATA
  6
CONTINUOUS
 62
     7
 10
59.232413234185969
 20
188.50616165327301
 30
0.0
 11
59.615096666551068
 21
189.43004118578429
 31
0.0
  0
LINE
  5
F7
  8
DATA
  6
CONTINUOUS
 62
     7
 10
53.801221421410261
 20
192.37942326241301
 30
0.0
 11
53.418537989045163
 21
191.45554372990171
 31
0.0
  0
LINE
  5
F8
  8
DATA
  6
CONTINUOUS
 62
     7
 10
59.232413234185969
 20
188.50616165327301
 30
0.0
 11
53.418537989045163
 21
191.45554372990171
 31
0.0
  0
LINE
  5
F9
  8
DATA
  6
CONTINUOUS
 62
     7
 10
59.615096666551068
 20
189.43004118578429
 30
0.0
 11
53.801221421410261
 21
192.37942326241301
 31
0.0
  0
LINE
  5
FA
  8
DATA
  6
CONTINUOUS
 62
     7
 10
59.806438382733653
 20
189.89198095204
 30
0.0
 11
60.189121815098723
 21
190.81586048455119
 31
0.0
  0
LINE
  5
FB
  8
DATA
  6
CONTINUOUS
 62
     7
 10
54.375246569957902
 20
193.76524256118
 30
0.0
 11
53.992563137592789
 21
192.84136302866861
 31
0.0
  0
LINE
  5
FC
  8
DATA
  6
CONTINUOUS
 62
     7
 10
59.806438382733653
 20
189.89198095204
 30
0.0
 11
53.992563137592789
 21
192.84136302866861
 31
0.0
  0
LINE
  5
FD
  8
DATA
  6
CONTINUOUS
 62
     7
 10
60.189121815098723
 20
190.81586048455119
 30
0.0
 11
54.375246569957902
 21
193.76524256118
 31
0.0
  0
LINE
  5
FE
  8
DATA
  6
CONTINUOUS
 62
     7
 10
60.380463531281251
 20
191.27780025080679
 30
0.0
 11
60.763146963646307
 21
192.2016797833181
 31
0.0
  0
LINE
  5
FF
  8
DATA
  6
CONTINUOUS
 62
     7
 10
54.949271718505528
 20
195.15106185994679
 30
0.0
 11
54.56658828614043
 21
194.2271823274356
 31
0.0
  0
LINE
  5
100
  8
DATA
  6
CONTINUOUS
 62
     7
 10
60.380463531281251
 20
191.27780025080679
 30
0.0
 11
54.56658828614043
 21
194.2271823274356
 31
0.0
  0
LINE
  5
101
  8
DATA
  6
CONTINUOUS
 62
     7
 10
60.763146963646307
 20
192.2016797833181
 30
0.0
 11
54.949271718505528
 21
195.15106185994679
 31
0.0
  0
LINE
  5
102
  8
DATA
  6
CONTINUOUS
 62
     7
 10
60.954488679828913
 20
192.66361954957381
 30
0.0
 11
61.337172112193983
 21
193.58749908208509
 31
0.0
  0
LINE
  5
103
  8
DATA
  6
CONTINUOUS
 62
     7
 10
55.523296867053162
 20
196.53688115871381
 30
0.0
 11
55.140613434688092
 21
195.6130016262025
 31
0.0
  0
LINE
  5
104
  8
DATA
  6
CONTINUOUS
 62
     7
 10
60.954488679828913
 20
192.66361954957381
 30
0.0
 11
55.140613434688092
 21
195.6130016262025
 31
0.0
  0
LINE
  5
105
  8
DATA
  6
CONTINUOUS
 62
     7
 10
61.337172112193983
 20
193.58749908208509
 30
0.0
 11
55.523296867053162
 21
196.53688115871381
 31
0.0
  0
LINE
  5
106
  8
DATA
  6
CONTINUOUS
 62
     7
 10
61.528513828376532
 20
194.0494388483408
 30
0.0
 11
61.911197260741623
 21
194.97331838085199
 31
0.0
  0
LINE
  5
107
  8
DATA
  6
CONTINUOUS
 62
     7
 10
56.097322015600788
 20
197.9227004574808
 30
0.0
 11
55.714638583235697
 21
196.99882092496941
 31
0.0
  0
LINE
  5
108
  8
DATA
  6
CONTINUOUS
 62
     7
 10
61.528513828376532
 20
194.0494388483408
 30
0.0
 11
55.714638583235697
 21
196.99882092496941
 31
0.0
  0
LINE
  5
109
  8
DATA
  6
CONTINUOUS
 62
     7
 10
61.911197260741623
 20
194.97331838085199
 30
0.0
 11
56.097322015600788
 21
197.9227004574808
 31
0.0
  0
LINE
  5
10A
  8
DATA
  6
CONTINUOUS
 62
     7
 10
62.102538976924151
 20
195.4352581471077
 30
0.0
 11
62.485222409289243
 21
196.3591376796189
 31
0.0
  0
LINE
  5
10B
  8
DATA
  6
CONTINUOUS
 62
     7
 10
56.671347164148422
 20
199.3085197562477
 30
0.0
 11
56.288663731783359
 21
198.3846402237364
 31
0.0
  0
LINE
  5
10C
  8
DATA
  6
CONTINUOUS
 62
     7
 10
62.102538976924151
 20
195.4352581471077
 30
0.0
 11
56.288663731783359
 21
198.3846402237364
 31
0.0
  0
LINE
  5
10D
  8
DATA
  6
CONTINUOUS
 62
     7
 10
62.485222409289243
 20
196.3591376796189
 30
0.0
 11
56.671347164148422
 21
199.3085197562477
 31
0.0
  0
LINE
  5
10E
  8
DATA
  6
CONTINUOUS
 62
     7
 10
62.676564125471792
 20
196.82107744587449
 30
0.0
 11
63.059247557836891
 21
197.74495697838589
 31
0.0
  0
LINE
  5
10F
  8
DATA
  6
CONTINUOUS
 62
     7
 10
57.245372312696027
 20
200.69433905501461
 30
0.0
 11
56.862688880330992
 21
199.7704595225033
 31
0.0
  0
LINE
  5
110
  8
DATA
  6
CONTINUOUS
 62
     7
 10
62.676564125471792
 20
196.82107744587449
 30
0.0
 11
56.862688880330992
 21
199.7704595225033
 31
0.0
  0
LINE
  5
111
  8
DATA
  6
CONTINUOUS
 62
     7
 10
63.059247557836891
 20
197.74495697838589
 30
0.0
 11
57.245372312696027
 21
200.69433905501461
 31
0.0
  0
LINE
  5
112
  8
DATA
  6
CONTINUOUS
 62
     7
 10
63.250589274019447
 20
198.2068967446416
 30
0.0
 11
63.633272706384517
 21
199.13077627715279
 31
0.0
  0
LINE
  5
113
  8
DATA
  6
CONTINUOUS
 62
     7
 10
57.819397461243703
 20
202.08015835378151
 30
0.0
 11
57.436714028878583
 21
201.15627882127029
 31
0.0
  0
LINE
  5
114
  8
DATA
  6
CONTINUOUS
 62
     7
 10
63.250589274019447
 20
198.2068967446416
 30
0.0
 11
57.436714028878583
 21
201.15627882127029
 31
0.0
  0
LINE
  5
115
  8
DATA
  6
CONTINUOUS
 62
     7
 10
63.633272706384517
 20
199.13077627715279
 30
0.0
 11
57.819397461243703
 21
202.08015835378151
 31
0.0
  0
LINE
  5
116
  8
DATA
  6
CONTINUOUS
 62
     7
 10
63.824614422567052
 20
199.59271604340839
 30
0.0
 11
64.20729785493215
 21
200.51659557591969
 31
0.0
  0
LINE
  5
117
  8
DATA
  6
CONTINUOUS
 62
     7
 10
58.393422609791358
 20
203.4659776525485
 30
0.0
 11
58.010739177426217
 21
202.5420981200372
 31
0.0
  0
LINE
  5
118
  8
DATA
  6
CONTINUOUS
 62
     7
 10
63.824614422567052
 20
199.59271604340839
 30
0.0
 11
58.010739177426217
 21
202.5420981200372
 31
0.0
  0
LINE
  5
119
  8
DATA
  6
CONTINUOUS
 62
     7
 10
64.20729785493215
 20
200.51659557591969
 30
0.0
 11
58.393422609791358
 21
203.4659776525485
 31
0.0
  0
LINE
  5
11A
  8
DATA
  6
CONTINUOUS
 62
     7
 10
64.398639571114728
 20
200.97853534217541
 30
0.0
 11
64.781323003479784
 21
201.9024148746866
 31
0.0
  0
LINE
  5
11B
  8
DATA
  6
CONTINUOUS
 62
     7
 10
58.967447758338949
 20
204.85179695131549
 30
0.0
 11
58.584764325973893
 21
203.9279174188041
 31
0.0
  0
LINE
  5
11C
  8
DATA
  6
CONTINUOUS
 62
     7
 10
64.398639571114728
 20
200.97853534217541
 30
0.0
 11
58.584764325973893
 21
203.9279174188041
 31
0.0
  0
LINE
  5
11D
  8
DATA
  6
CONTINUOUS
 62
     7
 10
64.781323003479784
 20
201.9024148746866
 30
0.0
 11
58.967447758338949
 21
204.85179695131549
 31
0.0
  0
LINE
  5
11E
  8
DATA
  6
CONTINUOUS
 62
     7
 10
64.972664719662333
 20
202.36435464094239
 30
0.0
 11
65.35534815202746
 21
203.28823417345359
 31
0.0
  0
LINE
  5
11F
  8
DATA
  6
CONTINUOUS
 62
     7
 10
59.541472906886568
 20
206.2376162500824
 30
0.0
 11
59.158789474521498
 21
205.313736717571
 31
0.0
  0
LINE
  5
120
  8
DATA
  6
CONTINUOUS
 62
     7
 10
64.972664719662333
 20
202.36435464094239
 30
0.0
 11
59.158789474521498
 21
205.313736717571
 31
0.0
  0
LINE
  5
121
  8
DATA
  6
CONTINUOUS
 62
     7
 10
65.35534815202746
 20
203.28823417345359
 30
0.0
 11
59.541472906886568
 21
206.2376162500824
 31
0.0
  0
LINE
  5
122
  8
DATA
  6
CONTINUOUS
 62
     7
 10
65.546689868209967
 20
203.7501739397093
 30
0.0
 11
65.929373300575051
 21
204.67405347222049
 31
0.0
  0
LINE
  5
123
  8
DATA
  6
CONTINUOUS
 62
     7
 10
60.11549805543423
 20
207.6234355488493
 30
0.0
 11
59.732814623069153
 21
206.69955601633799
 31
0.0
  0
LINE
  5
124
  8
DATA
  6
CONTINUOUS
 62
     7
 10
65.546689868209967
 20
203.7501739397093
 30
0.0
 11
59.732814623069153
 21
206.69955601633799
 31
0.0
  0
LINE
  5
125
  8
DATA
  6
CONTINUOUS
 62
     7
 10
65.929373300575051
 20
204.67405347222049
 30
0.0
 11
60.11549805543423
 21
207.6234355488493
 31
0.0
  0
LINE
  5
126
  8
DATA
  6
CONTINUOUS
 62
     7
 10
66.120715016757629
 20
205.13599323847609
 30
0.0
 11
66.503398449122713
 21
206.0598727709874
 31
0.0
  0
LINE
  5
127
  8
DATA
  6
CONTINUOUS
 62
     7
 10
60.689523203981892
 20
209.00925484761621
 30
0.0
 11
60.306839771616772
 21
208.0853753151049
 31
0.0
  0
LINE
  5
128
  8
DATA
  6
CONTINUOUS
 62
     7
 10
66.120715016757629
 20
205.13599323847609
 30
0.0
 11
60.306839771616772
 21
208.0853753151049
 31
0.0
  0
LINE
  5
129
  8
DATA
  6
CONTINUOUS
 62
     7
 10
66.503398449122713
 20
206.0598727709874
 30
0.0
 11
60.689523203981892
 21
209.00925484761621
 31
0.0
  0
LINE
  5
12A
  8
DATA
  6
CONTINUOUS
 62
     7
 10
66.694740165305248
 20
206.52181253724311
 30
0.0
 11
67.077423597670304
 21
207.44569206975439
 31
0.0
  0
LINE
  5
12B
  8
DATA
  6
CONTINUOUS
 62
     7
 10
61.263548352529497
 20
210.39507414638311
 30
0.0
 11
60.88086492016442
 21
209.4711946138718
 31
0.0
  0
LINE
  5
12C
  8
DATA
  6
CONTINUOUS
 62
     7
 10
66.694740165305248
 20
206.52181253724311
 30
0.0
 11
60.88086492016442
 21
209.4711946138718
 31
0.0
  0
LINE
  5
12D
  8
DATA
  6
CONTINUOUS
 62
     7
 10
67.077423597670304
 20
207.44569206975439
 30
0.0
 11
61.263548352529497
 21
210.39507414638311
 31
0.0
  0
LINE
  5
12E
  8
DATA
  6
CONTINUOUS
 62
     7
 10
67.268765313852882
 20
207.90763183601001
 30
0.0
 11
67.651448746217952
 21
208.83151136852129
 31
0.0
  0
LINE
  5
12F
  8
DATA
  6
CONTINUOUS
 62
     7
 10
61.837573501077159
 20
211.7808934451501
 30
0.0
 11
61.454890068712032
 21
210.85701391263879
 31
0.0
  0
LINE
  5
130
  8
DATA
  6
CONTINUOUS
 62
     7
 10
67.268765313852882
 20
207.90763183601001
 30
0.0
 11
61.454890068712032
 21
210.85701391263879
 31
0.0
  0
LINE
  5
131
  8
DATA
  6
CONTINUOUS
 62
     7
 10
67.651448746217952
 20
208.83151136852129
 30
0.0
 11
61.837573501077159
 21
211.7808934451501
 31
0.0
  0
LINE
  5
132
  8
DATA
  6
CONTINUOUS
 62
     7
 10
67.842790462400515
 20
209.29345113477689
 30
0.0
 11
68.225473894765599
 21
210.21733066728831
 31
0.0
  0
LINE
  5
133
  8
DATA
  6
CONTINUOUS
 62
     7
 10
62.411598649624793
 20
213.166712743917
 30
0.0
 11
62.028915217259701
 21
212.2428332114057
 31
0.0
  0
LINE
  5
134
  8
DATA
  6
CONTINUOUS
 62
     7
 10
67.842790462400515
 20
209.29345113477689
 30
0.0
 11
62.028915217259701
 21
212.2428332114057
 31
0.0
  0
LINE
  5
135
  8
DATA
  6
CONTINUOUS
 62
     7
 10
68.225473894765599
 20
210.21733066728831
 30
0.0
 11
62.411598649624793
 21
213.166712743917
 31
0.0
  0
LINE
  5
136
  8
DATA
  6
CONTINUOUS
 62
     7
 10
68.416815610948149
 20
210.67927043354391
 30
0.0
 11
68.799499043313247
 21
211.60314996605521
 31
0.0
  0
LINE
  5
137
  8
DATA
  6
CONTINUOUS
 62
     7
 10
62.985623798172419
 20
214.55253204268391
 30
0.0
 11
62.602940365807321
 21
213.6286525101726
 31
0.0
  0
LINE
  5
138
  8
DATA
  6
CONTINUOUS
 62
     7
 10
68.416815610948149
 20
210.67927043354391
 30
0.0
 11
62.602940365807321
 21
213.6286525101726
 31
0.0
  0
LINE
  5
139
  8
DATA
  6
CONTINUOUS
 62
     7
 10
68.799499043313247
 20
211.60314996605521
 30
0.0
 11
62.985623798172419
 21
214.55253204268391
 31
0.0
  0
LINE
  5
13A
  8
DATA
  6
CONTINUOUS
 62
     7
 10
68.990840759495782
 20
212.06508973231089
 30
0.0
 11
69.373524191860852
 21
212.98896926482209
 31
0.0
  0
LINE
  5
13B
  8
DATA
  6
CONTINUOUS
 62
     7
 10
63.55964894672006
 20
215.9383513414509
 30
0.0
 11
63.176965514354961
 21
215.01447180893959
 31
0.0
  0
LINE
  5
13C
  8
DATA
  6
CONTINUOUS
 62
     7
 10
68.990840759495782
 20
212.06508973231089
 30
0.0
 11
63.176965514354961
 21
215.01447180893959
 31
0.0
  0
LINE
  5
13D
  8
DATA
  6
CONTINUOUS
 62
     7
 10
69.373524191860852
 20
212.98896926482209
 30
0.0
 11
63.55964894672006
 21
215.9383513414509
 31
0.0
  0
LINE
  5
13E
  8
DATA
  6
CONTINUOUS
 62
     7
 10
69.564865908043416
 20
213.4509090310778
 30
0.0
 11
69.9475493404085
 21
214.37478856358899
 31
0.0
  0
LINE
  5
13F
  8
DATA
  6
CONTINUOUS
 62
     7
 10
64.133674095267693
 20
217.3241706402178
 30
0.0
 11
63.750990662902602
 21
216.40029110770649
 31
0.0
  0
LINE
  5
140
  8
DATA
  6
CONTINUOUS
 62
     7
 10
69.564865908043416
 20
213.4509090310778
 30
0.0
 11
63.750990662902602
 21
216.40029110770649
 31
0.0
  0
LINE
  5
141
  8
DATA
  6
CONTINUOUS
 62
     7
 10
69.9475493404085
 20
214.37478856358899
 30
0.0
 11
64.133674095267693
 21
217.3241706402178
 31
0.0
  0
LINE
  5
142
  8
DATA
  6
CONTINUOUS
 62
     7
 10
70.138891056591049
 20
214.8367283298447
 30
0.0
 11
70.521574488956162
 21
215.76060786235601
 31
0.0
  0
LINE
  5
143
  8
DATA
  6
CONTINUOUS
 62
     7
 10
64.707699243815327
 20
218.70998993898471
 30
0.0
 11
64.325015811450228
 21
217.7861104064734
 31
0.0
  0
LINE
  5
144
  8
DATA
  6
CONTINUOUS
 62
     7
 10
70.138891056591049
 20
214.8367283298447
 30
0.0
 11
64.325015811450228
 21
217.7861104064734
 31
0.0
  0
LINE
  5
145
  8
DATA
  6
CONTINUOUS
 62
     7
 10
70.521574488956162
 20
215.76060786235601
 30
0.0
 11
64.707699243815327
 21
218.70998993898471
 31
0.0
  0
LINE
  5
146
  8
DATA
  6
CONTINUOUS
 62
     7
 10
56.489091467292312
 20
183.18976000256129
 30
0.0
 11
56.297749751109777
 21
182.72782023630569
 31
0.0
  0
LINE
  5
147
  8
DATA
  6
CONTINUOUS
 62
     7
 10
51.569658567557788
 20
185.685390990478
 30
0.0
 11
51.378316851375217
 21
185.22345122422229
 31
0.0
  0
LINE
  5
148
  8
DATA
  6
CONTINUOUS
 62
     7
 10
52.1436837161054
 20
187.0712102892449
 30
0.0
 11
51.952341999922858
 21
186.60927052298919
 31
0.0
  0
LINE
  5
149
  8
DATA
  6
CONTINUOUS
 62
     7
 10
52.717708864653062
 20
188.45702958801181
 30
0.0
 11
52.526367148470491
 21
187.99508982175621
 31
0.0
  0
LINE
  5
14A
  8
DATA
  6
CONTINUOUS
 62
     7
 10
53.291734013200703
 20
189.8428488867788
 30
0.0
 11
53.100392297018139
 21
189.38090912052311
 31
0.0
  0
LINE
  5
14B
  8
DATA
  6
CONTINUOUS
 62
     7
 10
53.865759161748286
 20
191.2286681855457
 30
0.0
 11
53.67441744556578
 21
190.76672841928999
 31
0.0
  0
LINE
  5
14C
  8
DATA
  6
CONTINUOUS
 62
     7
 10
54.439784310295963
 20
192.6144874843126
 30
0.0
 11
54.248442594113399
 21
192.15254771805701
 31
0.0
  0
LINE
  5
14D
  8
DATA
  6
CONTINUOUS
 62
     7
 10
55.013809458843603
 20
194.00030678307959
 30
0.0
 11
54.822467742661019
 21
193.53836701682391
 31
0.0
  0
LINE
  5
14E
  8
DATA
  6
CONTINUOUS
 62
     7
 10
55.587834607391223
 20
195.3861260818465
 30
0.0
 11
55.396492891208659
 21
194.92418631559079
 31
0.0
  0
LINE
  5
14F
  8
DATA
  6
CONTINUOUS
 62
     7
 10
56.161859755938863
 20
196.7719453806134
 30
0.0
 11
55.9705180397563
 21
196.31000561435769
 31
0.0
  0
LINE
  5
150
  8
DATA
  6
CONTINUOUS
 62
     7
 10
56.735884904486511
 20
198.15776467938039
 30
0.0
 11
56.544543188303962
 21
197.69582491312471
 31
0.0
  0
LINE
  5
151
  8
DATA
  6
CONTINUOUS
 62
     7
 10
57.309910053034137
 20
199.54358397814721
 30
0.0
 11
57.118568336851602
 21
199.08164421189159
 31
0.0
  0
LINE
  5
152
  8
DATA
  6
CONTINUOUS
 62
     7
 10
57.883935201581743
 20
200.9294032769142
 30
0.0
 11
57.6925934853992
 21
200.4674635106586
 31
0.0
  0
LINE
  5
153
  8
DATA
  6
CONTINUOUS
 62
     7
 10
58.457960350129397
 20
202.3152225756811
 30
0.0
 11
58.266618633946862
 21
201.85328280942551
 31
0.0
  0
LINE
  5
154
  8
DATA
  6
CONTINUOUS
 62
     7
 10
59.031985498676988
 20
203.70104187444809
 30
0.0
 11
58.840643782494467
 21
203.23910210819241
 31
0.0
  0
LINE
  5
155
  8
DATA
  6
CONTINUOUS
 62
     7
 10
59.606010647224657
 20
205.086861173215
 30
0.0
 11
59.414668931042073
 21
204.62492140695929
 31
0.0
  0
LINE
  5
156
  8
DATA
  6
CONTINUOUS
 62
     7
 10
60.180035795772277
 20
206.4726804719819
 30
0.0
 11
59.988694079589742
 21
206.01074070572631
 31
0.0
  0
LINE
  5
157
  8
DATA
  6
CONTINUOUS
 62
     7
 10
60.754060944319917
 20
207.85849977074881
 30
0.0
 11
60.562719228137389
 21
207.39656000449321
 31
0.0
  0
LINE
  5
158
  8
DATA
  6
CONTINUOUS
 62
     7
 10
61.328086092867537
 20
209.2443190695158
 30
0.0
 11
61.136744376685002
 21
208.78237930326009
 31
0.0
  0
LINE
  5
159
  8
DATA
  6
CONTINUOUS
 62
     7
 10
61.902111241415199
 20
210.6301383682827
 30
0.0
 11
61.710769525232649
 21
210.1681986020271
 31
0.0
  0
LINE
  5
15A
  8
DATA
  6
CONTINUOUS
 62
     7
 10
62.476136389962818
 20
212.01595766704961
 30
0.0
 11
62.28479467378029
 21
211.55401790079401
 31
0.0
  0
LINE
  5
15B
  8
DATA
  6
CONTINUOUS
 62
     7
 10
63.050161538510459
 20
213.40177696581659
 30
0.0
 11
62.858819822327931
 21
212.93983719956091
 31
0.0
  0
LINE
  5
15C
  8
DATA
  6
CONTINUOUS
 62
     7
 10
63.624186687058099
 20
214.7875962645835
 30
0.0
 11
63.432844970875571
 21
214.3256564983279
 31
0.0
  0
LINE
  5
15D
  8
DATA
  6
CONTINUOUS
 62
     7
 10
64.198211835605733
 20
216.17341556335049
 30
0.0
 11
64.006870119423198
 21
215.71147579709481
 31
0.0
  0
LINE
  5
15E
  8
DATA
  6
CONTINUOUS
 62
     7
 10
64.772236984153366
 20
217.55923486211739
 30
0.0
 11
64.580895267970831
 21
217.09729509586171
 31
0.0
  0
LINE
  5
15F
  8
DATA
  6
CONTINUOUS
 62
     7
 10
65.169639010070966
 20
218.51864822280211
 30
0.0
 11
65.154920416518465
 21
218.4831143946287
 31
0.0
  0
LINE
  5
160
  8
DATA
  6
CONTINUOUS
 62
     7
 10
71.174855971394351
 20
216.0312059124291
 30
0.0
 11
64.245759477559673
 21
218.90133165516721
 31
0.0
  0
LINE
  5
161
  8
DATA
  6
CONTINUOUS
 62
     7
 10
75.813484445264535
 20
223.3101567902273
 30
0.0
 11
66.112749353896007
 21
227.32833283006079
 31
0.0
  0
LINE
  5
162
  8
DATA
  6
CONTINUOUS
 62
     7
 10
75.813484445264535
 20
223.3101567902273
 30
0.0
 11
71.174855971394351
 21
216.0312059124291
 31
0.0
  0
LINE
  5
163
  8
DATA
  6
CONTINUOUS
 62
     7
 10
66.112749353896007
 20
227.32833283006079
 30
0.0
 11
64.245759477559673
 21
218.90133165516721
 31
0.0
  0
LINE
  5
164
  8
DATA
  6
CONTINUOUS
 62
     7
 10
76.100497019538352
 20
224.0030664396109
 30
0.0
 11
66.399761928169838
 21
228.02124247944431
 31
0.0
  0
LINE
  5
165
  8
DATA
  6
CONTINUOUS
 62
     7
 10
76.100497019538352
 20
224.0030664396109
 30
0.0
 11
78.013914181363788
 21
228.6224641021673
 31
0.0
  0
LINE
  5
166
  8
DATA
  6
CONTINUOUS
 62
     7
 10
78.013914181363788
 20
228.6224641021673
 30
0.0
 11
68.313179089995273
 21
232.64064014200071
 31
0.0
  0
LINE
  5
167
  8
DATA
  6
CONTINUOUS
 62
     7
 10
68.313179089995273
 20
232.64064014200071
 30
0.0
 11
66.399761928169838
 21
228.02124247944431
 31
0.0
  0
LINE
  5
168
  8
DATA
  6
CONTINUOUS
 62
     7
 10
80.118673059371787
 20
233.70380153097929
 30
0.0
 11
70.417937968003258
 21
237.72197757081281
 31
0.0
  0
LINE
  5
169
  8
DATA
  6
CONTINUOUS
 62
     7
 10
80.118673059371787
 20
233.70380153097929
 30
0.0
 11
82.032090221197237
 21
238.3231991935358
 31
0.0
  0
LINE
  5
16A
  8
DATA
  6
CONTINUOUS
 62
     7
 10
82.032090221197237
 20
238.3231991935358
 30
0.0
 11
72.331355129828708
 21
242.34137523336921
 31
0.0
  0
LINE
  5
16B
  8
DATA
  6
CONTINUOUS
 62
     7
 10
72.331355129828708
 20
242.34137523336921
 30
0.0
 11
70.417937968003258
 21
237.72197757081281
 31
0.0
  0
LINE
  5
16C
  8
DATA
  6
CONTINUOUS
 62
     7
 10
77.090034648852495
 20
229.0051475345324
 30
0.0
 11
77.664059797400128
 21
230.3909668332993
 31
0.0
  0
LINE
  5
16D
  8
DATA
  6
CONTINUOUS
 62
     7
 10
77.855401513582663
 20
230.8529065995549
 30
0.0
 11
78.429426662130311
 21
232.2387258983218
 31
0.0
  0
LINE
  5
16E
  8
DATA
  6
CONTINUOUS
 62
     7
 10
78.62076837831286
 20
232.70066566457751
 30
0.0
 11
79.194793526860494
 21
234.08648496334439
 31
0.0
  0
LINE
  5
16F
  8
DATA
  6
CONTINUOUS
 62
     7
 10
69.237058622506524
 20
232.25795670963561
 30
0.0
 11
69.811083771054214
 21
233.64377600840251
 31
0.0
  0
LINE
  5
170
  8
DATA
  6
CONTINUOUS
 62
     7
 10
70.002425487236735
 20
234.10571577465819
 30
0.0
 11
70.576450635784383
 21
235.4915350734251
 31
0.0
  0
LINE
  5
171
  8
DATA
  6
CONTINUOUS
 62
     7
 10
70.767792351966918
 20
235.95347483968081
 30
0.0
 11
71.341817500514551
 21
237.33929413844771
 31
0.0
  0
LINE
  5
172
  8
DATA
  6
CONTINUOUS
 62
     7
 10
78.587939329911421
 20
230.0082834009342
 30
0.0
 11
68.887204238542907
 21
234.02645944076761
 31
0.0
  0
LINE
  5
173
  8
DATA
  6
CONTINUOUS
 62
     7
 10
78.779281046093971
 20
230.4702231671898
 30
0.0
 11
69.078545954725442
 21
234.48839920702329
 31
0.0
  0
LINE
  5
174
  8
DATA
  6
CONTINUOUS
 62
     7
 10
79.35330619464159
 20
231.85604246595679
 30
0.0
 11
69.652571103273104
 21
235.8742185057902
 31
0.0
  0
LINE
  5
175
  8
DATA
  6
CONTINUOUS
 62
     7
 10
79.544647910824139
 20
232.31798223221239
 30
0.0
 11
69.843912819455639
 21
236.33615827204579
 31
0.0
  0
LINE
  5
176
  8
DATA
  6
CONTINUOUS
 62
     7
 10
79.544647910824139
 20
232.31798223221239
 30
0.0
 11
79.35330619464159
 21
231.85604246595679
 31
0.0
  0
LINE
  5
177
  8
DATA
  6
CONTINUOUS
 62
     7
 10
78.779281046093971
 20
230.4702231671898
 30
0.0
 11
78.587939329911421
 21
230.0082834009342
 31
0.0
  0
LINE
  5
178
  8
DATA
  6
CONTINUOUS
 62
     7
 10
69.843912819455639
 20
236.33615827204579
 30
0.0
 11
69.652571103273104
 21
235.8742185057902
 31
0.0
  0
LINE
  5
179
  8
DATA
  6
CONTINUOUS
 62
     7
 10
69.078545954725442
 20
234.48839920702329
 30
0.0
 11
68.887204238542907
 21
234.02645944076761
 31
0.0
  0
LINE
  5
17A
  8
DATA
  6
CONTINUOUS
 62
     7
 10
75.638557253282684
 20
224.19440815579341
 30
0.0
 11
75.351544679008882
 21
223.50149850640989
 31
0.0
  0
LINE
  5
17B
  8
DATA
  6
CONTINUOUS
 62
     7
 10
66.861701694425463
 20
227.82990076326169
 30
0.0
 11
66.574689120151646
 21
227.13699111387831
 31
0.0
  0
LINE
  5
17C
  8
DATA
  6
CONTINUOUS
 62
     7
 10
82.550072678598838
 20
238.920437984828
 30
0.0
 11
72.387397820974684
 21
243.129955740844
 31
0.0
  0
LINE
  5
17D
  8
DATA
  6
CONTINUOUS
 62
     7
 10
84.925429606679955
 20
243.34849393120189
 30
0.0
 11
73.838875216544537
 21
247.9406951195829
 31
0.0
  0
LINE
  5
17E
  8
DATA
  6
CONTINUOUS
 62
     7
 10
84.925429606679955
 20
243.34849393120189
 30
0.0
 11
82.550072678598838
 21
238.920437984828
 31
0.0
  0
LINE
  5
17F
  8
DATA
  6
CONTINUOUS
 62
     7
 10
73.838875216544537
 20
247.9406951195829
 30
0.0
 11
72.387397820974684
 21
243.129955740844
 31
0.0
  0
LINE
  5
180
  8
DATA
  6
CONTINUOUS
 62
     7
 10
85.499454755227589
 20
244.73431322996879
 30
0.0
 11
74.412900365092142
 21
249.32651441834989
 31
0.0
  0
LINE
  5
181
  8
DATA
  6
CONTINUOUS
 62
     7
 10
91.239706240703924
 20
258.59250621763812
 30
0.0
 11
84.925429606679955
 21
243.34849393120189
 31
0.0
  0
LINE
  5
182
  8
DATA
  6
CONTINUOUS
 62
     7
 10
80.153151850568506
 20
263.18470740601919
 30
0.0
 11
73.838875216544537
 21
247.9406951195829
 31
0.0
  0
LINE
  5
183
  8
DATA
  6
CONTINUOUS
 62
     7
 10
90.091655943608686
 20
255.82086762010431
 30
0.0
 11
79.005101553473253
 21
260.41306880848532
 31
0.0
  0
LINE
  5
184
  8
DATA
  6
CONTINUOUS
 62
     7
 10
90.857022808338868
 20
257.66862668512681
 30
0.0
 11
79.770468418203393
 21
262.26082787350788
 31
0.0
  0
LINE
  5
185
  8
DATA
  6
CONTINUOUS
 62
     7
 10
91.239706240703924
 20
258.59250621763812
 30
0.0
 11
80.153151850568506
 21
263.18470740601919
 31
0.0
  0
LINE
  5
186
  8
DATA
  6
CONTINUOUS
 62
     7
 10
91.160449906813355
 20
259.7077274663319
 30
0.0
 11
80.997775049189244
 21
263.9172452223479
 31
0.0
  0
LINE
  5
187
  8
DATA
  6
CONTINUOUS
 62
     7
 10
91.239706240703924
 20
258.59250621763812
 30
0.0
 11
91.160449906813355
 21
259.7077274663319
 31
0.0
  0
LINE
  5
188
  8
DATA
  6
CONTINUOUS
 62
     7
 10
80.997775049189244
 20
263.9172452223479
 30
0.0
 11
80.153151850568506
 21
263.18470740601919
 31
0.0
  0
LINE
  5
189
  8
DATA
  6
CONTINUOUS
 62
     7
 10
92.045852388755634
 20
260.3871206859497
 30
0.0
 11
91.160449906813355
 21
259.7077274663319
 31
0.0
  0
LINE
  5
18A
  8
DATA
  6
CONTINUOUS
 62
     7
 10
93.568635883295954
 20
266.8281656763491
 30
0.0
 11
84.329840558183065
 21
270.65499999999997
 31
0.0
  0
LINE
  5
18B
  8
DATA
  6
CONTINUOUS
 62
     7
 10
93.568635883295954
 20
266.8281656763491
 30
0.0
 11
92.005073105434136
 21
260.44026528266068
 31
0.0
  0
LINE
  5
18C
  8
DATA
  6
CONTINUOUS
 62
     7
 10
92.005073105434136
 20
260.44026528266068
 30
0.0
 11
80.918518715298674
 21
265.03246647104169
 31
0.0
  0
LINE
  5
18D
  8
DATA
  6
CONTINUOUS
 62
     7
 10
84.329840558183065
 20
270.65499999999997
 30
0.0
 11
80.918518715298674
 21
265.03246647104169
 31
0.0
  0
LINE
  5
18E
  8
DATA
  6
CONTINUOUS
 62
     7
 10
80.918518715298674
 20
265.03246647104169
 30
0.0
 11
80.997775049189244
 21
263.9172452223479
 31
0.0
  0
LINE
  5
18F
  8
DATA
  6
CONTINUOUS
 62
     7
 10
81.570150454941583
 20
238.51454090971831
 30
0.0
 11
81.857163029215386
 21
239.20745055910169
 31
0.0
  0
LINE
  5
190
  8
DATA
  6
CONTINUOUS
 62
     7
 10
72.793294896084348
 20
242.1500335171867
 30
0.0
 11
73.08030747035815
 21
242.84294316657011
 31
0.0
  0
LINE
  5
191
  8
DATA
  6
CONTINUOUS
 62
     7
 10
92.03790215383556
 20
263.13264754630399
 30
0.0
 11
88.34238402379043
 21
264.66338127576432
 31
0.0
  0
LINE
  5
192
  8
DATA
  6
CONTINUOUS
 62
     7
 10
86.494624958767815
 20
265.42874814049452
 30
0.0
 11
82.799106828722685
 21
266.95948186995491
 31
0.0
  0
LINE
  5
193
  8
DATA
  6
CONTINUOUS
 62
     7
 10
91.65521872147049
 20
262.20876801379268
 30
0.0
 11
87.959700591425303
 21
263.73950174325307
 31
0.0
  0
LINE
  5
194
  8
DATA
  6
CONTINUOUS
 62
     7
 10
86.111941526402745
 20
264.50486860798321
 30
0.0
 11
82.416423396357587
 21
266.03560233744361
 31
0.0
  0
LINE
  5
195
  8
DATA
  6
CONTINUOUS
 62
     7
 10
88.34238402379043
 20
264.66338127576432
 30
0.0
 11
87.959700591425303
 21
263.73950174325307
 31
0.0
  0
LINE
  5
196
  8
DATA
  6
CONTINUOUS
 62
     7
 10
86.494624958767815
 20
265.42874814049452
 30
0.0
 11
86.111941526402745
 21
264.50486860798321
 31
0.0
  0
LINE
  5
197
  8
DATA
  6
CONTINUOUS
 62
     7
 10
82.799106828722685
 20
266.95948186995491
 30
0.0
 11
82.416423396357587
 21
266.03560233744361
 31
0.0
  0
LINE
  5
198
  8
DATA
  6
CONTINUOUS
 62
     7
 10
92.03790215383556
 20
263.13264754630399
 30
0.0
 11
91.65521872147049
 21
262.20876801379268
 31
0.0
  0
LINE
  5
199
  8
DATA
  6
CONTINUOUS
 62
     7
 10
57.063116615839938
 20
184.5755793013283
 30
0.0
 11
56.87177489965741
 21
184.11363953507259
 31
0.0
  0
LINE
  5
19A
  8
DATA
  6
CONTINUOUS
 62
     7
 10
57.63714176438755
 20
185.96139860009509
 30
0.0
 11
57.445800048205022
 21
185.49945883383961
 31
0.0
  0
LINE
  5
19B
  8
DATA
  6
CONTINUOUS
 62
     7
 10
58.211166912935212
 20
187.34721789886211
 30
0.0
 11
58.019825196752677
 21
186.8852781326064
 31
0.0
  0
LINE
  5
19C
  8
DATA
  6
CONTINUOUS
 62
     7
 10
58.785192061482817
 20
188.7330371976291
 30
0.0
 11
58.593850345300282
 21
188.27109743137339
 31
0.0
  0
LINE
  5
19D
  8
DATA
  6
CONTINUOUS
 62
     7
 10
59.359217210030472
 20
190.11885649639589
 30
0.0
 11
59.16787549384793
 21
189.65691673014041
 31
0.0
  0
LINE
  5
19E
  8
DATA
  6
CONTINUOUS
 62
     7
 10
59.933242358578092
 20
191.5046757951628
 30
0.0
 11
59.741900642395542
 21
191.04273602890731
 31
0.0
  0
LINE
  5
19F
  8
DATA
  6
CONTINUOUS
 62
     7
 10
60.507267507125739
 20
192.89049509392979
 30
0.0
 11
60.315925790943211
 21
192.42855532767419
 31
0.0
  0
LINE
  5
1A0
  8
DATA
  6
CONTINUOUS
 62
     7
 10
61.081292655673352
 20
194.2763143926968
 30
0.0
 11
60.889950939490816
 21
193.81437462644109
 31
0.0
  0
LINE
  5
1A1
  8
DATA
  6
CONTINUOUS
 62
     7
 10
61.655317804221013
 20
195.66213369146371
 30
0.0
 11
61.463976088038471
 21
195.200193925208
 31
0.0
  0
LINE
  5
1A2
  8
DATA
  6
CONTINUOUS
 62
     7
 10
62.22934295276864
 20
197.04795299023061
 30
0.0
 11
62.038001236586112
 21
196.58601322397499
 31
0.0
  0
LINE
  5
1A3
  8
DATA
  6
CONTINUOUS
 62
     7
 10
62.803368101316281
 20
198.4337722889976
 30
0.0
 11
62.612026385133753
 21
197.97183252274189
 31
0.0
  0
LINE
  5
1A4
  8
DATA
  6
CONTINUOUS
 62
     7
 10
63.377393249863943
 20
199.81959158776439
 30
0.0
 11
63.186051533681393
 21
199.3576518215088
 31
0.0
  0
LINE
  5
1A5
  8
DATA
  6
CONTINUOUS
 62
     7
 10
63.951418398411541
 20
201.20541088653141
 30
0.0
 11
63.760076682228998
 21
200.7434711202757
 31
0.0
  0
LINE
  5
1A6
  8
DATA
  6
CONTINUOUS
 62
     7
 10
64.52544354695921
 20
202.5912301852984
 30
0.0
 11
64.334101830776646
 21
202.12929041904269
 31
0.0
  0
LINE
  5
1A7
  8
DATA
  6
CONTINUOUS
 62
     7
 10
65.099468695506815
 20
203.9770494840653
 30
0.0
 11
64.90812697932428
 21
203.51510971780971
 31
0.0
  0
LINE
  5
1A8
  8
DATA
  6
CONTINUOUS
 62
     7
 10
65.673493844054448
 20
205.36286878283221
 30
0.0
 11
65.482152127871927
 21
204.90092901657661
 31
0.0
  0
LINE
  5
1A9
  8
DATA
  6
CONTINUOUS
 62
     7
 10
66.24751899260211
 20
206.7486880815992
 30
0.0
 11
66.056177276419533
 21
206.28674831534349
 31
0.0
  0
LINE
  5
1AA
  8
DATA
  6
CONTINUOUS
 62
     7
 10
66.821544141149744
 20
208.1345073803661
 30
0.0
 11
66.630202424967194
 21
207.67256761411051
 31
0.0
  0
LINE
  5
1AB
  8
DATA
  6
CONTINUOUS
 62
     7
 10
67.395569289697363
 20
209.52032667913301
 30
0.0
 11
67.204227573514814
 21
209.05838691287741
 31
0.0
  0
LINE
  5
1AC
  8
DATA
  6
CONTINUOUS
 62
     7
 10
67.969594438245011
 20
210.9061459779
 30
0.0
 11
67.778252722062447
 21
210.44420621164431
 31
0.0
  0
LINE
  5
1AD
  8
DATA
  6
CONTINUOUS
 62
     7
 10
68.543619586792644
 20
212.2919652766669
 30
0.0
 11
68.352277870610081
 21
211.8300255104113
 31
0.0
  0
LINE
  5
1AE
  8
DATA
  6
CONTINUOUS
 62
     7
 10
69.117644735340264
 20
213.6777845754338
 30
0.0
 11
68.926303019157743
 21
213.21584480917809
 31
0.0
  0
LINE
  5
1AF
  8
DATA
  6
CONTINUOUS
 62
     7
 10
69.691669883887911
 20
215.06360387420071
 30
0.0
 11
69.500328167705334
 21
214.60166410794511
 31
0.0
  0
LINE
  5
1B0
  8
DATA
  6
CONTINUOUS
 62
     7
 10
70.250976438883029
 20
216.41388934479409
 30
0.0
 11
70.07435331625301
 21
215.98748340671199
 31
0.0
  0
CIRCLE
  5
1B1
  8
DATA
  6
CONTINUOUS
 62
     7
 10
0.0000000000000142
 20
420.00000000000011
 30
0.0
 40
9.9999999999999432
  0
CIRCLE
  5
1B2
  8
DATA
  6
CONTINUOUS
 62
     7
 10
0.0000000000000142
 20
420.00000000000011
 30
0.0
 40
12.99999999999994
  0
LINE
  5
1B3
  8
DATA
  6
CONTINUOUS
 62
     7
 10
-37.000000000000043
 20
439.0
 30
0.0
 11
-37.000000000000043
 21
401.0
 31
0.0
  0
ARC
  5
1B4
  8
DATA
  6
CONTINUOUS
 62
     7
 10
-24.337843816631938
 20
436.6540594349687
 30
0.0
 40
12.87764094648808
 50
106.521850489678
 51
169.5037245186885
  0
ARC
  5
1B5
  8
DATA
  6
CONTINUOUS
 62
     7
 10
-24.337843816631938
 20
403.3459405650313
 30
0.0
 40
12.8776409464881
 50
190.4962754813119
 51
253.47814951032211
  0
ARC
  5
1B6
  8
DATA
  6
CONTINUOUS
 62
     7
 10
88.674376484560526
 20
850.77048693586676
 30
0.0
 40
474.34355775672248
 50
255.76082363654371
 51
270.90662181586589
  0
ARC
  5
1B7
  8
DATA
  6
CONTINUOUS
 62
     7
 10
64.093749999999957
 20
420.00000000000011
 30
0.0
 40
27.09375
 50
123.8550261282941
 51
236.1449738717059
  0
ARC
  5
1B8
  8
DATA
  6
CONTINUOUS
 62
     7
 10
120.2901639344262
 20
495.09180327868847
 30
0.0
 40
120.8571369054538
 50
233.85211982117639
 51
258.7195473892171
  0
ARC
  5
1B9
  8
DATA
  6
CONTINUOUS
 62
     7
 10
120.2901639344262
 20
344.90819672131158
 30
0.0
 40
120.8571369054538
 50
101.280452610783
 51
126.1478801788236
  0
ARC
  5
1BA
  8
DATA
  6
CONTINUOUS
 62
     7
 10
89.449999999999889
 20
420.00000000000011
 30
0.0
 40
40.449999999999918
 50
159.75065668920439
 51
200.24934331079569
  0
ARC
  5
1BB
  8
DATA
  6
CONTINUOUS
 62
     7
 10
111.1137136541404
 20
448.1075922462166
 30
0.0
 40
72.985232618739374
 50
215.23511697716251
 51
245.2559168900645
  0
ARC
  5
1BC
  8
DATA
  6
CONTINUOUS
 62
     7
 10
111.1137136541404
 20
391.8924077537834
 30
0.0
 40
72.985232618739374
 50
114.7440831099355
 51
144.76488302283741
  0
ARC
  5
1BD
  8
DATA
  6
CONTINUOUS
 62
     7
 10
62.086760339236797
 20
420.00000000000011
 30
0.0
 40
42.413239660763203
 50
294.24010684926122
 51
342.20787722323269
  0
ARC
  5
1BE
  8
DATA
  6
CONTINUOUS
 62
     7
 10
19.999999999999961
 20
420.00000000000011
 30
0.0
 40
24.999999999999961
 50
126.86989764584401
 51
149.85987571022221
  0
ARC
  5
1BF
  8
DATA
  6
CONTINUOUS
 62
     7
 10
19.999999999999961
 20
420.00000000000011
 30
0.0
 40
24.999999999999972
 50
210.1401242897777
 51
233.13010235415609
  0
ARC
  5
1C0
  8
DATA
  6
CONTINUOUS
 62
     7
 10
100.1249999999999
 20
420.00000000000011
 30
0.0
 40
6.6249999999999689
 50
148.1092081981547
 51
211.8907918018464
  0
ARC
  5
1C1
  8
DATA
  6
CONTINUOUS
 62
     7
 10
110.1596699141101
 20
429.63024756441752
 30
0.0
 40
20.435964937378849
 50
219.97900438246
 51
246.2812003258517
  0
ARC
  5
1C2
  8
DATA
  6
CONTINUOUS
 62
     7
 10
102.7280536428389
 20
412.0
 30
0.0
 40
1.3369368901483609
 50
233.84718228982129
 51
306.15281771014901
  0
ARC
  5
1C3
  8
DATA
  6
CONTINUOUS
 62
     7
 10
110.1596699141101
 20
410.3697524355826
 30
0.0
 40
20.435964937378792
 50
113.7187996741482
 51
140.02099561754019
  0
ARC
  5
1C4
  8
DATA
  6
CONTINUOUS
 62
     7
 10
102.7280536428389
 20
428.0
 30
0.0
 40
1.336936890148392
 50
53.847182289852462
 51
126.1528177101773
  0
ARC
  5
1C5
  8
DATA
  6
CONTINUOUS
 62
     7
 10
100.1249999999999
 20
420.00000000000011
 30
0.0
 40
8.6249999999999414
 50
148.10920819815431
 51
211.89079180184601
  0
ARC
  5
1C6
  8
DATA
  6
CONTINUOUS
 62
     7
 10
110.1596699141101
 20
429.63024756441752
 30
0.0
 40
22.43596493737877
 50
219.25979245577801
 51
247.61241339981439
  0
ARC
  5
1C7
  8
DATA
  6
CONTINUOUS
 62
     7
 10
101.0431775082688
 20
432.50162952944112
 30
0.0
 40
1.500000000000048
 50
292.38758660018487
 51
17.792122776765211
  0
ARC
  5
1C8
  8
DATA
  6
CONTINUOUS
 62
     7
 10
62.086760339236797
 20
420.00000000000011
 30
0.0
 40
42.413239660763203
 50
17.792122776766991
 51
65.759893150738776
  0
ARC
  5
1C9
  8
DATA
  6
CONTINUOUS
 62
     7
 10
110.1596699141101
 20
410.3697524355826
 30
0.0
 40
22.435964937378721
 50
112.3875866001857
 51
140.74020754422219
  0
ARC
  5
1CA
  8
DATA
  6
CONTINUOUS
 62
     7
 10
101.0431775082687
 20
407.49837047055871
 30
0.0
 40
1.5000000000000311
 50
342.2078772232328
 51
67.612413399812283
  0
ARC
  5
1CB
  8
DATA
  6
CONTINUOUS
 62
     7
 10
62.086760339236797
 20
420.00000000000011
 30
0.0
 40
42.413239660763203
 50
347.6388860523108
 51
12.3611139476892
  0
TEXT
  5
1CC
  8
DATA
 62
     7
 10
100.38233333333331
 20
415.76666666666659
 30
0.0
 40
3.7041666666666648
  1
PUSH
 50
90.0
 41
0.7
 11
96.678166666666627
 21
415.76666666666659
 31
0.0
 73
     3
  0
ARC
  5
1CD
  8
DATA
  6
CONTINUOUS
 62
     7
 10
96.156121200650503
 20
462.01387575820468
 30
0.0
 40
1.499999999998755
 50
31.486711039557981
 51
89.093378184161125
  0
ARC
  5
1CE
  8
DATA
  6
CONTINUOUS
 62
     7
 10
88.674376484560526
 20
-10.77048693586687
 30
0.0
 40
474.34355775672242
 50
89.093378184134025
 51
104.23917636345629
  0
ARC
  5
1CF
  8
DATA
  6
CONTINUOUS
 62
     7
 10
96.156121200649821
 20
377.98612424179657
 30
0.0
 40
1.4999999999999361
 50
270.9066218158643
 51
328.51328896041372
  0
ARC
  5
1D0
  8
DATA
  6
CONTINUOUS
 62
     7
 10
27.55999999999997
 20
420.00000000000011
 30
0.0
 40
81.940000000000026
 50
328.513288960414
 51
31.486711039586108
  0
ARC
  5
1D1
  8
DATA
  6
CONTINUOUS
 62
     7
 10
78.026576877419686
 20
533.39551633828376
 30
0.0
 40
152.07644363803041
 50
241.30176308549829
 51
270.55513033560862
  0
ARC
  5
1D2
  8
DATA
  6
CONTINUOUS
 62
     7
 10
78.026576877419686
 20
306.60448366171619
 30
0.0
 40
152.07644363803041
 50
89.444869664391362
 51
118.69823691450171
  0
LINE
  5
1D3
  8
DATA
  6
CONTINUOUS
 62
     7
 10
-29.000000000000011
 20
-1.0
 30
0.0
 11
-23.000000000000011
 21
-1.0
 31
0.0
  0
LINE
  5
1D4
  8
DATA
  6
CONTINUOUS
 62
     7
 10
-29.000000000000011
 20
-1.0
 30
0.0
 11
-29.000000000000011
 21
0.0
 31
0.0
  0
LINE
  5
1D5
  8
DATA
  6
CONTINUOUS
 62
     7
 10
-23.000000000000011
 20
-1.0
 30
0.0
 11
-23.000000000000011
 21
0.0
 31
0.0
  0
LINE
  5
1D6
  8
DATA
  6
CONTINUOUS
 62
     7
 10
106.5
 20
-1.0
 30
0.0
 11
101.5
 21
-1.0
 31
0.0
  0
LINE
  5
1D7
  8
DATA
  6
CONTINUOUS
 62
     7
 10
106.5
 20
-1.0
 30
0.0
 11
106.5
 21
0.0
 31
0.0
  0
LINE
  5
1D8
  8
DATA
  6
CONTINUOUS
 62
     7
 10
101.5
 20
-1.0
 30
0.0
 11
101.5
 21
0.0
 31
0.0
  0
LINE
  5
1D9
  8
DATA
  6
CONTINUOUS
 62
     7
 10
100.9995478614362
 20
413.10099924994131
 30
0.0
 11
100.9995478614362
 21
416.60099924994142
 31
0.0
  0
LINE
  5
1DA
  8
DATA
  6
CONTINUOUS
 62
     7
 10
100.9995478614362
 20
413.10099924994131
 30
0.0
 11
102.9995478614362
 21
413.10099924994131
 31
0.0
  0
LINE
  5
1DB
  8
DATA
  6
CONTINUOUS
 62
     7
 10
102.9995478614362
 20
413.10099924994131
 30
0.0
 11
102.9995478614362
 21
416.60099924994142
 31
0.0
  0
LINE
  5
1DC
  8
DATA
  6
CONTINUOUS
 62
     7
 10
100.9995478614362
 20
416.60099924994142
 30
0.0
 11
102.9995478614362
 21
416.60099924994142
 31
0.0
  0
LINE
  5
1DD
  8
DATA
  6
CONTINUOUS
 62
     7
 10
101.4995478614362
 20
416.60099924994142
 30
0.0
 11
101.4995478614362
 21
417.60099924994142
 31
0.0
  0
LINE
  5
1DE
  8
DATA
  6
CONTINUOUS
 62
     7
 10
101.4995478614362
 20
417.60099924994142
 30
0.0
 11
102.4995478614362
 21
417.60099924994142
 31
0.0
  0
LINE
  5
1DF
  8
DATA
  6
CONTINUOUS
 62
     7
 10
102.4995478614362
 20
417.60099924994142
 30
0.0
 11
102.4995478614362
 21
416.60099924994142
 31
0.0
  0
LINE
  5
1E0
  8
DATA
  6
CONTINUOUS
 62
     7
 10
101.4995478614362
 20
416.10099924994142
 30
0.0
 11
102.4995478614362
 21
416.10099924994142
 31
0.0
  0
LINE
  5
1E1
  8
DATA
  6
CONTINUOUS
 62
     7
 10
102.4995478614362
 20
416.10099924994142
 30
0.0
 11
102.4995478614362
 21
413.60099924994142
 31
0.0
  0
LINE
  5
1E2
  8
DATA
  6
CONTINUOUS
 62
     7
 10
102.4995478614362
 20
413.60099924994142
 30
0.0
 11
101.4995478614362
 21
413.60099924994142
 31
0.0
  0
LINE
  5
1E3
  8
DATA
  6
CONTINUOUS
 62
     7
 10
101.4995478614362
 20
413.60099924994142
 30
0.0
 11
101.4995478614362
 21
416.10099924994142
 31
0.0
  0
ENDSEC
  0
EOF
