  0
SECTION
  2
HEADER
  9
$ACADVER
  1
AC1009
  9
$INSBASE
 10
0.0
 20
0.0
 30
0.0
  9
$EXTMIN
 10
-169.9575802312479
 20
-272.80998304879267
 30
-0.0015258207003583
  9
$EXTMAX
 10
370.07537875316478
 20
530.08023018332108
 30
0.0000000349246037
  9
$LIMMIN
 10
0.0
 20
0.0
  9
$LIMMAX
 10
0.0
 20
0.0
  9
$ORTHOMODE
 70
     0
  9
$REGENMODE
 70
     1
  9
$FILLMODE
 70
     1
  9
$QTEXTMODE
 70
     0
  9
$MIRRTEXT
 70
     1
  9
$DRAGMODE
 70
     2
  9
$LTSCALE
 40
15.24
  9
$OSMODE
 70
   231
  9
$ATTMODE
 70
     1
  9
$TEXTSIZE
 40
0.0
  9
$TRACEWID
 40
1.0
  9
$TEXTSTYLE
  7
STANDARD
  9
$CLAYER
  8
DATA
  9
$CELTYPE
  6
CONTINUOUS
  9
$CECOLOR
 62
   256
  9
$DIMSCALE
 40
1.0
  9
$DIMASZ
 40
0.18
  9
$DIMEXO
 40
0.0625
  9
$DIMDLI
 40
0.38
  9
$DIMRND
 40
0.0
  9
$DIMDLE
 40
0.0
  9
$DIMEXE
 40
0.18
  9
$DIMTP
 40
0.0
  9
$DIMTM
 40
0.0
  9
$DIMTXT
 40
0.18
  9
$DIMCEN
 40
0.09
  9
$DIMTSZ
 40
0.0
  9
$DIMTOL
 70
     0
  9
$DIMLIM
 70
     0
  9
$DIMTIH
 70
     1
  9
$DIMTOH
 70
     1
  9
$DIMSE1
 70
     0
  9
$DIMSE2
 70
     0
  9
$DIMTAD
 70
     0
  9
$DIMZIN
 70
     0
  9
$DIMBLK
  1

  9
$DIMASO
 70
     1
  9
$DIMSHO
 70
     1
  9
$DIMPOST
  1

  9
$DIMAPOST
  1

  9
$DIMALT
 70
     0
  9
$DIMALTD
 70
     2
  9
$DIMALTF
 40
25.399999999999999
  9
$DIMLFAC
 40
1.0
  9
$DIMTOFL
 70
     0
  9
$DIMTVP
 40
0.0
  9
$DIMTIX
 70
     0
  9
$DIMSOXD
 70
     0
  9
$DIMSAH
 70
     0
  9
$DIMBLK1
  1

  9
$DIMBLK2
  1

  9
$DIMSTYLE
  2
STANDARD
  9
$DIMCLRD
 70
     0
  9
$DIMCLRE
 70
     0
  9
$DIMCLRT
 70
     0
  9
$DIMTFAC
 40
1.0
  9
$DIMGAP
 40
0.09
  9
$LUNITS
 70
     2
  9
$LUPREC
 70
     4
  9
$SKETCHINC
 40
0.1
  9
$FILLETRAD
 40
0.0
  9
$AUNITS
 70
     0
  9
$AUPREC
 70
     0
  9
$MENU
  1
acad
  9
$ELEVATION
 40
0.0
  9
$PELEVATION
 40
0.0
  9
$THICKNESS
 40
0.0
  9
$LIMCHECK
 70
     0
  9
$BLIPMODE
 70
     0
  9
$CHAMFERA
 40
0.0
  9
$CHAMFERB
 40
0.0
  9
$SKPOLY
 70
     0
  9
$TDCREATE
 40
2453875.7669097218
  9
$TDUPDATE
 40
2453875.76855125
  9
$TDINDWG
 40
0.0003340162
  9
$TDUSRTIMER
 40
0.0003338426
  9
$USRTIMER
 70
     1
  9
$ANGBASE
 50
0.0
  9
$ANGDIR
 70
     0
  9
$PDMODE
 70
     1
  9
$PDSIZE
 40
-2.0
  9
$PLINEWID
 40
0.0
  9
$COORDS
 70
     1
  9
$SPLFRAME
 70
     0
  9
$SPLINETYPE
 70
     6
  9
$SPLINESEGS
 70
     8
  9
$ATTDIA
 70
     0
  9
$ATTREQ
 70
     1
  9
$HANDLING
 70
     1
  9
$HANDSEED
  5
1E1
  9
$SURFTAB1
 70
     6
  9
$SURFTAB2
 70
     6
  9
$SURFTYPE
 70
     6
  9
$SURFU
 70
     6
  9
$SURFV
 70
     6
  9
$UCSNAME
  2

  9
$UCSORG
 10
0.0
 20
0.0
 30
0.0
  9
$UCSXDIR
 10
1.0
 20
0.0
 30
0.0
  9
$UCSYDIR
 10
0.0
 20
1.0
 30
0.0
  9
$PUCSNAME
  2

  9
$PUCSORG
 10
0.0
 20
0.0
 30
0.0
  9
$PUCSXDIR
 10
1.0
 20
0.0
 30
0.0
  9
$PUCSYDIR
 10
0.0
 20
1.0
 30
0.0
  9
$USERI1
 70
     0
  9
$USERI2
 70
     0
  9
$USERI3
 70
     0
  9
$USERI4
 70
     0
  9
$USERI5
 70
     0
  9
$USERR1
 40
0.0
  9
$USERR2
 40
0.0
  9
$USERR3
 40
0.0
  9
$USERR4
 40
0.0
  9
$USERR5
 40
0.0
  9
$WORLDVIEW
 70
     1
  9
$SHADEDGE
 70
     3
  9
$SHADEDIF
 70
    70
  9
$TILEMODE
 70
     1
  9
$MAXACTVP
 70
    64
  9
$PLIMCHECK
 70
     0
  9
$PEXTMIN
 10
1.0000000000000000E+020
 20
1.0000000000000000E+020
 30
1.0000000000000000E+020
  9
$PEXTMAX
 10
-1.0000000000000000E+020
 20
-1.0000000000000000E+020
 30
-1.0000000000000000E+020
  9
$PLIMMIN
 10
0.0
 20
0.0
  9
$PLIMMAX
 10
12.0
 20
9.0
  9
$UNITMODE
 70
     0
  9
$VISRETAIN
 70
     0
  9
$PLINEGEN
 70
     1
  9
$PSLTSCALE
 70
     0
  0
ENDSEC
  0
SECTION
  2
TABLES
  0
TABLE
  2
VPORT
 70
     1
  0
VPORT
  2
*ACTIVE
 70
     0
 10
0.0
 20
0.0
 11
1.0
 21
1.0
 12
100.0588992609584
 22
128.6351235672642
 13
0.0
 23
0.0
 14
1.0
 24
1.0
 15
0.0
 25
0.0
 16
0.0
 26
0.0
 36
1.0
 17
0.0
 27
0.0
 37
0.0
 40
809.55320255354206
 41
1.6703601108033239
 42
50.0
 43
0.0
 44
0.0
 50
0.0
 51
0.0
 71
     0
 72
  2000
 73
     1
 74
     1
 75
     0
 76
     0
 77
     0
 78
     0
  0
ENDTAB
  0
TABLE
  2
LTYPE
 70
    11
  0
LTYPE
  2
CONTINUOUS
 70
     0
  3
Solid line
 72
    65
 73
     0
 40
0.0
  0
ENDTAB
  0
TABLE
  2
LAYER
 70
     6
  0
LAYER
  2
0
 70
     0
 62
     7
  6
CONTINUOUS
  0
LAYER
  2
DATA
 70
     0
 62
     7
  6
CONTINUOUS
  0
LAYER
  2
HIBINO-BASE
 70
     0
 62
     7
  6
CONTINUOUS
  0
LAYER
  2
PATTERN_FILL
 70
     0
 62
     7
  6
CONTINUOUS
  0
LAYER
  2
SPEC
 70
     0
 62
     7
  6
CONTINUOUS
  0
LAYER
  2
DIMNSIONS
 70
     0
 62
     7
  6
CONTINUOUS
  0
ENDTAB
  0
TABLE
  2
STYLE
 70
     2
  0
STYLE
  2
STANDARD
 70
     0
 40
0.0
 41
1.0
 50
0.0
 71
     0
 42
0.0
  3
txt
  4
BIGFONT.SHX
  0
ENDTAB
  0
TABLE
  2
VIEW
 70
     0
  0
ENDTAB
  0
TABLE
  2
UCS
 70
     0
  0
ENDTAB
  0
TABLE
  2
APPID
 70
     1
  0
APPID
  2
ACAD
 70
     0
  0
ENDTAB
  0
TABLE
  2
DIMSTYLE
 70
     1
  0
DIMSTYLE
  2
STANDARD
 70
     0
  3

  4

  5

  6

  7

 40
1.0
 41
0.18
 42
0.0625
 43
0.38
 44
0.18
 45
0.0
 46
0.0
 47
0.0
 48
0.0
140
0.18
141
0.09
142
0.0
143
25.399999999999999
144
1.0
145
0.0
146
1.0
147
0.09
 71
     0
 72
     0
 73
     1
 74
     1
 75
     0
 76
     0
 77
     0
 78
     0
170
     0
171
     2
172
     0
173
     0
174
     0
175
     0
176
     0
177
     0
178
     0
  0
ENDTAB
  0
ENDSEC
  0
SECTION
  2
BLOCKS
  0
BLOCK
  8
0
  2
$MODEL_SPACE
 70
     0
 10
0.0
 20
0.0
 30
0.0
  3
$MODEL_SPACE
  1

  0
ENDBLK
  5
1A7
  8
0
  0
BLOCK
 67
     1
  8
0
  2
$PAPER_SPACE
 70
     0
 10
0.0
 20
0.0
 30
0.0
  3
$PAPER_SPACE
  1

  0
ENDBLK
  5
1A3
 67
     1
  8
0
  0
ENDSEC
  0
SECTION
  2
ENTITIES
  0
LINE
  5
2D
  8
HIBINO-BASE
  6
CONTINUOUS
 62
     7
 10
-169.94110199632681
 20
530.05577791168548
 30
0.0
 11
370.05889800367271
 21
530.05577791168548
 31
0.0
  0
LINE
  5
2E
  8
HIBINO-BASE
  6
CONTINUOUS
 62
     7
 10
370.05889800367271
 20
-249.9442420883166
 30
0.0
 11
-169.94110199632681
 21
-249.9442420883166
 31
0.0
  0
LINE
  5
2F
  8
HIBINO-BASE
  6
CONTINUOUS
 62
     7
 10
-169.94110199632681
 20
-249.9442420883166
 30
0.0
 11
-169.94110199632681
 21
530.05577791168548
 31
0.0
  0
TEXT
  5
30
  8
HIBINO-BASE
 62
     7
 10
-148.3890919963271
 20
-269.17027548831692
 30
0.0
 40
10.800132539062499
  1
Hibino Corporation
 41
0.8
 11
-148.3890919963271
 21
-258.37014294925439
 31
0.0
 73
     3
  0
LINE
  5
31
  8
HIBINO-BASE
  6
CONTINUOUS
 62
     7
 10
370.05889800367271
 20
530.05577791168548
 30
0.0
 11
370.05889800367271
 21
-249.9442420883166
 31
0.0
  0
LINE
  5
32
  8
HIBINO-BASE
  6
CONTINUOUS
 62
     7
 10
100.05889800367341
 20
-182.4442520883143
 30
0.0
 11
370.05889800367271
 21
-182.4442520883143
 31
0.0
  0
LINE
  5
33
  8
HIBINO-BASE
  6
CONTINUOUS
 62
     7
 10
100.05889800367341
 20
-249.9442420883166
 30
0.0
 11
100.05889800367341
 21
-182.4442520883143
 31
0.0
  0
TEXT
  5
34
  8
HIBINO-BASE
 62
     7
 10
102.75889800367349
 20
-190.54424308831449
 30
0.0
 40
5.4000701171875001
  1
NOTE
 41
0.8
 11
102.75889800367349
 21
-185.14417297112701
 31
0.0
 73
     3
  0
LINE
  5
35
  8
HIBINO-BASE
  6
CONTINUOUS
 62
     7
 10
205.0588880036737
 20
-249.9442420883166
 30
0.0
 11
205.0588880036737
 21
-182.4442520883143
 31
0.0
  0
TEXT
  5
36
  8
HIBINO-BASE
 62
     7
 10
207.75888800367369
 20
-190.54424308831449
 30
0.0
 40
5.4000701171875001
  1
TITLE
 41
0.8
 11
207.75888800367369
 21
-185.14417297112701
 31
0.0
 73
     3
  0
TEXT
  5
37
  8
HIBINO-BASE
 62
     7
 10
250.26405800367249
 20
-269.17027548831692
 30
0.0
 40
10.800132539062499
  1
ヒビノ株式会社
 41
0.8
 11
250.26405800367249
 21
-258.37014294925439
 31
0.0
 73
     3
  0
LINE
  5
38
  8
HIBINO-BASE
  6
CONTINUOUS
 62
     7
 10
100.05889800367341
 20
-219.9442420883156
 30
0.0
 11
370.05889800367271
 21
-219.9442420883156
 31
0.0
  0
TEXT
  5
39
  8
HIBINO-BASE
 62
     7
 10
245.2588880036725
 20
-227.8752930883158
 30
0.0
 40
5.4000701171875001
  1
DRAWN
 41
0.8
 11
245.2588880036725
 21
-222.4752229711282
 31
0.0
 73
     3
  0
TEXT
  5
3A
  8
HIBINO-BASE
 62
     7
 10
170.25888800367369
 20
-227.8752930883158
 30
0.0
 40
5.4000701171875001
  1
DATE
 41
0.8
 11
170.25888800367369
 21
-222.4752229711282
 31
0.0
 73
     3
  0
TEXT
  5
3B
  8
HIBINO-BASE
 62
     7
 10
103.3588980036734
 20
-227.8026120883157
 30
0.0
 40
4.8865234375000002
  1
図面サイズ
 41
0.8
 11
103.3588980036734
 21
-222.91608865081571
 31
0.0
 73
     3
  0
TEXT
  5
3C
  8
HIBINO-BASE
 62
     7
 10
140.25888800367369
 20
-227.8752930883158
 30
0.0
 40
5.4000701171875001
  1
SCALE
 41
0.8
 11
140.25888800367369
 21
-222.4752229711282
 31
0.0
 73
     3
  0
TEXT
  5
3D
  8
HIBINO-BASE
 62
     7
 10
207.75888800367369
 20
-227.8752930883158
 30
0.0
 40
5.4000701171875001
  1
DESIGN
 41
0.8
 11
207.75888800367369
 21
-222.4752229711282
 31
0.0
 73
     3
  0
TEXT
  5
3E
  8
HIBINO-BASE
 62
     7
 10
320.25889800367241
 20
-227.8752930883158
 30
0.0
 40
5.4000701171875001
  1
DRAWING NO.
 41
0.8
 11
320.25889800367241
 21
-222.4752229711282
 31
0.0
 73
     3
  0
TEXT
  5
3F
  8
HIBINO-BASE
 62
     7
 10
282.75889800367241
 20
-227.8752930883158
 30
0.0
 40
5.4000701171875001
  1
CHECK
 41
0.8
 11
282.75889800367241
 21
-222.4752229711282
 31
0.0
 73
     3
  0
LINE
  5
40
  8
HIBINO-BASE
  6
CONTINUOUS
 62
     7
 10
143.1838880036737
 20
-246.19424208831651
 30
0.0
 11
154.4338880036737
 21
-234.94424208831609
 31
0.0
  0
TEXT
  5
41
  8
HIBINO-BASE
 62
     7
 10
141.3088880036737
 20
-240.09139108831599
 30
0.0
 40
6.5153517578124989
  1
1
 41
0.8
 11
141.3088880036737
 21
-233.57603933050351
 31
0.0
 73
     3
  0
LINE
  5
42
  8
HIBINO-BASE
  6
CONTINUOUS
 62
     7
 10
137.5588980036737
 20
-249.9442420883166
 30
0.0
 11
137.5588980036737
 21
-219.9442420883156
 31
0.0
  0
LINE
  5
43
  8
HIBINO-BASE
  6
CONTINUOUS
 62
     7
 10
167.5588980036737
 20
-249.9442420883166
 30
0.0
 11
167.5588980036737
 21
-219.9442420883156
 31
0.0
  0
LINE
  5
44
  8
HIBINO-BASE
  6
CONTINUOUS
 62
     7
 10
242.55889800367251
 20
-219.9442420883156
 30
0.0
 11
242.55889800367251
 21
-249.9442420883166
 31
0.0
  0
LINE
  5
45
  8
HIBINO-BASE
  6
CONTINUOUS
 62
     7
 10
317.55888800367239
 20
-219.9442420883156
 30
0.0
 11
317.55888800367239
 21
-249.9442420883166
 31
0.0
  0
LINE
  5
46
  8
HIBINO-BASE
  6
CONTINUOUS
 62
     7
 10
280.05888800367239
 20
-249.9442420883166
 30
0.0
 11
280.05888800367239
 21
-219.9442420883156
 31
0.0
  0
TEXT
  5
47
  8
HIBINO-BASE
 62
     7
 10
111.7915580036734
 20
-242.448883488316
 30
0.0
 40
9.7730391796875011
  1
A4
 41
0.8
 11
111.7915580036734
 21
-232.67584430862851
 31
0.0
 73
     3
  0
TEXT
  5
48
  8
HIBINO-BASE
 62
     7
 10
169.2161660070571
 20
-241.927223088316
 30
0.0
 40
5.4000701171875001
  1
'06.03.
 41
0.8
 11
169.2161660070571
 21
-236.52715297112849
 31
0.0
 73
     3
  0
TEXT
  5
49
  8
HIBINO-BASE
 62
     7
 10
152.5588880036737
 20
-245.7163910883161
 30
0.0
 40
6.5153517578124989
  1
3
 41
0.8
 11
152.5588880036737
 21
-239.20103933050359
 31
0.0
 73
     3
  0
TEXT
  5
4A
  8
HIBINO-BASE
 62
     7
 10
247.0763280367764
 20
-241.35330208831601
 30
0.0
 40
4.8865234374999993
  1
N.Sasaki
 41
0.8
 11
247.0763280367764
 21
-236.466778650816
 31
0.0
 73
     3
  0
ARC
  5
4B
  8
PATTERN_FILL
  6
CONTINUOUS
 62
     7
 10
74.97499999999998
 20
175.02247559428901
 30
0.0
 40
30.000000000000171
 50
61.77645908582965
 51
118.2235409141702
  0
ARC
  5
4C
  8
PATTERN_FILL
  6
CONTINUOUS
 62
     7
 10
74.97499999999998
 20
172.52247559428901
 30
0.0
 40
30.000000000000249
 50
74.675079225890556
 51
105.3249207741093
  0
ARC
  5
4D
  8
PATTERN_FILL
  6
CONTINUOUS
 62
     7
 10
74.97499999999998
 20
225.41981734688579
 30
0.0
 40
30.000000000000231
 50
248.77018598361681
 51
291.22981401638287
  0
ARC
  5
4E
  8
PATTERN_FILL
  6
CONTINUOUS
 62
     7
 10
74.97499999999998
 20
225.41981734688579
 30
0.0
 40
30.000000000000171
 50
300.06371661964693
 51
300.06371747342058
  0
ARC
  5
4F
  8
PATTERN_FILL
  6
CONTINUOUS
 62
     7
 10
74.97499999999998
 20
222.91981734688579
 30
0.0
 40
30.000000000000171
 50
238.0816247590856
 51
301.91837524091449
  0
LINE
  5
50
  8
PATTERN_FILL
  6
CONTINUOUS
 62
     7
 10
73.81464258861979
 20
201.45575226697881
 30
0.0
 11
72.964728419699739
 21
227.37813441903981
 31
0.0
  0
LINE
  5
51
  8
PATTERN_FILL
  6
CONTINUOUS
 62
     7
 10
71.31464258861979
 20
201.45575226697881
 30
0.0
 11
70.47501276177033
 21
227.06446198588711
 31
0.0
  0
LINE
  5
52
  8
PATTERN_FILL
  6
CONTINUOUS
 62
     7
 10
68.81464258861979
 20
201.45575226697881
 30
0.0
 11
67.993402564983455
 21
226.50357298788651
 31
0.0
  0
LINE
  5
53
  8
PATTERN_FILL
  6
CONTINUOUS
 62
     7
 10
66.31464258861979
 20
201.45575226697881
 30
0.0
 11
65.520371557602431
 21
225.68101871300871
 31
0.0
  0
LINE
  5
54
  8
PATTERN_FILL
  6
CONTINUOUS
 62
     7
 10
63.814642588619783
 20
201.45575226697881
 30
0.0
 11
63.056728681020019
 21
224.572126448772
 31
0.0
  0
LINE
  5
55
  8
PATTERN_FILL
  6
CONTINUOUS
 62
     7
 10
61.314642588619783
 20
201.45575226697881
 30
0.0
 11
60.603775696819973
 21
223.1371924668739
 31
0.0
  0
LINE
  5
56
  8
PATTERN_FILL
  6
CONTINUOUS
 62
     7
 10
58.814642588619783
 20
201.45575226697881
 30
0.0
 11
58.163630446661521
 21
221.3116225967064
 31
0.0
  0
LINE
  5
57
  8
PATTERN_FILL
  6
CONTINUOUS
 62
     7
 10
78.635357411380198
 20
201.45575226697881
 30
0.0
 11
79.474987238229659
 21
227.06446198588759
 31
0.0
  0
LINE
  5
58
  8
PATTERN_FILL
  6
CONTINUOUS
 62
     7
 10
81.135357411380198
 20
201.45575226697881
 30
0.0
 11
81.956597435016448
 21
226.50357298788521
 31
0.0
  0
LINE
  5
59
  8
PATTERN_FILL
  6
CONTINUOUS
 62
     7
 10
83.635357411380198
 20
201.45575226697881
 30
0.0
 11
84.429628442397487
 21
225.68101871300709
 31
0.0
  0
LINE
  5
5A
  8
PATTERN_FILL
  6
CONTINUOUS
 62
     7
 10
86.135357411380198
 20
201.45575226697881
 30
0.0
 11
86.893271318979956
 21
224.5721264487714
 31
0.0
  0
LINE
  5
5B
  8
PATTERN_FILL
  6
CONTINUOUS
 62
     7
 10
88.635357411380198
 20
201.45575226697881
 30
0.0
 11
89.346224303180293
 21
223.1371924668822
 31
0.0
  0
LINE
  5
5C
  8
PATTERN_FILL
  6
CONTINUOUS
 62
     7
 10
91.135357411380198
 20
201.45575226697881
 30
0.0
 11
91.786369553338588
 21
221.31162259671061
 31
0.0
  0
LINE
  5
5D
  8
PATTERN_FILL
  6
CONTINUOUS
 62
     7
 10
76.135357411380184
 20
201.45575226697881
 30
0.0
 11
76.985271580300193
 21
227.37813441903859
 31
0.0
  0
LINE
  5
5E
  8
PATTERN_FILL
  6
CONTINUOUS
 62
     7
 10
73.787164089121461
 20
197.45575226697881
 30
0.0
 11
73.056703769698899
 21
181.7557522669787
 31
0.0
  0
LINE
  5
5F
  8
PATTERN_FILL
  6
CONTINUOUS
 62
     7
 10
71.287164089121461
 20
197.45575226697881
 30
0.0
 11
70.556703769698942
 21
181.7557522669787
 31
0.0
  0
LINE
  5
60
  8
PATTERN_FILL
  6
CONTINUOUS
 62
     7
 10
68.787164089121461
 20
197.45575226697881
 30
0.0
 11
68.056703769698913
 21
181.7557522669787
 31
0.0
  0
LINE
  5
61
  8
PATTERN_FILL
  6
CONTINUOUS
 62
     7
 10
66.287164089121461
 20
197.45575226697881
 30
0.0
 11
65.556703769698913
 21
181.7557522669787
 31
0.0
  0
LINE
  5
62
  8
PATTERN_FILL
  6
CONTINUOUS
 62
     7
 10
63.787164089121468
 20
197.45575226697881
 30
0.0
 11
63.05670376969892
 21
181.7557522669787
 31
0.0
  0
LINE
  5
63
  8
PATTERN_FILL
  6
CONTINUOUS
 62
     7
 10
61.287164089121468
 20
197.45575226697881
 30
0.0
 11
60.556703769698927
 21
181.7557522669787
 31
0.0
  0
LINE
  5
64
  8
PATTERN_FILL
  6
CONTINUOUS
 62
     7
 10
58.787164089121468
 20
197.45575226697881
 30
0.0
 11
58.056703769698927
 21
181.7557522669787
 31
0.0
  0
LINE
  5
65
  8
PATTERN_FILL
  6
CONTINUOUS
 62
     7
 10
76.162835910878528
 20
197.45575226697881
 30
0.0
 11
76.893296230301061
 21
181.7557522669787
 31
0.0
  0
LINE
  5
66
  8
PATTERN_FILL
  6
CONTINUOUS
 62
     7
 10
78.662835910878542
 20
197.45575226697881
 30
0.0
 11
79.393296230301061
 21
181.7557522669787
 31
0.0
  0
LINE
  5
67
  8
PATTERN_FILL
  6
CONTINUOUS
 62
     7
 10
81.162835910878556
 20
197.45575226697881
 30
0.0
 11
81.893296230301061
 21
181.7557522669787
 31
0.0
  0
LINE
  5
68
  8
PATTERN_FILL
  6
CONTINUOUS
 62
     7
 10
83.662835910878556
 20
197.45575226697881
 30
0.0
 11
84.393296230301061
 21
181.7557522669787
 31
0.0
  0
LINE
  5
69
  8
PATTERN_FILL
  6
CONTINUOUS
 62
     7
 10
86.162835910878528
 20
197.45575226697881
 30
0.0
 11
86.893296230301061
 21
181.7557522669787
 31
0.0
  0
LINE
  5
6A
  8
PATTERN_FILL
  6
CONTINUOUS
 62
     7
 10
88.662835910878528
 20
197.45575226697881
 30
0.0
 11
89.393296230301061
 21
181.7557522669787
 31
0.0
  0
LINE
  5
6B
  8
PATTERN_FILL
  6
CONTINUOUS
 62
     7
 10
91.162835910878528
 20
197.45575226697881
 30
0.0
 11
91.893296230301061
 21
181.7557522669787
 31
0.0
  0
ARC
  5
6C
  8
PATTERN_FILL
  6
CONTINUOUS
 62
     7
 10
74.97499999999998
 20
195.02247559428909
 30
0.0
 40
30.00000000000011
 50
43.087807767780951
 51
136.91219223221901
  0
ARC
  5
6D
  8
PATTERN_FILL
  6
CONTINUOUS
 62
     7
 10
74.97499999999998
 20
192.5224755942892
 30
0.0
 40
30.000000000000071
 50
34.193109838661627
 51
145.8068901613382
  0
ARC
  5
6E
  8
PATTERN_FILL
  6
CONTINUOUS
 62
     7
 10
74.97499999999998
 20
190.02247559428909
 30
0.0
 40
30.00000000000006
 50
30.830044784553451
 51
149.16995521544649
  0
ARC
  5
6F
  8
PATTERN_FILL
  6
CONTINUOUS
 62
     7
 10
74.97499999999998
 20
187.52247559428909
 30
0.0
 40
30.00000000000005
 50
29.72800557678169
 51
150.2719944232181
  0
ARC
  5
70
  8
PATTERN_FILL
  6
CONTINUOUS
 62
     7
 10
74.97499999999998
 20
185.02247559428909
 30
0.0
 40
30.00000000000005
 50
33.214563066937799
 51
146.7854369330621
  0
ARC
  5
71
  8
PATTERN_FILL
  6
CONTINUOUS
 62
     7
 10
74.97499999999998
 20
182.52247559428909
 30
0.0
 40
30.000000000000071
 50
39.13200644821282
 51
140.8679935517869
  0
ARC
  5
72
  8
PATTERN_FILL
  6
CONTINUOUS
 62
     7
 10
74.97499999999998
 20
180.02247559428901
 30
0.0
 40
30.000000000000121
 50
45.597533194973821
 51
134.40246680502611
  0
ARC
  5
73
  8
PATTERN_FILL
  6
CONTINUOUS
 62
     7
 10
74.97499999999998
 20
177.52247559428901
 30
0.0
 40
30.000000000000139
 50
52.91823720563783
 51
127.08176279436201
  0
LINE
  5
74
  8
PATTERN_FILL
  6
CONTINUOUS
 62
     7
 10
93.635357411380198
 20
201.45575226697881
 30
0.0
 11
94.210039200134432
 21
218.983546823984
 31
0.0
  0
LINE
  5
75
  8
PATTERN_FILL
  6
CONTINUOUS
 62
     7
 10
96.135357411380198
 20
201.45575226697881
 30
0.0
 11
96.610001136677212
 21
215.93238588853831
 31
0.0
  0
LINE
  5
76
  8
PATTERN_FILL
  6
CONTINUOUS
 62
     7
 10
98.635357411380198
 20
201.45575226697881
 30
0.0
 11
98.967504575353857
 21
211.5862407681756
 31
0.0
  0
LINE
  5
77
  8
PATTERN_FILL
  6
CONTINUOUS
 62
     7
 10
96.162835910878528
 20
197.45575226697881
 30
0.0
 11
96.864242288021558
 21
182.38021725386341
 31
0.0
  0
LINE
  5
78
  8
PATTERN_FILL
  6
CONTINUOUS
 62
     7
 10
98.662835910878528
 20
197.45575226697881
 30
0.0
 11
99.047571592979494
 21
189.18651429692639
 31
0.0
  0
ARC
  5
79
  8
PATTERN_FILL
  6
CONTINUOUS
 62
     7
 10
74.97499999999998
 20
207.91981734688571
 30
0.0
 40
30.0
 50
215.5786005193838
 51
240.70775501944971
  0
ARC
  5
7A
  8
PATTERN_FILL
  6
CONTINUOUS
 62
     7
 10
74.97499999999998
 20
205.41981734688571
 30
0.0
 40
30.0
 50
219.00262996483889
 51
232.0737128441595
  0
LINE
  5
7B
  8
PATTERN_FILL
  6
CONTINUOUS
 62
     7
 10
56.314642588619783
 20
201.45575226697881
 30
0.0
 11
55.739960799865898
 21
218.98354682397289
 31
0.0
  0
LINE
  5
7C
  8
PATTERN_FILL
  6
CONTINUOUS
 62
     7
 10
53.814642588619819
 20
201.45575226697881
 30
0.0
 11
53.339998863322819
 21
215.93238588853819
 31
0.0
  0
LINE
  5
7D
  8
PATTERN_FILL
  6
CONTINUOUS
 62
     7
 10
51.314642588619883
 20
201.45575226697881
 30
0.0
 11
50.982495424647027
 21
211.58624076815121
 31
0.0
  0
LINE
  5
7E
  8
PATTERN_FILL
  6
CONTINUOUS
 62
     7
 10
56.287164089121468
 20
197.45575226697881
 30
0.0
 11
55.556703769698963
 21
181.7557522669787
 31
0.0
  0
LINE
  5
7F
  8
PATTERN_FILL
  6
CONTINUOUS
 62
     7
 10
53.787164089121511
 20
197.45575226697881
 30
0.0
 11
53.085757711978403
 21
182.3802172538617
 31
0.0
  0
LINE
  5
80
  8
PATTERN_FILL
  6
CONTINUOUS
 62
     7
 10
51.287164089121561
 20
197.45575226697881
 30
0.0
 11
50.90242840702043
 21
189.1865142969225
 31
0.0
  0
ARC
  5
81
  8
PATTERN_FILL
  6
CONTINUOUS
 62
     7
 10
74.97499999999998
 20
220.41981734688579
 30
0.0
 40
30.00000000000016
 50
229.94871978957889
 51
310.05128021042111
  0
ARC
  5
82
  8
PATTERN_FILL
  6
CONTINUOUS
 62
     7
 10
74.97499999999998
 20
217.91981734688571
 30
0.0
 40
30.00000000000005
 50
223.0107449779712
 51
316.98925502202877
  0
ARC
  5
83
  8
PATTERN_FILL
  6
CONTINUOUS
 62
     7
 10
74.97499999999998
 20
215.41981734688571
 30
0.0
 40
29.999999999999989
 50
216.78415742610241
 51
323.2158425738977
  0
ARC
  5
84
  8
PATTERN_FILL
  6
CONTINUOUS
 62
     7
 10
74.97499999999998
 20
212.91981734688571
 30
0.0
 40
29.99999999999995
 50
211.0287977862248
 51
328.9712022137752
  0
ARC
  5
85
  8
PATTERN_FILL
  6
CONTINUOUS
 62
     7
 10
74.97499999999998
 20
210.41981734688571
 30
0.0
 40
29.99999999999995
 50
212.8610727841731
 51
252.8369443038184
  0
ARC
  5
86
  8
PATTERN_FILL
  6
CONTINUOUS
 62
     7
 10
74.97499999999998
 20
207.91981734688571
 30
0.0
 40
30.000000000000188
 50
299.29224498055032
 51
324.42139948064602
  0
ARC
  5
87
  8
PATTERN_FILL
  6
CONTINUOUS
 62
     7
 10
74.97499999999998
 20
205.41981734688571
 30
0.0
 40
30.000000000000131
 50
307.92628715584038
 51
320.9973700351652
  0
LINE
  5
88
  8
PATTERN_FILL
  6
CONTINUOUS
 62
     7
 10
93.662835910878528
 20
197.45575226697881
 30
0.0
 11
94.393296230301061
 21
181.7557522669787
 31
0.0
  0
ARC
  5
89
  8
PATTERN_FILL
  6
CONTINUOUS
 62
     7
 10
74.97499999999998
 20
210.41981734688571
 30
0.0
 40
30.000000000000242
 50
287.16305569618157
 51
327.13892721583449
  0
ARC
  5
8A
  8
PATTERN_FILL
  6
CONTINUOUS
 62
     7
 10
74.999999999999986
 20
-112.93645345744321
 30
0.0
 40
31.763999999999712
 50
45.277662991887418
 51
135.17201981310041
  0
LINE
  5
8B
  8
PATTERN_FILL
  6
CONTINUOUS
 62
     7
 10
74.999999999999986
 20
-78.074247733019547
 30
0.0
 11
74.999999999999986
 21
-84.162347733019388
 31
0.0
  0
ARC
  5
8C
  8
PATTERN_FILL
  6
CONTINUOUS
 62
     7
 10
739.13229999999999
 20
-106.5836534574433
 30
0.0
 40
662.01470000000018
 50
177.54474535891811
 51
178.072363287082
  0
ARC
  5
8D
  8
PATTERN_FILL
  6
CONTINUOUS
 62
     7
 10
739.03183466152257
 20
-118.0958409784194
 30
0.0
 40
659.89710000000014
 50
176.5699051017387
 51
177.1060391888447
  0
ARC
  5
8E
  8
PATTERN_FILL
  6
CONTINUOUS
 62
     7
 10
738.73154375972638
 20
-129.5644600932072
 30
0.0
 40
657.77949999999998
 50
175.61513962146469
 51
176.16440140997861
  0
ARC
  5
8F
  8
PATTERN_FILL
  6
CONTINUOUS
 62
     7
 10
738.23279194140639
 20
-140.98781406375389
 30
0.0
 40
655.66190000000017
 50
174.6803231384614
 51
175.24931768033181
  0
ARC
  5
90
  8
PATTERN_FILL
  6
CONTINUOUS
 62
     7
 10
737.53700747343873
 20
-152.36378955753781
 30
0.0
 40
653.54430000000002
 50
173.76678532326329
 51
174.36406450510981
  0
ARC
  5
91
  8
PATTERN_FILL
  6
CONTINUOUS
 62
     7
 10
736.64568825016408
 20
-163.68907409375171
 30
0.0
 40
651.4267000000001
 50
172.87650673267669
 51
173.51437768625539
  0
ARC
  5
92
  8
PATTERN_FILL
  6
CONTINUOUS
 62
     7
 10
735.56039080469952
 20
-174.96031901496309
 30
0.0
 40
649.3091000000004
 50
172.01194765859
 51
172.710768559071
  0
ARC
  5
93
  8
PATTERN_FILL
  6
CONTINUOUS
 62
     7
 10
74.999999999999986
 20
-112.93645345744321
 30
0.0
 40
33.88159999999948
 50
65.561245320536969
 51
114.438754679463
  0
ARC
  5
94
  8
PATTERN_FILL
  6
CONTINUOUS
 62
     7
 10
-589.13230000000135
 20
-106.5836534574433
 30
0.0
 40
662.01470000000108
 50
1.9276367129181211
 51
2.455254641081936
  0
ARC
  5
95
  8
PATTERN_FILL
  6
CONTINUOUS
 62
     7
 10
-589.03183466152336
 20
-118.0958409784194
 30
0.0
 40
659.89710000000127
 50
2.893960811155174
 51
3.4300948982612138
  0
ARC
  5
96
  8
PATTERN_FILL
  6
CONTINUOUS
 62
     7
 10
-588.73154375972763
 20
-129.5644600932072
 30
0.0
 40
657.77950000000135
 50
3.835598590021271
 51
4.3848603785351807
  0
ARC
  5
97
  8
PATTERN_FILL
  6
CONTINUOUS
 62
     7
 10
-588.2327919414073
 20
-140.98781406375389
 30
0.0
 40
655.66190000000097
 50
4.7506823196681358
 51
5.3196768615385484
  0
ARC
  5
98
  8
PATTERN_FILL
  6
CONTINUOUS
 62
     7
 10
-587.53700747343976
 20
-152.36378955753781
 30
0.0
 40
653.5443000000007
 50
5.6359354948901874
 51
6.2332146767366092
  0
ARC
  5
99
  8
PATTERN_FILL
  6
CONTINUOUS
 62
     7
 10
-586.64568825016545
 20
-163.68907409375171
 30
0.0
 40
651.42670000000101
 50
6.485622313744547
 51
7.1234932673232878
  0
ARC
  5
9A
  8
PATTERN_FILL
  6
CONTINUOUS
 62
     7
 10
-585.56039080470066
 20
-174.96031901496309
 30
0.0
 40
649.30910000000165
 50
7.2892314409289867
 51
7.988052341410131
  0
ARC
  5
9B
  8
PATTERN_FILL
  6
CONTINUOUS
 62
     7
 10
74.999999999999986
 20
-112.93645345744321
 30
0.0
 40
23.293599999999831
 50
149.64023485831589
 51
158.88264014252849
  0
ARC
  5
9C
  8
PATTERN_FILL
  6
CONTINUOUS
 62
     7
 10
74.999999999999986
 20
-112.93645345744321
 30
0.0
 40
25.41119999999971
 50
135.161861622874
 51
160.7156749720352
  0
ARC
  5
9D
  8
PATTERN_FILL
  6
CONTINUOUS
 62
     7
 10
-584.28272879706105
 20
-186.17421453616899
 30
0.0
 40
647.19150000000161
 50
8.0239408483381176
 51
8.8221407731619497
  0
ARC
  5
9E
  8
PATTERN_FILL
  6
CONTINUOUS
 62
     7
 10
-582.81437213178924
 20
-197.32749071535471
 30
0.0
 40
645.07390000000225
 50
8.6142717200012413
 51
9.6187634073432875
  0
ARC
  5
9F
  8
PATTERN_FILL
  6
CONTINUOUS
 62
     7
 10
-581.15704605916744
 20
-208.41691840510251
 30
0.0
 40
642.95630000000165
 50
9.2971533769215462
 51
10.36476871240407
  0
ARC
  5
A0
  8
PATTERN_FILL
  6
CONTINUOUS
 62
     7
 10
-579.31253026040713
 20
-219.4393101849698
 30
0.0
 40
640.83870000000206
 50
10.32832452845744
 51
11.03198337492887
  0
ARC
  5
A1
  8
PATTERN_FILL
  6
CONTINUOUS
 62
     7
 10
-577.28265791720844
 20
-230.3915212743735
 30
0.0
 40
638.72110000000225
 50
11.36334005440809
 51
11.515222721701701
  0
ARC
  5
A2
  8
PATTERN_FILL
  6
CONTINUOUS
 62
     7
 10
74.999999999999986
 20
-96.152042008595075
 30
0.0
 40
23.29359999999982
 50
201.1173598574716
 51
210.35976514168371
  0
ARC
  5
A3
  8
PATTERN_FILL
  6
CONTINUOUS
 62
     7
 10
74.999999999999986
 20
-96.152042008595075
 30
0.0
 40
25.411199999999809
 50
199.2843250279648
 51
224.838138377126
  0
ARC
  5
A4
  8
PATTERN_FILL
  6
CONTINUOUS
 62
     7
 10
-586.64568825016545
 20
-45.399421372288458
 30
0.0
 40
651.42670000000101
 50
352.87650673267711
 51
353.51437768625539
  0
ARC
  5
A5
  8
PATTERN_FILL
  6
CONTINUOUS
 62
     7
 10
-585.56039080470066
 20
-34.12817645107765
 30
0.0
 40
649.30910000000085
 50
352.01194765859009
 51
352.71076855907131
  0
ARC
  5
A6
  8
PATTERN_FILL
  6
CONTINUOUS
 62
     7
 10
-584.28272879706105
 20
-22.914280929872291
 30
0.0
 40
647.19150000000104
 50
351.17785922683822
 51
351.9760591516623
  0
ARC
  5
A7
  8
PATTERN_FILL
  6
CONTINUOUS
 62
     7
 10
-582.81437213178924
 20
-11.76100475068708
 30
0.0
 40
645.07390000000146
 50
350.3812365926571
 51
351.38572827999923
  0
ARC
  5
A8
  8
PATTERN_FILL
  6
CONTINUOUS
 62
     7
 10
-581.15704605916744
 20
-0.6715770609398249
 30
0.0
 40
642.95630000000085
 50
349.6352312875963
 51
350.7028466230787
  0
ARC
  5
A9
  8
PATTERN_FILL
  6
CONTINUOUS
 62
     7
 10
-579.31253026040713
 20
10.35081471892715
 30
0.0
 40
640.83870000000115
 50
348.96801662507141
 51
349.6716754715431
  0
ARC
  5
AA
  8
PATTERN_FILL
  6
CONTINUOUS
 62
     7
 10
-577.28265791720844
 20
21.303025808330219
 30
0.0
 40
638.72110000000123
 50
348.48477727829879
 51
348.63665994559233
  0
ARC
  5
AB
  8
PATTERN_FILL
  6
CONTINUOUS
 62
     7
 10
74.999999999999986
 20
-112.93645345744321
 30
0.0
 40
23.29359999999993
 50
21.11735985747173
 51
30.359765141684051
  0
ARC
  5
AC
  8
PATTERN_FILL
  6
CONTINUOUS
 62
     7
 10
74.999999999999986
 20
-112.93645345744321
 30
0.0
 40
25.411199999999951
 50
19.28432502796468
 51
44.838138377125979
  0
ARC
  5
AD
  8
PATTERN_FILL
  6
CONTINUOUS
 62
     7
 10
734.28272879705946
 20
-186.17421453616899
 30
0.0
 40
647.19150000000025
 50
171.17785922683791
 51
171.97605915166179
  0
ARC
  5
AE
  8
PATTERN_FILL
  6
CONTINUOUS
 62
     7
 10
732.81437213178788
 20
-197.32749071535471
 30
0.0
 40
645.07390000000089
 50
170.38123659265671
 51
171.38572827999869
  0
ARC
  5
AF
  8
PATTERN_FILL
  6
CONTINUOUS
 62
     7
 10
731.15704605916585
 20
-208.41691840510251
 30
0.0
 40
642.9563000000004
 50
169.6352312875959
 51
170.7028466230785
  0
ARC
  5
B0
  8
PATTERN_FILL
  6
CONTINUOUS
 62
     7
 10
729.31253026040577
 20
-219.4393101849698
 30
0.0
 40
640.83870000000081
 50
168.96801662507119
 51
169.67167547154261
  0
ARC
  5
B1
  8
PATTERN_FILL
  6
CONTINUOUS
 62
     7
 10
727.28265791720685
 20
-230.3915212743735
 30
0.0
 40
638.72110000000066
 50
168.48477727829831
 51
168.63665994559179
  0
ARC
  5
B2
  8
PATTERN_FILL
  6
CONTINUOUS
 62
     7
 10
74.999999999999986
 20
-96.152042008595075
 30
0.0
 40
23.29359999999987
 50
329.64023485831632
 51
338.88264014252832
  0
ARC
  5
B3
  8
PATTERN_FILL
  6
CONTINUOUS
 62
     7
 10
74.999999999999986
 20
-96.152042008595075
 30
0.0
 40
25.41119999999971
 50
315.16186162287408
 51
340.71567497203517
  0
ARC
  5
B4
  8
PATTERN_FILL
  6
CONTINUOUS
 62
     7
 10
736.64568825016408
 20
-45.399421372288458
 30
0.0
 40
651.42669999999976
 50
186.48562231374439
 51
187.12349326732311
  0
ARC
  5
B5
  8
PATTERN_FILL
  6
CONTINUOUS
 62
     7
 10
735.56039080469952
 20
-34.12817645107765
 30
0.0
 40
649.30910000000006
 50
187.2892314409288
 51
187.98805234140991
  0
ARC
  5
B6
  8
PATTERN_FILL
  6
CONTINUOUS
 62
     7
 10
734.28272879705946
 20
-22.914280929872291
 30
0.0
 40
647.19149999999979
 50
188.0239408483379
 51
188.82214077316169
  0
ARC
  5
B7
  8
PATTERN_FILL
  6
CONTINUOUS
 62
     7
 10
732.81437213178788
 20
-11.76100475068708
 30
0.0
 40
645.07390000000055
 50
188.614271720001
 51
189.6187634073429
  0
ARC
  5
B8
  8
PATTERN_FILL
  6
CONTINUOUS
 62
     7
 10
731.15704605916585
 20
-0.6715770609398249
 30
0.0
 40
642.9562999999996
 50
189.29715337692119
 51
190.36476871240379
  0
ARC
  5
B9
  8
PATTERN_FILL
  6
CONTINUOUS
 62
     7
 10
729.31253026040577
 20
10.35081471892715
 30
0.0
 40
640.83870000000002
 50
190.32832452845699
 51
191.0319833749285
  0
ARC
  5
BA
  8
PATTERN_FILL
  6
CONTINUOUS
 62
     7
 10
727.28265791720685
 20
21.303025808330219
 30
0.0
 40
638.72109999999975
 50
191.36334005440759
 51
191.51522272170129
  0
ARC
  5
BB
  8
PATTERN_FILL
  6
CONTINUOUS
 62
     7
 10
74.999999999999986
 20
-96.152042008595075
 30
0.0
 40
31.763999999999609
 50
224.82798018689971
 51
314.72233700811262
  0
LINE
  5
BC
  8
PATTERN_FILL
  6
CONTINUOUS
 62
     7
 10
74.999999999999986
 20
-131.01424773301889
 30
0.0
 11
74.999999999999986
 21
-124.92614773301869
 31
0.0
  0
ARC
  5
BD
  8
PATTERN_FILL
  6
CONTINUOUS
 62
     7
 10
739.13229999999999
 20
-102.50484200859469
 30
0.0
 40
662.01470000000029
 50
181.92763671291809
 51
182.45525464108201
  0
ARC
  5
BE
  8
PATTERN_FILL
  6
CONTINUOUS
 62
     7
 10
739.03183466152257
 20
-90.992654487618694
 30
0.0
 40
659.89710000000025
 50
182.8939608111551
 51
183.43009489826119
  0
ARC
  5
BF
  8
PATTERN_FILL
  6
CONTINUOUS
 62
     7
 10
738.73154375972638
 20
-79.52403537283142
 30
0.0
 40
657.77949999999998
 50
183.83559859002111
 51
184.38486037853519
  0
ARC
  5
C0
  8
PATTERN_FILL
  6
CONTINUOUS
 62
     7
 10
738.23279194140639
 20
-68.10068140228509
 30
0.0
 40
655.66190000000017
 50
184.75068231966799
 51
185.3196768615384
  0
ARC
  5
C1
  8
PATTERN_FILL
  6
CONTINUOUS
 62
     7
 10
737.53700747343873
 20
-56.724705908501761
 30
0.0
 40
653.54429999999945
 50
185.63593549488991
 51
186.2332146767364
  0
ARC
  5
C2
  8
PATTERN_FILL
  6
CONTINUOUS
 62
     7
 10
74.999999999999986
 20
-96.152042008595075
 30
0.0
 40
33.881599999999551
 50
245.56124532053721
 51
294.43875467946282
  0
ARC
  5
C3
  8
PATTERN_FILL
  6
CONTINUOUS
 62
     7
 10
-589.13230000000135
 20
-102.50484200859469
 30
0.0
 40
662.01470000000154
 50
357.54474535891802
 51
358.07236328708183
  0
ARC
  5
C4
  8
PATTERN_FILL
  6
CONTINUOUS
 62
     7
 10
-589.03183466152336
 20
-90.992654487618694
 30
0.0
 40
659.89710000000127
 50
356.56990510173893
 51
357.10603918884487
  0
ARC
  5
C5
  8
PATTERN_FILL
  6
CONTINUOUS
 62
     7
 10
-588.73154375972763
 20
-79.52403537283142
 30
0.0
 40
657.77950000000158
 50
355.61513962146478
 51
356.16440140997878
  0
ARC
  5
C6
  8
PATTERN_FILL
  6
CONTINUOUS
 62
     7
 10
-588.2327919414073
 20
-68.10068140228509
 30
0.0
 40
655.66190000000097
 50
354.68032313846157
 51
355.2493176803319
  0
ARC
  5
C7
  8
PATTERN_FILL
  6
CONTINUOUS
 62
     7
 10
-587.53700747343976
 20
-56.724705908501761
 30
0.0
 40
653.5443000000007
 50
353.76678532326349
 51
354.36406450510981
  0
ARC
  5
C8
  8
PATTERN_FILL
  6
CONTINUOUS
 62
     7
 10
74.999999999999986
 20
-112.93645345744321
 30
0.0
 40
29.646399999999851
 50
30.01113336688859
 51
150.0016185681481
  0
ARC
  5
C9
  8
PATTERN_FILL
  6
CONTINUOUS
 62
     7
 10
74.999999999999986
 20
-112.93645345744321
 30
0.0
 40
27.528799999999919
 50
17.74925132645269
 51
63.315360796917531
  0
ARC
  5
CA
  8
PATTERN_FILL
  6
CONTINUOUS
 62
     7
 10
74.999999999999986
 20
-112.93645345744321
 30
0.0
 40
27.528799999999571
 50
116.6846392030824
 51
162.25074867354689
  0
ARC
  5
CB
  8
PATTERN_FILL
  6
CONTINUOUS
 62
     7
 10
74.999999999999986
 20
-96.152042008595075
 30
0.0
 40
29.646399999999691
 50
209.9983814318517
 51
329.9888666331114
  0
ARC
  5
CC
  8
PATTERN_FILL
  6
CONTINUOUS
 62
     7
 10
74.999999999999986
 20
-96.152042008595075
 30
0.0
 40
27.528799999999571
 50
296.6846392030825
 51
342.25074867354709
  0
CIRCLE
  5
CD
  8
PATTERN_FILL
  6
CONTINUOUS
 62
     7
 10
74.999999999999986
 20
-104.54424773301911
 30
0.0
 40
26.47000000000002
  0
ARC
  5
CE
  8
PATTERN_FILL
  6
CONTINUOUS
 62
     7
 10
74.999999999999986
 20
-96.152042008595075
 30
0.0
 40
27.528799999999791
 50
197.74925132645279
 51
243.31536079691739
  0
TEXT
  5
CF
  8
SPEC
 62
     7
 10
-143.6910919963272
 20
504.23559651168517
 30
0.0
 40
7.3297774609374979
  1
仕様
 41
0.8
 11
-143.6910919963272
 21
511.56537397262269
 31
0.0
 73
     3
  0
LINE
  5
D0
  8
SPEC
  6
CONTINUOUS
 62
     7
 10
-147.3704746831994
 20
500.05071014630852
 30
0.0
 11
295.1295103167995
 21
500.05071014630852
 31
0.0
  0
LINE
  5
D1
  8
SPEC
  6
CONTINUOUS
 62
     7
 10
-147.3704746831994
 20
500.05071014630852
 30
0.0
 11
-147.3704746831994
 21
353.80068014630751
 31
0.0
  0
LINE
  5
D2
  8
SPEC
  6
CONTINUOUS
 62
     7
 10
-49.87047468320138
 20
500.05071014630852
 30
0.0
 11
-49.87047468320138
 21
353.80068014630751
 31
0.0
  0
LINE
  5
D3
  8
SPEC
  6
CONTINUOUS
 62
     7
 10
295.1295103167995
 20
500.05071014630852
 30
0.0
 11
295.1295103167995
 21
353.80068014630751
 31
0.0
  0
TEXT
  5
D4
  8
SPEC
 62
     7
 10
-144.191627152449
 20
469.1094474208482
 30
0.0
 40
5.7009106640624987
  1
発振方式
 41
0.8
 11
-144.191627152449
 21
474.81035808491077
 31
0.0
 73
     3
  0
TEXT
  5
D5
  8
SPEC
 62
     7
 10
-48.193090963410143
 20
469.1205113191358
 30
0.0
 40
5.7009106640624987
  1
水晶制御PLLシンセサイザー方式
 41
0.8
 11
-48.193090963410143
 21
474.82142198319832
 31
0.0
 73
     3
  0
LINE
  5
D6
  8
SPEC
  6
CONTINUOUS
 62
     7
 10
-147.3704746831994
 20
488.80071014630852
 30
0.0
 11
295.1295103167995
 21
488.80071014630852
 31
0.0
  0
TEXT
  5
D7
  8
SPEC
 62
     7
 10
-144.12462657408071
 20
491.6135911580464
 30
0.0
 40
5.7009106640624987
  1
電波型式
 41
0.8
 11
-144.12462657408071
 21
497.31450182210892
 31
0.0
 73
     3
  0
TEXT
  5
D8
  8
SPEC
 62
     7
 10
-46.474252179016247
 20
491.66468586926072
 30
0.0
 40
5.7009106640624987
  1
F3E
 41
0.8
 11
-46.474252179016247
 21
497.36559653332318
 31
0.0
 73
     3
  0
LINE
  5
D9
  8
SPEC
  6
CONTINUOUS
 62
     7
 10
-147.3704746831994
 20
477.55071014630852
 30
0.0
 11
295.1295103167995
 21
477.55071014630852
 31
0.0
  0
TEXT
  5
DA
  8
SPEC
 62
     7
 10
-144.77827949781269
 20
480.32981843619109
 30
0.0
 40
5.7009106640624987
  1
送信周波数
 41
0.8
 11
-144.77827949781269
 21
486.03072910025361
 31
0.0
 73
     3
  0
TEXT
  5
DB
  8
SPEC
 62
     7
 10
-46.276230314331457
 20
480.36995683259278
 30
0.0
 40
5.7009106640624987
  1
B型 (806～810MHz)14チャンネルのうち任意の1チャンネル
 41
0.8
 11
-46.276230314331457
 21
486.0708674966553
 31
0.0
 73
     3
  0
LINE
  5
DC
  8
SPEC
  6
CONTINUOUS
 62
     7
 10
-147.3704746831994
 20
455.05071014630818
 30
0.0
 11
295.1295103167995
 21
455.05071014630818
 31
0.0
  0
TEXT
  5
DD
  8
SPEC
 62
     7
 10
-144.83535932874381
 20
458.01346909852612
 30
0.0
 40
5.7009106640624987
  1
送信出力
 41
0.8
 11
-144.83535932874381
 21
463.71437976258858
 31
0.0
 73
     3
  0
TEXT
  5
DE
  8
SPEC
 62
     7
 10
-46.802284419965517
 20
457.86155820966718
 30
0.0
 40
5.7009106640624987
  1
10mW
 41
0.8
 11
-46.802284419965517
 21
463.5624688737297
 31
0.0
 73
     3
  0
LINE
  5
DF
  8
SPEC
  6
CONTINUOUS
 62
     7
 10
-147.3704746831994
 20
443.80071014630818
 30
0.0
 11
295.1295103167995
 21
443.80071014630818
 31
0.0
  0
TEXT
  5
E0
  8
SPEC
 62
     7
 10
-143.8607987100624
 20
435.2647995465075
 30
0.0
 40
5.7009106640624987
  1
到達距離
 41
0.8
 11
-143.8607987100624
 21
440.96571021057002
 31
0.0
 73
     3
  0
TEXT
  5
E1
  8
SPEC
 62
     7
 10
-47.982682110985358
 20
435.7521728941951
 30
0.0
 40
5.7009106640624987
  1
約60m(標準環境における最大値)
 41
0.8
 11
-47.982682110985358
 21
441.45308355825762
 31
0.0
 73
     3
  0
LINE
  5
E2
  8
SPEC
  6
CONTINUOUS
 62
     7
 10
-147.3704746831994
 20
432.55071014630801
 30
0.0
 11
295.1295103167995
 21
432.55071014630801
 31
0.0
  0
TEXT
  5
E3
  8
SPEC
 62
     7
 10
-144.7719396505637
 20
424.04372415047197
 30
0.0
 40
5.7009106640624987
  1
最大入力レベル
 41
0.8
 11
-144.7719396505637
 21
429.74463481453449
 31
0.0
 73
     3
  0
TEXT
  5
E4
  8
SPEC
 62
     7
 10
-46.773989235760702
 20
424.27023097730859
 30
0.0
 40
5.7009106640624987
  1
-8dBV(ゲイン調整スイッチ[0dB]時、+2dBV(ゲイン調整スイッチ[-10dB]時)
 41
0.8
 11
-46.773989235760702
 21
429.97114164137122
 31
0.0
 73
     3
  0
TEXT
  5
E5
  8
SPEC
 62
     7
 10
-145.21563347306761
 20
401.733579039208
 30
0.0
 40
5.7009106640624987
  1
周波数特性
 41
0.8
 11
-145.21563347306761
 21
407.43448970327051
 31
0.0
 73
     3
  0
TEXT
  5
E6
  8
SPEC
 62
     7
 10
-46.74677493849638
 20
401.76802091537758
 30
0.0
 40
5.7009106640624987
  1
25～15,000Hz(±2dB)
 41
0.8
 11
-46.74677493849638
 21
407.4689315794401
 31
0.0
 73
     3
  0
LINE
  5
E7
  8
SPEC
  6
CONTINUOUS
 62
     7
 10
-147.3704746831994
 20
410.05071014630778
 30
0.0
 11
295.1295103167995
 21
410.05071014630778
 31
0.0
  0
TEXT
  5
E8
  8
SPEC
 62
     7
 10
-144.82267963424579
 20
413.2968191269909
 30
0.0
 40
5.7009106640624987
  1
ゲイン調整スイッチ
 41
0.8
 11
-144.82267963424579
 21
418.99772979105347
 31
0.0
 73
     3
  0
LINE
  5
E9
  8
SPEC
  6
CONTINUOUS
 62
     7
 10
-147.3704746831994
 20
398.80071014630721
 30
0.0
 11
295.1295103167995
 21
398.80071014630721
 31
0.0
  0
TEXT
  5
EA
  8
SPEC
 62
     7
 10
-144.51562919663101
 20
446.5947110892846
 30
0.0
 40
5.7009106640624987
  1
アンテナ形式
 41
0.8
 11
-144.51562919663101
 21
452.29562175334712
 31
0.0
 73
     3
  0
TEXT
  5
EB
  8
SPEC
 62
     7
 10
-48.143670197331218
 20
446.94727007604752
 30
0.0
 40
5.7009106640624987
  1
内臓ホイップ
 41
0.8
 11
-48.143670197331218
 21
452.64818074011009
 31
0.0
 73
     3
  0
LINE
  5
EC
  8
SPEC
  6
CONTINUOUS
 62
     7
 10
-147.3704746831994
 20
387.55071014630721
 30
0.0
 11
295.1295103167995
 21
387.55071014630721
 31
0.0
  0
TEXT
  5
ED
  8
SPEC
 62
     7
 10
-144.67045968319951
 20
379.05771971557562
 30
0.0
 40
5.7009106640624987
  1
電源
 41
0.8
 11
-144.67045968319951
 21
384.75863037963808
 31
0.0
 73
     3
  0
TEXT
  5
EE
  8
SPEC
 62
     7
 10
-48.390344575502901
 20
379.12368654126038
 30
0.0
 40
5.7009106640624987
  1
単3形アルカリ乾電池×2または単3形ニッケル水素充電池×2
 41
0.8
 11
-48.390344575502901
 21
384.8245972053229
 31
0.0
 73
     3
  0
LINE
  5
EF
  8
SPEC
  6
CONTINUOUS
 62
     7
 10
-147.3704746831994
 20
376.3006801463074
 30
0.0
 11
295.1295103167995
 21
376.3006801463074
 31
0.0
  0
LINE
  5
F0
  8
SPEC
  6
CONTINUOUS
 62
     7
 10
-147.3704746831994
 20
365.0506801463074
 30
0.0
 11
295.1295103167995
 21
365.0506801463074
 31
0.0
  0
LINE
  5
F1
  8
SPEC
  6
CONTINUOUS
 62
     7
 10
-147.3704746831994
 20
353.80068014630751
 30
0.0
 11
295.1295103167995
 21
353.80068014630751
 31
0.0
  0
TEXT
  5
F2
  8
SPEC
 62
     7
 10
-145.04193987749071
 20
367.81321569735371
 30
0.0
 40
5.7009106640624987
  1
寸法(W)×(H)×(D)
 41
0.8
 11
-145.04193987749071
 21
373.51412636141617
 31
0.0
 73
     3
  0
TEXT
  5
F3
  8
SPEC
 62
     7
 10
-48.42101508010235
 20
367.77791287787619
 30
0.0
 40
5.7009106640624987
  1
Φ54×240 mm
 41
0.8
 11
-48.42101508010235
 21
373.47882354193871
 31
0.0
 73
     3
  0
TEXT
  5
F4
  8
SPEC
 62
     7
 10
-145.02877961640411
 20
356.81006047038733
 30
0.0
 40
5.7009106640624987
  1
質量
 41
0.8
 11
-145.02877961640411
 21
362.51097113444979
 31
0.0
 73
     3
  0
TEXT
  5
F5
  8
SPEC
 62
     7
 10
-47.960327710323597
 20
356.95005341615803
 30
0.0
 40
5.7009106640624987
  1
約250g(除乾電池)
 41
0.8
 11
-47.960327710323597
 21
362.65096408022049
 31
0.0
 73
     3
  0
LINE
  5
F6
  8
SPEC
  6
CONTINUOUS
 62
     7
 10
-147.3704746831994
 20
466.30071014630829
 30
0.0
 11
295.1295103167995
 21
466.30071014630829
 31
0.0
  0
TEXT
  5
F7
  8
SPEC
 62
     7
 10
-46.524847214753933
 20
413.31143227485421
 30
0.0
 40
5.5113971638149932
  1
0dB、-10dBの2段階切替
 41
0.8
 11
-46.524847214753933
 21
418.8228294386692
 31
0.0
 73
     3
  0
TEXT
  5
F8
  8
SPEC
 62
     7
 10
-145.36368675304291
 20
390.95237278183163
 30
0.0
 40
5.7009106640624987
  1
マイクロホン形式
 41
0.8
 11
-145.36368675304291
 21
396.65328344589409
 31
0.0
 73
     3
  0
TEXT
  5
F9
  8
SPEC
 62
     7
 10
-47.680203935148441
 20
390.4761685801659
 30
0.0
 40
5.7009106640624987
  1
ダイナミック型 
 41
0.8
 11
-47.680203935148441
 21
396.17707924422842
 31
0.0
 73
     3
  0
LINE
  5
FA
  8
SPEC
  6
CONTINUOUS
 62
     7
 10
-147.3704746831994
 20
421.30071014630778
 30
0.0
 11
295.1295103167995
 21
421.30071014630778
 31
0.0
  0
LINE
  5
FB
  8
DIMNSIONS
  6
CONTINUOUS
 62
     7
 10
48.000599999999977
 20
-98.544247755370904
 30
0.0
 11
48.000599999999977
 21
-44.000000022351742
 31
0.0
  0
LINE
  5
FC
  8
DIMNSIONS
  6
CONTINUOUS
 62
     7
 10
101.99939999999999
 20
-98.544247755370904
 30
0.0
 11
101.99939999999999
 21
-44.000000022351742
 31
0.0
  0
LINE
  5
FD
  8
DIMNSIONS
  6
CONTINUOUS
 62
     7
 10
48.000599999999977
 20
-50.0
 30
0.0
 11
101.99939999999999
 21
-50.0
 31
0.0
  0
LINE
  5
FE
  8
DIMNSIONS
  6
CONTINUOUS
 62
     7
 10
48.000599999999977
 20
-50.0
 30
0.0
 11
57.52559999999999
 21
-47.447783942093572
 31
0.0
  0
LINE
  5
FF
  8
DIMNSIONS
  6
CONTINUOUS
 62
     7
 10
48.000599999999977
 20
-50.0
 30
0.0
 11
57.52559999999999
 21
-52.552216057906442
 31
0.0
  0
LINE
  5
100
  8
DIMNSIONS
  6
CONTINUOUS
 62
     7
 10
101.99939999999999
 20
-50.0
 30
0.0
 11
92.474400000000003
 21
-52.552216057906442
 31
0.0
  0
LINE
  5
101
  8
DIMNSIONS
  6
CONTINUOUS
 62
     7
 10
101.99939999999999
 20
-50.0
 30
0.0
 11
92.474400000000003
 21
-47.447783942093572
 31
0.0
  0
TEXT
  5
102
  8
DIMNSIONS
 62
     7
 10
69.708333333333329
 20
-45.518333344509188
 30
0.0
 40
8.1442057291666661
  1
54
 41
0.8
 11
69.708333333333329
 21
-37.37412761534253
 31
0.0
 73
     3
  0
LINE
  5
103
  8
DIMNSIONS
  6
CONTINUOUS
 62
     7
 10
62.07106783421726
 20
-12.544247733020651
 30
0.0
 11
-5.9999999776482573
 21
-12.544247733020651
 31
0.0
  0
LINE
  5
104
  8
DIMNSIONS
  6
CONTINUOUS
 62
     7
 10
68.975000022351736
 20
227.45575226697881
 30
0.0
 11
-5.9999999776482573
 21
227.45575226697881
 31
0.0
  0
LINE
  5
105
  8
DIMNSIONS
  6
CONTINUOUS
 62
     7
 10
0.0
 20
-12.544247733020651
 30
0.0
 11
0.0
 21
227.45575226697881
 31
0.0
  0
LINE
  5
106
  8
DIMNSIONS
  6
CONTINUOUS
 62
     7
 10
0.0
 20
-12.544247733020651
 30
0.0
 11
-2.552216057906449
 21
-3.0192477330206482
 31
0.0
  0
LINE
  5
107
  8
DIMNSIONS
  6
CONTINUOUS
 62
     7
 10
0.0
 20
-12.544247733020651
 30
0.0
 11
2.552216057906449
 21
-3.0192477330206482
 31
0.0
  0
LINE
  5
108
  8
DIMNSIONS
  6
CONTINUOUS
 62
     7
 10
0.0
 20
227.45575226697881
 30
0.0
 11
2.552216057906449
 21
217.9307522669788
 31
0.0
  0
LINE
  5
109
  8
DIMNSIONS
  6
CONTINUOUS
 62
     7
 10
0.0
 20
227.45575226697881
 30
0.0
 11
-2.552216057906449
 21
217.9307522669788
 31
0.0
  0
TEXT
  5
10A
  8
DIMNSIONS
 62
     7
 10
-4.4816666554908053
 20
99.51825226697909
 30
0.0
 40
8.1442057291666661
  1
240
 50
90.0
 41
0.8
 11
-12.62587238465747
 21
99.51825226697909
 31
0.0
 73
     3
  0
LINE
  5
10B
  8
DIMNSIONS
  6
CONTINUOUS
 62
     7
 10
68.975000022351736
 20
227.45575226697881
 30
0.0
 11
19.000000022351738
 21
227.45575226697881
 31
0.0
  0
LINE
  5
10C
  8
DIMNSIONS
  6
CONTINUOUS
 62
     7
 10
50.500000022351742
 20
157.45575226697841
 30
0.0
 11
19.000000022351738
 21
157.45575226697841
 31
0.0
  0
LINE
  5
10D
  8
DIMNSIONS
  6
CONTINUOUS
 62
     7
 10
25.0
 20
227.45575226697881
 30
0.0
 11
25.0
 21
157.45575226697841
 31
0.0
  0
LINE
  5
10E
  8
DIMNSIONS
  6
CONTINUOUS
 62
     7
 10
25.0
 20
227.45575226697881
 30
0.0
 11
27.552216057906449
 21
217.9307522669788
 31
0.0
  0
LINE
  5
10F
  8
DIMNSIONS
  6
CONTINUOUS
 62
     7
 10
25.0
 20
227.45575226697881
 30
0.0
 11
22.447783942093551
 21
217.9307522669788
 31
0.0
  0
LINE
  5
110
  8
DIMNSIONS
  6
CONTINUOUS
 62
     7
 10
25.0
 20
157.45575226697841
 30
0.0
 11
22.447783942093551
 21
166.98075226697841
 31
0.0
  0
LINE
  5
111
  8
DIMNSIONS
  6
CONTINUOUS
 62
     7
 10
25.0
 20
157.45575226697841
 30
0.0
 11
27.552216057906449
 21
166.98075226697841
 31
0.0
  0
TEXT
  5
112
  8
DIMNSIONS
 62
     7
 10
20.518333344509202
 20
187.16408560031201
 30
0.0
 40
8.1442057291666661
  1
70
 50
90.0
 41
0.8
 11
12.37412761534253
 21
187.16408560031201
 31
0.0
 73
     3
  0
TEXT
  5
113
  8
DIMNSIONS
 62
     7
 10
40.058908003673743
 20
-213.1357734883151
 30
0.0
 40
7.3297774609374979
  1
(単位：mm)
 41
0.8
 11
40.058908003673743
 21
-205.8059960273776
 31
0.0
 73
     3
  0
LINE
  5
114
  8
DIMNSIONS
  6
CONTINUOUS
 62
     7
 10
50.500000022351742
 20
157.45575226697841
 30
0.0
 11
19.000000022351738
 21
157.45575226697841
 31
0.0
  0
LINE
  5
115
  8
DIMNSIONS
  6
CONTINUOUS
 62
     7
 10
62.07106783421726
 20
-12.544247733020651
 30
0.0
 11
19.000000022351738
 21
-12.544247733020651
 31
0.0
  0
LINE
  5
116
  8
DIMNSIONS
  6
CONTINUOUS
 62
     7
 10
25.0
 20
157.45575226697841
 30
0.0
 11
25.0
 21
-12.544247733020651
 31
0.0
  0
LINE
  5
117
  8
DIMNSIONS
  6
CONTINUOUS
 62
     7
 10
25.0
 20
157.45575226697841
 30
0.0
 11
27.552216057906449
 21
147.9307522669784
 31
0.0
  0
LINE
  5
118
  8
DIMNSIONS
  6
CONTINUOUS
 62
     7
 10
25.0
 20
157.45575226697841
 30
0.0
 11
22.447783942093551
 21
147.9307522669784
 31
0.0
  0
LINE
  5
119
  8
DIMNSIONS
  6
CONTINUOUS
 62
     7
 10
25.0
 20
-12.544247733020651
 30
0.0
 11
22.447783942093551
 21
-3.0192477330206482
 31
0.0
  0
LINE
  5
11A
  8
DIMNSIONS
  6
CONTINUOUS
 62
     7
 10
25.0
 20
-12.544247733020651
 30
0.0
 11
27.552216057906449
 21
-3.0192477330206482
 31
0.0
  0
TEXT
  5
11B
  8
DIMNSIONS
 62
     7
 10
20.518333344509202
 20
64.518252266978877
 30
0.0
 40
8.1442057291666661
  1
170
 50
90.0
 41
0.8
 11
12.37412761534253
 21
64.518252266978877
 31
0.0
 73
     3
  0
LINE
  5
11C
  8
DATA
  6
CONTINUOUS
 62
     7
 10
57.0
 20
65.455752266978735
 30
0.0
 11
93.0
 21
65.455752266978735
 31
0.0
  0
LINE
  5
11D
  8
DATA
  6
CONTINUOUS
 62
     7
 10
62.0
 20
-8.5442477330207112
 30
0.0
 11
88.0
 21
-8.5442477330207112
 31
0.0
  0
LINE
  5
11E
  8
DATA
  6
CONTINUOUS
 62
     7
 10
68.07106781186549
 20
-12.544247733020651
 30
0.0
 11
81.928932188134524
 21
-12.544247733020651
 31
0.0
  0
LINE
  5
11F
  8
DATA
  6
CONTINUOUS
 62
     7
 10
56.5
 20
157.45575226697841
 30
0.0
 11
57.0
 21
65.455752266978735
 31
0.0
  0
LINE
  5
120
  8
DATA
  6
CONTINUOUS
 62
     7
 10
57.0
 20
65.455752266978735
 30
0.0
 11
57.9710122224065
 21
-2.515103301473629
 31
0.0
  0
LINE
  5
121
  8
DATA
  6
CONTINUOUS
 62
     7
 10
93.499999999999986
 20
157.45575226697841
 30
0.0
 11
93.0
 21
65.455752266978735
 31
0.0
  0
LINE
  5
122
  8
DATA
  6
CONTINUOUS
 62
     7
 10
93.0
 20
65.455752266978735
 30
0.0
 11
92.028987777593599
 21
-2.515103301473629
 31
0.0
  0
LINE
  5
123
  8
DATA
  6
CONTINUOUS
 62
     7
 10
59.434968190471302
 20
-5.979215923492176
 30
0.0
 11
64.53553390593278
 21
-11.0797816389535
 31
0.0
  0
LINE
  5
124
  8
DATA
  6
CONTINUOUS
 62
     7
 10
90.565031809528691
 20
-5.979215923492176
 30
0.0
 11
85.464466094067291
 21
-11.0797816389535
 31
0.0
  0
ARC
  5
125
  8
DATA
  6
CONTINUOUS
 62
     7
 10
87.029497903595981
 20
-2.4436820175592402
 30
0.0
 40
4.9999999999999591
 50
315.0
 51
359.18154453831107
  0
ARC
  5
126
  8
DATA
  6
CONTINUOUS
 62
     7
 10
62.97050209640399
 20
-2.4436820175592402
 30
0.0
 40
4.999999999999968
 50
180.8184554616889
 51
225.00000000000011
  0
ARC
  5
127
  8
DATA
  6
CONTINUOUS
 62
     7
 10
81.928932188134524
 20
-7.5442477330207387
 30
0.0
 40
4.999999999999857
 50
270.00000000000068
 51
315.00000000000091
  0
ARC
  5
128
  8
DATA
  6
CONTINUOUS
 62
     7
 10
68.07106781186549
 20
-7.5442477330207387
 30
0.0
 40
4.9999999999999369
 50
224.9999999999994
 51
270.0000000000004
  0
LINE
  5
129
  8
DATA
  6
CONTINUOUS
 62
     7
 10
63.499999999999993
 20
65.455752266978735
 30
0.0
 11
63.499999999999993
 21
105.45575226697839
 31
0.0
  0
LINE
  5
12A
  8
DATA
  6
CONTINUOUS
 62
     7
 10
86.5
 20
65.455752266978735
 30
0.0
 11
86.5
 21
105.45575226697839
 31
0.0
  0
LINE
  5
12B
  8
DATA
  6
CONTINUOUS
 62
     7
 10
68.499999999999986
 20
110.45575226697829
 30
0.0
 11
81.5
 21
110.45575226697829
 31
0.0
  0
LINE
  5
12C
  8
DATA
  6
CONTINUOUS
 62
     7
 10
79.0
 20
75.955752266978649
 30
0.0
 11
70.999999999999972
 21
75.955752266978649
 31
0.0
  0
TEXT
  5
12D
  8
DATA
 62
     7
 10
70.999999999999972
 20
67.564634162071712
 30
0.0
 40
2.2224999999999979
  1
mute
 41
0.8
 11
70.999999999999972
 21
69.787134162071695
 31
0.0
 73
     3
  0
CIRCLE
  5
12E
  8
DATA
  6
CONTINUOUS
 62
     7
 10
74.999999999999986
 20
97.955752266978493
 30
0.0
 40
1.5000000000000031
  0
TEXT
  5
12F
  8
DATA
 62
     7
 10
68.685336894323299
 20
102.5691466626005
 30
0.0
 40
2.9319140625000002
  1
PGX2
 41
0.8
 11
68.685336894323299
 21
105.5010607251005
 31
0.0
 73
     3
  0
CIRCLE
  5
130
  8
DATA
  6
CONTINUOUS
 62
     7
 10
74.999999999999986
 20
-104.54424773301911
 30
0.0
 40
26.999400000000019
  0
CIRCLE
  5
131
  8
DATA
  6
CONTINUOUS
 62
     7
 10
74.999999999999986
 20
-104.54424773301911
 30
0.0
 40
13.764400000000011
  0
CIRCLE
  5
132
  8
DATA
  6
CONTINUOUS
 62
     7
 10
74.999999999999986
 20
-104.54424773301911
 30
0.0
 40
19.587800000000009
  0
CIRCLE
  5
133
  8
DATA
  6
CONTINUOUS
 62
     7
 10
74.999999999999986
 20
-104.54424773301911
 30
0.0
 40
20.381900000000009
  0
TEXT
  5
134
  8
DATA
 62
     7
 10
66.529599999999988
 20
-105.2117440072324
 30
0.0
 40
3.5297744999999989
  1
SHURE
 41
0.8
 11
66.529599999999988
 21
-101.6819695072324
 31
0.0
 73
     3
  0
CIRCLE
  5
135
  8
DATA
  6
CONTINUOUS
 62
     7
 10
74.999999999999986
 20
-104.54424773301911
 30
0.0
 40
17.999600000000012
  0
ARC
  5
136
  8
DATA
  6
CONTINUOUS
 62
     7
 10
68.499999999999986
 20
105.45575226697839
 30
0.0
 40
4.9999999999999183
 50
90.0
 51
180.0
  0
ARC
  5
137
  8
DATA
  6
CONTINUOUS
 62
     7
 10
81.5
 20
105.45575226697839
 30
0.0
 40
4.9999999999999956
 50
0.0
 51
90.0
  0
ARC
  5
138
  8
DATA
  6
CONTINUOUS
 62
     7
 10
74.999999999999986
 20
72.705752266978791
 30
0.0
 40
0.9999999999999856
 50
120.0000000000023
 51
60.000000000000469
  0
LINE
  5
139
  8
DATA
  6
CONTINUOUS
 62
     7
 10
74.999999999999986
 20
74.205752266978664
 30
0.0
 11
74.999999999999986
 21
73.205752266978777
 31
0.0
  0
LINE
  5
13A
  8
DATA
  6
CONTINUOUS
 62
     7
 10
68.999999999999972
 20
73.955752266978777
 30
0.0
 11
68.999999999999972
 21
71.955752266978678
 31
0.0
  0
LINE
  5
13B
  8
DATA
  6
CONTINUOUS
 62
     7
 10
70.999999999999972
 20
69.95575226697882
 30
0.0
 11
79.0
 21
69.95575226697882
 31
0.0
  0
LINE
  5
13C
  8
DATA
  6
CONTINUOUS
 62
     7
 10
81.0
 20
71.955752266978678
 30
0.0
 11
81.0
 21
73.955752266978777
 31
0.0
  0
ARC
  5
13D
  8
DATA
  6
CONTINUOUS
 62
     7
 10
70.999999999999972
 20
73.955752266978777
 30
0.0
 40
1.9999999999999849
 50
90.0
 51
180.0
  0
ARC
  5
13E
  8
DATA
  6
CONTINUOUS
 62
     7
 10
70.999999999999972
 20
71.955752266978678
 30
0.0
 40
2.0
 50
180.0
 51
270.0
  0
ARC
  5
13F
  8
DATA
  6
CONTINUOUS
 62
     7
 10
79.0
 20
73.955752266978777
 30
0.0
 40
2.0
 50
0.0
 51
90.0
  0
ARC
  5
140
  8
DATA
  6
CONTINUOUS
 62
     7
 10
79.0
 20
71.955752266978678
 30
0.0
 40
1.9999999999999849
 50
270.0
 51
0.0
  0
ARC
  5
141
  8
DATA
  6
CONTINUOUS
 62
     7
 10
70.999999999999972
 20
73.955752266978777
 30
0.0
 40
0.9999999999999857
 50
90.0
 51
180.0
  0
LINE
  5
142
  8
DATA
  6
CONTINUOUS
 62
     7
 10
79.0
 20
74.955752266978763
 30
0.0
 11
70.999999999999972
 21
74.955752266978763
 31
0.0
  0
ARC
  5
143
  8
DATA
  6
CONTINUOUS
 62
     7
 10
79.0
 20
73.955752266978777
 30
0.0
 40
1.0
 50
0.0
 51
90.0
  0
LINE
  5
144
  8
DATA
  6
CONTINUOUS
 62
     7
 10
80.0
 20
71.955752266978678
 30
0.0
 11
80.0
 21
73.955752266978777
 31
0.0
  0
ARC
  5
145
  8
DATA
  6
CONTINUOUS
 62
     7
 10
79.0
 20
71.955752266978678
 30
0.0
 40
0.9999999999999857
 50
270.0
 51
0.0
  0
LINE
  5
146
  8
DATA
  6
CONTINUOUS
 62
     7
 10
70.999999999999972
 20
70.955752266978806
 30
0.0
 11
79.0
 21
70.955752266978806
 31
0.0
  0
ARC
  5
147
  8
DATA
  6
CONTINUOUS
 62
     7
 10
70.999999999999972
 20
71.955752266978678
 30
0.0
 40
1.0
 50
180.0
 51
270.0
  0
LINE
  5
148
  8
DATA
  6
CONTINUOUS
 62
     7
 10
69.999999999999972
 20
73.955752266978777
 30
0.0
 11
69.999999999999972
 21
71.955752266978678
 31
0.0
  0
LINE
  5
149
  8
DATA
  6
CONTINUOUS
 62
     7
 10
56.449999999999989
 20
166.65575226697851
 30
0.0
 11
93.499999999999986
 21
166.65575226697851
 31
0.0
  0
LINE
  5
14A
  8
DATA
  6
CONTINUOUS
 62
     7
 10
56.5
 20
157.45575226697841
 30
0.0
 11
93.499999999999986
 21
157.45575226697841
 31
0.0
  0
POLYLINE
  5
14B
  8
DATA
  6
CONTINUOUS
 62
     7
 66
     1
 10
0.0
 20
0.0
 30
0.0
 70
     1
  0
VERTEX
  5
1C5
  8
DATA
  6
CONTINUOUS
 62
     7
 10
47.975000000000179
 20
201.45575226697881
 30
0.0
  0
VERTEX
  5
1C6
  8
DATA
  6
CONTINUOUS
 62
     7
 10
101.97499999999989
 20
201.45575226697881
 30
0.0
  0
VERTEX
  5
1C7
  8
DATA
  6
CONTINUOUS
 62
     7
 10
101.97499999999989
 20
197.45575226697881
 30
0.0
  0
VERTEX
  5
1C8
  8
DATA
  6
CONTINUOUS
 62
     7
 10
47.975000000000179
 20
197.45575226697881
 30
0.0
  0
SEQEND
  5
1C9
  8
DATA
  6
CONTINUOUS
 62
     7
  0
ARC
  5
152
  8
DATA
  6
CONTINUOUS
 62
     7
 10
74.97499999999998
 20
201.38432369555031
 30
0.0
 40
26.071428571428559
 50
0.1569749347705205
 51
179.84302506522931
  0
ARC
  5
153
  8
DATA
  6
CONTINUOUS
 62
     7
 10
119.0423777566252
 20
207.2911671393698
 30
0.0
 40
70.504121524291591
 50
188.01898823985991
 51
201.2343401755337
  0
LINE
  5
154
  8
DATA
  6
CONTINUOUS
 62
     7
 10
54.975000000000037
 20
176.1557522669786
 30
0.0
 11
53.325000000000067
 21
181.7557522669787
 31
0.0
  0
LINE
  5
155
  8
DATA
  6
CONTINUOUS
 62
     7
 10
94.974999999999966
 20
176.1557522669786
 30
0.0
 11
96.624999999999986
 21
181.7557522669787
 31
0.0
  0
LINE
  5
156
  8
DATA
  6
CONTINUOUS
 62
     7
 10
53.325000000000067
 20
181.7557522669787
 30
0.0
 11
96.624999999999986
 21
181.7557522669787
 31
0.0
  0
LINE
  5
157
  8
DATA
  6
CONTINUOUS
 62
     7
 10
94.974999999999966
 20
176.1557522669786
 30
0.0
 11
54.975000000000037
 21
176.1557522669786
 31
0.0
  0
LINE
  5
158
  8
DATA
  6
CONTINUOUS
 62
     7
 10
56.5
 20
157.45575226697841
 30
0.0
 11
56.449999999999989
 21
166.65575226697851
 31
0.0
  0
LINE
  5
159
  8
DATA
  6
CONTINUOUS
 62
     7
 10
93.499999999999986
 20
157.45575226697841
 30
0.0
 11
93.499999999999986
 21
166.65575226697851
 31
0.0
  0
TEXT
  5
15A
  8
DATA
 62
     7
 10
78.456376001497361
 20
160.99241231192579
 30
0.0
 40
3.2576822916666659
  1
PG58
 41
0.8
 11
78.456376001497361
 21
164.2500946035924
 31
0.0
 73
     3
  0
ARC
  5
15B
  8
DATA
  6
CONTINUOUS
 62
     7
 10
74.97499999999998
 20
187.52247559428909
 30
0.0
 40
29.999999999999901
 50
152.2926451994818
 51
152.32584881892831
  0
ARC
  5
15C
  8
DATA
  6
CONTINUOUS
 62
     7
 10
74.97499999999998
 20
175.02247559428901
 30
0.0
 40
30.000000000000188
 50
232.06776191855309
 51
232.06776277232669
  0
POLYLINE
  5
15D
  8
DATA
  6
CONTINUOUS
 62
     7
 66
     1
 10
0.0
 20
0.0
 30
0.0
 70
   129
  0
VERTEX
  5
1CA
  8
DATA
  6
CONTINUOUS
 62
     7
 10
53.038225994142671
 20
197.45575259386209
 30
0.0
  0
VERTEX
  5
1CB
  8
DATA
  6
CONTINUOUS
 62
     7
 10
53.038225994142671
 20
197.45575259386209
 30
0.0
 42
26322261.968505759
  0
VERTEX
  5
1CC
  8
DATA
  6
CONTINUOUS
 62
     7
 10
53.038226179852771
 20
197.4557523947872
 30
0.0
  0
VERTEX
  5
1CD
  8
DATA
  6
CONTINUOUS
 62
     7
 10
53.038226299080968
 20
197.45575226697869
 30
0.0
  0
VERTEX
  5
1CE
  8
DATA
  6
CONTINUOUS
 62
     7
 10
53.038226299080968
 20
197.45575226697869
 30
0.0
  0
VERTEX
  5
1CF
  8
DATA
  6
CONTINUOUS
 62
     7
 10
53.038225994142678
 20
197.45575259386209
 30
0.0
  0
SEQEND
  5
1D0
  8
DATA
  6
CONTINUOUS
 62
     7
  0
ARC
  5
165
  8
DATA
  6
CONTINUOUS
 62
     7
 10
74.97499999999998
 20
215.41981734688571
 30
0.0
 40
29.99999999999989
 50
207.70735480051789
 51
207.74056852841099
  0
ARC
  5
166
  8
DATA
  6
CONTINUOUS
 62
     7
 10
74.97499999999998
 20
210.41981734688571
 30
0.0
 40
30.000000000000021
 50
338.56356148488197
 51
338.56356233865557
  0
ARC
  5
167
  8
DATA
  6
CONTINUOUS
 62
     7
 10
30.907622243375261
 20
207.2911671393698
 30
0.0
 40
70.504121524291364
 50
338.76565982446618
 51
351.98101176014012
  0
LINE
  5
168
  8
DATA
  6
CONTINUOUS
 62
     7
 10
56.449999999999989
 20
166.65575226697851
 30
0.0
 11
54.975000000000037
 21
176.1557522669786
 31
0.0
  0
LINE
  5
169
  8
DATA
  6
CONTINUOUS
 62
     7
 10
93.499999999999986
 20
166.65575226697851
 30
0.0
 11
94.974999999999966
 21
176.1557522669786
 31
0.0
  0
TEXT
  5
16A
  8
DATA
 62
     7
 10
241.35888800367249
 20
-194.19532928865269
 30
0.0
 40
7.3297774609374979
  1
SHURE
 41
0.8
 11
241.35888800367249
 21
-186.86555182771519
 31
0.0
 73
     3
  0
TEXT
  5
16B
  8
DATA
 62
     7
 10
231.30269447144491
 20
-204.6524828695365
 30
0.0
 40
5.7009440104166647
  1
ハンドヘルド型送信機
 41
0.8
 11
231.30269447144491
 21
-198.95153885911981
 31
0.0
 73
     3
  0
TEXT
  5
16C
  8
DATA
 62
     7
 10
231.34649635725521
 20
-216.88347750323649
 30
0.0
 40
7.3297851562499989
  1
PGX2/PG58
 41
0.8
 11
231.34649635725521
 21
-209.55369234698651
 31
0.0
 73
     3
  0
TEXT
  5
16D
  8
DATA
 62
     7
 10
-139.9411019963274
 20
-237.23024208831609
 30
0.0
 40
4.8865234374999993
  1
仕様および外観は予告なく変更されることがありますので、ご了承ください。
 41
0.8
 11
-139.9411019963274
 21
-232.3437186508161
 31
0.0
 73
     3
  0
ENDSEC
  0
EOF
