  0
SECTION
  2
HEADER
  9
$ACADVER
  1
AC1009
  9
$INSBASE
 10
0.0
 20
0.0
 30
0.0
  9
$EXTMIN
 10
-75.016463234006096
 20
-145.56798085595321
 30
-0.0006685383398626
  9
$EXTMAX
 10
465.01646574857631
 20
657.32218227010947
 30
0.0000000153022128
  9
$LIMMIN
 10
0.0
 20
0.0
  9
$LIMMAX
 10
0.0
 20
0.0
  9
$ORTHOMODE
 70
     0
  9
$REGENMODE
 70
     1
  9
$FILLMODE
 70
     1
  9
$QTEXTMODE
 70
     0
  9
$MIRRTEXT
 70
     1
  9
$DRAGMODE
 70
     2
  9
$LTSCALE
 40
15.24
  9
$OSMODE
 70
   231
  9
$ATTMODE
 70
     1
  9
$TEXTSIZE
 40
0.0
  9
$TRACEWID
 40
1.0
  9
$TEXTSTYLE
  7
STANDARD
  9
$CLAYER
  8
DATA
  9
$CELTYPE
  6
CONTINUOUS
  9
$CECOLOR
 62
   256
  9
$DIMSCALE
 40
1.0
  9
$DIMASZ
 40
0.18
  9
$DIMEXO
 40
0.0625
  9
$DIMDLI
 40
0.38
  9
$DIMRND
 40
0.0
  9
$DIMDLE
 40
0.0
  9
$DIMEXE
 40
0.18
  9
$DIMTP
 40
0.0
  9
$DIMTM
 40
0.0
  9
$DIMTXT
 40
0.18
  9
$DIMCEN
 40
0.09
  9
$DIMTSZ
 40
0.0
  9
$DIMTOL
 70
     0
  9
$DIMLIM
 70
     0
  9
$DIMTIH
 70
     1
  9
$DIMTOH
 70
     1
  9
$DIMSE1
 70
     0
  9
$DIMSE2
 70
     0
  9
$DIMTAD
 70
     0
  9
$DIMZIN
 70
     0
  9
$DIMBLK
  1

  9
$DIMASO
 70
     1
  9
$DIMSHO
 70
     1
  9
$DIMPOST
  1

  9
$DIMAPOST
  1

  9
$DIMALT
 70
     0
  9
$DIMALTD
 70
     2
  9
$DIMALTF
 40
25.399999999999999
  9
$DIMLFAC
 40
1.0
  9
$DIMTOFL
 70
     0
  9
$DIMTVP
 40
0.0
  9
$DIMTIX
 70
     0
  9
$DIMSOXD
 70
     0
  9
$DIMSAH
 70
     0
  9
$DIMBLK1
  1

  9
$DIMBLK2
  1

  9
$DIMSTYLE
  2
STANDARD
  9
$DIMCLRD
 70
     0
  9
$DIMCLRE
 70
     0
  9
$DIMCLRT
 70
     0
  9
$DIMTFAC
 40
1.0
  9
$DIMGAP
 40
0.09
  9
$LUNITS
 70
     2
  9
$LUPREC
 70
     4
  9
$SKETCHINC
 40
0.1
  9
$FILLETRAD
 40
0.0
  9
$AUNITS
 70
     0
  9
$AUPREC
 70
     0
  9
$MENU
  1
acad
  9
$ELEVATION
 40
0.0
  9
$PELEVATION
 40
0.0
  9
$THICKNESS
 40
0.0
  9
$LIMCHECK
 70
     0
  9
$BLIPMODE
 70
     0
  9
$CHAMFERA
 40
0.0
  9
$CHAMFERB
 40
0.0
  9
$SKPOLY
 70
     0
  9
$TDCREATE
 40
2453780.703923611
  9
$TDUPDATE
 40
2453780.7159705558
  9
$TDINDWG
 40
0.0002009144
  9
$TDUSRTIMER
 40
0.0002007292
  9
$USRTIMER
 70
     1
  9
$ANGBASE
 50
0.0
  9
$ANGDIR
 70
     0
  9
$PDMODE
 70
     1
  9
$PDSIZE
 40
-2.0
  9
$PLINEWID
 40
0.0
  9
$COORDS
 70
     2
  9
$SPLFRAME
 70
     0
  9
$SPLINETYPE
 70
     6
  9
$SPLINESEGS
 70
     8
  9
$ATTDIA
 70
     0
  9
$ATTREQ
 70
     1
  9
$HANDLING
 70
     1
  9
$HANDSEED
  5
23D
  9
$SURFTAB1
 70
     6
  9
$SURFTAB2
 70
     6
  9
$SURFTYPE
 70
     6
  9
$SURFU
 70
     6
  9
$SURFV
 70
     6
  9
$UCSNAME
  2

  9
$UCSORG
 10
0.0
 20
0.0
 30
0.0
  9
$UCSXDIR
 10
1.0
 20
0.0
 30
0.0
  9
$UCSYDIR
 10
0.0
 20
1.0
 30
0.0
  9
$PUCSNAME
  2

  9
$PUCSORG
 10
0.0
 20
0.0
 30
0.0
  9
$PUCSXDIR
 10
1.0
 20
0.0
 30
0.0
  9
$PUCSYDIR
 10
0.0
 20
1.0
 30
0.0
  9
$USERI1
 70
     0
  9
$USERI2
 70
     0
  9
$USERI3
 70
     0
  9
$USERI4
 70
     0
  9
$USERI5
 70
     0
  9
$USERR1
 40
0.0
  9
$USERR2
 40
0.0
  9
$USERR3
 40
0.0
  9
$USERR4
 40
0.0
  9
$USERR5
 40
0.0
  9
$WORLDVIEW
 70
     1
  9
$SHADEDGE
 70
     3
  9
$SHADEDIF
 70
    70
  9
$TILEMODE
 70
     1
  9
$MAXACTVP
 70
    64
  9
$PLIMCHECK
 70
     0
  9
$PEXTMIN
 10
1.0000000000000000E+020
 20
1.0000000000000000E+020
 30
1.0000000000000000E+020
  9
$PEXTMAX
 10
-1.0000000000000000E+020
 20
-1.0000000000000000E+020
 30
-1.0000000000000000E+020
  9
$PLIMMIN
 10
0.0
 20
0.0
  9
$PLIMMAX
 10
12.0
 20
9.0
  9
$UNITMODE
 70
     0
  9
$VISRETAIN
 70
     0
  9
$PLINEGEN
 70
     1
  9
$PSLTSCALE
 70
     0
  0
ENDSEC
  0
SECTION
  2
TABLES
  0
TABLE
  2
VPORT
 70
     2
  0
VPORT
  2
*ACTIVE
 70
     0
 10
0.0
 20
0.0
 11
1.0
 21
1.0
 12
195.00000125728519
 22
255.87710070707811
 13
0.0
 23
0.0
 14
1.0
 24
1.0
 15
0.0
 25
0.0
 16
0.0
 26
0.0
 36
1.0
 17
0.0
 27
0.0
 37
0.0
 40
809.53477137262325
 41
1.665745856353591
 42
50.0
 43
0.0
 44
0.0
 50
0.0
 51
0.0
 71
     0
 72
  2000
 73
     1
 74
     1
 75
     0
 76
     0
 77
     0
 78
     0
  0
ENDTAB
  0
TABLE
  2
LTYPE
 70
    11
  0
LTYPE
  2
CONTINUOUS
 70
     0
  3
Solid line
 72
    65
 73
     0
 40
0.0
  0
LTYPE
  2
STYLE_01
 70
     0
  3

 72
    65
 73
     2
 40
0.4166412353515625
 49
0.208282470703125
 49
-0.2083587646484375
  0
ENDTAB
  0
TABLE
  2
LAYER
 70
     5
  0
LAYER
  2
0
 70
     0
 62
     7
  6
CONTINUOUS
  0
LAYER
  2
DATA
 70
     0
 62
     7
  6
CONTINUOUS
  0
LAYER
  2
HIBINO-BASE
 70
     0
 62
     7
  6
CONTINUOUS
  0
LAYER
  2
SPEC
 70
     0
 62
     7
  6
CONTINUOUS
  0
LAYER
  2
DIMNSIONS
 70
     0
 62
     7
  6
CONTINUOUS
  0
ENDTAB
  0
TABLE
  2
STYLE
 70
     2
  0
STYLE
  2
STANDARD
 70
     0
 40
0.0
 41
1.0
 50
0.0
 71
     0
 42
0.0
  3
txt
  4
BIGFONT.SHX
  0
ENDTAB
  0
TABLE
  2
VIEW
 70
     0
  0
ENDTAB
  0
TABLE
  2
UCS
 70
     0
  0
ENDTAB
  0
TABLE
  2
APPID
 70
     1
  0
APPID
  2
ACAD
 70
     0
  0
ENDTAB
  0
TABLE
  2
DIMSTYLE
 70
     1
  0
DIMSTYLE
  2
STANDARD
 70
     0
  3

  4

  5

  6

  7

 40
1.0
 41
0.18
 42
0.0625
 43
0.38
 44
0.18
 45
0.0
 46
0.0
 47
0.0
 48
0.0
140
0.18
141
0.09
142
0.0
143
25.399999999999999
144
1.0
145
0.0
146
1.0
147
0.09
 71
     0
 72
     0
 73
     1
 74
     1
 75
     0
 76
     0
 77
     0
 78
     0
170
     0
171
     2
172
     0
173
     0
174
     0
175
     0
176
     0
177
     0
178
     0
  0
ENDTAB
  0
ENDSEC
  0
SECTION
  2
BLOCKS
  0
BLOCK
  8
0
  2
$MODEL_SPACE
 70
     0
 10
0.0
 20
0.0
 30
0.0
  3
$MODEL_SPACE
  1

  0
ENDBLK
  5
217
  8
0
  0
BLOCK
 67
     1
  8
0
  2
$PAPER_SPACE
 70
     0
 10
0.0
 20
0.0
 30
0.0
  3
$PAPER_SPACE
  1

  0
ENDBLK
  5
213
 67
     1
  8
0
  0
BLOCK
  8
DATA
  2
____
 70
     0
 10
0.0
 20
0.0
 30
0.0
  3
____
  1

  0
LINE
  5
2E
  8
0
  6
CONTINUOUS
 62
     7
 10
82.004715409431327
 20
-254.00000000000011
 30
0.0
 11
82.004715409431327
 21
-246.00000000000131
 31
0.0
  0
LINE
  5
2F
  8
0
  6
CONTINUOUS
 62
     7
 10
80.028308643261468
 20
-246.5000000000002
 30
0.0
 11
82.031374031040855
 21
-246.5000000000002
 31
0.0
  0
LINE
  5
30
  8
0
  6
CONTINUOUS
 62
     7
 10
80.028308643261468
 20
-246.4999999999971
 30
0.0
 11
80.088968815037575
 21
-212.7186971870839
 31
0.0
  0
LINE
  5
31
  8
0
  6
CONTINUOUS
 62
     7
 10
75.149628986813738
 20
-246.4999999999971
 30
0.0
 11
75.088968815037575
 21
-212.7186971870839
 31
0.0
  0
LINE
  5
32
  8
0
  6
CONTINUOUS
 62
     7
 10
80.738219770388525
 20
-211.02823094142479
 30
0.0
 11
81.060283557390449
 21
-204.8313338011377
 31
0.0
  0
LINE
  5
33
  8
0
  6
CONTINUOUS
 62
     7
 10
74.372907521012834
 20
-210.70216311268399
 30
0.0
 11
74.117654072684772
 21
-204.83133380113759
 31
0.0
  0
LINE
  5
34
  8
0
  6
CONTINUOUS
 62
     7
 10
80.719150970454947
 20
-203.6244512387234
 30
0.0
 11
79.003182377410695
 21
-201.08578643762601
 31
0.0
  0
LINE
  5
35
  8
0
  6
CONTINUOUS
 62
     7
 10
76.174755252664482
 20
-201.08578643762601
 30
0.0
 11
74.458786659620273
 21
-203.62445123872331
 31
0.0
  0
ARC
  5
36
  8
0
  6
CONTINUOUS
 62
     7
 10
77.588968815037575
 20
-202.49999999999909
 30
0.0
 40
2.0000000000000151
 50
45.0
 51
135.0
  0
ARC
  5
37
  8
0
  6
CONTINUOUS
 62
     7
 10
79.062171240680314
 20
-204.74445935258521
 30
0.0
 40
1.999999999999996
 50
357.51044707800349
 51
34.056078306811969
  0
ARC
  5
38
  8
0
  6
CONTINUOUS
 62
     7
 10
76.11576638939485
 20
-204.7444593525851
 30
0.0
 40
2.0000000000000151
 50
145.9439216931876
 51
182.48955292199651
  0
ARC
  5
39
  8
0
  6
CONTINUOUS
 62
     7
 10
77.588968815037617
 20
-246.4999999999971
 30
0.0
 40
2.439339828223865
 50
180.0
 51
0.0
  0
LINE
  5
3A
  8
0
  6
CONTINUOUS
 62
     7
 10
79.195732958082431
 20
-248.33539853606081
 30
0.0
 11
82.004715409431327
 21
-248.33539853606081
 31
0.0
  0
ARC
  5
3B
  8
0
  6
CONTINUOUS
 62
     7
 10
76.811421176073893
 20
-250.91769926803121
 30
0.0
 40
2.5999999999998642
 50
106.20892163497641
 51
270.3888841605887
  0
LINE
  5
3C
  8
0
  6
CONTINUOUS
 62
     7
 10
75.149628986813738
 20
-246.4999999999971
 30
0.0
 11
74.435835216782408
 21
-249.86101040653841
 31
0.0
  0
LINE
  5
3D
  8
0
  6
CONTINUOUS
 62
     7
 10
80.028308643261539
 20
-246.4999999999971
 30
0.0
 11
80.418100962266848
 21
-248.33539853606081
 31
0.0
  0
ARC
  5
3E
  8
0
  6
CONTINUOUS
 62
     7
 10
77.588968815037617
 20
-245.9999999999971
 30
0.0
 40
2.439339828223865
 50
180.0
 51
0.0
  0
LINE
  5
3F
  8
0
  6
CONTINUOUS
 62
     7
 10
76.81142117607402
 20
-253.51769926803101
 30
0.0
 11
82.004715409431327
 21
-253.51769926803101
 31
0.0
  0
LINE
  5
40
  8
0
  6
CONTINUOUS
 62
     7
 10
80.00034229856584
 20
-246.8683160605996
 30
0.0
 11
80.311913583518788
 21
-248.33539853606081
 31
0.0
  0
ARC
  5
41
  8
0
  6
CONTINUOUS
 62
     7
 10
77.588968815037575
 20
-210.69999999999919
 30
0.0
 40
3.1663097022711488
 50
179.99999999999901
 51
359.99999999999892
  0
ENDBLK
  5
42
  8
DATA
  0
ENDSEC
  0
SECTION
  2
ENTITIES
  0
LINE
  5
43
  8
HIBINO-BASE
  6
CONTINUOUS
 62
     7
 10
-74.999985000000066
 20
657.29772999999989
 30
0.0
 11
464.99998499999992
 21
657.29772999999989
 31
0.0
  0
LINE
  5
44
  8
HIBINO-BASE
  6
CONTINUOUS
 62
     7
 10
464.99998499999992
 20
-122.70225499999999
 30
0.0
 11
-74.999985000000066
 21
-122.70225499999999
 31
0.0
  0
LINE
  5
45
  8
HIBINO-BASE
  6
CONTINUOUS
 62
     7
 10
-74.999985000000066
 20
-122.70225499999999
 30
0.0
 11
-74.999985000000066
 21
657.29772999999989
 31
0.0
  0
TEXT
  5
46
  8
HIBINO-BASE
 62
     7
 10
-53.447984999999989
 20
-141.9282754999999
 30
0.0
 40
10.800120996093741
  1
Hibino Corporation
 41
0.8
 11
-53.447984999999989
 21
-131.12815450390619
 31
0.0
 73
     3
  0
LINE
  5
47
  8
HIBINO-BASE
  6
CONTINUOUS
 62
     7
 10
464.99998499999992
 20
657.29772999999989
 30
0.0
 11
464.99998499999992
 21
-122.70225499999999
 31
0.0
  0
LINE
  5
48
  8
HIBINO-BASE
  6
CONTINUOUS
 62
     7
 10
195.0
 20
-55.202269999999999
 30
0.0
 11
464.99998499999992
 21
-55.202269999999999
 31
0.0
  0
LINE
  5
49
  8
HIBINO-BASE
  6
CONTINUOUS
 62
     7
 10
195.0
 20
-122.70225499999999
 30
0.0
 11
195.0
 21
-55.202269999999999
 31
0.0
  0
TEXT
  5
4A
  8
HIBINO-BASE
 62
     7
 10
197.699985
 20
-63.302279600000013
 30
0.0
 40
5.4000778125000002
  1
NOTE
 41
0.8
 11
197.699985
 21
-57.902201787500019
 31
0.0
 73
     3
  0
LINE
  5
4B
  8
HIBINO-BASE
  6
CONTINUOUS
 62
     7
 10
300.0
 20
-122.70225499999999
 30
0.0
 11
300.0
 21
-55.202269999999999
 31
0.0
  0
TEXT
  5
4C
  8
HIBINO-BASE
 62
     7
 10
302.69999999999987
 20
-63.302279600000013
 30
0.0
 40
5.4000778125000002
  1
TITLE
 41
0.8
 11
302.69999999999987
 21
-57.902201787500019
 31
0.0
 73
     3
  0
TEXT
  5
4D
  8
HIBINO-BASE
 62
     7
 10
345.20515499999999
 20
-141.9282754999999
 30
0.0
 40
10.800120996093741
  1
ヒビノ株式会社
 41
0.8
 11
345.20515499999999
 21
-131.12815450390619
 31
0.0
 73
     3
  0
LINE
  5
4E
  8
HIBINO-BASE
  6
CONTINUOUS
 62
     7
 10
195.0
 20
-92.702270000000013
 30
0.0
 11
464.99998499999992
 21
-92.702270000000013
 31
0.0
  0
TEXT
  5
4F
  8
HIBINO-BASE
 62
     7
 10
340.19999999999999
 20
-100.6333045999999
 30
0.0
 40
5.4000778125000002
  1
DRAWN
 41
0.8
 11
340.19999999999999
 21
-95.233226787499959
 31
0.0
 73
     3
  0
TEXT
  5
50
  8
HIBINO-BASE
 62
     7
 10
265.19999999999999
 20
-100.6333045999999
 30
0.0
 40
5.4000778125000002
  1
DATE
 41
0.8
 11
265.19999999999999
 21
-95.233226787499959
 31
0.0
 73
     3
  0
TEXT
  5
51
  8
HIBINO-BASE
 62
     7
 10
198.29998499999999
 20
-100.5606107
 30
0.0
 40
4.8865195898437506
  1
図面サイズ
 41
0.8
 11
198.29998499999999
 21
-95.674091110156283
 31
0.0
 73
     3
  0
TEXT
  5
52
  8
HIBINO-BASE
 62
     7
 10
235.199985
 20
-100.6333045999999
 30
0.0
 40
5.4000778125000002
  1
SCALE
 41
0.8
 11
235.199985
 21
-95.233226787499959
 31
0.0
 73
     3
  0
TEXT
  5
53
  8
HIBINO-BASE
 62
     7
 10
302.69999999999987
 20
-100.6333045999999
 30
0.0
 40
5.4000778125000002
  1
DESIGN
 41
0.8
 11
302.69999999999987
 21
-95.233226787499959
 31
0.0
 73
     3
  0
TEXT
  5
54
  8
HIBINO-BASE
 62
     7
 10
415.19998500000003
 20
-100.6333045999999
 30
0.0
 40
5.4000778125000002
  1
DRAWING NO.
 41
0.8
 11
415.19998500000003
 21
-95.233226787499959
 31
0.0
 73
     3
  0
TEXT
  5
55
  8
HIBINO-BASE
 62
     7
 10
377.69998500000003
 20
-100.6333045999999
 30
0.0
 40
5.4000778125000002
  1
CHECK
 41
0.8
 11
377.69998500000003
 21
-95.233226787499959
 31
0.0
 73
     3
  0
LINE
  5
56
  8
HIBINO-BASE
  6
CONTINUOUS
 62
     7
 10
238.12498500000001
 20
-118.95227
 30
0.0
 11
249.375
 21
-107.70227
 31
0.0
  0
TEXT
  5
57
  8
HIBINO-BASE
 62
     7
 10
236.24998500000001
 20
-112.84941259999989
 30
0.0
 40
6.515359453124999
  1
1
 41
0.8
 11
236.24998500000001
 21
-106.33405314687489
 31
0.0
 73
     3
  0
LINE
  5
58
  8
HIBINO-BASE
  6
CONTINUOUS
 62
     7
 10
232.49998500000001
 20
-122.70225499999999
 30
0.0
 11
232.49998500000001
 21
-92.702270000000013
 31
0.0
  0
LINE
  5
59
  8
HIBINO-BASE
  6
CONTINUOUS
 62
     7
 10
262.49998499999998
 20
-122.70225499999999
 30
0.0
 11
262.49998499999998
 21
-92.702270000000013
 31
0.0
  0
LINE
  5
5A
  8
HIBINO-BASE
  6
CONTINUOUS
 62
     7
 10
337.49998500000009
 20
-92.702270000000013
 30
0.0
 11
337.49998500000009
 21
-122.70225499999999
 31
0.0
  0
LINE
  5
5B
  8
HIBINO-BASE
  6
CONTINUOUS
 62
     7
 10
412.5
 20
-92.702270000000013
 30
0.0
 11
412.5
 21
-122.70225499999999
 31
0.0
  0
LINE
  5
5C
  8
HIBINO-BASE
  6
CONTINUOUS
 62
     7
 10
374.99998499999992
 20
-122.70225499999999
 30
0.0
 11
374.99998499999992
 21
-92.702270000000013
 31
0.0
  0
TEXT
  5
5D
  8
HIBINO-BASE
 62
     7
 10
206.73267000000001
 20
-115.2068734999999
 30
0.0
 40
9.7730276367187496
  1
A4
 41
0.8
 11
206.73267000000001
 21
-105.43384586328121
 31
0.0
 73
     3
  0
TEXT
  5
5E
  8
HIBINO-BASE
 62
     7
 10
270.72395988305408
 20
-114.6852445999999
 30
0.0
 40
5.4000778125000002
  1
'05.12
 41
0.8
 11
270.72395988305408
 21
-109.2851667874999
 31
0.0
 73
     3
  0
TEXT
  5
5F
  8
HIBINO-BASE
 62
     7
 10
247.5
 20
-118.47441259999999
 30
0.0
 40
6.515359453124999
  1
3
 41
0.8
 11
247.5
 21
-111.95905314687489
 31
0.0
 73
     3
  0
LINE
  5
60
  8
SPEC
  6
CONTINUOUS
 62
     7
 10
-52.499985000000073
 20
627.29772999999989
 30
0.0
 11
410.0
 21
627.29772999999989
 31
0.0
  0
LINE
  5
61
  8
SPEC
  6
CONTINUOUS
 62
     7
 10
-52.499985000000073
 20
616.04773
 30
0.0
 11
410.0
 21
616.04773
 31
0.0
  0
LINE
  5
62
  8
SPEC
  6
CONTINUOUS
 62
     7
 10
-52.499985000000073
 20
582.29772999999989
 30
0.0
 11
410.0
 21
582.29772999999989
 31
0.0
  0
LINE
  5
63
  8
SPEC
  6
CONTINUOUS
 62
     7
 10
-52.499985000000073
 20
593.54773
 30
0.0
 11
410.0
 21
593.54773
 31
0.0
  0
LINE
  5
64
  8
SPEC
  6
CONTINUOUS
 62
     7
 10
-52.499985000000073
 20
604.79773
 30
0.0
 11
410.0
 21
604.79773
 31
0.0
  0
TEXT
  5
65
  8
SPEC
 62
     7
 10
65.200014999999979
 20
618.41146833333323
 30
0.0
 40
5.7009440104166647
  1
F3E
 41
0.8
 11
65.200014999999979
 21
624.11241234374995
 31
0.0
 73
     3
  0
LINE
  5
66
  8
SPEC
  6
CONTINUOUS
 62
     7
 10
-52.499985000000073
 20
627.29772999999989
 30
0.0
 11
-52.499985000000073
 21
514.79772999999989
 31
0.0
  0
TEXT
  5
67
  8
SPEC
 62
     7
 10
-48.749985000000073
 20
631.47752500000001
 30
0.0
 40
7.3297851562500007
  1
仕様
 41
0.8
 11
-48.749985000000073
 21
638.80731015624997
 31
0.0
 73
     3
  0
LINE
  5
68
  8
SPEC
  6
CONTINUOUS
 62
     7
 10
59.999999999999972
 20
627.29772999999989
 30
0.0
 11
59.999999999999972
 21
514.79772999999989
 31
0.0
  0
LINE
  5
69
  8
SPEC
  6
CONTINUOUS
 62
     7
 10
410.0
 20
627.29772999999989
 30
0.0
 11
410.0
 21
514.79772999999989
 31
0.0
  0
TEXT
  5
6A
  8
SPEC
 62
     7
 10
-49.799985000000021
 20
618.41146833333323
 30
0.0
 40
5.7009440104166647
  1
電波型式
 41
0.8
 11
-49.799985000000021
 21
624.11241234374995
 31
0.0
 73
     3
  0
TEXT
  5
6B
  8
SPEC
 62
     7
 10
-49.799985000000021
 20
607.16148333333297
 30
0.0
 40
5.7009440104166647
  1
受信周波数
 41
0.8
 11
-49.799985000000021
 21
612.86242734374969
 31
0.0
 73
     3
  0
TEXT
  5
6C
  8
SPEC
 62
     7
 10
-49.799985000000021
 20
595.91148333333297
 30
0.0
 40
5.7009440104166647
  1
トーン信号周波数
 41
0.8
 11
-49.799985000000021
 21
601.6124273437498
 31
0.0
 73
     3
  0
TEXT
  5
6D
  8
SPEC
 62
     7
 10
65.200014999999979
 20
595.91148333333297
 30
0.0
 40
5.7009440104166647
  1
32.768kHz
 41
0.8
 11
65.200014999999979
 21
601.6124273437498
 31
0.0
 73
     3
  0
TEXT
  5
6E
  8
SPEC
 62
     7
 10
65.200014999999979
 20
607.16148333333297
 30
0.0
 40
5.7009440104166647
  1
B型 (806～810MHz)14チャンネルのうち任意の1チャンネル
 41
0.8
 11
65.200014999999979
 21
612.86242734374969
 31
0.0
 73
     3
  0
LINE
  5
6F
  8
SPEC
  6
CONTINUOUS
 62
     7
 10
-52.499985000000073
 20
537.29773
 30
0.0
 11
400.0
 21
537.29773
 31
0.0
  0
TEXT
  5
70
  8
SPEC
 62
     7
 10
65.200014999999979
 20
528.41148333333319
 30
0.0
 40
5.7009440104166647
  1
181×40×108mm(アンテナ・突起部含まず)
 41
0.8
 11
65.200014999999979
 21
534.11242734374991
 31
0.0
 73
     3
  0
TEXT
  5
71
  8
SPEC
 62
     7
 10
-49.799985000000021
 20
528.73488333333307
 30
0.0
 40
5.7009440104166647
  1
寸法(W×H×D)
 41
0.8
 11
-49.799985000000021
 21
534.43582734374991
 31
0.0
 73
     3
  0
TEXT
  5
72
  8
SPEC
 62
     7
 10
-7.799985000000019
 20
551.23488333333319
 30
0.0
 40
5.7009440104166647
  1
レベル
 41
0.8
 11
-7.799985000000019
 21
556.93582734374991
 31
0.0
 73
     3
  0
LINE
  5
73
  8
SPEC
  6
CONTINUOUS
 62
     7
 10
-52.499985000000073
 20
537.29773
 30
0.0
 11
410.0
 21
537.29773
 31
0.0
  0
TEXT
  5
74
  8
SPEC
 62
     7
 10
-49.799985000000021
 20
517.01146833333326
 30
0.0
 40
5.7009440104166647
  1
重量
 41
0.8
 11
-49.799985000000021
 21
522.71241234374997
 31
0.0
 73
     3
  0
TEXT
  5
75
  8
SPEC
 62
     7
 10
65.200014999999979
 20
517.01146833333326
 30
0.0
 40
5.7009440104166647
  1
約327g
 41
0.8
 11
65.200014999999979
 21
522.71241234374997
 31
0.0
 73
     3
  0
TEXT
  5
76
  8
SPEC
 62
     7
 10
65.200014999999979
 20
573.41148333333308
 30
0.0
 40
5.7009440104166647
  1
バランス:XLR3ピン・オス、アンバランス:フォーンジャック
 41
0.8
 11
65.200014999999979
 21
579.1124273437498
 31
0.0
 73
     3
  0
TEXT
  5
77
  8
SPEC
 62
     7
 10
65.200014999999979
 20
562.16148333333308
 30
0.0
 40
5.7009440104166647
  1
バランス:200Ω、アンバランス:1kΩ
 41
0.8
 11
65.200014999999979
 21
567.8624273437498
 31
0.0
 73
     3
  0
TEXT
  5
78
  8
SPEC
 62
     7
 10
65.200014999999979
 20
539.66148333333331
 30
0.0
 40
5.7009440104166647
  1
DC12～18V(160mA)、付属ACアダプタ(AC100V、50/60Hz)
 41
0.8
 11
65.200014999999979
 21
545.36242734375003
 31
0.0
 73
     3
  0
TEXT
  5
79
  8
SPEC
 62
     7
 10
-49.799985000000021
 20
539.98488333333307
 30
0.0
 40
5.7009440104166647
  1
電源
 41
0.8
 11
-49.799985000000021
 21
545.68582734374979
 31
0.0
 73
     3
  0
LINE
  5
7A
  8
SPEC
  6
CONTINUOUS
 62
     7
 10
-52.499985000000073
 20
526.04772999999989
 30
0.0
 11
410.0
 21
526.04772999999989
 31
0.0
  0
TEXT
  5
7B
  8
SPEC
 62
     7
 10
-7.799985000000019
 20
562.16148333333308
 30
0.0
 40
5.7009440104166647
  1
インピーダンス
 41
0.8
 11
-7.799985000000019
 21
567.8624273437498
 31
0.0
 73
     3
  0
TEXT
  5
7C
  8
SPEC
 62
     7
 10
-49.799985000000021
 20
584.66148333333297
 30
0.0
 40
5.7009440104166647
  1
感度(12dB SINAD)
 41
0.8
 11
-49.799985000000021
 21
590.3624273437498
 31
0.0
 73
     3
  0
TEXT
  5
7D
  8
SPEC
 62
     7
 10
-49.799985000000021
 20
573.41148333333308
 30
0.0
 40
5.7009440104166647
  1
音声出力
 41
0.8
 11
-49.799985000000021
 21
579.1124273437498
 31
0.0
 73
     3
  0
TEXT
  5
7E
  8
SPEC
 62
     7
 10
65.200014999999979
 20
550.91148333333319
 30
0.0
 40
5.7009440104166647
  1
バランス:-19dBV(600Ω負荷)、アンバランス:-5dBV(3kΩ負荷)
 41
0.8
 11
65.200014999999979
 21
556.61242734374991
 31
0.0
 73
     3
  0
TEXT
  5
7F
  8
SPEC
 62
     7
 10
65.200014999999979
 20
584.66148333333297
 30
0.0
 40
5.7009440104166647
  1
-105dBm(標準)
 41
0.8
 11
65.200014999999979
 21
590.3624273437498
 31
0.0
 73
     3
  0
TEXT
  5
80
  8
SPEC
 62
     7
 10
-7.799985000000019
 20
573.41148333333308
 30
0.0
 40
5.7009440104166647
  1
コネクタ 
 41
0.8
 11
-7.799985000000019
 21
579.1124273437498
 31
0.0
 73
     3
  0
LINE
  5
81
  8
SPEC
  6
CONTINUOUS
 62
     7
 10
-10.00000000000002
 20
582.29772999999989
 30
0.0
 11
-10.00000000000002
 21
548.54773
 31
0.0
  0
LINE
  5
82
  8
SPEC
  6
CONTINUOUS
 62
     7
 10
-52.499985000000073
 20
548.54773
 30
0.0
 11
410.0
 21
548.54773
 31
0.0
  0
LINE
  5
83
  8
SPEC
  6
CONTINUOUS
 62
     7
 10
-9.0607737810201439
 20
571.04772999999989
 30
0.0
 11
410.0
 21
571.04772999999989
 31
0.0
  0
LINE
  5
84
  8
SPEC
  6
CONTINUOUS
 62
     7
 10
-9.0607737810201439
 20
559.79773
 30
0.0
 11
410.0
 21
559.79773
 31
0.0
  0
LINE
  5
85
  8
SPEC
  6
CONTINUOUS
 62
     7
 10
-52.499985000000073
 20
514.79772999999989
 30
0.0
 11
410.0
 21
514.79772999999989
 31
0.0
  0
TEXT
  5
86
  8
DIMNSIONS
 62
     7
 10
134.99999999999989
 20
-85.893785000000022
 30
0.0
 40
7.3297851562500007
  1
(単位：mm)
 41
0.8
 11
134.99999999999989
 21
-78.563999843750025
 31
0.0
 73
     3
  0
LINE
  5
87
  8
DIMNSIONS
  6
CONTINUOUS
 62
     7
 10
11.00000002235171
 20
0.0
 30
0.0
 11
-35.999999977648287
 21
0.0
 31
0.0
  0
LINE
  5
88
  8
DIMNSIONS
  6
CONTINUOUS
 62
     7
 10
11.00000002235171
 20
40.0
 30
0.0
 11
-35.999999977648287
 21
40.0
 31
0.0
  0
LINE
  5
89
  8
DIMNSIONS
  6
CONTINUOUS
 62
     7
 10
-30.000000000000028
 20
0.0
 30
0.0
 11
-30.000000000000028
 21
40.0
 31
0.0
  0
LINE
  5
8A
  8
DIMNSIONS
  6
CONTINUOUS
 62
     7
 10
-30.000000000000028
 20
0.0
 30
0.0
 11
-32.55221605790647
 21
9.5250000000000021
 31
0.0
  0
LINE
  5
8B
  8
DIMNSIONS
  6
CONTINUOUS
 62
     7
 10
-30.000000000000028
 20
0.0
 30
0.0
 11
-27.44778394209359
 21
9.5250000000000021
 31
0.0
  0
LINE
  5
8C
  8
DIMNSIONS
  6
CONTINUOUS
 62
     7
 10
-30.000000000000028
 20
40.0
 30
0.0
 11
-27.44778394209359
 21
30.474999999999991
 31
0.0
  0
LINE
  5
8D
  8
DIMNSIONS
  6
CONTINUOUS
 62
     7
 10
-30.000000000000028
 20
40.0
 30
0.0
 11
-32.55221605790647
 21
30.474999999999991
 31
0.0
  0
TEXT
  5
8E
  8
DIMNSIONS
 62
     7
 10
-34.481666655490812
 20
14.708333333333339
 30
0.0
 40
8.1442057291666661
  1
40
 50
90.0
 41
0.8
 11
-42.62587238465747
 21
14.708333333333339
 31
0.0
 73
     3
  0
LINE
  5
8F
  8
DIMNSIONS
  6
CONTINUOUS
 62
     7
 10
0.0
 20
25.999999977648262
 30
0.0
 11
0.0
 21
75.999999977648272
 31
0.0
  0
LINE
  5
90
  8
DIMNSIONS
  6
CONTINUOUS
 62
     7
 10
181.0
 20
25.999999977648262
 30
0.0
 11
181.0
 21
75.999999977648272
 31
0.0
  0
LINE
  5
91
  8
DIMNSIONS
  6
CONTINUOUS
 62
     7
 10
0.0
 20
70.0
 30
0.0
 11
181.0
 21
70.0
 31
0.0
  0
LINE
  5
92
  8
DIMNSIONS
  6
CONTINUOUS
 62
     7
 10
0.0
 20
70.0
 30
0.0
 11
9.5250000000000021
 21
72.552216057906435
 31
0.0
  0
LINE
  5
93
  8
DIMNSIONS
  6
CONTINUOUS
 62
     7
 10
0.0
 20
70.0
 30
0.0
 11
9.5250000000000021
 21
67.447783942093579
 31
0.0
  0
LINE
  5
94
  8
DIMNSIONS
  6
CONTINUOUS
 62
     7
 10
181.0
 20
70.0
 30
0.0
 11
171.47499999999999
 21
67.447783942093579
 31
0.0
  0
LINE
  5
95
  8
DIMNSIONS
  6
CONTINUOUS
 62
     7
 10
181.0
 20
70.0
 30
0.0
 11
171.47499999999999
 21
72.552216057906435
 31
0.0
  0
TEXT
  5
96
  8
DIMNSIONS
 62
     7
 10
82.562500000000014
 20
74.481666655490798
 30
0.0
 40
8.1442057291666661
  1
181
 41
0.8
 11
82.562500000000014
 21
82.625872384657455
 31
0.0
 73
     3
  0
LINE
  5
97
  8
DIMNSIONS
  6
CONTINUOUS
 62
     7
 10
22.00000002235171
 20
288.00006194213432
 30
0.0
 11
-25.99999997764829
 21
288.00006194213432
 31
0.0
  0
LINE
  5
98
  8
DIMNSIONS
  6
CONTINUOUS
 62
     7
 10
22.00000002235171
 20
180.00006194213429
 30
0.0
 11
-25.99999997764829
 21
180.00006194213429
 31
0.0
  0
LINE
  5
99
  8
DIMNSIONS
  6
CONTINUOUS
 62
     7
 10
-20.000000000000028
 20
288.00006194213432
 30
0.0
 11
-20.000000000000028
 21
180.00006194213429
 31
0.0
  0
LINE
  5
9A
  8
DIMNSIONS
  6
CONTINUOUS
 62
     7
 10
-20.000000000000028
 20
288.00006194213432
 30
0.0
 11
-17.44778394209359
 21
278.47506194213429
 31
0.0
  0
LINE
  5
9B
  8
DIMNSIONS
  6
CONTINUOUS
 62
     7
 10
-20.000000000000028
 20
288.00006194213432
 30
0.0
 11
-22.55221605790647
 21
278.47506194213429
 31
0.0
  0
LINE
  5
9C
  8
DIMNSIONS
  6
CONTINUOUS
 62
     7
 10
-20.000000000000028
 20
180.00006194213429
 30
0.0
 11
-22.55221605790647
 21
189.5250619421343
 31
0.0
  0
LINE
  5
9D
  8
DIMNSIONS
  6
CONTINUOUS
 62
     7
 10
-20.000000000000028
 20
180.00006194213429
 30
0.0
 11
-17.44778394209359
 21
189.5250619421343
 31
0.0
  0
TEXT
  5
9E
  8
DIMNSIONS
 62
     7
 10
-24.481666655490809
 20
226.06256194213429
 30
0.0
 40
8.1442057291666661
  1
108
 50
90.0
 41
0.8
 11
-32.62587238465747
 21
226.06256194213429
 31
0.0
 73
     3
  0
TEXT
  5
9F
  8
DATA
 62
     7
 10
330.0
 20
-67.559599999999975
 30
0.0
 40
7.3297851562500007
  1
SHURE
 41
0.8
 11
330.0
 21
-60.229814843749978
 31
0.0
 73
     3
  0
TEXT
  5
A0
  8
DATA
 62
     7
 10
330.0
 20
-77.100626666666713
 30
0.0
 40
5.7009440104166647
  1
ダイバーシティ受信機
 41
0.8
 11
330.0
 21
-71.39968265625005
 31
0.0
 73
     3
  0
TEXT
  5
A1
  8
DATA
 62
     7
 10
330.0
 20
-88.54376000000002
 30
0.0
 40
7.3297851562500007
  1
PGX4
 41
0.8
 11
330.0
 21
-81.213974843750023
 31
0.0
 73
     3
  0
LINE
  5
A2
  8
DATA
  6
CONTINUOUS
 62
     7
 10
16.999999999999972
 20
0.0
 30
0.0
 11
164.0
 21
0.0
 31
0.0
  0
LINE
  5
A3
  8
DATA
  6
CONTINUOUS
 62
     7
 10
27.999999999999972
 20
0.0
 30
0.0
 11
27.999999999999972
 21
6.5
 31
0.0
  0
LINE
  5
A4
  8
DATA
  6
CONTINUOUS
 62
     7
 10
27.999999999999972
 20
17.5
 30
0.0
 11
27.999999999999972
 21
40.0
 31
0.0
  0
LINE
  5
A5
  8
DATA
  6
CONTINUOUS
 62
     7
 10
7.9999999999999707
 20
40.0
 30
0.0
 11
173.0
 21
40.0
 31
0.0
  0
LINE
  5
A6
  8
DATA
  6
CONTINUOUS
 62
     7
 10
4.0000000000000284
 20
3.0
 30
0.0
 11
177.0
 21
3.0
 31
0.0
  0
LINE
  5
A7
  8
DATA
  6
CONTINUOUS
 62
     7
 10
13.99999999999997
 20
3.0
 30
0.0
 11
16.999999999999972
 21
0.0
 31
0.0
  0
LINE
  5
A8
  8
DATA
  6
CONTINUOUS
 62
     7
 10
5.0236892706218148
 20
38.511844635310922
 30
0.0
 11
7.9999999999999707
 21
40.0
 31
0.0
  0
ARC
  5
A9
  8
DATA
  6
CONTINUOUS
 62
     7
 10
40.249999999999922
 20
20.5
 30
0.0
 40
40.253105470261488
 50
160.25275288807481
 51
205.76932762433881
  0
ARC
  5
AA
  8
DATA
  6
CONTINUOUS
 62
     7
 10
28.0
 20
12.0
 30
0.0
 40
5.5000000000000258
 50
162.03569178940839
 51
107.9643082105837
  0
ARC
  5
AB
  8
DATA
  6
CONTINUOUS
 62
     7
 10
27.99999999999995
 20
11.999999999999829
 30
0.0
 40
4.0000000000000604
 50
149.47751218592691
 51
120.522487814068
  0
ARC
  5
AC
  8
DATA
  6
CONTINUOUS
 62
     7
 10
27.99999999999995
 20
11.99999999999994
 30
0.0
 40
3.4999999999999991
 50
151.6015495990097
 51
118.3984504009829
  0
LINE
  5
AD
  8
DATA
  6
CONTINUOUS
 62
     7
 10
23.403805922287429
 20
13.06066017177983
 30
0.0
 11
26.93933982822017
 21
16.596194077712539
 31
0.0
  0
LINE
  5
AE
  8
DATA
  6
CONTINUOUS
 62
     7
 10
22.696699141100879
 20
13.76776695296638
 30
0.0
 11
26.23223304703361
 21
17.303300858899089
 31
0.0
  0
LINE
  5
AF
  8
DATA
  6
CONTINUOUS
 62
     7
 10
23.403805922287429
 20
13.06066017177983
 30
0.0
 11
-11.95153313703994
 21
48.4159992311072
 31
0.0
  0
LINE
  5
B0
  8
DATA
  6
CONTINUOUS
 62
     7
 10
26.93933982822017
 20
16.596194077712539
 30
0.0
 11
-8.4159992311072056
 21
51.951533137039917
 31
0.0
  0
LINE
  5
B1
  8
DATA
  6
CONTINUOUS
 62
     7
 10
-12.30508652763322
 20
48.062445840513917
 30
0.0
 11
-20.303562937014391
 21
55.394382549113288
 31
0.0
  0
LINE
  5
B2
  8
DATA
  6
CONTINUOUS
 62
     7
 10
-8.0624458405139592
 20
52.305086527633193
 30
0.0
 11
-15.39438254911337
 21
60.303562937014419
 31
0.0
  0
LINE
  5
B3
  8
DATA
  6
CONTINUOUS
 62
     7
 10
-20.915740615487518
 20
56.488994558598051
 30
0.0
 11
-21.497474683058329
 21
59.497474683058329
 31
0.0
  0
LINE
  5
B4
  8
DATA
  6
CONTINUOUS
 62
     7
 10
-19.4974746830583
 20
61.497474683058321
 30
0.0
 11
-16.488994558598129
 21
60.91574061548755
 31
0.0
  0
ARC
  5
B5
  8
DATA
  6
CONTINUOUS
 62
     7
 10
-19.497474683058361
 20
59.497474683058329
 30
0.0
 40
2.0
 50
89.99999999999838
 51
180.0
  0
ARC
  5
B6
  8
DATA
  6
CONTINUOUS
 62
     7
 10
-18.95211367997965
 20
56.868690829514719
 30
0.0
 40
2.0000000000000182
 50
190.9439216931886
 51
227.4895529219971
  0
ARC
  5
B7
  8
DATA
  6
CONTINUOUS
 62
     7
 10
-16.868690829514801
 20
58.952113679979668
 30
0.0
 40
1.999999999999996
 50
42.510447078002947
 51
79.056078306811372
  0
LINE
  5
B8
  8
DATA
  6
CONTINUOUS
 62
     7
 10
-12.30508652763322
 20
48.062445840513917
 30
0.0
 11
-8.0624458405139592
 21
52.305086527633193
 31
0.0
  0
LINE
  5
B9
  8
DATA
  6
CONTINUOUS
 62
     7
 10
24.464466094067259
 20
14.12132034355966
 30
0.0
 11
29.664601463939789
 21
8.9211849736871613
 31
0.0
  0
LINE
  5
BA
  8
DATA
  6
CONTINUOUS
 62
     7
 10
25.878679656440369
 20
15.535533905932761
 30
0.0
 11
31.078815026314121
 21
10.33539853605896
 31
0.0
  0
LINE
  5
BB
  8
DATA
  6
CONTINUOUS
 62
     7
 10
38.999999999999972
 20
9.0
 30
0.0
 11
124.4501655647293
 21
9.0
 31
0.0
  0
LINE
  5
BC
  8
DATA
  6
CONTINUOUS
 62
     7
 10
36.999999999999972
 20
11.0
 30
0.0
 11
36.999999999999972
 21
23.0
 31
0.0
  0
LINE
  5
BD
  8
DATA
  6
CONTINUOUS
 62
     7
 10
38.999999999999972
 20
25.0
 30
0.0
 11
124.4501655647293
 21
25.0
 31
0.0
  0
LINE
  5
BE
  8
DATA
  6
CONTINUOUS
 62
     7
 10
153.0
 20
0.0
 30
0.0
 11
153.0
 21
6.5
 31
0.0
  0
LINE
  5
BF
  8
DATA
  6
CONTINUOUS
 62
     7
 10
153.0
 20
17.5
 30
0.0
 11
153.0
 21
40.0
 31
0.0
  0
LINE
  5
C0
  8
DATA
  6
CONTINUOUS
 62
     7
 10
167.0
 20
3.0
 30
0.0
 11
164.0
 21
0.0
 31
0.0
  0
LINE
  5
C1
  8
DATA
  6
CONTINUOUS
 62
     7
 10
175.97631072937821
 20
38.511844635310922
 30
0.0
 11
173.0
 21
40.0
 31
0.0
  0
ARC
  5
C2
  8
DATA
  6
CONTINUOUS
 62
     7
 10
140.75000000000011
 20
20.5
 30
0.0
 40
40.253105470261488
 50
334.2306723756613
 51
19.747247111925169
  0
ARC
  5
C3
  8
DATA
  6
CONTINUOUS
 62
     7
 10
153.0
 20
12.0
 30
0.0
 40
5.4999999999999876
 50
72.035691789416333
 51
17.964308210591621
  0
ARC
  5
C4
  8
DATA
  6
CONTINUOUS
 62
     7
 10
153.0
 20
11.999999999999829
 30
0.0
 40
4.000000000000111
 50
59.477512185932042
 51
30.522487814073148
  0
ARC
  5
C5
  8
DATA
  6
CONTINUOUS
 62
     7
 10
153.0
 20
11.99999999999994
 30
0.0
 40
3.500000000000048
 50
61.601549599017048
 51
28.398450400990281
  0
LINE
  5
C6
  8
DATA
  6
CONTINUOUS
 62
     7
 10
157.59619407771251
 20
13.06066017177983
 30
0.0
 11
154.0606601717798
 21
16.596194077712539
 31
0.0
  0
LINE
  5
C7
  8
DATA
  6
CONTINUOUS
 62
     7
 10
158.30330085889909
 20
13.76776695296638
 30
0.0
 11
154.7677669529663
 21
17.303300858899089
 31
0.0
  0
LINE
  5
C8
  8
DATA
  6
CONTINUOUS
 62
     7
 10
157.59619407771251
 20
13.06066017177983
 30
0.0
 11
192.95153313704
 21
48.4159992311072
 31
0.0
  0
LINE
  5
C9
  8
DATA
  6
CONTINUOUS
 62
     7
 10
154.0606601717798
 20
16.596194077712539
 30
0.0
 11
189.41599923110721
 21
51.951533137039917
 31
0.0
  0
LINE
  5
CA
  8
DATA
  6
CONTINUOUS
 62
     7
 10
193.30508652763311
 20
48.062445840513917
 30
0.0
 11
201.30356293701439
 21
55.394382549113288
 31
0.0
  0
LINE
  5
CB
  8
DATA
  6
CONTINUOUS
 62
     7
 10
189.06244584051399
 20
52.305086527633193
 30
0.0
 11
196.3943825491134
 21
60.303562937014419
 31
0.0
  0
LINE
  5
CC
  8
DATA
  6
CONTINUOUS
 62
     7
 10
201.91574061548749
 20
56.488994558598051
 30
0.0
 11
202.4974746830583
 21
59.497474683058329
 31
0.0
  0
LINE
  5
CD
  8
DATA
  6
CONTINUOUS
 62
     7
 10
200.4974746830583
 20
61.497474683058321
 30
0.0
 11
197.48899455859811
 21
60.91574061548755
 31
0.0
  0
ARC
  5
CE
  8
DATA
  6
CONTINUOUS
 62
     7
 10
200.49747468305841
 20
59.497474683058329
 30
0.0
 40
1.9999999999999709
 50
0.0
 51
90.000000000001606
  0
ARC
  5
CF
  8
DATA
  6
CONTINUOUS
 62
     7
 10
199.95211367997959
 20
56.868690829514719
 30
0.0
 40
1.999999999999996
 50
312.51044707800293
 51
349.05607830681129
  0
ARC
  5
D0
  8
DATA
  6
CONTINUOUS
 62
     7
 10
197.8686908295148
 20
58.952113679979668
 30
0.0
 40
2.0000000000000182
 50
100.9439216931886
 51
137.48955292199699
  0
LINE
  5
D1
  8
DATA
  6
CONTINUOUS
 62
     7
 10
193.30508652763311
 20
48.062445840513917
 30
0.0
 11
189.06244584051399
 21
52.305086527633193
 31
0.0
  0
LINE
  5
D2
  8
DATA
  6
CONTINUOUS
 62
     7
 10
156.53553390593271
 20
14.12132034355966
 30
0.0
 11
151.33539853606021
 21
8.9211849736871613
 31
0.0
  0
LINE
  5
D3
  8
DATA
  6
CONTINUOUS
 62
     7
 10
155.1213203435596
 20
15.535533905932761
 30
0.0
 11
149.92118497368591
 21
10.33539853605896
 31
0.0
  0
ARC
  5
D4
  8
DATA
  6
CONTINUOUS
 62
     7
 10
132.0
 20
17.0
 30
0.0
 40
10.99999999999998
 50
226.6582417727777
 51
133.3417582272223
  0
ARC
  5
D5
  8
DATA
  6
CONTINUOUS
 62
     7
 10
38.999999999999972
 20
23.0
 30
0.0
 40
2.0
 50
90.0
 51
180.0
  0
ARC
  5
D6
  8
DATA
  6
CONTINUOUS
 62
     7
 10
38.999999999999972
 20
11.0
 30
0.0
 40
2.0
 50
180.0
 51
270.0
  0
LINE
  5
D7
  8
DATA
  6
CONTINUOUS
 62
     7
 10
39.999999999999957
 20
17.0
 30
0.0
 11
39.999999999999957
 21
16.0
 31
0.0
  0
LINE
  5
D8
  8
DATA
  6
CONTINUOUS
 62
     7
 10
40.999999999999957
 20
15.0
 30
0.0
 11
43.999999999999972
 21
15.0
 31
0.0
  0
LINE
  5
D9
  8
DATA
  6
CONTINUOUS
 62
     7
 10
44.999999999999972
 20
16.0
 30
0.0
 11
44.999999999999972
 21
17.0
 31
0.0
  0
LINE
  5
DA
  8
DATA
  6
CONTINUOUS
 62
     7
 10
43.999999999999972
 20
18.0
 30
0.0
 11
40.999999999999957
 21
18.0
 31
0.0
  0
LINE
  5
DB
  8
DATA
  6
CONTINUOUS
 62
     7
 10
49.999999999999972
 20
11.5
 30
0.0
 11
64.999999999999972
 21
11.5
 31
0.0
  0
LINE
  5
DC
  8
DATA
  6
CONTINUOUS
 62
     7
 10
48.999999999999972
 20
12.5
 30
0.0
 11
48.999999999999972
 21
21.5
 31
0.0
  0
LINE
  5
DD
  8
DATA
  6
CONTINUOUS
 62
     7
 10
65.999999999999972
 20
12.5
 30
0.0
 11
65.999999999999972
 21
21.5
 31
0.0
  0
LINE
  5
DE
  8
DATA
  6
CONTINUOUS
 62
     7
 10
64.999999999999972
 20
22.5
 30
0.0
 11
49.999999999999972
 21
22.5
 31
0.0
  0
LINE
  5
DF
  8
DATA
  6
CONTINUOUS
 62
     7
 10
69.499999999999972
 20
14.0
 30
0.0
 11
77.499999999999972
 21
14.0
 31
0.0
  0
LINE
  5
E0
  8
DATA
  6
CONTINUOUS
 62
     7
 10
68.499999999999972
 20
15.0
 30
0.0
 11
68.499999999999972
 21
19.0
 31
0.0
  0
LINE
  5
E1
  8
DATA
  6
CONTINUOUS
 62
     7
 10
69.499999999999972
 20
20.0
 30
0.0
 11
77.499999999999972
 21
20.0
 31
0.0
  0
LINE
  5
E2
  8
DATA
  6
CONTINUOUS
 62
     7
 10
78.499999999999972
 20
19.0
 30
0.0
 11
78.499999999999972
 21
15.0
 31
0.0
  0
LINE
  5
E3
  8
DATA
  6
CONTINUOUS
 62
     7
 10
69.249999999999972
 20
14.75
 30
0.0
 11
77.749999999999972
 21
14.75
 31
0.0
  0
LINE
  5
E4
  8
DATA
  6
CONTINUOUS
 62
     7
 10
69.249999999999972
 20
14.75
 30
0.0
 11
69.249999999999972
 21
19.25
 31
0.0
  0
LINE
  5
E5
  8
DATA
  6
CONTINUOUS
 62
     7
 10
69.249999999999972
 20
19.25
 30
0.0
 11
77.749999999999972
 21
19.25
 31
0.0
  0
LINE
  5
E6
  8
DATA
  6
CONTINUOUS
 62
     7
 10
77.749999999999972
 20
19.25
 30
0.0
 11
77.749999999999972
 21
14.75
 31
0.0
  0
ARC
  5
E7
  8
DATA
  6
CONTINUOUS
 62
     7
 10
69.499999999999972
 20
19.0
 30
0.0
 40
1.0
 50
90.0
 51
180.0
  0
ARC
  5
E8
  8
DATA
  6
CONTINUOUS
 62
     7
 10
69.499999999999972
 20
15.0
 30
0.0
 40
1.0
 50
180.0
 51
270.0
  0
ARC
  5
E9
  8
DATA
  6
CONTINUOUS
 62
     7
 10
77.499999999999972
 20
15.0
 30
0.0
 40
1.0
 50
270.0
 51
0.0
  0
ARC
  5
EA
  8
DATA
  6
CONTINUOUS
 62
     7
 10
77.499999999999972
 20
19.0
 30
0.0
 40
1.0
 50
0.0
 51
90.0
  0
ARC
  5
EB
  8
DATA
  6
CONTINUOUS
 62
     7
 10
49.999999999999972
 20
21.5
 30
0.0
 40
1.0
 50
90.0
 51
180.0
  0
ARC
  5
EC
  8
DATA
  6
CONTINUOUS
 62
     7
 10
49.999999999999972
 20
12.5
 30
0.0
 40
1.0
 50
180.0
 51
270.0
  0
ARC
  5
ED
  8
DATA
  6
CONTINUOUS
 62
     7
 10
64.999999999999972
 20
12.5
 30
0.0
 40
1.0
 50
270.0
 51
0.0
  0
ARC
  5
EE
  8
DATA
  6
CONTINUOUS
 62
     7
 10
64.999999999999972
 20
21.5
 30
0.0
 40
1.0
 50
0.0
 51
90.0
  0
ARC
  5
EF
  8
DATA
  6
CONTINUOUS
 62
     7
 10
40.999999999999957
 20
17.0
 30
0.0
 40
1.0
 50
90.0
 51
180.0
  0
ARC
  5
F0
  8
DATA
  6
CONTINUOUS
 62
     7
 10
40.999999999999957
 20
16.0
 30
0.0
 40
1.0
 50
180.0
 51
270.0
  0
ARC
  5
F1
  8
DATA
  6
CONTINUOUS
 62
     7
 10
43.999999999999972
 20
16.0
 30
0.0
 40
1.0
 50
270.0
 51
0.0
  0
ARC
  5
F2
  8
DATA
  6
CONTINUOUS
 62
     7
 10
43.999999999999972
 20
17.0
 30
0.0
 40
1.0
 50
0.0
 51
90.0
  0
CIRCLE
  5
F3
  8
DATA
  6
CONTINUOUS
 62
     7
 10
132.0
 20
17.0
 30
0.0
 40
6.5
  0
CIRCLE
  5
F4
  8
DATA
  6
CONTINUOUS
 62
     7
 10
132.0
 20
17.0
 30
0.0
 40
4.5
  0
ARC
  5
F5
  8
DATA
  6
CONTINUOUS
 62
     7
 10
132.00000000000011
 20
16.999999999999769
 30
0.0
 40
8.5000000000001847
 50
211.96571875079439
 51
148.034281249202
  0
LINE
  5
F6
  8
DATA
  6
CONTINUOUS
 62
     7
 10
113.0
 20
21.5
 30
0.0
 11
113.0
 21
12.5
 31
0.0
  0
LINE
  5
F7
  8
DATA
  6
CONTINUOUS
 62
     7
 10
113.0
 20
21.5
 30
0.0
 11
124.7888974490721
 21
21.5
 31
0.0
  0
LINE
  5
F8
  8
DATA
  6
CONTINUOUS
 62
     7
 10
113.0
 20
12.5
 30
0.0
 11
124.7888974490721
 21
12.5
 31
0.0
  0
TEXT
  5
F9
  8
DATA
 62
     7
 10
115.9999999999999
 20
15.91999999999998
 30
0.0
 40
2.625
  1
sync
 41
0.8
 11
115.9999999999999
 21
18.544999999999991
 31
0.0
 73
     3
  0
LINE
  5
FA
  8
DATA
  6
CONTINUOUS
 62
     7
 10
102.2499999999999
 20
15.25
 30
0.0
 11
107.2499999999999
 21
15.25
 31
0.0
  0
LINE
  5
FB
  8
DATA
  6
CONTINUOUS
 62
     7
 10
102.2499999999999
 20
18.75
 30
0.0
 11
107.2499999999999
 21
18.75
 31
0.0
  0
ARC
  5
FC
  8
DATA
  6
CONTINUOUS
 62
     7
 10
102.2499999999999
 20
17.0
 30
0.0
 40
1.75
 50
90.0
 51
270.0
  0
ARC
  5
FD
  8
DATA
  6
CONTINUOUS
 62
     7
 10
107.2499999999999
 20
17.0
 30
0.0
 40
1.75
 50
270.0
 51
90.0
  0
TEXT
  5
FE
  8
DATA
 62
     7
 10
139.99999999999989
 20
30.592666666666659
 30
0.0
 40
3.7041666666666648
  1
PGX4
 41
0.8
 11
139.99999999999989
 21
34.296833333333332
 31
0.0
 73
     3
  0
TEXT
  5
FF
  8
DATA
 62
     7
 10
101.250000021855
 20
10.91999999999998
 30
0.0
 40
2.625
  1
ready
 41
0.8
 11
101.250000021855
 21
13.544999999999989
 31
0.0
 73
     3
  0
TEXT
  5
100
  8
DATA
 62
     7
 10
68.623110858314405
 20
10.91999999999998
 30
0.0
 40
2.30859375
  1
channel
 41
0.8
 11
68.623110858314405
 21
13.228593749999989
 31
0.0
 73
     3
  0
TEXT
  5
101
  8
DATA
 62
     7
 10
38.980608875143602
 20
10.91999999999998
 30
0.0
 40
2.30859375
  1
audio
 41
0.8
 11
38.980608875143602
 21
13.228593749999989
 31
0.0
 73
     3
  0
ARC
  5
102
  8
DATA
  6
CONTINUOUS
 62
     7
 10
25.000911818581791
 20
263.00006194213432
 30
0.0
 40
25.000000000000011
 50
90.0
 51
180.0
  0
ARC
  5
103
  8
DATA
  6
CONTINUOUS
 62
     7
 10
25.000911818581791
 20
263.00006194213432
 30
0.0
 40
21.000000000000011
 50
90.0
 51
180.0
  0
ARC
  5
104
  8
DATA
  6
CONTINUOUS
 62
     7
 10
25.000911818581791
 20
263.00006194213432
 30
0.0
 40
17.000000000000011
 50
90.0
 51
180.0
  0
LINE
  5
105
  8
DATA
  6
CONTINUOUS
 62
     7
 10
27.999999999999972
 20
180.00006194213429
 30
0.0
 11
27.999999999999972
 21
288.00006194213432
 31
0.0
  0
LINE
  5
106
  8
DATA
  6
CONTINUOUS
 62
     7
 10
25.000911818581791
 20
284.00006194213432
 30
0.0
 11
27.999999999999972
 21
284.00006194213432
 31
0.0
  0
LINE
  5
107
  8
DATA
  6
CONTINUOUS
 62
     7
 10
25.000911818581791
 20
280.00006194213432
 30
0.0
 11
27.999999999999972
 21
280.00006194213432
 31
0.0
  0
ARC
  5
108
  8
DATA
  6
CONTINUOUS
 62
     7
 10
25.000911818581791
 20
263.00006194213432
 30
0.0
 40
15.500000000000011
 50
90.0
 51
180.0
  0
LINE
  5
109
  8
DATA
  6
CONTINUOUS
 62
     7
 10
25.000911818581791
 20
278.50006194213432
 30
0.0
 11
27.999999999999972
 21
278.50006194213432
 31
0.0
  0
ARC
  5
10A
  8
DATA
  6
CONTINUOUS
 62
     7
 10
25.000911818581791
 20
263.00006194213432
 30
0.0
 40
12.5
 50
90.0
 51
180.0
  0
ARC
  5
10B
  8
DATA
  6
CONTINUOUS
 62
     7
 10
25.000911818581791
 20
263.00006194213432
 30
0.0
 40
9.5
 50
90.0
 51
180.0
  0
LINE
  5
10C
  8
DATA
  6
CONTINUOUS
 62
     7
 10
25.000911818581791
 20
275.50006194213432
 30
0.0
 11
27.999999999999972
 21
275.50006194213432
 31
0.0
  0
LINE
  5
10D
  8
DATA
  6
CONTINUOUS
 62
     7
 10
25.000911818581791
 20
272.50006194213432
 30
0.0
 11
27.999999999999972
 21
272.50006194213432
 31
0.0
  0
ARC
  5
10E
  8
DATA
  6
CONTINUOUS
 62
     7
 10
25.000911818581791
 20
205.00006194213429
 30
0.0
 40
25.0
 50
180.0
 51
270.0
  0
ARC
  5
10F
  8
DATA
  6
CONTINUOUS
 62
     7
 10
25.000911818581791
 20
205.00006194213429
 30
0.0
 40
21.0
 50
180.0
 51
270.0
  0
ARC
  5
110
  8
DATA
  6
CONTINUOUS
 62
     7
 10
25.000911818581791
 20
205.00006194213429
 30
0.0
 40
17.0
 50
180.0
 51
270.0
  0
LINE
  5
111
  8
DATA
  6
CONTINUOUS
 62
     7
 10
25.000911818581791
 20
184.00006194213429
 30
0.0
 11
27.999999999999972
 21
184.00006194213429
 31
0.0
  0
LINE
  5
112
  8
DATA
  6
CONTINUOUS
 62
     7
 10
25.000911818581791
 20
188.00006194213429
 30
0.0
 11
27.999999999999972
 21
188.00006194213429
 31
0.0
  0
ARC
  5
113
  8
DATA
  6
CONTINUOUS
 62
     7
 10
25.000911818581791
 20
205.00006194213429
 30
0.0
 40
15.5
 50
180.0
 51
270.0
  0
LINE
  5
114
  8
DATA
  6
CONTINUOUS
 62
     7
 10
25.000911818581791
 20
189.50006194213429
 30
0.0
 11
27.999999999999972
 21
189.50006194213429
 31
0.0
  0
ARC
  5
115
  8
DATA
  6
CONTINUOUS
 62
     7
 10
25.000911818581791
 20
205.00006194213429
 30
0.0
 40
12.5
 50
180.0
 51
270.0
  0
ARC
  5
116
  8
DATA
  6
CONTINUOUS
 62
     7
 10
25.000911818581791
 20
205.00006194213429
 30
0.0
 40
9.5
 50
180.0
 51
270.0
  0
LINE
  5
117
  8
DATA
  6
CONTINUOUS
 62
     7
 10
25.000911818581791
 20
192.50006194213429
 30
0.0
 11
27.999999999999972
 21
192.50006194213429
 31
0.0
  0
LINE
  5
118
  8
DATA
  6
CONTINUOUS
 62
     7
 10
25.000911818581791
 20
195.50006194213429
 30
0.0
 11
27.999999999999972
 21
195.50006194213429
 31
0.0
  0
ARC
  5
119
  8
DATA
  6
CONTINUOUS
 62
     7
 10
156.00277691103179
 20
263.00006194213432
 30
0.0
 40
25.0
 50
0.0
 51
90.0
  0
ARC
  5
11A
  8
DATA
  6
CONTINUOUS
 62
     7
 10
156.00277691103179
 20
263.00006194213432
 30
0.0
 40
21.0
 50
0.0
 51
90.0
  0
ARC
  5
11B
  8
DATA
  6
CONTINUOUS
 62
     7
 10
156.00277691103179
 20
263.00006194213432
 30
0.0
 40
17.0
 50
0.0
 51
90.0
  0
LINE
  5
11C
  8
DATA
  6
CONTINUOUS
 62
     7
 10
156.00277691103179
 20
284.00006194213432
 30
0.0
 11
153.0036887296136
 21
284.00006194213432
 31
0.0
  0
LINE
  5
11D
  8
DATA
  6
CONTINUOUS
 62
     7
 10
156.00277691103179
 20
280.00006194213432
 30
0.0
 11
153.0036887296136
 21
280.00006194213432
 31
0.0
  0
ARC
  5
11E
  8
DATA
  6
CONTINUOUS
 62
     7
 10
156.00277691103179
 20
263.00006194213432
 30
0.0
 40
15.5
 50
0.0
 51
90.0
  0
LINE
  5
11F
  8
DATA
  6
CONTINUOUS
 62
     7
 10
156.00277691103179
 20
278.50006194213432
 30
0.0
 11
153.0036887296136
 21
278.50006194213432
 31
0.0
  0
ARC
  5
120
  8
DATA
  6
CONTINUOUS
 62
     7
 10
156.00277691103179
 20
263.00006194213432
 30
0.0
 40
12.5
 50
0.0
 51
90.0
  0
ARC
  5
121
  8
DATA
  6
CONTINUOUS
 62
     7
 10
156.00277691103179
 20
263.00006194213432
 30
0.0
 40
9.5
 50
0.0
 51
90.0
  0
LINE
  5
122
  8
DATA
  6
CONTINUOUS
 62
     7
 10
156.00277691103179
 20
275.50006194213432
 30
0.0
 11
153.0036887296136
 21
275.50006194213432
 31
0.0
  0
LINE
  5
123
  8
DATA
  6
CONTINUOUS
 62
     7
 10
156.00277691103179
 20
272.50006194213432
 30
0.0
 11
153.0036887296136
 21
272.50006194213432
 31
0.0
  0
ARC
  5
124
  8
DATA
  6
CONTINUOUS
 62
     7
 10
156.00277691103179
 20
205.00006194213429
 30
0.0
 40
25.000000000000011
 50
270.0
 51
0.0
  0
ARC
  5
125
  8
DATA
  6
CONTINUOUS
 62
     7
 10
156.00277691103179
 20
205.00006194213429
 30
0.0
 40
21.000000000000011
 50
270.0
 51
0.0
  0
ARC
  5
126
  8
DATA
  6
CONTINUOUS
 62
     7
 10
156.00277691103179
 20
205.00006194213429
 30
0.0
 40
17.000000000000021
 50
270.0
 51
0.0
  0
LINE
  5
127
  8
DATA
  6
CONTINUOUS
 62
     7
 10
156.00277691103179
 20
184.00006194213429
 30
0.0
 11
153.0036887296136
 21
184.00006194213429
 31
0.0
  0
LINE
  5
128
  8
DATA
  6
CONTINUOUS
 62
     7
 10
156.00277691103179
 20
188.00006194213429
 30
0.0
 11
153.0036887296136
 21
188.00006194213429
 31
0.0
  0
ARC
  5
129
  8
DATA
  6
CONTINUOUS
 62
     7
 10
156.00277691103179
 20
205.00006194213429
 30
0.0
 40
15.500000000000011
 50
270.0
 51
0.0
  0
LINE
  5
12A
  8
DATA
  6
CONTINUOUS
 62
     7
 10
156.00277691103179
 20
189.50006194213429
 30
0.0
 11
153.0036887296136
 21
189.50006194213429
 31
0.0
  0
ARC
  5
12B
  8
DATA
  6
CONTINUOUS
 62
     7
 10
156.00277691103179
 20
205.00006194213429
 30
0.0
 40
12.500000000000011
 50
270.0
 51
0.0
  0
ARC
  5
12C
  8
DATA
  6
CONTINUOUS
 62
     7
 10
156.00277691103179
 20
205.00006194213429
 30
0.0
 40
9.5000000000000142
 50
270.0
 51
0.0
  0
LINE
  5
12D
  8
DATA
  6
CONTINUOUS
 62
     7
 10
156.00277691103179
 20
192.50006194213429
 30
0.0
 11
153.0036887296136
 21
192.50006194213429
 31
0.0
  0
LINE
  5
12E
  8
DATA
  6
CONTINUOUS
 62
     7
 10
156.00277691103179
 20
195.50006194213429
 30
0.0
 11
153.0036887296136
 21
195.50006194213429
 31
0.0
  0
LINE
  5
12F
  8
DATA
  6
CONTINUOUS
 62
     7
 10
25.000911818581791
 20
180.00006194213429
 30
0.0
 11
156.00277691103179
 21
180.00006194213429
 31
0.0
  0
LINE
  5
130
  8
DATA
  6
CONTINUOUS
 62
     7
 10
181.00277691103179
 20
205.00006194213429
 30
0.0
 11
181.00277691103179
 21
263.00006194213432
 31
0.0
  0
LINE
  5
131
  8
DATA
  6
CONTINUOUS
 62
     7
 10
27.999999999999972
 20
184.00006194213429
 30
0.0
 11
153.0036887296136
 21
184.00006194213429
 31
0.0
  0
LINE
  5
132
  8
DATA
  6
CONTINUOUS
 62
     7
 10
27.999999999999972
 20
188.00006194213429
 30
0.0
 11
153.0036887296136
 21
188.00006194213429
 31
0.0
  0
LINE
  5
133
  8
DATA
  6
CONTINUOUS
 62
     7
 10
27.999999999999972
 20
189.50006194213429
 30
0.0
 11
153.0036887296136
 21
189.50006194213429
 31
0.0
  0
LINE
  5
134
  8
DATA
  6
CONTINUOUS
 62
     7
 10
27.999999999999972
 20
192.50006194213429
 30
0.0
 11
153.0036887296136
 21
192.50006194213429
 31
0.0
  0
LINE
  5
135
  8
DATA
  6
CONTINUOUS
 62
     7
 10
27.999999999999972
 20
195.50006194213429
 30
0.0
 11
154.50323282032269
 21
195.50006194213429
 31
0.0
  0
LINE
  5
136
  8
DATA
  6
CONTINUOUS
 62
     7
 10
165.50277691103179
 20
205.00006194213429
 30
0.0
 11
165.50277691103179
 21
263.00006194213432
 31
0.0
  0
LINE
  5
137
  8
DATA
  6
CONTINUOUS
 62
     7
 10
168.50277691103179
 20
263.00006194213432
 30
0.0
 11
168.50277691103179
 21
205.00006194213429
 31
0.0
  0
LINE
  5
138
  8
DATA
  6
CONTINUOUS
 62
     7
 10
171.50277691103179
 20
263.00006194213432
 30
0.0
 11
171.50277691103179
 21
205.00006194213429
 31
0.0
  0
LINE
  5
139
  8
DATA
  6
CONTINUOUS
 62
     7
 10
173.00277691103179
 20
263.00006194213432
 30
0.0
 11
173.00277691103179
 21
205.00006194213429
 31
0.0
  0
LINE
  5
13A
  8
DATA
  6
CONTINUOUS
 62
     7
 10
177.00277691103179
 20
263.00006194213432
 30
0.0
 11
177.00277691103179
 21
205.00006194213429
 31
0.0
  0
LINE
  5
13B
  8
DATA
  6
CONTINUOUS
 62
     7
 10
27.999999999999972
 20
272.50006194213432
 30
0.0
 11
153.0036887296136
 21
272.50006194213432
 31
0.0
  0
LINE
  5
13C
  8
DATA
  6
CONTINUOUS
 62
     7
 10
27.999999999999972
 20
275.50006194213432
 30
0.0
 11
153.0036887296136
 21
275.50006194213432
 31
0.0
  0
LINE
  5
13D
  8
DATA
  6
CONTINUOUS
 62
     7
 10
27.999999999999972
 20
280.00006194213432
 30
0.0
 11
153.0036887296136
 21
280.00006194213432
 31
0.0
  0
LINE
  5
13E
  8
DATA
  6
CONTINUOUS
 62
     7
 10
153.0036887296136
 20
284.00006194213432
 30
0.0
 11
27.999999999999972
 21
284.00006194213432
 31
0.0
  0
LINE
  5
13F
  8
DATA
  6
CONTINUOUS
 62
     7
 10
25.000911818581791
 20
288.00006194213432
 30
0.0
 11
27.999999999999972
 21
288.00006194213432
 31
0.0
  0
LINE
  5
140
  8
DATA
  6
CONTINUOUS
 62
     7
 10
153.0
 20
180.00006194213429
 30
0.0
 11
153.0
 21
288.00006194213432
 31
0.0
  0
LINE
  5
141
  8
DATA
  6
CONTINUOUS
 62
     7
 10
153.0
 20
288.00006194213432
 30
0.0
 11
156.00277691103179
 21
288.00006194213432
 31
0.0
  0
LINE
  5
142
  8
DATA
  6
CONTINUOUS
 62
     7
 10
5.5355339059327369
 20
38.0
 30
0.0
 11
175.46446609406721
 21
38.0
 31
0.0
  0
LINE
  5
143
  8
DATA
  6
CONTINUOUS
 62
     7
 10
0.000911818581784
 20
263.00006194213432
 30
0.0
 11
0.000911818581784
 21
205.00006194213429
 31
0.0
  0
LINE
  5
144
  8
DATA
  6
CONTINUOUS
 62
     7
 10
4.000911818581784
 20
263.00006194213432
 30
0.0
 11
4.000911818581784
 21
205.00006194213429
 31
0.0
  0
LINE
  5
145
  8
DATA
  6
CONTINUOUS
 62
     7
 10
8.000911818581784
 20
263.00006194213432
 30
0.0
 11
8.000911818581784
 21
205.00006194213429
 31
0.0
  0
LINE
  5
146
  8
DATA
  6
CONTINUOUS
 62
     7
 10
9.500911818581784
 20
263.00006194213432
 30
0.0
 11
9.500911818581784
 21
205.00006194213429
 31
0.0
  0
LINE
  5
147
  8
DATA
  6
CONTINUOUS
 62
     7
 10
12.50091181858178
 20
263.00006194213432
 30
0.0
 11
12.50091181858178
 21
205.00006194213429
 31
0.0
  0
LINE
  5
148
  8
DATA
  6
CONTINUOUS
 62
     7
 10
15.50091181858178
 20
263.00006194213432
 30
0.0
 11
15.50091181858178
 21
205.00006194213429
 31
0.0
  0
LINE
  5
149
  8
DATA
  6
CONTINUOUS
 62
     7
 10
27.999999999999972
 20
288.00006194213432
 30
0.0
 11
29.999999999999972
 21
288.00006194213432
 31
0.0
  0
LINE
  5
14A
  8
DATA
  6
CONTINUOUS
 62
     7
 10
29.999999999999972
 20
288.00006194213432
 30
0.0
 11
29.999999999999972
 21
285.00006194213432
 31
0.0
  0
LINE
  5
14B
  8
DATA
  6
CONTINUOUS
 62
     7
 10
153.0
 20
288.00006194213432
 30
0.0
 11
150.99999999999989
 21
288.00006194213432
 31
0.0
  0
LINE
  5
14C
  8
DATA
  6
CONTINUOUS
 62
     7
 10
150.99999999999989
 20
288.00006194213432
 30
0.0
 11
150.99999999999989
 21
285.00006194213432
 31
0.0
  0
LINE
  5
14D
  8
DATA
  6
CONTINUOUS
 62
     7
 10
29.999999999999972
 20
285.00006194213432
 30
0.0
 11
150.99999999999989
 21
285.00006194213432
 31
0.0
  0
ARC
  5
14E
  8
DATA
  6
STYLE_01
 62
     7
 10
27.99999999999833
 20
172.58431534774061
 30
0.0
 40
70.0
 50
180.0
 51
0.0
  0
LINE
  5
14F
  8
DATA
  6
CONTINUOUS
 62
     7
 10
33.500000000000369
 20
179.00006194213429
 30
0.0
 11
33.500000000000369
 21
180.00006194213429
 31
0.0
  0
LINE
  5
150
  8
DATA
  6
CONTINUOUS
 62
     7
 10
22.49999999999628
 20
179.08431534774061
 30
0.0
 11
22.49999999999628
 21
180.06874512670569
 31
0.0
  0
LINE
  5
151
  8
DATA
  6
CONTINUOUS
 62
     7
 10
33.500000000000369
 20
179.08431534774061
 30
0.0
 11
22.49999999999628
 21
179.08431534774061
 31
0.0
  0
LINE
  5
152
  8
DATA
  6
CONTINUOUS
 62
     7
 10
31.999999999999371
 20
177.00006194213429
 30
0.0
 11
31.999999999999371
 21
179.00006194213429
 31
0.0
  0
LINE
  5
153
  8
DATA
  6
CONTINUOUS
 62
     7
 10
24.000000000000512
 20
177.00006194213429
 30
0.0
 11
24.000000000000512
 21
179.00006194213429
 31
0.0
  0
LINE
  5
154
  8
DATA
  6
CONTINUOUS
 62
     7
 10
31.999999999999371
 20
177.00006194213429
 30
0.0
 11
24.000000000000512
 21
177.00006194213429
 31
0.0
  0
LINE
  5
155
  8
DATA
  6
CONTINUOUS
 62
     7
 10
24.499999999999488
 20
175.02365517596439
 30
0.0
 11
24.499999999999488
 21
177.02672056374379
 31
0.0
  0
LINE
  5
156
  8
DATA
  6
CONTINUOUS
 62
     7
 10
25.499999999998352
 20
168.08431534774061
 30
0.0
 11
25.081216684928531
 21
169.96884026555091
 31
0.0
  0
LINE
  5
157
  8
DATA
  6
CONTINUOUS
 62
     7
 10
30.499999999998352
 20
168.08431534774061
 30
0.0
 11
30.97348365546717
 21
170.21499179734599
 31
0.0
  0
LINE
  5
158
  8
DATA
  6
STYLE_01
 62
     7
 10
25.499999999998352
 20
168.08431534774061
 30
0.0
 11
25.499999999998352
 21
118.0843153477405
 31
0.0
  0
LINE
  5
159
  8
DATA
  6
STYLE_01
 62
     7
 10
30.499999999998352
 20
168.08431534774061
 30
0.0
 11
30.499999999998352
 21
118.0843153477405
 31
0.0
  0
LINE
  5
15A
  8
DATA
  6
STYLE_01
 62
     7
 10
24.999999999998352
 20
118.0843153477405
 30
0.0
 11
24.528685257645488
 21
107.2440762736253
 31
0.0
  0
LINE
  5
15B
  8
DATA
  6
STYLE_01
 62
     7
 10
30.999999999998352
 20
118.0843153477405
 30
0.0
 11
31.47131474235119
 21
107.2440762736253
 31
0.0
  0
LINE
  5
15C
  8
DATA
  6
STYLE_01
 62
     7
 10
24.869817844581021
 20
106.037193711211
 30
0.0
 11
26.585786437625242
 21
103.49852891011371
 31
0.0
  0
LINE
  5
15D
  8
DATA
  6
STYLE_01
 62
     7
 10
29.414213562371462
 20
103.49852891011371
 30
0.0
 11
31.130182155415671
 21
106.037193711211
 31
0.0
  0
ARC
  5
15E
  8
DATA
  6
STYLE_01
 62
     7
 10
27.999999999998352
 20
104.9127424724868
 30
0.0
 40
2.0000000000000151
 50
225.0
 51
315.0
  0
ARC
  5
15F
  8
DATA
  6
STYLE_01
 62
     7
 10
26.526797574355609
 20
107.1572018250728
 30
0.0
 40
1.999999999999996
 50
177.51044707800349
 51
214.05607830681191
  0
ARC
  5
160
  8
DATA
  6
STYLE_01
 62
     7
 10
29.473202425641091
 20
107.1572018250727
 30
0.0
 40
1.999999999999984
 50
325.94392169318888
 51
2.489552921998154
  0
LINE
  5
161
  8
DATA
  6
CONTINUOUS
 62
     7
 10
24.499999999996309
 20
175.02365517596439
 30
0.0
 11
-9.2813028129168931
 21
175.08431534774061
 31
0.0
  0
LINE
  5
162
  8
DATA
  6
CONTINUOUS
 62
     7
 10
24.499999999996309
 20
170.14497551951669
 30
0.0
 11
-9.2813028129168931
 21
170.0843153477405
 31
0.0
  0
LINE
  5
163
  8
DATA
  6
CONTINUOUS
 62
     7
 10
-10.971769058575971
 20
175.73356630309141
 30
0.0
 11
-17.168666198863122
 21
176.05563009009339
 31
0.0
  0
LINE
  5
164
  8
DATA
  6
CONTINUOUS
 62
     7
 10
-11.29783688731672
 20
169.36825405371579
 30
0.0
 11
-17.168666198863178
 21
169.1130006053877
 31
0.0
  0
LINE
  5
165
  8
DATA
  6
CONTINUOUS
 62
     7
 10
-18.375548761277422
 20
175.7144975031579
 30
0.0
 11
-20.91421356237479
 21
173.99852891011369
 31
0.0
  0
LINE
  5
166
  8
DATA
  6
CONTINUOUS
 62
     7
 10
-20.91421356237479
 20
171.17010178536751
 30
0.0
 11
-18.375548761277479
 21
169.45413319232321
 31
0.0
  0
ARC
  5
167
  8
DATA
  6
CONTINUOUS
 62
     7
 10
-19.50000000000168
 20
172.58431534774061
 30
0.0
 40
2.0000000000000151
 50
135.0
 51
225.0
  0
ARC
  5
168
  8
DATA
  6
CONTINUOUS
 62
     7
 10
-17.255540647415639
 20
174.0575177733833
 30
0.0
 40
1.999999999999996
 50
87.51044707800348
 51
124.0560783068119
  0
ARC
  5
169
  8
DATA
  6
CONTINUOUS
 62
     7
 10
-17.255540647415749
 20
171.11111292209779
 30
0.0
 40
1.999999999999984
 50
235.943921693189
 51
272.48955292199821
  0
ARC
  5
16A
  8
DATA
  6
CONTINUOUS
 62
     7
 10
24.499999999996309
 20
172.58431534774061
 30
0.0
 40
2.439339828223865
 50
270.0
 51
90.0
  0
LINE
  5
16B
  8
DATA
  6
CONTINUOUS
 62
     7
 10
26.335398536060008
 20
174.1910794907854
 30
0.0
 11
26.335398536060008
 21
177.00006194213429
 31
0.0
  0
ARC
  5
16C
  8
DATA
  6
CONTINUOUS
 62
     7
 10
28.917699268030361
 20
171.80676770877679
 30
0.0
 40
2.5999999999998318
 50
196.20892163497621
 51
0.388884160589015
  0
LINE
  5
16D
  8
DATA
  6
CONTINUOUS
 62
     7
 10
24.499999999996309
 20
170.14497551951669
 30
0.0
 11
27.861010406537641
 21
169.4311817494854
 31
0.0
  0
LINE
  5
16E
  8
DATA
  6
CONTINUOUS
 62
     7
 10
24.499999999996309
 20
175.02365517596451
 30
0.0
 11
26.335398536060008
 21
175.4134474949698
 31
0.0
  0
ARC
  5
16F
  8
DATA
  6
CONTINUOUS
 62
     7
 10
23.999999999996302
 20
172.58431534774061
 30
0.0
 40
2.439339828223865
 50
270.0
 51
90.0
  0
LINE
  5
170
  8
DATA
  6
CONTINUOUS
 62
     7
 10
31.517699268030189
 20
171.80676770877699
 30
0.0
 11
31.517699268030189
 21
177.00006194213429
 31
0.0
  0
LINE
  5
171
  8
DATA
  6
CONTINUOUS
 62
     7
 10
24.868316060598801
 20
174.99568883126881
 30
0.0
 11
26.335398536060008
 21
175.3072601162217
 31
0.0
  0
ARC
  5
172
  8
DATA
  6
CONTINUOUS
 62
     7
 10
-11.300000000001599
 20
172.58431534774061
 30
0.0
 40
3.166309702271163
 50
269.99999999999898
 51
89.999999999998977
  0
LINE
  5
173
  8
DATA
  6
CONTINUOUS
 62
     7
 10
147.5036887296132
 20
179.00006194213429
 30
0.0
 11
147.5036887296132
 21
180.00006194213429
 31
0.0
  0
LINE
  5
174
  8
DATA
  6
CONTINUOUS
 62
     7
 10
158.50368872961729
 20
179.08431534774061
 30
0.0
 11
158.50368872961729
 21
180.06874512670569
 31
0.0
  0
LINE
  5
175
  8
DATA
  6
CONTINUOUS
 62
     7
 10
147.5036887296132
 20
179.08431534774061
 30
0.0
 11
158.50368872961729
 21
179.08431534774061
 31
0.0
  0
LINE
  5
176
  8
DATA
  6
CONTINUOUS
 62
     7
 10
149.0036887296142
 20
177.00006194213429
 30
0.0
 11
149.0036887296142
 21
179.00006194213429
 31
0.0
  0
LINE
  5
177
  8
DATA
  6
CONTINUOUS
 62
     7
 10
157.00368872961309
 20
177.00006194213429
 30
0.0
 11
157.00368872961309
 21
179.00006194213429
 31
0.0
  0
LINE
  5
178
  8
DATA
  6
CONTINUOUS
 62
     7
 10
149.0036887296142
 20
177.00006194213429
 30
0.0
 11
157.00368872961309
 21
177.00006194213429
 31
0.0
  0
LINE
  5
179
  8
DATA
  6
CONTINUOUS
 62
     7
 10
156.50368872961411
 20
175.02365517596439
 30
0.0
 11
156.50368872961411
 21
177.02672056374379
 31
0.0
  0
LINE
  5
17A
  8
DATA
  6
CONTINUOUS
 62
     7
 10
156.50368872961729
 20
175.02365517596439
 30
0.0
 11
190.28499154253049
 21
175.08431534774061
 31
0.0
  0
LINE
  5
17B
  8
DATA
  6
CONTINUOUS
 62
     7
 10
156.50368872961729
 20
170.14497551951669
 30
0.0
 11
190.28499154253049
 21
170.0843153477405
 31
0.0
  0
LINE
  5
17C
  8
DATA
  6
CONTINUOUS
 62
     7
 10
191.9754577881896
 20
175.73356630309141
 30
0.0
 11
198.17235492847669
 21
176.05563009009339
 31
0.0
  0
LINE
  5
17D
  8
DATA
  6
CONTINUOUS
 62
     7
 10
192.30152561693041
 20
169.36825405371579
 30
0.0
 11
198.17235492847681
 21
169.1130006053877
 31
0.0
  0
LINE
  5
17E
  8
DATA
  6
CONTINUOUS
 62
     7
 10
199.379237490891
 20
175.7144975031579
 30
0.0
 11
201.91790229198841
 21
173.99852891011369
 31
0.0
  0
LINE
  5
17F
  8
DATA
  6
CONTINUOUS
 62
     7
 10
201.91790229198841
 20
171.17010178536751
 30
0.0
 11
199.37923749089109
 21
169.45413319232321
 31
0.0
  0
ARC
  5
180
  8
DATA
  6
CONTINUOUS
 62
     7
 10
200.50368872961531
 20
172.58431534774061
 30
0.0
 40
2.0000000000000151
 50
315.0
 51
45.0
  0
ARC
  5
181
  8
DATA
  6
CONTINUOUS
 62
     7
 10
198.25922937702919
 20
174.0575177733833
 30
0.0
 40
2.0000000000000391
 50
55.943921693188067
 51
92.489552921996491
  0
ARC
  5
182
  8
DATA
  6
CONTINUOUS
 62
     7
 10
198.25922937702941
 20
171.11111292209779
 30
0.0
 40
1.9999999999999709
 50
267.5104470780019
 51
304.056078306811
  0
ARC
  5
183
  8
DATA
  6
CONTINUOUS
 62
     7
 10
156.50368872961729
 20
172.58431534774061
 30
0.0
 40
2.439339828223865
 50
90.0
 51
270.0
  0
LINE
  5
184
  8
DATA
  6
CONTINUOUS
 62
     7
 10
154.66829019355359
 20
174.1910794907854
 30
0.0
 11
154.66829019355359
 21
177.00006194213429
 31
0.0
  0
ARC
  5
185
  8
DATA
  6
CONTINUOUS
 62
     7
 10
152.0859894615833
 20
171.80676770877679
 30
0.0
 40
2.5999999999998251
 50
179.61111583941101
 51
343.79107836502368
  0
LINE
  5
186
  8
DATA
  6
CONTINUOUS
 62
     7
 10
156.50368872961729
 20
170.14497551951669
 30
0.0
 11
153.1426783230759
 21
169.4311817494854
 31
0.0
  0
LINE
  5
187
  8
DATA
  6
CONTINUOUS
 62
     7
 10
156.50368872961729
 20
175.02365517596451
 30
0.0
 11
154.66829019355359
 21
175.4134474949698
 31
0.0
  0
ARC
  5
188
  8
DATA
  6
CONTINUOUS
 62
     7
 10
157.00368872961729
 20
172.58431534774061
 30
0.0
 40
2.439339828223865
 50
90.0
 51
270.0
  0
LINE
  5
189
  8
DATA
  6
CONTINUOUS
 62
     7
 10
149.48598946158339
 20
171.80676770877699
 30
0.0
 11
149.48598946158339
 21
177.00006194213429
 31
0.0
  0
LINE
  5
18A
  8
DATA
  6
CONTINUOUS
 62
     7
 10
156.1353726690148
 20
174.99568883126881
 30
0.0
 11
154.66829019355359
 21
175.3072601162217
 31
0.0
  0
ARC
  5
18B
  8
DATA
  6
CONTINUOUS
 62
     7
 10
192.3036887296152
 20
172.58431534774061
 30
0.0
 40
3.166309702271163
 50
90.000000000001009
 51
270.00000000000102
  0
LINE
  5
18C
  8
DATA
  6
CONTINUOUS
 62
     7
 10
16.999999999999972
 20
423.01557022103481
 30
0.0
 11
163.99999999999989
 21
423.01557022103481
 31
0.0
  0
LINE
  5
18D
  8
DATA
  6
CONTINUOUS
 62
     7
 10
7.9999999999999707
 20
383.01557022103481
 30
0.0
 11
172.99999999999989
 21
383.01557022103481
 31
0.0
  0
LINE
  5
18E
  8
DATA
  6
CONTINUOUS
 62
     7
 10
4.0000000000000284
 20
420.01557022103492
 30
0.0
 11
177.0
 21
420.01557022103492
 31
0.0
  0
LINE
  5
18F
  8
DATA
  6
CONTINUOUS
 62
     7
 10
13.99999999999997
 20
420.01557022103492
 30
0.0
 11
16.999999999999972
 21
423.01557022103481
 31
0.0
  0
LINE
  5
190
  8
DATA
  6
CONTINUOUS
 62
     7
 10
3.9999999999999711
 20
385.01557022103492
 30
0.0
 11
7.9999999999999707
 21
383.01557022103481
 31
0.0
  0
ARC
  5
191
  8
DATA
  6
CONTINUOUS
 62
     7
 10
40.249999999999922
 20
402.51557022103481
 30
0.0
 40
40.253105470261488
 50
154.23067237566119
 51
205.76932762433881
  0
LINE
  5
192
  8
DATA
  6
CONTINUOUS
 62
     7
 10
2.3640890912936641
 20
388.91519321826132
 30
0.0
 11
-11.95153313703994
 21
374.5995709899276
 31
0.0
  0
LINE
  5
193
  8
DATA
  6
CONTINUOUS
 62
     7
 10
5.0236892706217873
 20
384.50372558572411
 30
0.0
 11
-8.4159992311072358
 21
371.064037083995
 31
0.0
  0
LINE
  5
194
  8
DATA
  6
CONTINUOUS
 62
     7
 10
-12.30508652763322
 20
374.95312438052088
 30
0.0
 11
-20.303562937014391
 21
367.62118767192158
 31
0.0
  0
LINE
  5
195
  8
DATA
  6
CONTINUOUS
 62
     7
 10
-8.0624458405139592
 20
370.71048369340173
 30
0.0
 11
-15.39438254911337
 21
362.7120072840205
 31
0.0
  0
LINE
  5
196
  8
DATA
  6
CONTINUOUS
 62
     7
 10
-20.915740615487518
 20
366.52657566243693
 30
0.0
 11
-21.4974746830583
 21
363.51809553797659
 31
0.0
  0
LINE
  5
197
  8
DATA
  6
CONTINUOUS
 62
     7
 10
-19.4974746830583
 20
361.51809553797659
 30
0.0
 11
-16.488994558598129
 21
362.09982960554743
 31
0.0
  0
ARC
  5
198
  8
DATA
  6
CONTINUOUS
 62
     7
 10
-19.497474683058361
 20
363.51809553797659
 30
0.0
 40
1.9999999999999429
 50
180.0
 51
270.00000000000171
  0
ARC
  5
199
  8
DATA
  6
CONTINUOUS
 62
     7
 10
-18.95211367997965
 20
366.14687939152009
 30
0.0
 40
1.999999999999996
 50
132.5104470780029
 51
169.05607830681129
  0
ARC
  5
19A
  8
DATA
  6
CONTINUOUS
 62
     7
 10
-16.868690829514801
 20
364.06345654105519
 30
0.0
 40
2.0000000000000182
 50
280.9439216931886
 51
317.48955292199707
  0
LINE
  5
19B
  8
DATA
  6
CONTINUOUS
 62
     7
 10
-12.30508652763322
 20
374.95312438052088
 30
0.0
 11
-8.0624458405139592
 21
370.71048369340173
 31
0.0
  0
LINE
  5
19C
  8
DATA
  6
CONTINUOUS
 62
     7
 10
153.0
 20
423.01557022103481
 30
0.0
 11
153.0
 21
383.01557022103481
 31
0.0
  0
LINE
  5
19D
  8
DATA
  6
CONTINUOUS
 62
     7
 10
166.99999999999989
 20
420.01557022103492
 30
0.0
 11
163.99999999999989
 21
423.01557022103481
 31
0.0
  0
LINE
  5
19E
  8
DATA
  6
CONTINUOUS
 62
     7
 10
178.63862515999131
 20
388.91247896697638
 30
0.0
 11
192.95153313704
 21
374.5995709899276
 31
0.0
  0
LINE
  5
19F
  8
DATA
  6
CONTINUOUS
 62
     7
 10
175.46446609406721
 20
385.01557022103492
 30
0.0
 11
189.41599923110721
 21
371.064037083995
 31
0.0
  0
LINE
  5
1A0
  8
DATA
  6
CONTINUOUS
 62
     7
 10
193.30508652763311
 20
374.95312438052088
 30
0.0
 11
201.30356293701439
 21
367.62118767192158
 31
0.0
  0
LINE
  5
1A1
  8
DATA
  6
CONTINUOUS
 62
     7
 10
189.06244584051399
 20
370.71048369340173
 30
0.0
 11
196.3943825491134
 21
362.7120072840205
 31
0.0
  0
LINE
  5
1A2
  8
DATA
  6
CONTINUOUS
 62
     7
 10
201.91574061548741
 20
366.52657566243693
 30
0.0
 11
202.49747468305841
 21
363.51809553797659
 31
0.0
  0
LINE
  5
1A3
  8
DATA
  6
CONTINUOUS
 62
     7
 10
200.49747468305819
 20
361.51809553797659
 30
0.0
 11
197.48899455859811
 21
362.09982960554743
 31
0.0
  0
ARC
  5
1A4
  8
DATA
  6
CONTINUOUS
 62
     7
 10
200.49747468305841
 20
363.51809553797659
 30
0.0
 40
2.0
 50
269.99999999999682
 51
0.0
  0
ARC
  5
1A5
  8
DATA
  6
CONTINUOUS
 62
     7
 10
199.95211367997959
 20
366.14687939152009
 30
0.0
 40
1.999999999999962
 50
10.94392169318894
 51
47.489552921995852
  0
ARC
  5
1A6
  8
DATA
  6
CONTINUOUS
 62
     7
 10
197.86869082951489
 20
364.06345654105519
 30
0.0
 40
2.0000000000000382
 50
222.51044707800179
 51
259.0560783068097
  0
LINE
  5
1A7
  8
DATA
  6
CONTINUOUS
 62
     7
 10
193.30508652763311
 20
374.95312438052088
 30
0.0
 11
189.06244584051399
 21
370.71048369340173
 31
0.0
  0
LINE
  5
1A8
  8
DATA
  6
CONTINUOUS
 62
     7
 10
3.9999999999999711
 20
385.01557022103492
 30
0.0
 11
175.46446609406729
 21
385.01557022103492
 31
0.0
  0
LINE
  5
1A9
  8
DATA
  6
CONTINUOUS
 62
     7
 10
177.0036887296136
 20
385.01557022103492
 30
0.0
 11
173.0036887296136
 21
383.01557022103481
 31
0.0
  0
ARC
  5
1AA
  8
DATA
  6
CONTINUOUS
 62
     7
 10
140.75368872961371
 20
402.51557022103481
 30
0.0
 40
40.253105470261488
 50
334.2306723756613
 51
25.769327624338761
  0
LINE
  5
1AB
  8
DATA
  6
CONTINUOUS
 62
     7
 10
27.999999999999972
 20
383.01557022103481
 30
0.0
 11
27.999999999999972
 21
423.01557022103481
 31
0.0
  0
LINE
  5
1AC
  8
DATA
  6
CONTINUOUS
 62
     7
 10
30.499999999999972
 20
387.01557022103481
 30
0.0
 11
30.499999999999972
 21
420.01557022103492
 31
0.0
  0
LINE
  5
1AD
  8
DATA
  6
CONTINUOUS
 62
     7
 10
150.49999999999989
 20
387.01557022103481
 30
0.0
 11
150.49999999999989
 21
420.01557022103492
 31
0.0
  0
LINE
  5
1AE
  8
DATA
  6
CONTINUOUS
 62
     7
 10
30.499999999999972
 20
387.01557022103481
 30
0.0
 11
150.49999999999989
 21
387.01557022103481
 31
0.0
  0
CIRCLE
  5
1AF
  8
DATA
  6
CONTINUOUS
 62
     7
 10
64.499999999999972
 20
406.01557022103481
 30
0.0
 40
5.2499999999999876
  0
CIRCLE
  5
1B0
  8
DATA
  6
CONTINUOUS
 62
     7
 10
64.499999999999972
 20
406.01557022103481
 30
0.0
 40
3.25
  0
CIRCLE
  5
1B1
  8
DATA
  6
CONTINUOUS
 62
     7
 10
90.499999999999943
 20
400.01557022103481
 30
0.0
 40
10.75
  0
ARC
  5
1B2
  8
DATA
  6
CONTINUOUS
 62
     7
 10
90.5
 20
400.01557022103481
 30
0.0
 40
8.2499999999999591
 50
230.7919852416791
 51
219.2080147583203
  0
CIRCLE
  5
1B3
  8
DATA
  6
CONTINUOUS
 62
     7
 10
94.499999999999943
 20
400.01557022103481
 30
0.0
 40
1.0
  0
CIRCLE
  5
1B4
  8
DATA
  6
CONTINUOUS
 62
     7
 10
86.499999999999957
 20
400.01557022103481
 30
0.0
 40
1.0
  0
CIRCLE
  5
1B5
  8
DATA
  6
CONTINUOUS
 62
     7
 10
90.499999999999943
 20
404.01557022103481
 30
0.0
 40
1.0
  0
ARC
  5
1B6
  8
DATA
  6
CONTINUOUS
 62
     7
 10
84.66636905521095
 20
394.18193927624583
 30
0.0
 40
0.8336309447889979
 50
132.104007379161
 51
317.89599262083971
  0
CIRCLE
  5
1B7
  8
DATA
  6
CONTINUOUS
 62
     7
 10
80.954058453981631
 20
409.56151176705322
 30
0.0
 40
2.25
  0
LINE
  5
1B8
  8
DATA
  6
CONTINUOUS
 62
     7
 10
79.954058453981631
 20
409.56151176705322
 30
0.0
 11
81.954058453981631
 21
409.56151176705322
 31
0.0
  0
LINE
  5
1B9
  8
DATA
  6
CONTINUOUS
 62
     7
 10
80.954058453981631
 20
408.56151176705322
 30
0.0
 11
80.954058453981631
 21
410.56151176705322
 31
0.0
  0
LINE
  5
1BA
  8
DATA
  6
CONTINUOUS
 62
     7
 10
122.4999999999999
 20
409.56151176705322
 30
0.0
 11
128.49999999999989
 21
409.56151176705322
 31
0.0
  0
LINE
  5
1BB
  8
DATA
  6
CONTINUOUS
 62
     7
 10
128.49999999999989
 20
409.56151176705322
 30
0.0
 11
128.49999999999989
 21
394.56151176705322
 31
0.0
  0
LINE
  5
1BC
  8
DATA
  6
CONTINUOUS
 62
     7
 10
128.49999999999989
 20
394.56151176705322
 30
0.0
 11
122.4999999999999
 21
394.56151176705322
 31
0.0
  0
LINE
  5
1BD
  8
DATA
  6
CONTINUOUS
 62
     7
 10
122.4999999999999
 20
394.56151176705322
 30
0.0
 11
122.4999999999999
 21
409.56151176705322
 31
0.0
  0
LINE
  5
1BE
  8
DATA
  6
CONTINUOUS
 62
     7
 10
146.49999999999989
 20
413.01557022103481
 30
0.0
 11
146.49999999999989
 21
401.01557022103481
 31
0.0
  0
LINE
  5
1BF
  8
DATA
  6
CONTINUOUS
 62
     7
 10
146.49999999999989
 20
413.01557022103481
 30
0.0
 11
136.49999999999989
 21
413.01557022103481
 31
0.0
  0
LINE
  5
1C0
  8
DATA
  6
CONTINUOUS
 62
     7
 10
136.49999999999989
 20
413.01557022103481
 30
0.0
 11
136.49999999999989
 21
401.01557022103481
 31
0.0
  0
LINE
  5
1C1
  8
DATA
  6
CONTINUOUS
 62
     7
 10
136.49999999999989
 20
401.01557022103481
 30
0.0
 11
146.49999999999989
 21
401.01557022103481
 31
0.0
  0
CIRCLE
  5
1C2
  8
DATA
  6
CONTINUOUS
 62
     7
 10
141.5
 20
406.01557022103481
 30
0.0
 40
0.749999999999999
  0
CIRCLE
  5
1C3
  8
DATA
  6
CONTINUOUS
 62
     7
 10
141.5
 20
406.01557022103481
 30
0.0
 40
3.0
  0
TEXT
  5
1C4
  8
DATA
 62
     7
 10
146.7916666666666
 20
417.74582022103482
 30
0.0
 40
3.7041666666666648
  1
POWER
 50
180.0
 41
0.8
 11
146.7916666666666
 21
414.04165355436822
 31
0.0
 73
     3
  0
TEXT
  5
1C5
  8
DATA
 62
     7
 10
97.527083333333323
 20
417.74582022103482
 30
0.0
 40
3.2576822916666659
  1
MIC OUT
 50
180.0
 41
0.8
 11
97.527083333333323
 21
414.48813792936818
 31
0.0
 73
     3
  0
TEXT
  5
1C6
  8
DATA
 62
     7
 10
72.379166666666691
 20
417.74582022103482
 30
0.0
 40
3.2576822916666659
  1
LINE OUT
 50
180.0
 41
0.8
 11
72.379166666666691
 21
414.48813792936818
 31
0.0
 73
     3
  0
TEXT
  5
1C7
  8
DATA
 62
     7
 10
115.0197526041666
 20
406.83565355436832
 30
0.0
 40
2.4432617187500001
  1
BALANCED
 50
180.0
 41
0.8
 72
     1
 11
107.52708333333329
 21
404.3923918356183
 31
0.0
 73
     3
  0
TEXT
  5
1C8
  8
DATA
 62
     7
 10
112.02268489583329
 20
410.01065355436822
 30
0.0
 40
2.4432617187500001
  1
LOW Z
 50
180.0
 41
0.8
 72
     1
 11
107.52708333333329
 21
407.5673918356182
 31
0.0
 73
     3
  0
TEXT
  5
1C9
  8
DATA
 62
     7
 10
73.804036440787428
 20
395.39607022103502
 30
0.0
 40
2.4432617187500001
  1
UNBALANCED
 50
180.0
 41
0.8
 72
     1
 11
64.356757794954092
 21
392.952808502285
 31
0.0
 73
     3
  0
TEXT
  5
1CA
  8
DATA
 62
     7
 10
69.178127586620761
 20
398.57107022103492
 30
0.0
 40
2.4432617187500001
  1
HIGH Z
 50
180.0
 41
0.8
 72
     1
 11
64.356757794954092
 21
396.12780850228478
 31
0.0
 73
     3
  0
TEXT
  5
1CB
  8
DATA
 62
     7
 10
147.6437499999999
 20
392.04607022103488
 30
0.0
 40
2.4432617187500001
  1
12-18V
 50
180.0
 41
0.8
 11
147.6437499999999
 21
389.60280850228492
 31
0.0
 73
     3
  0
TEXT
  5
1CC
  8
DATA
 62
     7
 10
147.6437499999999
 20
395.22107022103489
 30
0.0
 40
2.4432617187500001
  1
  160mA
 50
180.0
 41
0.8
 11
147.6437499999999
 21
392.77780850228493
 31
0.0
 73
     3
  0
CIRCLE
  5
1CD
  8
DATA
  6
CONTINUOUS
 62
     7
 10
141.5
 20
398.01557022103492
 30
0.0
 40
0.500000000000004
  0
ARC
  5
1CE
  8
DATA
  6
CONTINUOUS
 62
     7
 10
141.5
 20
398.01557022103492
 30
0.0
 40
1.0
 50
209.9999999999981
 51
149.9999999999998
  0
LINE
  5
1CF
  8
DATA
  6
CONTINUOUS
 62
     7
 10
139.5
 20
398.01557022103492
 30
0.0
 11
140.99999999999989
 21
398.01557022103492
 31
0.0
  0
LINE
  5
1D0
  8
DATA
  6
CONTINUOUS
 62
     7
 10
142.5
 20
398.01557022103492
 30
0.0
 11
143.5
 21
398.01557022103492
 31
0.0
  0
LINE
  5
1D1
  8
DATA
  6
CONTINUOUS
 62
     7
 10
137.0
 20
398.01557022103492
 30
0.0
 11
139.0
 21
398.01557022103492
 31
0.0
  0
LINE
  5
1D2
  8
DATA
  6
CONTINUOUS
 62
     7
 10
137.99999999999989
 20
399.01557022103492
 30
0.0
 11
137.99999999999989
 21
397.01557022103481
 31
0.0
  0
LINE
  5
1D3
  8
DATA
  6
CONTINUOUS
 62
     7
 10
144.0
 20
398.01557022103492
 30
0.0
 11
146.0
 21
398.01557022103492
 31
0.0
  0
LINE
  5
1D4
  8
DATA
  6
CONTINUOUS
 62
     7
 10
297.03149318878718
 20
0.0
 30
0.0
 11
371.0
 21
0.0
 31
0.0
  0
LINE
  5
1D5
  8
DATA
  6
CONTINUOUS
 62
     7
 10
284.03149318878718
 20
3.0
 30
0.0
 11
384.00000000000011
 21
3.0
 31
0.0
  0
ARC
  5
1D6
  8
DATA
  6
CONTINUOUS
 62
     7
 10
347.75
 20
20.5
 30
0.0
 40
40.253105470261488
 50
334.2306723756613
 51
25.769327624338761
  0
LINE
  5
1D7
  8
DATA
  6
CONTINUOUS
 62
     7
 10
384.0
 20
38.0
 30
0.0
 11
380.0
 21
40.0
 31
0.0
  0
ARC
  5
1D8
  8
DATA
  6
CONTINUOUS
 62
     7
 10
320.28149318878718
 20
20.5
 30
0.0
 40
40.253105470261488
 50
154.23067237566119
 51
205.76932762433881
  0
LINE
  5
1D9
  8
DATA
  6
CONTINUOUS
 62
     7
 10
284.03149318878718
 20
38.0
 30
0.0
 11
288.03149318878718
 21
40.0
 31
0.0
  0
LINE
  5
1DA
  8
DATA
  6
CONTINUOUS
 62
     7
 10
288.03149318878718
 20
40.0
 30
0.0
 11
380.0
 21
40.0
 31
0.0
  0
LINE
  5
1DB
  8
DATA
  6
CONTINUOUS
 62
     7
 10
284.03149318878718
 20
38.0
 30
0.0
 11
384.0
 21
38.0
 31
0.0
  0
LINE
  5
1DC
  8
DATA
  6
CONTINUOUS
 62
     7
 10
374.0
 20
3.0
 30
0.0
 11
371.0
 21
0.0
 31
0.0
  0
LINE
  5
1DD
  8
DATA
  6
CONTINUOUS
 62
     7
 10
294.03149318878718
 20
3.0
 30
0.0
 11
297.03149318878718
 21
0.0
 31
0.0
  0
LINE
  5
1DE
  8
DATA
  6
CONTINUOUS
 62
     7
 10
279.10000000000002
 20
17.5
 30
0.0
 11
279.10000000000002
 21
6.5
 31
0.0
  0
LINE
  5
1DF
  8
DATA
  6
CONTINUOUS
 62
     7
 10
279.10000000000002
 20
6.5
 30
0.0
 11
282.54142827098411
 21
6.5
 31
0.0
  0
LINE
  5
1E0
  8
DATA
  6
CONTINUOUS
 62
     7
 10
279.10000000000002
 20
17.5
 30
0.0
 11
280.1403360056666
 21
17.5
 31
0.0
  0
LINE
  5
1E1
  8
DATA
  6
CONTINUOUS
 62
     7
 10
277.01574659439359
 20
15.999999999999821
 30
0.0
 11
279.10000000000002
 21
15.999999999999821
 31
0.0
  0
LINE
  5
1E2
  8
DATA
  6
CONTINUOUS
 62
     7
 10
277.01574659439359
 20
7.9999999999998277
 30
0.0
 11
279.10000000000002
 21
7.9999999999998277
 31
0.0
  0
INSERT
  5
1E3
  8
DATA
 62
     7
  2
____
 10
195.0
 20
262.0
 30
0.0
  0
LINE
  5
1E4
  8
DATA
  6
CONTINUOUS
 62
     7
 10
122.4999999999999
 20
298.00006194213432
 30
0.0
 11
122.4999999999999
 21
285.00006194213432
 31
0.0
  0
LINE
  5
1E5
  8
DATA
  6
CONTINUOUS
 62
     7
 10
128.49999999999989
 20
298.00006194213432
 30
0.0
 11
128.49999999999989
 21
285.00006194213432
 31
0.0
  0
LINE
  5
1E6
  8
DATA
  6
CONTINUOUS
 62
     7
 10
122.4999999999999
 20
298.00006194213432
 30
0.0
 11
128.49999999999989
 21
298.00006194213432
 31
0.0
  0
LINE
  5
1E7
  8
DATA
  6
CONTINUOUS
 62
     7
 10
398.03149318878729
 20
24.454058453981709
 30
0.0
 11
398.03149318878729
 21
17.454058453981698
 31
0.0
  0
LINE
  5
1E8
  8
DATA
  6
CONTINUOUS
 62
     7
 10
394.03149318878718
 20
13.4540584539817
 30
0.0
 11
387.3816440200265
 21
13.4540584539817
 31
0.0
  0
LINE
  5
1E9
  8
DATA
  6
CONTINUOUS
 62
     7
 10
394.03149318878718
 20
28.454058453981698
 30
0.0
 11
387.3816440200265
 21
28.454058453981698
 31
0.0
  0
ARC
  5
1EA
  8
DATA
  6
CONTINUOUS
 62
     7
 10
394.03149318878718
 20
24.454058453981709
 30
0.0
 40
4.0
 50
0.0
 51
90.0
  0
ARC
  5
1EB
  8
DATA
  6
CONTINUOUS
 62
     7
 10
394.03149318878718
 20
17.454058453981698
 30
0.0
 40
4.0
 50
270.0
 51
0.0
  0
LINE
  5
1EC
  8
DATA
  6
CONTINUOUS
 62
     7
 10
394.03149318878718
 20
25.454058453981709
 30
0.0
 11
387.3816440200265
 21
25.454058453981709
 31
0.0
  0
LINE
  5
1ED
  8
DATA
  6
CONTINUOUS
 62
     7
 10
395.03149318878718
 20
24.454058453981709
 30
0.0
 11
395.03149318878718
 21
17.454058453981698
 31
0.0
  0
LINE
  5
1EE
  8
DATA
  6
CONTINUOUS
 62
     7
 10
394.03149318878718
 20
16.454058453981698
 30
0.0
 11
387.3816440200265
 21
16.454058453981698
 31
0.0
  0
ARC
  5
1EF
  8
DATA
  6
CONTINUOUS
 62
     7
 10
394.03149318878718
 20
24.454058453981709
 30
0.0
 40
1.0
 50
0.0
 51
90.0
  0
ARC
  5
1F0
  8
DATA
  6
CONTINUOUS
 62
     7
 10
394.03149318878718
 20
17.454058453981698
 30
0.0
 40
1.0
 50
270.0
 51
0.0
  0
CIRCLE
  5
1F1
  8
DATA
  6
STYLE_01
 62
     7
 10
153.0
 20
11.99999999999994
 30
0.0
 40
69.171572875253801
  0
ENDSEC
  0
EOF
