  0
SECTION
  2
HEADER
  9
$ACADVER
  1
AC1009
  9
$INSBASE
 10
0.0
 20
0.0
 30
0.0
  9
$EXTMIN
 10
-15.01098548933726
 20
-515.24380723730235
 30
-0.0004456922265774
  9
$EXTMAX
 10
345.01096716571772
 20
20.016301513405999
 30
0.0000000102014752
  9
$LIMMIN
 10
0.0
 20
0.0
  9
$LIMMAX
 10
0.0
 20
0.0
  9
$ORTHOMODE
 70
     0
  9
$REGENMODE
 70
     1
  9
$FILLMODE
 70
     1
  9
$QTEXTMODE
 70
     0
  9
$MIRRTEXT
 70
     1
  9
$DRAGMODE
 70
     2
  9
$LTSCALE
 40
10.16
  9
$OSMODE
 70
   231
  9
$ATTMODE
 70
     1
  9
$TEXTSIZE
 40
0.0
  9
$TRACEWID
 40
1.0
  9
$TEXTSTYLE
  7
STANDARD
  9
$CLAYER
  8
DATA
  9
$CELTYPE
  6
CONTINUOUS
  9
$CECOLOR
 62
   256
  9
$DIMSCALE
 40
1.0
  9
$DIMASZ
 40
0.18
  9
$DIMEXO
 40
0.0625
  9
$DIMDLI
 40
0.38
  9
$DIMRND
 40
0.0
  9
$DIMDLE
 40
0.0
  9
$DIMEXE
 40
0.18
  9
$DIMTP
 40
0.0
  9
$DIMTM
 40
0.0
  9
$DIMTXT
 40
0.18
  9
$DIMCEN
 40
0.09
  9
$DIMTSZ
 40
0.0
  9
$DIMTOL
 70
     0
  9
$DIMLIM
 70
     0
  9
$DIMTIH
 70
     1
  9
$DIMTOH
 70
     1
  9
$DIMSE1
 70
     0
  9
$DIMSE2
 70
     0
  9
$DIMTAD
 70
     0
  9
$DIMZIN
 70
     0
  9
$DIMBLK
  1

  9
$DIMASO
 70
     1
  9
$DIMSHO
 70
     1
  9
$DIMPOST
  1

  9
$DIMAPOST
  1

  9
$DIMALT
 70
     0
  9
$DIMALTD
 70
     2
  9
$DIMALTF
 40
25.399999999999999
  9
$DIMLFAC
 40
1.0
  9
$DIMTOFL
 70
     0
  9
$DIMTVP
 40
0.0
  9
$DIMTIX
 70
     0
  9
$DIMSOXD
 70
     0
  9
$DIMSAH
 70
     0
  9
$DIMBLK1
  1

  9
$DIMBLK2
  1

  9
$DIMSTYLE
  2
STANDARD
  9
$DIMCLRD
 70
     0
  9
$DIMCLRE
 70
     0
  9
$DIMCLRT
 70
     0
  9
$DIMTFAC
 40
1.0
  9
$DIMGAP
 40
0.09
  9
$LUNITS
 70
     2
  9
$LUPREC
 70
     4
  9
$SKETCHINC
 40
0.1
  9
$FILLETRAD
 40
0.0
  9
$AUNITS
 70
     0
  9
$AUPREC
 70
     0
  9
$MENU
  1
acad
  9
$ELEVATION
 40
0.0
  9
$PELEVATION
 40
0.0
  9
$THICKNESS
 40
0.0
  9
$LIMCHECK
 70
     0
  9
$BLIPMODE
 70
     0
  9
$CHAMFERA
 40
0.0
  9
$CHAMFERB
 40
0.0
  9
$SKPOLY
 70
     0
  9
$TDCREATE
 40
2453780.7045949069
  9
$TDUPDATE
 40
2453780.716303125
  9
$TDINDWG
 40
0.0002739699
  9
$TDUSRTIMER
 40
0.0002737963
  9
$USRTIMER
 70
     1
  9
$ANGBASE
 50
0.0
  9
$ANGDIR
 70
     0
  9
$PDMODE
 70
     1
  9
$PDSIZE
 40
-2.0
  9
$PLINEWID
 40
0.0
  9
$COORDS
 70
     2
  9
$SPLFRAME
 70
     0
  9
$SPLINETYPE
 70
     6
  9
$SPLINESEGS
 70
     8
  9
$ATTDIA
 70
     0
  9
$ATTREQ
 70
     1
  9
$HANDLING
 70
     1
  9
$HANDSEED
  5
254
  9
$SURFTAB1
 70
     6
  9
$SURFTAB2
 70
     6
  9
$SURFTYPE
 70
     6
  9
$SURFU
 70
     6
  9
$SURFV
 70
     6
  9
$UCSNAME
  2

  9
$UCSORG
 10
0.0
 20
0.0
 30
0.0
  9
$UCSXDIR
 10
1.0
 20
0.0
 30
0.0
  9
$UCSYDIR
 10
0.0
 20
1.0
 30
0.0
  9
$PUCSNAME
  2

  9
$PUCSORG
 10
0.0
 20
0.0
 30
0.0
  9
$PUCSXDIR
 10
1.0
 20
0.0
 30
0.0
  9
$PUCSYDIR
 10
0.0
 20
1.0
 30
0.0
  9
$USERI1
 70
     0
  9
$USERI2
 70
     0
  9
$USERI3
 70
     0
  9
$USERI4
 70
     0
  9
$USERI5
 70
     0
  9
$USERR1
 40
0.0
  9
$USERR2
 40
0.0
  9
$USERR3
 40
0.0
  9
$USERR4
 40
0.0
  9
$USERR5
 40
0.0
  9
$WORLDVIEW
 70
     1
  9
$SHADEDGE
 70
     3
  9
$SHADEDIF
 70
    70
  9
$TILEMODE
 70
     1
  9
$MAXACTVP
 70
    64
  9
$PLIMCHECK
 70
     0
  9
$PEXTMIN
 10
1.0000000000000000E+020
 20
1.0000000000000000E+020
 30
1.0000000000000000E+020
  9
$PEXTMAX
 10
-1.0000000000000000E+020
 20
-1.0000000000000000E+020
 30
-1.0000000000000000E+020
  9
$PLIMMIN
 10
0.0
 20
0.0
  9
$PLIMMAX
 10
12.0
 20
9.0
  9
$UNITMODE
 70
     0
  9
$VISRETAIN
 70
     0
  9
$PLINEGEN
 70
     1
  9
$PSLTSCALE
 70
     0
  0
ENDSEC
  0
SECTION
  2
TABLES
  0
TABLE
  2
VPORT
 70
     2
  0
VPORT
  2
*ACTIVE
 70
     0
 10
0.0
 20
0.0
 11
1.0
 21
1.0
 12
164.9999908381902
 22
-247.6137528619482
 13
0.0
 23
0.0
 14
1.0
 24
1.0
 15
0.0
 25
0.0
 16
0.0
 26
0.0
 36
1.0
 17
0.0
 27
0.0
 37
0.0
 40
539.68984758174884
 41
1.665745856353591
 42
50.0
 43
0.0
 44
0.0
 50
0.0
 51
0.0
 71
     0
 72
  2000
 73
     1
 74
     1
 75
     0
 76
     0
 77
     0
 78
     0
  0
ENDTAB
  0
TABLE
  2
LTYPE
 70
    11
  0
LTYPE
  2
CONTINUOUS
 70
     0
  3
Solid line
 72
    65
 73
     0
 40
0.0
  0
ENDTAB
  0
TABLE
  2
LAYER
 70
     5
  0
LAYER
  2
0
 70
     0
 62
     7
  6
CONTINUOUS
  0
LAYER
  2
DATA
 70
     0
 62
     7
  6
CONTINUOUS
  0
LAYER
  2
HIBINO-BASE
 70
     0
 62
     7
  6
CONTINUOUS
  0
LAYER
  2
SPEC
 70
     0
 62
     7
  6
CONTINUOUS
  0
LAYER
  2
DIMNSIONS
 70
     0
 62
     7
  6
CONTINUOUS
  0
ENDTAB
  0
TABLE
  2
STYLE
 70
     2
  0
STYLE
  2
STANDARD
 70
     0
 40
0.0
 41
1.0
 50
0.0
 71
     0
 42
0.0
  3
txt
  4
BIGFONT.SHX
  0
ENDTAB
  0
TABLE
  2
VIEW
 70
     0
  0
ENDTAB
  0
TABLE
  2
UCS
 70
     0
  0
ENDTAB
  0
TABLE
  2
APPID
 70
     1
  0
APPID
  2
ACAD
 70
     0
  0
ENDTAB
  0
TABLE
  2
DIMSTYLE
 70
     1
  0
DIMSTYLE
  2
STANDARD
 70
     0
  3

  4

  5

  6

  7

 40
1.0
 41
0.18
 42
0.0625
 43
0.38
 44
0.18
 45
0.0
 46
0.0
 47
0.0
 48
0.0
140
0.18
141
0.09
142
0.0
143
25.399999999999999
144
1.0
145
0.0
146
1.0
147
0.09
 71
     0
 72
     0
 73
     1
 74
     1
 75
     0
 76
     0
 77
     0
 78
     0
170
     0
171
     2
172
     0
173
     0
174
     0
175
     0
176
     0
177
     0
178
     0
  0
ENDTAB
  0
ENDSEC
  0
SECTION
  2
BLOCKS
  0
BLOCK
  8
0
  2
$MODEL_SPACE
 70
     0
 10
0.0
 20
0.0
 30
0.0
  3
$MODEL_SPACE
  1

  0
ENDBLK
  5
229
  8
0
  0
BLOCK
 67
     1
  8
0
  2
$PAPER_SPACE
 70
     0
 10
0.0
 20
0.0
 30
0.0
  3
$PAPER_SPACE
  1

  0
ENDBLK
  5
225
 67
     1
  8
0
  0
BLOCK
  8
DATA
  2
____
 70
     0
 10
0.0
 20
0.0
 30
0.0
  3
____
  1

  0
CIRCLE
  5
33
  8
0
  6
CONTINUOUS
 62
     7
 10
74.999999980377098
 20
-154.99999975275111
 30
0.0
 40
2.0000000196229162
  0
CIRCLE
  5
34
  8
0
  6
CONTINUOUS
 62
     7
 10
74.999999980377098
 20
-154.99999975275111
 30
0.0
 40
1.5
  0
LINE
  5
35
  8
0
  6
CONTINUOUS
 62
     7
 10
73.700961874700425
 20
-154.24999975275111
 30
0.0
 11
74.999999980377098
 21
-154.99999975275111
 31
0.0
  0
LINE
  5
36
  8
0
  6
CONTINUOUS
 62
     7
 10
73.700961874700425
 20
-155.74999975275111
 30
0.0
 11
74.999999980377098
 21
-154.99999975275111
 31
0.0
  0
LINE
  5
37
  8
0
  6
CONTINUOUS
 62
     7
 10
74.999999980377098
 20
-156.49999975275111
 30
0.0
 11
74.999999980377098
 21
-154.99999975275111
 31
0.0
  0
LINE
  5
38
  8
0
  6
CONTINUOUS
 62
     7
 10
74.999999980377098
 20
-154.99999975275111
 30
0.0
 11
76.299038086053727
 21
-155.74999975275111
 31
0.0
  0
LINE
  5
39
  8
0
  6
CONTINUOUS
 62
     7
 10
74.999999980377098
 20
-154.99999975275111
 30
0.0
 11
76.299038086053727
 21
-154.24999975275111
 31
0.0
  0
LINE
  5
3A
  8
0
  6
CONTINUOUS
 62
     7
 10
74.999999980377098
 20
-154.99999975275111
 30
0.0
 11
74.999999980377098
 21
-153.49999975275111
 31
0.0
  0
ENDBLK
  5
3B
  8
DATA
  0
BLOCK
  8
DATA
  2
____-1
 70
     0
 10
0.0
 20
0.0
 30
0.0
  3
____-1
  1

  0
CIRCLE
  5
3D
  8
0
  6
CONTINUOUS
 62
     7
 10
74.999999980377098
 20
-69.999999646787302
 30
0.0
 40
2.0000000196229162
  0
CIRCLE
  5
3E
  8
0
  6
CONTINUOUS
 62
     7
 10
74.999999980377098
 20
-69.999999646787302
 30
0.0
 40
1.5
  0
LINE
  5
3F
  8
0
  6
CONTINUOUS
 62
     7
 10
73.700961874700425
 20
-69.249999646787302
 30
0.0
 11
74.999999980377098
 21
-69.999999646787302
 31
0.0
  0
LINE
  5
40
  8
0
  6
CONTINUOUS
 62
     7
 10
73.700961874700425
 20
-70.749999646787302
 30
0.0
 11
74.999999980377098
 21
-69.999999646787302
 31
0.0
  0
LINE
  5
41
  8
0
  6
CONTINUOUS
 62
     7
 10
74.999999980377098
 20
-71.499999646787302
 30
0.0
 11
74.999999980377098
 21
-69.999999646787302
 31
0.0
  0
LINE
  5
42
  8
0
  6
CONTINUOUS
 62
     7
 10
74.999999980377098
 20
-69.999999646787302
 30
0.0
 11
76.299038086053727
 21
-70.749999646787302
 31
0.0
  0
LINE
  5
43
  8
0
  6
CONTINUOUS
 62
     7
 10
74.999999980377098
 20
-69.999999646787302
 30
0.0
 11
76.299038086053727
 21
-69.249999646787302
 31
0.0
  0
LINE
  5
44
  8
0
  6
CONTINUOUS
 62
     7
 10
74.999999980377098
 20
-69.999999646787302
 30
0.0
 11
74.999999980377098
 21
-68.499999646787302
 31
0.0
  0
ENDBLK
  5
45
  8
DATA
  0
BLOCK
  8
DATA
  2
____-2
 70
     0
 10
0.0
 20
0.0
 30
0.0
  3
____-2
  1

  0
CIRCLE
  5
47
  8
0
  6
CONTINUOUS
 62
     7
 10
128.99999998037711
 20
-154.99999954082341
 30
0.0
 40
2.0000000196229162
  0
CIRCLE
  5
48
  8
0
  6
CONTINUOUS
 62
     7
 10
128.99999998037711
 20
-154.99999954082341
 30
0.0
 40
1.5
  0
LINE
  5
49
  8
0
  6
CONTINUOUS
 62
     7
 10
130.29903808016681
 20
-154.24999953062701
 30
0.0
 11
128.99999998037711
 21
-154.99999954082341
 31
0.0
  0
LINE
  5
4A
  8
0
  6
CONTINUOUS
 62
     7
 10
130.29903809194059
 20
-155.74999953062701
 30
0.0
 11
128.99999998037711
 21
-154.99999954082341
 31
0.0
  0
LINE
  5
4B
  8
0
  6
CONTINUOUS
 62
     7
 10
128.9999999921508
 20
-156.4999995408235
 30
0.0
 11
128.99999998037711
 21
-154.99999954082341
 31
0.0
  0
LINE
  5
4C
  8
0
  6
CONTINUOUS
 62
     7
 10
128.99999998037711
 20
-154.99999954082341
 30
0.0
 11
127.7009618805873
 21
-155.74999955101981
 31
0.0
  0
LINE
  5
4D
  8
0
  6
CONTINUOUS
 62
     7
 10
128.99999998037711
 20
-154.99999954082341
 30
0.0
 11
127.70096186881359
 21
-154.24999955101981
 31
0.0
  0
LINE
  5
4E
  8
0
  6
CONTINUOUS
 62
     7
 10
128.99999998037711
 20
-154.99999954082341
 30
0.0
 11
128.9999999686033
 21
-153.49999954082341
 31
0.0
  0
ENDBLK
  5
4F
  8
DATA
  0
BLOCK
  8
DATA
  2
____-3
 70
     0
 10
0.0
 20
0.0
 30
0.0
  3
____-3
  1

  0
CIRCLE
  5
51
  8
0
  6
CONTINUOUS
 62
     7
 10
128.99999931319741
 20
-69.999999434859632
 30
0.0
 40
2.0000000196229299
  0
CIRCLE
  5
52
  8
0
  6
CONTINUOUS
 62
     7
 10
128.99999931319741
 20
-69.999999434859632
 30
0.0
 40
1.500000000000014
  0
LINE
  5
53
  8
0
  6
CONTINUOUS
 62
     7
 10
130.29903741298719
 20
-69.249999424663244
 30
0.0
 11
128.99999931319741
 21
-69.999999434859632
 31
0.0
  0
LINE
  5
54
  8
0
  6
CONTINUOUS
 62
     7
 10
130.29903742476091
 20
-70.749999424663272
 30
0.0
 11
128.99999931319741
 21
-69.999999434859632
 31
0.0
  0
LINE
  5
55
  8
0
  6
CONTINUOUS
 62
     7
 10
128.99999932497121
 20
-71.499999434859632
 30
0.0
 11
128.99999931319741
 21
-69.999999434859632
 31
0.0
  0
LINE
  5
56
  8
0
  6
CONTINUOUS
 62
     7
 10
128.99999931319741
 20
-69.999999434859632
 30
0.0
 11
127.70096121340769
 21
-70.749999445056019
 31
0.0
  0
LINE
  5
57
  8
0
  6
CONTINUOUS
 62
     7
 10
128.99999931319741
 20
-69.999999434859632
 30
0.0
 11
127.7009612016339
 21
-69.249999445056005
 31
0.0
  0
LINE
  5
58
  8
0
  6
CONTINUOUS
 62
     7
 10
128.99999931319741
 20
-69.999999434859632
 30
0.0
 11
128.99999930142371
 21
-68.499999434859632
 31
0.0
  0
ENDBLK
  5
59
  8
DATA
  0
BLOCK
  8
DATA
  2
____-4
 70
     0
 10
0.0
 20
0.0
 30
0.0
  3
____-4
  1

  0
LINE
  5
5B
  8
0
  6
CONTINUOUS
 62
     7
 10
11.500000000000011
 20
-81.5
 30
0.0
 11
11.500000000000011
 21
-84.500000000000014
 31
0.0
  0
LINE
  5
5C
  8
0
  6
CONTINUOUS
 62
     7
 10
11.500000000000011
 20
-81.5
 30
0.0
 11
14.500000000000011
 21
-81.5
 31
0.0
  0
LINE
  5
5D
  8
0
  6
CONTINUOUS
 62
     7
 10
14.500000000000011
 20
-81.5
 30
0.0
 11
14.500000000000011
 21
-84.500000000000014
 31
0.0
  0
LINE
  5
5E
  8
0
  6
CONTINUOUS
 62
     7
 10
11.500000000000011
 20
-84.500000000000014
 30
0.0
 11
14.500000000000011
 21
-84.500000000000014
 31
0.0
  0
LINE
  5
5F
  8
0
  6
CONTINUOUS
 62
     7
 10
11.500000000000011
 20
-82.5
 30
0.0
 11
14.500000000000011
 21
-82.5
 31
0.0
  0
LINE
  5
60
  8
0
  6
CONTINUOUS
 62
     7
 10
11.500000000000011
 20
-83.499999999999986
 30
0.0
 11
14.500000000000011
 21
-83.499999999999986
 31
0.0
  0
ENDBLK
  5
61
  8
DATA
  0
BLOCK
  8
DATA
  2
____-5
 70
     0
 10
0.0
 20
0.0
 30
0.0
  3
____-5
  1

  0
ARC
  5
63
  8
0
  6
CONTINUOUS
 62
     7
 10
-80.999999999999972
 20
87.779513888888914
 30
0.0
 40
1.0000000000000191
 50
105.522487814071
 51
74.477512185984693
  0
LINE
  5
64
  8
0
  6
CONTINUOUS
 62
     7
 10
-80.999999999999986
 20
88.279513888888985
 30
0.0
 11
-80.999999999999986
 21
89.279513888888985
 31
0.0
  0
ENDBLK
  5
65
  8
DATA
  0
ENDSEC
  0
SECTION
  2
ENTITIES
  0
LINE
  5
66
  8
HIBINO-BASE
  6
CONTINUOUS
 62
     7
 10
-15.0
 20
20.0
 30
0.0
 11
344.99997999999999
 21
20.0
 31
0.0
  0
LINE
  5
67
  8
HIBINO-BASE
  6
CONTINUOUS
 62
     7
 10
344.99997999999999
 20
-499.99999000000003
 30
0.0
 11
-15.0
 21
-499.99999000000003
 31
0.0
  0
LINE
  5
68
  8
HIBINO-BASE
  6
CONTINUOUS
 62
     7
 10
-15.0
 20
-499.99999000000003
 30
0.0
 11
-15.0
 21
20.0
 31
0.0
  0
TEXT
  5
69
  8
HIBINO-BASE
 62
     7
 10
-0.6319999999999771
 20
-512.81733699999995
 30
0.0
 40
7.200080664062499
  1
Hibino Corporation
 41
0.8
 11
-0.6319999999999766
 21
-505.6172563359375
 31
0.0
 73
     3
  0
LINE
  5
6A
  8
HIBINO-BASE
  6
CONTINUOUS
 62
     7
 10
344.99997999999999
 20
20.0
 30
0.0
 11
344.99997999999999
 21
-499.99999000000003
 31
0.0
  0
LINE
  5
6B
  8
HIBINO-BASE
  6
CONTINUOUS
 62
     7
 10
164.99999
 20
-455.0
 30
0.0
 11
344.99997999999999
 21
-455.0
 31
0.0
  0
LINE
  5
6C
  8
HIBINO-BASE
  6
CONTINUOUS
 62
     7
 10
164.99999
 20
-499.99999000000003
 30
0.0
 11
164.99999
 21
-455.0
 31
0.0
  0
TEXT
  5
6D
  8
HIBINO-BASE
 62
     7
 10
166.79998000000001
 20
-460.4000064
 30
0.0
 40
3.6000518750000001
  1
NOTE
 41
0.8
 11
166.79998000000001
 21
-456.79995452499998
 31
0.0
 73
     3
  0
LINE
  5
6E
  8
HIBINO-BASE
  6
CONTINUOUS
 62
     7
 10
234.99999
 20
-499.99999000000003
 30
0.0
 11
234.99999
 21
-455.0
 31
0.0
  0
TEXT
  5
6F
  8
HIBINO-BASE
 62
     7
 10
236.79999000000001
 20
-460.4000064
 30
0.0
 40
3.6000518750000001
  1
TITLE
 41
0.8
 11
236.79999000000001
 21
-456.79995452499998
 31
0.0
 73
     3
  0
TEXT
  5
70
  8
HIBINO-BASE
 62
     7
 10
265.13675999999998
 20
-512.81733699999995
 30
0.0
 40
7.200080664062499
  1
ヒビノ株式会社
 41
0.8
 11
265.13675999999998
 21
-505.6172563359375
 31
0.0
 73
     3
  0
LINE
  5
71
  8
HIBINO-BASE
  6
CONTINUOUS
 62
     7
 10
164.99999
 20
-480.0
 30
0.0
 11
344.99997999999999
 21
-480.0
 31
0.0
  0
TEXT
  5
72
  8
HIBINO-BASE
 62
     7
 10
261.79998999999998
 20
-485.28735640000002
 30
0.0
 40
3.6000518750000001
  1
DRAWN
 41
0.8
 11
261.79998999999998
 21
-481.687304525
 31
0.0
 73
     3
  0
TEXT
  5
73
  8
HIBINO-BASE
 62
     7
 10
211.79999000000001
 20
-485.28735640000002
 30
0.0
 40
3.6000518750000001
  1
DATE
 41
0.8
 11
211.79999000000001
 21
-481.687304525
 31
0.0
 73
     3
  0
TEXT
  5
74
  8
HIBINO-BASE
 62
     7
 10
167.1999799999999
 20
-485.23889380000003
 30
0.0
 40
3.257679726562499
  1
図面サイズ
 41
0.8
 11
167.1999799999999
 21
-481.98121407343751
 31
0.0
 73
     3
  0
TEXT
  5
75
  8
HIBINO-BASE
 62
     7
 10
191.79998000000001
 20
-485.28735640000002
 30
0.0
 40
3.6000518750000001
  1
SCALE
 41
0.8
 11
191.79998000000001
 21
-481.687304525
 31
0.0
 73
     3
  0
TEXT
  5
76
  8
HIBINO-BASE
 62
     7
 10
236.79999000000001
 20
-485.28735640000002
 30
0.0
 40
3.6000518750000001
  1
DESIGN
 41
0.8
 11
236.79999000000001
 21
-481.687304525
 31
0.0
 73
     3
  0
TEXT
  5
77
  8
HIBINO-BASE
 62
     7
 10
311.79998000000001
 20
-485.28735640000002
 30
0.0
 40
3.6000518750000001
  1
DRAWING NO.
 41
0.8
 11
311.79998000000001
 21
-481.687304525
 31
0.0
 73
     3
  0
TEXT
  5
78
  8
HIBINO-BASE
 62
     7
 10
286.79998000000001
 20
-485.28735640000002
 30
0.0
 40
3.6000518750000001
  1
CHECK
 41
0.8
 11
286.79998000000001
 21
-481.687304525
 31
0.0
 73
     3
  0
LINE
  5
79
  8
HIBINO-BASE
  6
CONTINUOUS
 62
     7
 10
193.74997999999999
 20
-497.5
 30
0.0
 11
201.24999
 21
-490.0
 31
0.0
  0
TEXT
  5
7A
  8
HIBINO-BASE
 62
     7
 10
192.49997999999999
 20
-493.43142840000002
 30
0.0
 40
4.3435729687500002
  1
1
 41
0.8
 11
192.49997999999999
 21
-489.08785543124992
 31
0.0
 73
     3
  0
LINE
  5
7B
  8
HIBINO-BASE
  6
CONTINUOUS
 62
     7
 10
189.99997999999999
 20
-499.99999000000003
 30
0.0
 11
189.99997999999999
 21
-480.0
 31
0.0
  0
LINE
  5
7C
  8
HIBINO-BASE
  6
CONTINUOUS
 62
     7
 10
209.99997999999999
 20
-499.99999000000003
 30
0.0
 11
209.99997999999999
 21
-480.0
 31
0.0
  0
LINE
  5
7D
  8
HIBINO-BASE
  6
CONTINUOUS
 62
     7
 10
259.99997999999999
 20
-480.0
 30
0.0
 11
259.99997999999999
 21
-499.99999000000003
 31
0.0
  0
LINE
  5
7E
  8
HIBINO-BASE
  6
CONTINUOUS
 62
     7
 10
309.99999000000008
 20
-480.0
 30
0.0
 11
309.99999000000008
 21
-499.99999000000003
 31
0.0
  0
LINE
  5
7F
  8
HIBINO-BASE
  6
CONTINUOUS
 62
     7
 10
284.99997999999999
 20
-499.99999000000003
 30
0.0
 11
284.99997999999999
 21
-480.0
 31
0.0
  0
TEXT
  5
80
  8
HIBINO-BASE
 62
     7
 10
172.82176999999999
 20
-495.00306899999981
 30
0.0
 40
6.5153517578124989
  1
A4
 41
0.8
 11
172.82176999999999
 21
-488.48771724218727
 31
0.0
 73
     3
  0
TEXT
  5
81
  8
HIBINO-BASE
 62
     7
 10
211.71306999999999
 20
-494.6553164
 30
0.0
 40
3.6000518750000001
  1
'05.12.
 41
0.8
 11
211.71306999999999
 21
-491.05526452499998
 31
0.0
 73
     3
  0
TEXT
  5
82
  8
HIBINO-BASE
 62
     7
 10
199.99999
 20
-497.1814283999999
 30
0.0
 40
4.3435729687500002
  1
2
 41
0.8
 11
199.99999
 21
-492.83785543124998
 31
0.0
 73
     3
  0
LINE
  5
83
  8
SPEC
  6
CONTINUOUS
 62
     7
 10
0.0
 20
0.0
 30
0.0
 11
240.0
 21
0.0
 31
0.0
  0
LINE
  5
84
  8
SPEC
  6
CONTINUOUS
 62
     7
 10
0.0
 20
-7.5
 30
0.0
 11
240.0
 21
-7.5
 31
0.0
  0
LINE
  5
85
  8
SPEC
  6
CONTINUOUS
 62
     7
 10
0.0
 20
-37.5
 30
0.0
 11
240.0
 21
-37.5
 31
0.0
  0
LINE
  5
86
  8
SPEC
  6
CONTINUOUS
 62
     7
 10
0.0
 20
-30.0
 30
0.0
 11
240.0
 21
-30.0
 31
0.0
  0
LINE
  5
87
  8
SPEC
  6
CONTINUOUS
 62
     7
 10
0.0
 20
-22.5
 30
0.0
 11
240.0
 21
-22.5
 31
0.0
  0
LINE
  5
88
  8
SPEC
  6
CONTINUOUS
 62
     7
 10
0.0
 20
-45.0
 30
0.0
 11
240.0
 21
-45.0
 31
0.0
  0
LINE
  5
89
  8
SPEC
  6
CONTINUOUS
 62
     7
 10
0.0
 20
-60.0
 30
0.0
 11
240.0
 21
-60.0
 31
0.0
  0
LINE
  5
8A
  8
SPEC
  6
CONTINUOUS
 62
     7
 10
0.0
 20
-52.5
 30
0.0
 11
240.0
 21
-52.5
 31
0.0
  0
LINE
  5
8B
  8
SPEC
  6
CONTINUOUS
 62
     7
 10
0.0
 20
-75.0
 30
0.0
 11
240.0
 21
-75.0
 31
0.0
  0
LINE
  5
8C
  8
SPEC
  6
CONTINUOUS
 62
     7
 10
0.0
 20
-15.0
 30
0.0
 11
240.0
 21
-15.0
 31
0.0
  0
TEXT
  5
8D
  8
SPEC
 62
     7
 10
66.800000000000011
 20
-5.9241744444444304
 30
0.0
 40
3.8006293402777769
  1
F3E
 41
0.8
 11
66.800000000000011
 21
-2.1235451041666522
 31
0.0
 73
     3
  0
LINE
  5
8E
  8
SPEC
  6
CONTINUOUS
 62
     7
 10
0.0
 20
0.0
 30
0.0
 11
0.0
 21
-105.0
 31
0.0
  0
TEXT
  5
8F
  8
SPEC
 62
     7
 10
2.4999999999999991
 20
2.7865299999999862
 30
0.0
 40
4.8865234375000002
  1
仕様
 41
0.8
 11
2.5
 21
7.6730534374999859
 31
0.0
 73
     3
  0
LINE
  5
90
  8
SPEC
  6
CONTINUOUS
 62
     7
 10
65.0
 20
0.0
 30
0.0
 11
65.0
 21
-105.0
 31
0.0
  0
LINE
  5
91
  8
SPEC
  6
CONTINUOUS
 62
     7
 10
240.0
 20
0.0
 30
0.0
 11
240.0
 21
-105.0
 31
0.0
  0
TEXT
  5
92
  8
SPEC
 62
     7
 10
66.800000000000011
 20
-65.924164444444429
 30
0.0
 40
3.8006293402777769
  1
+10dBV(ゲイン調整スイッチ[0dB]時)
 41
0.8
 11
66.800000000000011
 21
-62.123535104166649
 31
0.0
 73
     3
  0
TEXT
  5
93
  8
SPEC
 62
     7
 10
1.8000000000000109
 20
-35.924164444444429
 30
0.0
 40
3.8006293402777769
  1
アンテナ形式
 41
0.8
 11
1.8000000000000109
 21
-32.123535104166649
 31
0.0
 73
     3
  0
TEXT
  5
94
  8
SPEC
 62
     7
 10
1.8000000000000109
 20
-5.9241744444444304
 30
0.0
 40
3.8006293402777769
  1
電波型式
 41
0.8
 11
1.8000000000000109
 21
-2.1235451041666522
 31
0.0
 73
     3
  0
TEXT
  5
95
  8
SPEC
 62
     7
 10
1.8000000000000109
 20
-50.924164444444429
 30
0.0
 40
3.8006293402777769
  1
トーン信号周波数
 41
0.8
 11
1.8000000000000109
 21
-47.123535104166642
 31
0.0
 73
     3
  0
TEXT
  5
96
  8
SPEC
 62
     7
 10
1.8000000000000109
 20
-58.424164444444429
 30
0.0
 40
3.8006293402777769
  1
周波数特性
 41
0.8
 11
1.8000000000000109
 21
-54.623535104166649
 31
0.0
 73
     3
  0
TEXT
  5
97
  8
SPEC
 62
     7
 10
1.8000000000000109
 20
-28.424164444444429
 30
0.0
 40
3.8006293402777769
  1
空中線電力
 41
0.8
 11
1.8000000000000109
 21
-24.623535104166649
 31
0.0
 73
     3
  0
TEXT
  5
98
  8
SPEC
 62
     7
 10
1.8000000000000109
 20
-43.424164444444429
 30
0.0
 40
3.8006293402777769
  1
到達距離
 41
0.8
 11
1.8000000000000109
 21
-39.623535104166649
 31
0.0
 73
     3
  0
TEXT
  5
99
  8
SPEC
 62
     7
 10
1.8000000000000109
 20
-13.424164444444431
 30
0.0
 40
3.8006293402777769
  1
送信周波数
 41
0.8
 11
1.8000000000000109
 21
-9.623535104166649
 31
0.0
 73
     3
  0
TEXT
  5
9A
  8
SPEC
 62
     7
 10
1.8000000000000109
 20
-20.924164444444429
 30
0.0
 40
3.8006293402777769
  1
発振方式
 41
0.8
 11
1.8000000000000109
 21
-17.123535104166649
 31
0.0
 73
     3
  0
TEXT
  5
9B
  8
SPEC
 62
     7
 10
1.8000000000000109
 20
-65.924164444444429
 30
0.0
 40
3.8006293402777769
  1
最大入力レベル
 41
0.8
 11
1.8000000000000109
 21
-62.123535104166649
 31
0.0
 73
     3
  0
TEXT
  5
9C
  8
SPEC
 62
     7
 10
66.800000000000011
 20
-35.924164444444429
 30
0.0
 40
3.8006293402777769
  1
1/4波長フレキシブル
 41
0.8
 11
66.800000000000011
 21
-32.123535104166649
 31
0.0
 73
     3
  0
TEXT
  5
9D
  8
SPEC
 62
     7
 10
66.800000000000011
 20
-50.924164444444429
 30
0.0
 40
3.8006293402777769
  1
32.768kHz
 41
0.8
 11
66.800000000000011
 21
-47.123535104166642
 31
0.0
 73
     3
  0
TEXT
  5
9E
  8
SPEC
 62
     7
 10
66.800000000000011
 20
-58.424164444444429
 30
0.0
 40
3.8006293402777769
  1
25Hz～15kHz(±2dB)
 41
0.8
 11
66.800000000000011
 21
-54.623535104166649
 31
0.0
 73
     3
  0
TEXT
  5
9F
  8
SPEC
 62
     7
 10
66.800000000000011
 20
-28.424164444444429
 30
0.0
 40
3.8006293402777769
  1
10mW
 41
0.8
 11
66.800000000000011
 21
-24.623535104166649
 31
0.0
 73
     3
  0
TEXT
  5
A0
  8
SPEC
 62
     7
 10
66.800000000000011
 20
-43.424164444444429
 30
0.0
 40
3.8006293402777769
  1
約60m(標準環境における最大値)
 41
0.8
 11
66.800000000000011
 21
-39.623535104166649
 31
0.0
 73
     3
  0
TEXT
  5
A1
  8
SPEC
 62
     7
 10
66.800000000000011
 20
-20.924164444444429
 30
0.0
 40
3.8006293402777769
  1
水晶制御PLLシンセサイザー方式
 41
0.8
 11
66.800000000000011
 21
-17.123535104166649
 31
0.0
 73
     3
  0
TEXT
  5
A2
  8
SPEC
 62
     7
 10
66.800000000000011
 20
-13.424164444444431
 30
0.0
 40
3.8006293402777769
  1
B型 (806～810MHz)30チャンネルのうち任意の1チャンネル
 41
0.8
 11
66.800000000000011
 21
-9.623535104166649
 31
0.0
 73
     3
  0
LINE
  5
A3
  8
SPEC
  6
CONTINUOUS
 62
     7
 10
0.0
 20
-75.0
 30
0.0
 11
240.0
 21
-75.0
 31
0.0
  0
LINE
  5
A4
  8
SPEC
  6
CONTINUOUS
 62
     7
 10
0.0
 20
-82.5
 30
0.0
 11
240.0
 21
-82.5
 31
0.0
  0
TEXT
  5
A5
  8
SPEC
 62
     7
 10
66.800000000000011
 20
-80.924164444444429
 30
0.0
 40
3.8006293402777769
  1
Switchcraft TA4M
 41
0.8
 11
66.800000000000011
 21
-77.123535104166663
 31
0.0
 73
     3
  0
TEXT
  5
A6
  8
SPEC
 62
     7
 10
1.8000000000000109
 20
-80.924164444444429
 30
0.0
 40
3.8006293402777769
  1
入力コネクタ 
 41
0.8
 11
1.8000000000000109
 21
-77.123535104166663
 31
0.0
 73
     3
  0
LINE
  5
A7
  8
SPEC
  6
CONTINUOUS
 62
     7
 10
0.0
 20
-82.5
 30
0.0
 11
240.0
 21
-82.5
 31
0.0
  0
LINE
  5
A8
  8
SPEC
  6
CONTINUOUS
 62
     7
 10
0.0
 20
-90.0
 30
0.0
 11
240.0
 21
-90.0
 31
0.0
  0
TEXT
  5
A9
  8
SPEC
 62
     7
 10
66.800000000000011
 20
-88.424164444444429
 30
0.0
 40
3.8006293402777769
  1
単3形アルカリ乾電池×2、または単3形ニッケル水素充電池×2
 41
0.8
 11
66.800000000000011
 21
-84.623535104166663
 31
0.0
 73
     3
  0
TEXT
  5
AA
  8
SPEC
 62
     7
 10
1.8000000000000109
 20
-88.424164444444429
 30
0.0
 40
3.8006293402777769
  1
電源
 41
0.8
 11
1.8000000000000109
 21
-84.623535104166663
 31
0.0
 73
     3
  0
LINE
  5
AB
  8
SPEC
  6
CONTINUOUS
 62
     7
 10
0.0
 20
-90.0
 30
0.0
 11
240.0
 21
-90.0
 31
0.0
  0
LINE
  5
AC
  8
SPEC
  6
CONTINUOUS
 62
     7
 10
0.0
 20
-97.5
 30
0.0
 11
240.0
 21
-97.5
 31
0.0
  0
TEXT
  5
AD
  8
SPEC
 62
     7
 10
66.800000000000011
 20
-95.924164444444429
 30
0.0
 40
3.8006293402777769
  1
64×110×19mm(アンテナ・クリップ・突起部除く)
 41
0.8
 11
66.800000000000011
 21
-92.123535104166663
 31
0.0
 73
     3
  0
TEXT
  5
AE
  8
SPEC
 62
     7
 10
1.8000000000000109
 20
-95.924164444444429
 30
0.0
 40
3.8006293402777769
  1
寸法(W×H×D)
 41
0.8
 11
1.8000000000000109
 21
-92.123535104166663
 31
0.0
 73
     3
  0
LINE
  5
AF
  8
SPEC
  6
CONTINUOUS
 62
     7
 10
0.0
 20
-97.5
 30
0.0
 11
240.0
 21
-97.5
 31
0.0
  0
LINE
  5
B0
  8
SPEC
  6
CONTINUOUS
 62
     7
 10
0.0
 20
-105.0
 30
0.0
 11
240.0
 21
-105.0
 31
0.0
  0
TEXT
  5
B1
  8
SPEC
 62
     7
 10
66.800000000000011
 20
-103.4241644444444
 30
0.0
 40
3.8006293402777769
  1
約81g(乾電池除く)
 41
0.8
 11
66.800000000000011
 21
-99.623535104166663
 31
0.0
 73
     3
  0
TEXT
  5
B2
  8
SPEC
 62
     7
 10
1.8000000000000109
 20
-103.4241644444444
 30
0.0
 40
3.8006293402777769
  1
重量
 41
0.8
 11
1.8000000000000109
 21
-99.623535104166663
 31
0.0
 73
     3
  0
LINE
  5
B3
  8
SPEC
  6
CONTINUOUS
 62
     7
 10
0.0
 20
-105.0
 30
0.0
 11
240.0
 21
-105.0
 31
0.0
  0
TEXT
  5
B4
  8
SPEC
 62
     7
 10
66.800000000000011
 20
-73.424164444444429
 30
0.0
 40
3.8006293402777769
  1
mic、0dB、-10dBの3段階切替
 41
0.8
 11
66.800000000000011
 21
-69.623535104166649
 31
0.0
 73
     3
  0
TEXT
  5
B5
  8
SPEC
 62
     7
 10
1.8000000000000109
 20
-73.424164444444429
 30
0.0
 40
3.8006293402777769
  1
ゲイン調整スイッチ
 41
0.8
 11
1.8000000000000109
 21
-69.623535104166649
 31
0.0
 73
     3
  0
LINE
  5
B6
  8
SPEC
  6
CONTINUOUS
 62
     7
 10
0.0
 20
-67.5
 30
0.0
 11
240.0
 21
-67.5
 31
0.0
  0
TEXT
  5
B7
  8
DIMNSIONS
 62
     7
 10
124.99999
 20
-475.46100999999987
 30
0.0
 40
4.8865234375000002
  1
(単位：mm)
 41
0.8
 11
124.99999
 21
-470.5744865625
 31
0.0
 73
     3
  0
LINE
  5
B8
  8
DIMNSIONS
  6
CONTINUOUS
 62
     7
 10
55.999990014901172
 20
-403.53181999999993
 30
0.0
 11
26.000000014901161
 21
-403.53181999999993
 31
0.0
  0
LINE
  5
B9
  8
DIMNSIONS
  6
CONTINUOUS
 62
     7
 10
55.999990014901172
 20
-293.53181999999998
 30
0.0
 11
26.000000014901161
 21
-293.53181999999998
 31
0.0
  0
LINE
  5
BA
  8
DIMNSIONS
  6
CONTINUOUS
 62
     7
 10
30.0
 20
-403.53181999999993
 30
0.0
 11
30.0
 21
-293.53181999999998
 31
0.0
  0
LINE
  5
BB
  8
DIMNSIONS
  6
CONTINUOUS
 62
     7
 10
30.0
 20
-403.53181999999993
 30
0.0
 11
28.298522628062361
 21
-397.18182000000002
 31
0.0
  0
LINE
  5
BC
  8
DIMNSIONS
  6
CONTINUOUS
 62
     7
 10
30.0
 20
-403.53181999999993
 30
0.0
 11
31.701477371937639
 21
-397.18182000000002
 31
0.0
  0
LINE
  5
BD
  8
DIMNSIONS
  6
CONTINUOUS
 62
     7
 10
30.0
 20
-293.53181999999998
 30
0.0
 11
31.70147737193761
 21
-299.88182
 31
0.0
  0
LINE
  5
BE
  8
DIMNSIONS
  6
CONTINUOUS
 62
     7
 10
30.0
 20
-293.53181999999998
 30
0.0
 11
28.298522628062361
 21
-299.88182
 31
0.0
  0
TEXT
  5
BF
  8
DIMNSIONS
 62
     7
 10
27.01222222967283
 20
-353.82348666666672
 30
0.0
 40
5.4294704861111107
  1
110
 50
90.0
 41
0.8
 11
21.582751743561708
 21
-353.82348666666672
 31
0.0
 73
     3
  0
LINE
  5
C0
  8
DIMNSIONS
  6
CONTINUOUS
 62
     7
 10
54.999990000000011
 20
-402.53181998509882
 30
0.0
 11
54.999990000000011
 21
-433.9999999850989
 31
0.0
  0
LINE
  5
C1
  8
DIMNSIONS
  6
CONTINUOUS
 62
     7
 10
118.99999
 20
-402.53181998509882
 30
0.0
 11
118.99999
 21
-433.9999999850989
 31
0.0
  0
LINE
  5
C2
  8
DIMNSIONS
  6
CONTINUOUS
 62
     7
 10
54.999990000000011
 20
-430.0
 30
0.0
 11
118.99999
 21
-430.0
 31
0.0
  0
LINE
  5
C3
  8
DIMNSIONS
  6
CONTINUOUS
 62
     7
 10
54.999990000000011
 20
-430.0
 30
0.0
 11
61.349990000000012
 21
-428.2985226280623
 31
0.0
  0
LINE
  5
C4
  8
DIMNSIONS
  6
CONTINUOUS
 62
     7
 10
54.999990000000011
 20
-430.0
 30
0.0
 11
61.349990000000012
 21
-431.70147737193759
 31
0.0
  0
LINE
  5
C5
  8
DIMNSIONS
  6
CONTINUOUS
 62
     7
 10
118.99999
 20
-430.0
 30
0.0
 11
112.64999
 21
-431.70147737193759
 31
0.0
  0
LINE
  5
C6
  8
DIMNSIONS
  6
CONTINUOUS
 62
     7
 10
118.99999
 20
-430.0
 30
0.0
 11
112.64999
 21
-428.2985226280623
 31
0.0
  0
TEXT
  5
C7
  8
DIMNSIONS
 62
     7
 10
83.472212222222225
 20
-427.01222222967289
 30
0.0
 40
5.4294704861111107
  1
64
 41
0.8
 11
83.472212222222225
 21
-421.58275174356169
 31
0.0
 73
     3
  0
LINE
  5
C8
  8
DIMNSIONS
  6
CONTINUOUS
 62
     7
 10
167.49999
 20
-402.53181998509882
 30
0.0
 11
167.49999
 21
-433.9999999850989
 31
0.0
  0
LINE
  5
C9
  8
DIMNSIONS
  6
CONTINUOUS
 62
     7
 10
186.49999
 20
-402.53181998509882
 30
0.0
 11
186.49999
 21
-433.9999999850989
 31
0.0
  0
LINE
  5
CA
  8
DIMNSIONS
  6
CONTINUOUS
 62
     7
 10
167.49999
 20
-430.0
 30
0.0
 11
186.49999
 21
-430.0
 31
0.0
  0
LINE
  5
CB
  8
DIMNSIONS
  6
CONTINUOUS
 62
     7
 10
167.49999
 20
-430.0
 30
0.0
 11
173.84998999999999
 21
-428.2985226280623
 31
0.0
  0
LINE
  5
CC
  8
DIMNSIONS
  6
CONTINUOUS
 62
     7
 10
167.49999
 20
-430.0
 30
0.0
 11
173.84998999999999
 21
-431.70147737193759
 31
0.0
  0
LINE
  5
CD
  8
DIMNSIONS
  6
CONTINUOUS
 62
     7
 10
186.49999
 20
-430.0
 30
0.0
 11
180.14999
 21
-431.70147737193759
 31
0.0
  0
LINE
  5
CE
  8
DIMNSIONS
  6
CONTINUOUS
 62
     7
 10
186.49999
 20
-430.0
 30
0.0
 11
180.14999
 21
-428.2985226280623
 31
0.0
  0
TEXT
  5
CF
  8
DIMNSIONS
 62
     7
 10
173.4722122222222
 20
-427.01222222967289
 30
0.0
 40
5.4294704861111107
  1
19
 41
0.8
 11
173.4722122222222
 21
-421.58275174356169
 31
0.0
 73
     3
  0
TEXT
  5
D0
  8
DATA
 62
     7
 10
259.99997999999999
 20
-477.7382199999999
 30
0.0
 40
4.8865234375000002
  1
SLX1
 41
0.8
 11
259.99997999999999
 21
-472.85169656250002
 31
0.0
 73
     3
  0
TEXT
  5
D1
  8
DATA
 62
     7
 10
259.99997999999999
 20
-463.23822000000001
 30
0.0
 40
4.8865234375000002
  1
SHURE
 41
0.8
 11
259.99997999999999
 21
-458.35169656250002
 31
0.0
 73
     3
  0
TEXT
  5
D2
  8
DATA
 62
     7
 10
259.99997999999999
 20
-469.90543830409348
 30
0.0
 40
4.3435763888888879
  1
ボディパック型送信機
 41
0.8
 11
259.99997999999999
 21
-465.56186191520459
 31
0.0
 73
     3
  0
LINE
  5
D3
  8
DATA
  6
CONTINUOUS
 62
     7
 10
59.999990000000011
 20
-403.53181999999993
 30
0.0
 11
113.99999
 21
-403.53181999999993
 31
0.0
  0
LINE
  5
D4
  8
DATA
  6
CONTINUOUS
 62
     7
 10
54.999990000000011
 20
-398.53181999999998
 30
0.0
 11
54.999990000000011
 21
-297.03181999999998
 31
0.0
  0
LINE
  5
D5
  8
DATA
  6
CONTINUOUS
 62
     7
 10
118.99999
 20
-398.53181999999998
 30
0.0
 11
118.99999
 21
-297.03181999999998
 31
0.0
  0
LINE
  5
D6
  8
DATA
  6
CONTINUOUS
 62
     7
 10
58.499990000000011
 20
-293.53181999999998
 30
0.0
 11
115.49999
 21
-293.53181999999998
 31
0.0
  0
LINE
  5
D7
  8
DATA
  6
CONTINUOUS
 62
     7
 10
56.499990000000011
 20
-295.53181999999998
 30
0.0
 11
117.49999
 21
-295.53181999999998
 31
0.0
  0
LINE
  5
D8
  8
DATA
  6
CONTINUOUS
 62
     7
 10
54.999990000000011
 20
-353.03181999999998
 30
0.0
 11
118.99999
 21
-353.03181999999998
 31
0.0
  0
LINE
  5
D9
  8
DATA
  6
CONTINUOUS
 62
     7
 10
78.499990000000025
 20
-341.53181999999998
 30
0.0
 11
95.499989999999997
 21
-341.53181999999998
 31
0.0
  0
LINE
  5
DA
  8
DATA
  6
CONTINUOUS
 62
     7
 10
74.499990000000025
 20
-337.53181999999998
 30
0.0
 11
74.499990000000025
 21
-312.53181999999998
 31
0.0
  0
LINE
  5
DB
  8
DATA
  6
CONTINUOUS
 62
     7
 10
99.499989999999997
 20
-337.53181999999998
 30
0.0
 11
99.499989999999997
 21
-312.53181999999998
 31
0.0
  0
LINE
  5
DC
  8
DATA
  6
CONTINUOUS
 62
     7
 10
95.499989999999997
 20
-308.53181999999998
 30
0.0
 11
78.499990000000025
 21
-308.53181999999998
 31
0.0
  0
LINE
  5
DD
  8
DATA
  6
CONTINUOUS
 62
     7
 10
79.999990000000025
 20
-325.53181999999998
 30
0.0
 11
93.999989999999997
 21
-325.53181999999998
 31
0.0
  0
LINE
  5
DE
  8
DATA
  6
CONTINUOUS
 62
     7
 10
78.999990000000025
 20
-324.53181999999998
 30
0.0
 11
78.999990000000025
 21
-315.53181999999998
 31
0.0
  0
LINE
  5
DF
  8
DATA
  6
CONTINUOUS
 62
     7
 10
79.999990000000025
 20
-314.53181999999998
 30
0.0
 11
93.999989999999997
 21
-314.53181999999998
 31
0.0
  0
LINE
  5
E0
  8
DATA
  6
CONTINUOUS
 62
     7
 10
94.999989999999997
 20
-315.53181999999998
 30
0.0
 11
94.999989999999997
 21
-324.53181999999998
 31
0.0
  0
LINE
  5
E1
  8
DATA
  6
CONTINUOUS
 62
     7
 10
82.999990000000025
 20
-331.53181999999998
 30
0.0
 11
90.999989999999997
 21
-331.53181999999998
 31
0.0
  0
LINE
  5
E2
  8
DATA
  6
CONTINUOUS
 62
     7
 10
81.999990000000025
 20
-332.53181999999998
 30
0.0
 11
81.999990000000025
 21
-334.53181999999998
 31
0.0
  0
LINE
  5
E3
  8
DATA
  6
CONTINUOUS
 62
     7
 10
82.999990000000025
 20
-335.53181999999998
 30
0.0
 11
90.999989999999997
 21
-335.53181999999998
 31
0.0
  0
LINE
  5
E4
  8
DATA
  6
CONTINUOUS
 62
     7
 10
91.999989999999997
 20
-334.53181999999998
 30
0.0
 11
91.999989999999997
 21
-332.53181999999998
 31
0.0
  0
ARC
  5
E5
  8
DATA
  6
CONTINUOUS
 62
     7
 10
82.999990000000025
 20
-332.53181999999998
 30
0.0
 40
1.0
 50
90.0
 51
180.0
  0
ARC
  5
E6
  8
DATA
  6
CONTINUOUS
 62
     7
 10
82.999990000000025
 20
-334.53181999999998
 30
0.0
 40
1.0
 50
180.0
 51
270.0
  0
ARC
  5
E7
  8
DATA
  6
CONTINUOUS
 62
     7
 10
90.999989999999997
 20
-332.53181999999998
 30
0.0
 40
1.0
 50
0.0
 51
90.0
  0
ARC
  5
E8
  8
DATA
  6
CONTINUOUS
 62
     7
 10
90.999989999999997
 20
-334.53181999999998
 30
0.0
 40
1.0
 50
270.0
 51
0.0
  0
LINE
  5
E9
  8
DATA
  6
CONTINUOUS
 62
     7
 10
82.999990000000025
 20
-330.53181999999998
 30
0.0
 11
90.999989999999997
 21
-330.53181999999998
 31
0.0
  0
ARC
  5
EA
  8
DATA
  6
CONTINUOUS
 62
     7
 10
82.999990000000025
 20
-332.53181999999998
 30
0.0
 40
2.0
 50
90.0
 51
180.0
  0
LINE
  5
EB
  8
DATA
  6
CONTINUOUS
 62
     7
 10
80.999990000000025
 20
-332.53181999999998
 30
0.0
 11
80.999990000000025
 21
-334.53181999999998
 31
0.0
  0
ARC
  5
EC
  8
DATA
  6
CONTINUOUS
 62
     7
 10
82.999990000000025
 20
-334.53181999999998
 30
0.0
 40
2.0
 50
180.0
 51
270.0
  0
LINE
  5
ED
  8
DATA
  6
CONTINUOUS
 62
     7
 10
82.999990000000025
 20
-336.53181999999998
 30
0.0
 11
90.999989999999997
 21
-336.53181999999998
 31
0.0
  0
ARC
  5
EE
  8
DATA
  6
CONTINUOUS
 62
     7
 10
90.999989999999997
 20
-334.53181999999998
 30
0.0
 40
2.0
 50
270.0
 51
0.0
  0
LINE
  5
EF
  8
DATA
  6
CONTINUOUS
 62
     7
 10
92.999989999999997
 20
-334.53181999999998
 30
0.0
 11
92.999989999999997
 21
-332.53181999999998
 31
0.0
  0
ARC
  5
F0
  8
DATA
  6
CONTINUOUS
 62
     7
 10
90.999989999999997
 20
-332.53181999999998
 30
0.0
 40
2.0
 50
0.0
 51
90.0
  0
ARC
  5
F1
  8
DATA
  6
CONTINUOUS
 62
     7
 10
79.999990000000025
 20
-315.53181999999998
 30
0.0
 40
1.0
 50
90.0
 51
180.0
  0
ARC
  5
F2
  8
DATA
  6
CONTINUOUS
 62
     7
 10
79.999990000000025
 20
-324.53181999999998
 30
0.0
 40
1.0
 50
180.0
 51
270.0
  0
ARC
  5
F3
  8
DATA
  6
CONTINUOUS
 62
     7
 10
93.999989999999997
 20
-315.53181999999998
 30
0.0
 40
1.0
 50
0.0
 51
90.0
  0
ARC
  5
F4
  8
DATA
  6
CONTINUOUS
 62
     7
 10
93.999989999999997
 20
-324.53181999999998
 30
0.0
 40
1.0
 50
270.0
 51
0.0
  0
ARC
  5
F5
  8
DATA
  6
CONTINUOUS
 62
     7
 10
78.499990000000025
 20
-337.53181999999998
 30
0.0
 40
4.0
 50
180.0
 51
270.0
  0
ARC
  5
F6
  8
DATA
  6
CONTINUOUS
 62
     7
 10
95.499989999999997
 20
-337.53181999999998
 30
0.0
 40
4.0
 50
270.0
 51
0.0
  0
ARC
  5
F7
  8
DATA
  6
CONTINUOUS
 62
     7
 10
78.499990000000025
 20
-312.53181999999998
 30
0.0
 40
4.0
 50
90.0
 51
180.0
  0
ARC
  5
F8
  8
DATA
  6
CONTINUOUS
 62
     7
 10
95.499989999999997
 20
-312.53181999999998
 30
0.0
 40
4.0
 50
0.0
 51
90.0
  0
TEXT
  5
F9
  8
DATA
 62
     7
 10
82.766656666666677
 20
-329.13670888888902
 30
0.0
 40
2.1717881944444439
  1
select
 41
0.8
 11
82.766656666666677
 21
-326.96492069444452
 31
0.0
 73
     3
  0
TEXT
  5
FA
  8
DATA
 62
     7
 10
82.999990000000025
 20
-340.6433199999999
 30
0.0
 40
3.7041666666666648
  1
SLX1
 41
0.8
 11
82.999990000000025
 21
-336.93915333333319
 31
0.0
 73
     3
  0
ARC
  5
FB
  8
DATA
  6
CONTINUOUS
 62
     7
 10
59.999990000000011
 20
-398.53181999999998
 30
0.0
 40
5.0
 50
180.0
 51
270.0
  0
ARC
  5
FC
  8
DATA
  6
CONTINUOUS
 62
     7
 10
113.99999
 20
-398.53181999999998
 30
0.0
 40
5.0
 50
270.0
 51
0.0
  0
ARC
  5
FD
  8
DATA
  6
CONTINUOUS
 62
     7
 10
56.499990000000011
 20
-297.03181999999998
 30
0.0
 40
1.5
 50
90.0
 51
180.0
  0
ARC
  5
FE
  8
DATA
  6
CONTINUOUS
 62
     7
 10
117.49999
 20
-297.03181999999998
 30
0.0
 40
1.5
 50
0.0
 51
90.0
  0
ARC
  5
FF
  8
DATA
  6
CONTINUOUS
 62
     7
 10
58.499990000000011
 20
-295.53181999999998
 30
0.0
 40
2.0
 50
90.0
 51
180.0
  0
ARC
  5
100
  8
DATA
  6
CONTINUOUS
 62
     7
 10
115.49999
 20
-295.53181999999998
 30
0.0
 40
2.0
 50
0.0
 51
90.0
  0
ARC
  5
101
  8
DATA
  6
CONTINUOUS
 62
     7
 10
74.499990000000025
 20
-294.53181999999998
 30
0.0
 40
1.0
 50
180.0
 51
0.0
  0
LINE
  5
102
  8
DATA
  6
CONTINUOUS
 62
     7
 10
73.499990000000025
 20
-294.53181999999998
 30
0.0
 11
73.499990000000025
 21
-293.53181999999998
 31
0.0
  0
LINE
  5
103
  8
DATA
  6
CONTINUOUS
 62
     7
 10
75.499990000000025
 20
-294.53181999999998
 30
0.0
 11
75.499990000000025
 21
-293.53181999999998
 31
0.0
  0
LINE
  5
104
  8
DATA
  6
CONTINUOUS
 62
     7
 10
71.999990000000025
 20
-295.53181999999998
 30
0.0
 11
71.999990000000025
 21
-293.53181999999998
 31
0.0
  0
LINE
  5
105
  8
DATA
  6
CONTINUOUS
 62
     7
 10
76.999990000000025
 20
-295.53181999999998
 30
0.0
 11
76.999990000000025
 21
-293.53181999999998
 31
0.0
  0
LINE
  5
106
  8
DATA
  6
CONTINUOUS
 62
     7
 10
79.999990000000025
 20
-293.03181999999998
 30
0.0
 11
93.999989999999997
 21
-293.03181999999998
 31
0.0
  0
LINE
  5
107
  8
DATA
  6
CONTINUOUS
 62
     7
 10
79.999990000000025
 20
-293.53181999999998
 30
0.0
 11
79.999990000000025
 21
-293.03181999999998
 31
0.0
  0
LINE
  5
108
  8
DATA
  6
CONTINUOUS
 62
     7
 10
93.999989999999997
 20
-293.53181999999998
 30
0.0
 11
93.999989999999997
 21
-293.03181999999998
 31
0.0
  0
LINE
  5
109
  8
DATA
  6
CONTINUOUS
 62
     7
 10
62.999990000000011
 20
-284.53181999999998
 30
0.0
 11
66.999990000000011
 21
-284.53181999999998
 31
0.0
  0
LINE
  5
10A
  8
DATA
  6
CONTINUOUS
 62
     7
 10
61.999990000000011
 20
-293.53181999999998
 30
0.0
 11
62.999990000000011
 21
-284.53181999999998
 31
0.0
  0
LINE
  5
10B
  8
DATA
  6
CONTINUOUS
 62
     7
 10
67.999990000000011
 20
-293.53181999999998
 30
0.0
 11
66.999990000000011
 21
-284.53181999999998
 31
0.0
  0
LINE
  5
10C
  8
DATA
  6
CONTINUOUS
 62
     7
 10
63.999990000000011
 20
-284.53181999999998
 30
0.0
 11
63.999990000000011
 21
-202.53182000000001
 31
0.0
  0
LINE
  5
10D
  8
DATA
  6
CONTINUOUS
 62
     7
 10
65.999990000000011
 20
-284.53181999999998
 30
0.0
 11
65.999990000000011
 21
-202.53182000000001
 31
0.0
  0
LINE
  5
10E
  8
DATA
  6
CONTINUOUS
 62
     7
 10
62.999990000000011
 20
-202.53182000000001
 30
0.0
 11
66.999990000000011
 21
-202.53182000000001
 31
0.0
  0
LINE
  5
10F
  8
DATA
  6
CONTINUOUS
 62
     7
 10
62.999990000000011
 20
-202.53182000000001
 30
0.0
 11
62.999990000000011
 21
-194.53182000000001
 31
0.0
  0
ARC
  5
110
  8
DATA
  6
CONTINUOUS
 62
     7
 10
64.999990000000011
 20
-194.53182000000001
 30
0.0
 40
2.0
 50
0.0
 51
180.0
  0
LINE
  5
111
  8
DATA
  6
CONTINUOUS
 62
     7
 10
66.999990000000011
 20
-194.53182000000001
 30
0.0
 11
66.999990000000011
 21
-202.53182000000001
 31
0.0
  0
LINE
  5
112
  8
DATA
  6
CONTINUOUS
 62
     7
 10
53.499989999999983
 20
-303.53181999999998
 30
0.0
 11
53.499990000000011
 21
-342.53181999999998
 31
0.0
  0
ARC
  5
113
  8
DATA
  6
CONTINUOUS
 62
     7
 10
54.24998999999999
 20
-303.53181999999998
 30
0.0
 40
0.7500000000000142
 50
0.00000000000108
 51
180.00000000000111
  0
ARC
  5
114
  8
DATA
  6
CONTINUOUS
 62
     7
 10
54.24998999999999
 20
-342.53181999999998
 30
0.0
 40
0.7499999999999858
 50
179.99999999999889
 51
359.99999999999881
  0
LINE
  5
115
  8
DATA
  6
CONTINUOUS
 62
     7
 10
120.49999
 20
-303.53181999999998
 30
0.0
 11
120.49999
 21
-342.53181999999998
 31
0.0
  0
ARC
  5
116
  8
DATA
  6
CONTINUOUS
 62
     7
 10
119.74999
 20
-303.53181999999998
 30
0.0
 40
0.7499999999999858
 50
0.00000000000108
 51
180.00000000000111
  0
ARC
  5
117
  8
DATA
  6
CONTINUOUS
 62
     7
 10
119.74999
 20
-342.53181999999998
 30
0.0
 40
0.7500000000000142
 50
179.99999999999889
 51
359.99999999999881
  0
LINE
  5
118
  8
DATA
  6
CONTINUOUS
 62
     7
 10
172.49999
 20
-403.53181999999993
 30
0.0
 11
181.49999
 21
-403.53181999999993
 31
0.0
  0
LINE
  5
119
  8
DATA
  6
CONTINUOUS
 62
     7
 10
170.99999
 20
-293.53181999999998
 30
0.0
 11
182.99999
 21
-293.53181999999998
 31
0.0
  0
LINE
  5
11A
  8
DATA
  6
CONTINUOUS
 62
     7
 10
168.99998957614471
 20
-295.53181999999998
 30
0.0
 11
184.99999
 21
-295.53181999999998
 31
0.0
  0
LINE
  5
11B
  8
DATA
  6
CONTINUOUS
 62
     7
 10
167.49999
 20
-398.53181999999998
 30
0.0
 11
167.49999
 21
-297.03181999999998
 31
0.0
  0
LINE
  5
11C
  8
DATA
  6
CONTINUOUS
 62
     7
 10
186.49999
 20
-398.53181999999998
 30
0.0
 11
186.49999
 21
-344.20855799001572
 31
0.0
  0
LINE
  5
11D
  8
DATA
  6
CONTINUOUS
 62
     7
 10
186.49999
 20
-341.03181999999998
 30
0.0
 11
186.49999
 21
-304.42351244760408
 31
0.0
  0
LINE
  5
11E
  8
DATA
  6
CONTINUOUS
 62
     7
 10
186.49999
 20
-302.90099711761331
 30
0.0
 11
186.49999
 21
-297.03181999999998
 31
0.0
  0
ARC
  5
11F
  8
DATA
  6
CONTINUOUS
 62
     7
 10
184.99999
 20
-297.03181999999998
 30
0.0
 40
1.5
 50
0.0
 51
90.0
  0
ARC
  5
120
  8
DATA
  6
CONTINUOUS
 62
     7
 10
182.99999
 20
-295.53181999999998
 30
0.0
 40
2.0
 50
0.0
 51
90.0
  0
ARC
  5
121
  8
DATA
  6
CONTINUOUS
 62
     7
 10
168.99999
 20
-297.03181999999998
 30
0.0
 40
1.5
 50
90.0
 51
180.0
  0
ARC
  5
122
  8
DATA
  6
CONTINUOUS
 62
     7
 10
170.99999
 20
-295.53181999999998
 30
0.0
 40
2.0
 50
90.0
 51
180.0
  0
ARC
  5
123
  8
DATA
  6
CONTINUOUS
 62
     7
 10
172.49999
 20
-398.53181999999998
 30
0.0
 40
5.0
 50
180.0
 51
270.0
  0
ARC
  5
124
  8
DATA
  6
CONTINUOUS
 62
     7
 10
181.49999
 20
-398.53181999999998
 30
0.0
 40
5.0
 50
270.0
 51
0.0
  0
LINE
  5
125
  8
DATA
  6
CONTINUOUS
 62
     7
 10
176.99999
 20
-403.53181999999993
 30
0.0
 11
176.9999898626395
 21
-333.53181999999998
 31
0.0
  0
LINE
  5
126
  8
DATA
  6
CONTINUOUS
 62
     7
 10
176.99998984497881
 20
-324.53181999999998
 30
0.0
 11
176.9999897880723
 21
-295.53181999999998
 31
0.0
  0
LINE
  5
127
  8
DATA
  6
CONTINUOUS
 62
     7
 10
167.49999
 20
-353.03181999999998
 30
0.0
 11
176.99998990090421
 21
-353.03181999999998
 31
0.0
  0
LINE
  5
128
  8
DATA
  6
CONTINUOUS
 62
     7
 10
176.99998990384771
 20
-354.08181999999999
 30
0.0
 11
179.99999
 21
-354.08181999411318
 31
0.0
  0
LINE
  5
129
  8
DATA
  6
CONTINUOUS
 62
     7
 10
179.99999
 20
-354.08181999411318
 30
0.0
 11
179.99999002207579
 21
-363.08181999411318
 31
0.0
  0
LINE
  5
12A
  8
DATA
  6
CONTINUOUS
 62
     7
 10
179.99999002207579
 20
-363.08181999411318
 30
0.0
 11
176.99998992101769
 21
-363.08181999411318
 31
0.0
  0
LINE
  5
12B
  8
DATA
  6
CONTINUOUS
 62
     7
 10
176.99998992101769
 20
-363.58181999411318
 30
0.0
 11
174.99999
 21
-363.58181999411318
 31
0.0
  0
LINE
  5
12C
  8
DATA
  6
CONTINUOUS
 62
     7
 10
173.99999
 20
-362.58181999411318
 30
0.0
 11
173.99999
 21
-353.03181999999998
 31
0.0
  0
LINE
  5
12D
  8
DATA
  6
CONTINUOUS
 62
     7
 10
176.9999899028665
 20
-353.58181999999999
 30
0.0
 11
180.49999
 21
-353.58181999411318
 31
0.0
  0
LINE
  5
12E
  8
DATA
  6
CONTINUOUS
 62
     7
 10
180.49999
 20
-353.58181999411318
 30
0.0
 11
180.49999002207571
 21
-363.58181999411318
 31
0.0
  0
LINE
  5
12F
  8
DATA
  6
CONTINUOUS
 62
     7
 10
180.49999002207571
 20
-363.58181999411318
 30
0.0
 11
176.99998992101769
 21
-363.58181999411318
 31
0.0
  0
ARC
  5
130
  8
DATA
  6
CONTINUOUS
 62
     7
 10
174.99999
 20
-362.58181999411318
 30
0.0
 40
1.0
 50
180.0
 51
270.0
  0
ARC
  5
131
  8
DATA
  6
CONTINUOUS
 62
     7
 10
175.9999899028665
 20
-354.03181999999998
 30
0.0
 40
1.0
 50
0.0000001124310304
 51
90.0
  0
LINE
  5
132
  8
DATA
  6
CONTINUOUS
 62
     7
 10
174.99999
 20
-284.53181999999998
 30
0.0
 11
178.99999
 21
-284.53181999999998
 31
0.0
  0
LINE
  5
133
  8
DATA
  6
CONTINUOUS
 62
     7
 10
173.99999
 20
-293.53181999999998
 30
0.0
 11
174.99999
 21
-284.53181999999998
 31
0.0
  0
LINE
  5
134
  8
DATA
  6
CONTINUOUS
 62
     7
 10
179.99999
 20
-293.53181999999998
 30
0.0
 11
178.99999
 21
-284.53181999999998
 31
0.0
  0
LINE
  5
135
  8
DATA
  6
CONTINUOUS
 62
     7
 10
175.99999
 20
-284.53181999999998
 30
0.0
 11
175.99999
 21
-202.53182000000001
 31
0.0
  0
LINE
  5
136
  8
DATA
  6
CONTINUOUS
 62
     7
 10
177.99999
 20
-284.53181999999998
 30
0.0
 11
177.99999
 21
-202.53182000000001
 31
0.0
  0
LINE
  5
137
  8
DATA
  6
CONTINUOUS
 62
     7
 10
174.99999
 20
-202.53182000000001
 30
0.0
 11
178.99999
 21
-202.53182000000001
 31
0.0
  0
LINE
  5
138
  8
DATA
  6
CONTINUOUS
 62
     7
 10
174.99999
 20
-202.53182000000001
 30
0.0
 11
174.99999
 21
-194.53182000000001
 31
0.0
  0
ARC
  5
139
  8
DATA
  6
CONTINUOUS
 62
     7
 10
176.99999
 20
-194.53182000000001
 30
0.0
 40
2.0
 50
0.0
 51
180.0
  0
LINE
  5
13A
  8
DATA
  6
CONTINUOUS
 62
     7
 10
178.99999
 20
-194.53182000000001
 30
0.0
 11
178.99999
 21
-202.53182000000001
 31
0.0
  0
ARC
  5
13B
  8
DATA
  6
CONTINUOUS
 62
     7
 10
187.24999
 20
-303.53181999999998
 30
0.0
 40
0.75
 50
0.0
 51
99.865806943084635
  0
LINE
  5
13C
  8
DATA
  6
CONTINUOUS
 62
     7
 10
184.49999
 20
-343.28181999999998
 30
0.0
 11
181.24999
 21
-343.28181999999998
 31
0.0
  0
ARC
  5
13D
  8
DATA
  6
CONTINUOUS
 62
     7
 10
181.99999
 20
-337.38592196624973
 30
0.0
 40
3.7499999999999889
 50
116.5650511770781
 51
180.0000000000002
  0
ARC
  5
13E
  8
DATA
  6
CONTINUOUS
 62
     7
 10
181.99999
 20
-337.38592196624973
 30
0.0
 40
2.2499999999999818
 50
116.5650511770781
 51
180.0000000000004
  0
LINE
  5
13F
  8
DATA
  6
CONTINUOUS
 62
     7
 10
178.24999
 20
-337.38592196624973
 30
0.0
 11
178.24999
 21
-340.28181999999998
 31
0.0
  0
ARC
  5
140
  8
DATA
  6
CONTINUOUS
 62
     7
 10
181.24999
 20
-340.28181999999998
 30
0.0
 40
3.0
 50
180.0
 51
270.0
  0
LINE
  5
141
  8
DATA
  6
CONTINUOUS
 62
     7
 10
184.49999
 20
-341.78181999999998
 30
0.0
 11
181.99999
 21
-341.78181999999998
 31
0.0
  0
ARC
  5
142
  8
DATA
  6
CONTINUOUS
 62
     7
 10
181.99999
 20
-339.53181999999998
 30
0.0
 40
2.25
 50
180.0
 51
270.0
  0
LINE
  5
143
  8
DATA
  6
CONTINUOUS
 62
     7
 10
179.74999
 20
-339.53181999999998
 30
0.0
 11
179.74999
 21
-337.38592196624973
 31
0.0
  0
ARC
  5
144
  8
DATA
  6
CONTINUOUS
 62
     7
 10
183.49999
 20
-316.38558722828481
 30
0.0
 40
2.75
 50
180.0
 51
231.31781254651051
  0
LINE
  5
145
  8
DATA
  6
CONTINUOUS
 62
     7
 10
180.74999
 20
-316.38558722828481
 30
0.0
 11
180.74999
 21
-306.21401435303102
 31
0.0
  0
ARC
  5
146
  8
DATA
  6
CONTINUOUS
 62
     7
 10
183.49999
 20
-306.21401435303102
 30
0.0
 40
2.75
 50
99.865806943084451
 51
180.0
  0
LINE
  5
147
  8
DATA
  6
CONTINUOUS
 62
     7
 10
183.0288017694341
 20
-303.504682027277
 30
0.0
 11
187.12148411893651
 21
-302.79291118388522
 31
0.0
  0
LINE
  5
148
  8
DATA
  6
CONTINUOUS
 62
     7
 10
182.24999
 20
-316.38558722828481
 30
0.0
 11
182.24999
 21
-306.21401435303102
 31
0.0
  0
ARC
  5
149
  8
DATA
  6
CONTINUOUS
 62
     7
 10
183.49999
 20
-306.21401435303102
 30
0.0
 40
1.250000000000002
 50
99.865806943084522
 51
180.0
  0
LINE
  5
14A
  8
DATA
  6
CONTINUOUS
 62
     7
 10
183.2858135315609
 20
-304.98249965950652
 30
0.0
 11
186.49999
 21
-304.42351244760408
 31
0.0
  0
ARC
  5
14B
  8
DATA
  6
CONTINUOUS
 62
     7
 10
180.9259303641272
 20
-332.33278184043661
 30
0.0
 40
1.249999999999996
 50
296.56505117707849
 51
354.38404684487142
  0
LINE
  5
14C
  8
DATA
  6
CONTINUOUS
 62
     7
 10
180.32293901687521
 20
-334.03181999999998
 30
0.0
 11
181.48494735850221
 21
-333.45081582918652
 31
0.0
  0
ARC
  5
14D
  8
DATA
  6
CONTINUOUS
 62
     7
 10
180.9259303641272
 20
-332.33278184043661
 30
0.0
 40
2.7499999999999938
 50
296.56505117707849
 51
354.3840468448717
  0
LINE
  5
14E
  8
DATA
  6
CONTINUOUS
 62
     7
 10
180.99375941012511
 20
-335.37346078649989
 30
0.0
 11
182.15576775175211
 21
-334.79245661568632
 31
0.0
  0
LINE
  5
14F
  8
DATA
  6
CONTINUOUS
 62
     7
 10
182.16993060275391
 20
-332.45510684318248
 30
0.0
 11
183.1529058371932
 21
-320.45861063425559
 31
0.0
  0
LINE
  5
150
  8
DATA
  6
CONTINUOUS
 62
     7
 10
183.66273088910589
 20
-332.60189684647759
 30
0.0
 11
184.64570612354521
 21
-320.60540063755082
 31
0.0
  0
ARC
  5
151
  8
DATA
  6
CONTINUOUS
 62
     7
 10
181.90890559856661
 20
-320.33628563150972
 30
0.0
 40
1.25
 50
354.38404684487142
 51
47.832715039005222
  0
ARC
  5
152
  8
DATA
  6
CONTINUOUS
 62
     7
 10
181.90890559856661
 20
-320.33628563150972
 30
0.0
 40
2.7499999999999978
 50
354.3840468448717
 51
47.832715039005564
  0
LINE
  5
153
  8
DATA
  6
CONTINUOUS
 62
     7
 10
181.74651688142961
 20
-318.50272774137278
 30
0.0
 11
182.74802746285059
 21
-319.40980060902922
 31
0.0
  0
LINE
  5
154
  8
DATA
  6
CONTINUOUS
 62
     7
 10
182.75346311857041
 20
-317.39094571439631
 30
0.0
 11
183.75497369999141
 21
-318.2980185820528
 31
0.0
  0
ARC
  5
155
  8
DATA
  6
CONTINUOUS
 62
     7
 10
183.49999
 20
-316.38558722828481
 30
0.0
 40
1.25
 50
180.0
 51
231.3178125465102
  0
ARC
  5
156
  8
DATA
  6
CONTINUOUS
 62
     7
 10
184.49999
 20
-342.53181999999998
 30
0.0
 40
2.4999999999999969
 50
336.42182151999509
 51
90.000000000013543
  0
LINE
  5
157
  8
DATA
  6
CONTINUOUS
 62
     7
 10
180.49999
 20
-339.53181999999998
 30
0.0
 11
184.49999
 21
-340.03181999999998
 31
0.0
  0
LINE
  5
158
  8
DATA
  6
CONTINUOUS
 62
     7
 10
185.49999
 20
-346.53181999999998
 30
0.0
 11
186.791277847478
 21
-343.53181999999998
 31
0.0
  0
ARC
  5
159
  8
DATA
  6
CONTINUOUS
 62
     7
 10
184.49999
 20
-342.53181999999993
 30
0.0
 40
1.5000000000000071
 50
210.00000000000111
 51
150.0000000000008
  0
ARC
  5
15A
  8
DATA
  6
CONTINUOUS
 62
     7
 10
184.49999
 20
-342.53181999999998
 30
0.0
 40
0.75
 50
270.0
 51
90.0
  0
ARC
  5
15B
  8
DATA
  6
CONTINUOUS
 62
     7
 10
192.49999
 20
-371.53181999999998
 30
0.0
 40
0.7500000000000006
 50
213.27488798483461
 51
33.274887984834862
  0
LINE
  5
15C
  8
DATA
  6
CONTINUOUS
 62
     7
 10
188.32789417832589
 20
-363.80736499490098
 30
0.0
 11
193.12702593312781
 21
-371.1203276688849
 31
0.0
  0
LINE
  5
15D
  8
DATA
  6
CONTINUOUS
 62
     7
 10
186.82789360416839
 20
-364.25560114985211
 30
0.0
 11
191.87295406687221
 21
-371.94331233111512
 31
0.0
  0
LINE
  5
15E
  8
DATA
  6
CONTINUOUS
 62
     7
 10
187.99999
 20
-303.53181999999998
 30
0.0
 11
187.99999
 21
-362.71005211192733
 31
0.0
  0
ARC
  5
15F
  8
DATA
  6
CONTINUOUS
 62
     7
 10
189.99999
 20
-362.71005211192733
 30
0.0
 40
1.999999999999992
 50
180.0000000000004
 51
213.27488798483529
  0
ARC
  5
160
  8
DATA
  6
CONTINUOUS
 62
     7
 10
188.49999
 20
-363.15828914178508
 30
0.0
 40
1.999999999999992
 50
180.0000000000004
 51
213.27488798483529
  0
LINE
  5
161
  8
DATA
  6
CONTINUOUS
 62
     7
 10
293.99999000000008
 20
-403.53181954082339
 30
0.0
 11
239.99999
 21
-403.53181975275112
 31
0.0
  0
LINE
  5
162
  8
DATA
  6
CONTINUOUS
 62
     7
 10
298.99998998037711
 20
-398.53181952120048
 30
0.0
 11
298.99998958203162
 21
-297.03181952120048
 31
0.0
  0
LINE
  5
163
  8
DATA
  6
CONTINUOUS
 62
     7
 10
234.99998998037711
 20
-398.53181977237398
 30
0.0
 11
234.99998976682369
 21
-344.11756695012832
 31
0.0
  0
LINE
  5
164
  8
DATA
  6
CONTINUOUS
 62
     7
 10
234.99998976086761
 20
-342.5999192763806
 30
0.0
 11
234.99998958203159
 21
-297.03181977237409
 31
0.0
  0
LINE
  5
165
  8
DATA
  6
CONTINUOUS
 62
     7
 10
295.49998956829558
 20
-293.53181953493657
 30
0.0
 11
238.4999895682956
 21
-293.53181975863799
 31
0.0
  0
LINE
  5
166
  8
DATA
  6
CONTINUOUS
 62
     7
 10
297.49998957614469
 20
-295.53181952708729
 30
0.0
 11
236.49998957614471
 21
-295.53181976648722
 31
0.0
  0
ARC
  5
167
  8
DATA
  6
CONTINUOUS
 62
     7
 10
293.99998998037711
 20
-398.53181954082339
 30
0.0
 40
5.0
 50
270.00000022486211
 51
0.000000224862049
  0
ARC
  5
168
  8
DATA
  6
CONTINUOUS
 62
     7
 10
239.99998998037711
 20
-398.53181975275118
 30
0.0
 40
5.0
 50
180.00000022486211
 51
270.00000022486211
  0
ARC
  5
169
  8
DATA
  6
CONTINUOUS
 62
     7
 10
297.49998958203162
 20
-297.03181952708729
 30
0.0
 40
1.5
 50
0.0000002248620609
 51
90.000000224863143
  0
ARC
  5
16A
  8
DATA
  6
CONTINUOUS
 62
     7
 10
236.49998958203159
 20
-297.03181976648722
 30
0.0
 40
1.5
 50
90.000000224862077
 51
180.0000002248623
  0
ARC
  5
16B
  8
DATA
  6
CONTINUOUS
 62
     7
 10
295.4999895761448
 20
-295.53181953493657
 30
0.0
 40
2.0
 50
0.0000002248622644
 51
90.000000224862077
  0
ARC
  5
16C
  8
DATA
  6
CONTINUOUS
 62
     7
 10
238.49998957614471
 20
-295.53181975863799
 30
0.0
 40
2.0
 50
90.000000224862077
 51
180.00000022486211
  0
LINE
  5
16D
  8
DATA
  6
CONTINUOUS
 62
     7
 10
273.99998956633328
 20
-293.03181961931517
 30
0.0
 11
259.99998956633328
 21
-293.0318196742594
 31
0.0
  0
LINE
  5
16E
  8
DATA
  6
CONTINUOUS
 62
     7
 10
273.99998956829558
 20
-293.53181961931517
 30
0.0
 11
273.99998956633328
 21
-293.03181961931517
 31
0.0
  0
LINE
  5
16F
  8
DATA
  6
CONTINUOUS
 62
     7
 10
259.99998956829558
 20
-293.5318196742594
 30
0.0
 11
259.99998956633328
 21
-293.0318196742594
 31
0.0
  0
LINE
  5
170
  8
DATA
  6
CONTINUOUS
 62
     7
 10
290.99998953297433
 20
-284.5318195525972
 30
0.0
 11
286.99998953297433
 21
-284.53181956829559
 31
0.0
  0
LINE
  5
171
  8
DATA
  6
CONTINUOUS
 62
     7
 10
291.99998956829558
 20
-293.53181954867262
 30
0.0
 11
290.99998953297433
 21
-284.5318195525972
 31
0.0
  0
LINE
  5
172
  8
DATA
  6
CONTINUOUS
 62
     7
 10
285.99998956829558
 20
-293.53181957222017
 30
0.0
 11
286.99998953297433
 21
-284.53181956829559
 31
0.0
  0
LINE
  5
173
  8
DATA
  6
CONTINUOUS
 62
     7
 10
289.99998953297433
 20
-284.53181955652178
 30
0.0
 11
289.99998921115832
 21
-202.53181955652181
 31
0.0
  0
LINE
  5
174
  8
DATA
  6
CONTINUOUS
 62
     7
 10
287.99998953297421
 20
-284.53181956437101
 30
0.0
 11
287.99998921115821
 21
-202.53181956437101
 31
0.0
  0
LINE
  5
175
  8
DATA
  6
CONTINUOUS
 62
     7
 10
290.99998921115832
 20
-202.5318195525972
 30
0.0
 11
286.99998921115832
 21
-202.53181956829559
 31
0.0
  0
LINE
  5
176
  8
DATA
  6
CONTINUOUS
 62
     7
 10
290.99998921115832
 20
-202.5318195525972
 30
0.0
 11
290.9999891797616
 21
-194.5318195525972
 31
0.0
  0
ARC
  5
177
  8
DATA
  6
CONTINUOUS
 62
     7
 10
288.9999891797616
 20
-194.53181956044639
 30
0.0
 40
2.0
 50
0.000000224862468
 51
180.00000022486211
  0
LINE
  5
178
  8
DATA
  6
CONTINUOUS
 62
     7
 10
286.9999891797616
 20
-194.53181956829559
 30
0.0
 11
286.99998921115832
 21
-202.53181956829559
 31
0.0
  0
LINE
  5
179
  8
DATA
  6
CONTINUOUS
 62
     7
 10
300.49998961440951
 20
-305.28181951531371
 30
0.0
 11
300.49998976746832
 21
-343.53181973999608
 31
0.0
  0
LINE
  5
17A
  8
DATA
  6
CONTINUOUS
 62
     7
 10
233.49998961440949
 20
-305.28181977826091
 30
0.0
 11
233.49998976158139
 21
-343.53182000294339
 31
0.0
  0
ARC
  5
17B
  8
DATA
  6
CONTINUOUS
 62
     7
 10
234.24998961440949
 20
-305.2818197753175
 30
0.0
 40
0.7500000000000142
 50
90.0
 51
180.0000002248631
  0
ARC
  5
17C
  8
DATA
  6
CONTINUOUS
 62
     7
 10
234.24998976158139
 20
-343.53181999999998
 30
0.0
 40
0.7499999999999858
 50
180.00000022486091
 51
301.2323917565991
  0
LINE
  5
17D
  8
DATA
  6
CONTINUOUS
 62
     7
 10
234.99998975078881
 20
-340.03181999999998
 30
0.0
 11
235.99999
 21
-346.53181999999998
 31
0.0
  0
ARC
  5
17E
  8
DATA
  6
CONTINUOUS
 62
     7
 10
243.4069634110385
 20
-342.06536222982299
 30
0.0
 40
1.9999999999999929
 50
278.74616440849502
 51
103.3578376643687
  0
LINE
  5
17F
  8
DATA
  6
CONTINUOUS
 62
     7
 10
239.99999
 20
-344.61304234887672
 30
0.0
 11
243.71107785358279
 21
-344.0421056137339
 31
0.0
  0
LINE
  5
180
  8
DATA
  6
CONTINUOUS
 62
     7
 10
239.99999
 20
-340.56598188310602
 30
0.0
 11
243.1028489684943
 21
-340.08861884591209
 31
0.0
  0
LINE
  5
181
  8
DATA
  6
CONTINUOUS
 62
     7
 10
239.99999
 20
-344.61304234887672
 30
0.0
 11
235.99999
 21
-346.53181999999998
 31
0.0
  0
LINE
  5
182
  8
DATA
  6
CONTINUOUS
 62
     7
 10
234.99998975078881
 20
-340.03181999999998
 30
0.0
 11
239.99999
 21
-340.56598188310602
 31
0.0
  0
LINE
  5
183
  8
DATA
  6
CONTINUOUS
 62
     7
 10
235.61403279134851
 20
-344.02309876896658
 30
0.0
 11
234.6388726370252
 21
-344.17312344548111
 31
0.0
  0
LINE
  5
184
  8
DATA
  6
CONTINUOUS
 62
     7
 10
235.38594695944039
 20
-342.54054123103327
 30
0.0
 11
234.99998976086761
 21
-342.5999192763806
 31
0.0
  0
ARC
  5
185
  8
DATA
  6
CONTINUOUS
 62
     7
 10
299.74998976746821
 20
-343.5318197429396
 30
0.0
 40
0.7499999999999817
 50
238.76760869312591
 51
0.0000002248642659
  0
LINE
  5
186
  8
DATA
  6
CONTINUOUS
 62
     7
 10
298.99998975078881
 20
-340.03181974882648
 30
0.0
 11
297.99998955259719
 21
-346.5318197566757
 31
0.0
  0
ARC
  5
187
  8
DATA
  6
CONTINUOUS
 62
     7
 10
290.59301610650073
 20
-342.06536204463731
 30
0.0
 40
1.9999999999999929
 50
76.642162785355708
 51
261.2538360412297
  0
LINE
  5
188
  8
DATA
  6
CONTINUOUS
 62
     7
 10
293.99998953753641
 20
-344.6130421369491
 30
0.0
 11
290.28890167947219
 21
-344.04210543093529
 31
0.0
  0
LINE
  5
189
  8
DATA
  6
CONTINUOUS
 62
     7
 10
293.99998950577037
 20
-340.56598167117829
 30
0.0
 11
290.89713053352921
 21
-340.08861865833921
 31
0.0
  0
LINE
  5
18A
  8
DATA
  6
CONTINUOUS
 62
     7
 10
293.99998953753641
 20
-344.6130421369491
 30
0.0
 11
297.99998955259719
 21
-346.5318197566757
 31
0.0
  0
LINE
  5
18B
  8
DATA
  6
CONTINUOUS
 62
     7
 10
298.99998975078881
 20
-340.03181974882648
 30
0.0
 11
293.99998950577037
 21
-340.56598167117829
 31
0.0
  0
LINE
  5
18C
  8
DATA
  6
CONTINUOUS
 62
     7
 10
298.38594674155718
 20
-344.02309852261283
 30
0.0
 11
299.36110689705828
 21
-344.17312319147322
 31
0.0
  0
LINE
  5
18D
  8
DATA
  6
CONTINUOUS
 62
     7
 10
298.61403256182882
 20
-342.5405409828893
 30
0.0
 11
298.99998976086749
 21
-342.5999190252071
 31
0.0
  0
LINE
  5
18E
  8
DATA
  6
CONTINUOUS
 62
     7
 10
234.24998961440949
 20
-304.5318197753175
 30
0.0
 11
245.2945936926634
 21
-304.5318197753175
 31
0.0
  0
LINE
  5
18F
  8
DATA
  6
CONTINUOUS
 62
     7
 10
248.04389437148441
 20
-307.21980544282758
 30
0.0
 11
248.72724287362041
 21
-337.51490700022998
 31
0.0
  0
LINE
  5
190
  8
DATA
  6
CONTINUOUS
 62
     7
 10
248.7245742209449
 20
-337.59724850231629
 30
0.0
 11
246.1279764899852
 21
-367.24829626678832
 31
0.0
  0
ARC
  5
191
  8
DATA
  6
CONTINUOUS
 62
     7
 10
249.36558585790709
 20
-367.53181977682613
 30
0.0
 40
3.2499999999999831
 50
174.99526880900609
 51
270.0000002248625
  0
LINE
  5
192
  8
DATA
  6
CONTINUOUS
 62
     7
 10
249.36558587066199
 20
-370.78181977682613
 30
0.0
 11
284.6343938722776
 21
-370.78181963841058
 31
0.0
  0
LINE
  5
193
  8
DATA
  6
CONTINUOUS
 62
     7
 10
246.5442758194003
 20
-307.25363144236758
 30
0.0
 11
247.2276243215361
 21
-337.54873299976992
 31
0.0
  0
LINE
  5
194
  8
DATA
  6
CONTINUOUS
 62
     7
 10
247.23029297421169
 20
-337.46639149768362
 30
0.0
 11
244.63369524325199
 21
-367.11743926215547
 31
0.0
  0
ARC
  5
195
  8
DATA
  6
CONTINUOUS
 62
     7
 10
249.36558585790709
 20
-367.53181977682613
 30
0.0
 40
4.749999999999992
 50
174.99526880900589
 51
270.0000002248625
  0
LINE
  5
196
  8
DATA
  6
CONTINUOUS
 62
     7
 10
249.36558587654889
 20
-372.28181977682613
 30
0.0
 11
284.63439387816447
 21
-372.28181963841058
 31
0.0
  0
ARC
  5
197
  8
DATA
  6
CONTINUOUS
 62
     7
 10
245.2945936926634
 20
-307.2818197753175
 30
0.0
 40
1.2500000000000051
 50
1.292167541625979
 51
90.0
  0
ARC
  5
198
  8
DATA
  6
CONTINUOUS
 62
     7
 10
245.2945936926634
 20
-307.2818197753175
 30
0.0
 40
2.7500000000000009
 50
1.292167541625808
 51
90.0
  0
LINE
  5
199
  8
DATA
  6
CONTINUOUS
 62
     7
 10
234.9999896173529
 20
-306.0318197753175
 30
0.0
 11
245.2945936926634
 21
-306.0318197753175
 31
0.0
  0
LINE
  5
19A
  8
DATA
  6
CONTINUOUS
 62
     7
 10
285.2754052615233
 20
-337.59724835886948
 30
0.0
 11
287.87200322521932
 21
-367.2482961029603
 31
0.0
  0
ARC
  5
19B
  8
DATA
  6
CONTINUOUS
 62
     7
 10
284.6343938595229
 20
-367.53181963841058
 30
0.0
 40
3.2499999999999849
 50
270.00000022486182
 51
5.0047316407185454
  0
LINE
  5
19C
  8
DATA
  6
CONTINUOUS
 62
     7
 10
286.76968650722938
 20
-337.46639134250768
 30
0.0
 11
289.36628447092539
 21
-367.11743908659861
 31
0.0
  0
ARC
  5
19D
  8
DATA
  6
CONTINUOUS
 62
     7
 10
284.6343938595229
 20
-367.53181963841058
 30
0.0
 40
4.7499999999999849
 50
270.00000022486211
 51
5.0047316407186031
  0
ARC
  5
19E
  8
DATA
  6
CONTINUOUS
 62
     7
 10
299.74998961440929
 20
-305.28181951825712
 30
0.0
 40
0.75
 50
0.0000002248615181
 51
90.000000449724155
  0
LINE
  5
19F
  8
DATA
  6
CONTINUOUS
 62
     7
 10
299.74998960852258
 20
-304.53181951825701
 30
0.0
 11
288.70538553026847
 21
-304.53181960494811
 31
0.0
  0
LINE
  5
1A0
  8
DATA
  6
CONTINUOUS
 62
     7
 10
285.95608487254611
 20
-307.219805294038
 30
0.0
 11
285.27273660820163
 21
-337.51490685680398
 31
0.0
  0
LINE
  5
1A1
  8
DATA
  6
CONTINUOUS
 62
     7
 10
287.45570342489572
 20
-307.2536312818072
 30
0.0
 11
286.77235516055129
 21
-337.54873284457318
 31
0.0
  0
ARC
  5
1A2
  8
DATA
  6
CONTINUOUS
 62
     7
 10
288.70538555185391
 20
-307.281819604948
 30
0.0
 40
1.25
 50
90.000000449724155
 51
178.70783290809851
  0
ARC
  5
1A3
  8
DATA
  6
CONTINUOUS
 62
     7
 10
288.70538555185391
 20
-307.281819604948
 30
0.0
 40
2.75
 50
90.000000449724411
 51
178.70783290809871
  0
LINE
  5
1A4
  8
DATA
  6
CONTINUOUS
 62
     7
 10
298.99998961735292
 20
-306.03181952414388
 30
0.0
 11
288.70538554204239
 21
-306.03181960494811
 31
0.0
  0
INSERT
  5
1A5
  8
DATA
 62
     7
  2
____
 10
164.99999
 20
-243.53182000000001
 30
0.0
  0
INSERT
  5
1A6
  8
DATA
 62
     7
  2
____-1
 10
164.99999
 20
-243.53182000000001
 30
0.0
  0
INSERT
  5
1A7
  8
DATA
 62
     7
  2
____-2
 10
164.99999
 20
-243.53182000000001
 30
0.0
  0
INSERT
  5
1A8
  8
DATA
 62
     7
  2
____-3
 10
164.99999
 20
-243.53182000000001
 30
0.0
  0
LINE
  5
1A9
  8
DATA
  6
CONTINUOUS
 62
     7
 10
175.99999
 20
-333.53181999999998
 30
0.0
 11
179.99999
 21
-333.53181999999998
 31
0.0
  0
LINE
  5
1AA
  8
DATA
  6
CONTINUOUS
 62
     7
 10
175.99999
 20
-333.53181999999998
 30
0.0
 11
175.99999
 21
-324.53181999999998
 31
0.0
  0
LINE
  5
1AB
  8
DATA
  6
CONTINUOUS
 62
     7
 10
175.99999
 20
-324.53181999999998
 30
0.0
 11
179.99999
 21
-324.53181999999998
 31
0.0
  0
LINE
  5
1AC
  8
DATA
  6
CONTINUOUS
 62
     7
 10
179.99999
 20
-324.53181999999998
 30
0.0
 11
179.99999
 21
-333.53181999999998
 31
0.0
  0
INSERT
  5
1AD
  8
DATA
 62
     7
  2
____-4
 10
164.99999
 20
-243.53182000000001
 30
0.0
  0
TEXT
  5
1AE
  8
DATA
 62
     7
 10
174.77710111111111
 20
-338.1748755555555
 30
0.0
 40
2.4694444444444441
  1
-10dB 0 mic
 50
90.0
 41
0.8
 11
172.3076566666667
 21
-338.1748755555555
 31
0.0
 73
     3
  0
LINE
  5
1AF
  8
DATA
  6
CONTINUOUS
 62
     7
 10
59.999990000000011
 20
-163.5318199999999
 30
0.0
 11
113.99999
 21
-163.5318199999999
 31
0.0
  0
LINE
  5
1B0
  8
DATA
  6
CONTINUOUS
 62
     7
 10
54.999990000000011
 20
-158.5318199999999
 30
0.0
 11
54.999990000000011
 21
-149.5318199999999
 31
0.0
  0
LINE
  5
1B1
  8
DATA
  6
CONTINUOUS
 62
     7
 10
118.99999
 20
-158.5318199999999
 30
0.0
 11
118.99999
 21
-149.5318199999999
 31
0.0
  0
LINE
  5
1B2
  8
DATA
  6
CONTINUOUS
 62
     7
 10
59.999990000000011
 20
-144.5318199999999
 30
0.0
 11
113.99999
 21
-144.5318199999999
 31
0.0
  0
ARC
  5
1B3
  8
DATA
  6
CONTINUOUS
 62
     7
 10
59.999990000000011
 20
-149.5318199999999
 30
0.0
 40
5.0
 50
90.0
 51
180.0
  0
ARC
  5
1B4
  8
DATA
  6
CONTINUOUS
 62
     7
 10
59.999990000000011
 20
-158.5318199999999
 30
0.0
 40
5.0
 50
180.0
 51
270.0
  0
ARC
  5
1B5
  8
DATA
  6
CONTINUOUS
 62
     7
 10
113.99999
 20
-149.5318199999999
 30
0.0
 40
5.0
 50
0.0
 51
90.0
  0
ARC
  5
1B6
  8
DATA
  6
CONTINUOUS
 62
     7
 10
113.99999
 20
-158.5318199999999
 30
0.0
 40
5.0
 50
270.0
 51
0.0
  0
ARC
  5
1B7
  8
DATA
  6
CONTINUOUS
 62
     7
 10
59.999990000000011
 20
-158.5318199999999
 30
0.0
 40
3.5
 50
180.0
 51
270.0
  0
LINE
  5
1B8
  8
DATA
  6
CONTINUOUS
 62
     7
 10
59.999990000000011
 20
-162.0318199999999
 30
0.0
 11
113.99999
 21
-162.0318199999999
 31
0.0
  0
ARC
  5
1B9
  8
DATA
  6
CONTINUOUS
 62
     7
 10
113.99999
 20
-158.5318199999999
 30
0.0
 40
3.5
 50
270.0
 51
0.0
  0
LINE
  5
1BA
  8
DATA
  6
CONTINUOUS
 62
     7
 10
117.49999
 20
-158.5318199999999
 30
0.0
 11
117.49999
 21
-149.5318199999999
 31
0.0
  0
ARC
  5
1BB
  8
DATA
  6
CONTINUOUS
 62
     7
 10
113.99999
 20
-149.5318199999999
 30
0.0
 40
3.5
 50
0.0
 51
90.0
  0
LINE
  5
1BC
  8
DATA
  6
CONTINUOUS
 62
     7
 10
59.999990000000011
 20
-146.0318199999999
 30
0.0
 11
113.99999
 21
-146.0318199999999
 31
0.0
  0
ARC
  5
1BD
  8
DATA
  6
CONTINUOUS
 62
     7
 10
59.999990000000011
 20
-149.5318199999999
 30
0.0
 40
3.5
 50
90.0
 51
180.0
  0
LINE
  5
1BE
  8
DATA
  6
CONTINUOUS
 62
     7
 10
56.499990000000011
 20
-149.5318199999999
 30
0.0
 11
56.499990000000011
 21
-158.5318199999999
 31
0.0
  0
CIRCLE
  5
1BF
  8
DATA
  6
CONTINUOUS
 62
     7
 10
64.999990000000011
 20
-154.0318199999999
 30
0.0
 40
3.0
  0
CIRCLE
  5
1C0
  8
DATA
  6
CONTINUOUS
 62
     7
 10
64.999990000000011
 20
-154.0318199999999
 30
0.0
 40
2.0
  0
LINE
  5
1C1
  8
DATA
  6
CONTINUOUS
 62
     7
 10
73.499990000000025
 20
-161.0318199999999
 30
0.0
 11
73.499990000000025
 21
-160.0318199999999
 31
0.0
  0
LINE
  5
1C2
  8
DATA
  6
CONTINUOUS
 62
     7
 10
75.499990000000025
 20
-161.0318199999999
 30
0.0
 11
75.499990000000025
 21
-160.0318199999999
 31
0.0
  0
ARC
  5
1C3
  8
DATA
  6
CONTINUOUS
 62
     7
 10
74.499990000000025
 20
-160.0318199999999
 30
0.0
 40
1.0
 50
0.0
 51
179.9999999999992
  0
ARC
  5
1C4
  8
DATA
  6
CONTINUOUS
 62
     7
 10
74.499990000000025
 20
-161.0318199999999
 30
0.0
 40
1.0
 50
180.0
 51
0.0
  0
ARC
  5
1C5
  8
DATA
  6
CONTINUOUS
 62
     7
 10
74.499990000000025
 20
-160.0318199999999
 30
0.0
 40
2.5
 50
0.0
 51
180.0
  0
LINE
  5
1C6
  8
DATA
  6
CONTINUOUS
 62
     7
 10
71.999990000000025
 20
-160.0318199999999
 30
0.0
 11
71.999990000000025
 21
-162.0318199999999
 31
0.0
  0
LINE
  5
1C7
  8
DATA
  6
CONTINUOUS
 62
     7
 10
76.999990000000025
 20
-160.0318199999999
 30
0.0
 11
76.999990000000025
 21
-162.0318199999999
 31
0.0
  0
LINE
  5
1C8
  8
DATA
  6
CONTINUOUS
 62
     7
 10
82.499990000000025
 20
-157.5318199999999
 30
0.0
 11
91.499989999999997
 21
-157.5318199999999
 31
0.0
  0
LINE
  5
1C9
  8
DATA
  6
CONTINUOUS
 62
     7
 10
81.999990000000025
 20
-157.0318199999999
 30
0.0
 11
81.999990000000025
 21
-154.0318199999999
 31
0.0
  0
LINE
  5
1CA
  8
DATA
  6
CONTINUOUS
 62
     7
 10
82.499990000000025
 20
-153.5318199999999
 30
0.0
 11
91.499989999999997
 21
-153.5318199999999
 31
0.0
  0
LINE
  5
1CB
  8
DATA
  6
CONTINUOUS
 62
     7
 10
91.999989999999997
 20
-154.0318199999999
 30
0.0
 11
91.999989999999997
 21
-157.0318199999999
 31
0.0
  0
ARC
  5
1CC
  8
DATA
  6
CONTINUOUS
 62
     7
 10
82.499990000000025
 20
-154.0318199999999
 30
0.0
 40
0.5
 50
90.0
 51
180.0
  0
ARC
  5
1CD
  8
DATA
  6
CONTINUOUS
 62
     7
 10
82.499990000000025
 20
-157.0318199999999
 30
0.0
 40
0.5
 50
180.0
 51
270.0
  0
ARC
  5
1CE
  8
DATA
  6
CONTINUOUS
 62
     7
 10
91.499989999999997
 20
-154.0318199999999
 30
0.0
 40
0.5
 50
0.0
 51
90.0
  0
ARC
  5
1CF
  8
DATA
  6
CONTINUOUS
 62
     7
 10
91.499989999999997
 20
-157.0318199999999
 30
0.0
 40
0.5
 50
270.0
 51
0.0
  0
LINE
  5
1D0
  8
DATA
  6
CONTINUOUS
 62
     7
 10
82.499990000000025
 20
-158.5318199999999
 30
0.0
 11
91.499989999999997
 21
-158.5318199999999
 31
0.0
  0
LINE
  5
1D1
  8
DATA
  6
CONTINUOUS
 62
     7
 10
80.999990000000025
 20
-157.0318199999999
 30
0.0
 11
80.999990000000025
 21
-154.0318199999999
 31
0.0
  0
LINE
  5
1D2
  8
DATA
  6
CONTINUOUS
 62
     7
 10
82.499990000000025
 20
-152.5318199999999
 30
0.0
 11
91.499989999999997
 21
-152.5318199999999
 31
0.0
  0
LINE
  5
1D3
  8
DATA
  6
CONTINUOUS
 62
     7
 10
92.999989999999997
 20
-154.0318199999999
 30
0.0
 11
92.999989999999997
 21
-157.0318199999999
 31
0.0
  0
ARC
  5
1D4
  8
DATA
  6
CONTINUOUS
 62
     7
 10
82.499990000000025
 20
-154.0318199999999
 30
0.0
 40
1.5
 50
90.0
 51
180.0
  0
ARC
  5
1D5
  8
DATA
  6
CONTINUOUS
 62
     7
 10
82.499990000000025
 20
-157.0318199999999
 30
0.0
 40
1.5
 50
180.0
 51
270.0
  0
ARC
  5
1D6
  8
DATA
  6
CONTINUOUS
 62
     7
 10
91.499989999999997
 20
-154.0318199999999
 30
0.0
 40
1.5
 50
0.0
 51
90.0
  0
ARC
  5
1D7
  8
DATA
  6
CONTINUOUS
 62
     7
 10
91.499989999999997
 20
-157.0318199999999
 30
0.0
 40
1.5
 50
270.0
 51
0.0
  0
LINE
  5
1D8
  8
DATA
  6
CONTINUOUS
 62
     7
 10
80.499990000000025
 20
-157.0318199999999
 30
0.0
 11
80.499990000000025
 21
-154.0318199999999
 31
0.0
  0
ARC
  5
1D9
  8
DATA
  6
CONTINUOUS
 62
     7
 10
82.499990000000025
 20
-154.0318199999999
 30
0.0
 40
2.0
 50
90.0
 51
180.0
  0
ARC
  5
1DA
  8
DATA
  6
CONTINUOUS
 62
     7
 10
82.499990000000025
 20
-157.0318199999999
 30
0.0
 40
2.0
 50
180.0
 51
270.0
  0
LINE
  5
1DB
  8
DATA
  6
CONTINUOUS
 62
     7
 10
82.499990000000025
 20
-152.0318199999999
 30
0.0
 11
91.499989999999997
 21
-152.0318199999999
 31
0.0
  0
ARC
  5
1DC
  8
DATA
  6
CONTINUOUS
 62
     7
 10
91.499989999999997
 20
-154.0318199999999
 30
0.0
 40
2.0
 50
0.0
 51
90.0
  0
LINE
  5
1DD
  8
DATA
  6
CONTINUOUS
 62
     7
 10
93.499989999999997
 20
-154.0318199999999
 30
0.0
 11
93.499989999999997
 21
-157.0318199999999
 31
0.0
  0
ARC
  5
1DE
  8
DATA
  6
CONTINUOUS
 62
     7
 10
91.499989999999997
 20
-157.0318199999999
 30
0.0
 40
2.0
 50
270.0
 51
0.0
  0
LINE
  5
1DF
  8
DATA
  6
CONTINUOUS
 62
     7
 10
82.499990000000025
 20
-159.0318199999999
 30
0.0
 11
91.499989999999997
 21
-159.0318199999999
 31
0.0
  0
TEXT
  5
1E0
  8
DATA
 62
     7
 10
85.823601111111145
 20
-156.48809777777771
 30
0.0
 40
2.4694444444444441
  1
mute
 41
0.8
 11
85.823601111111145
 21
-154.0186533333333
 31
0.0
 73
     3
  0
INSERT
  5
1E1
  8
DATA
 62
     7
  2
____-5
 10
164.99999
 20
-243.53182000000001
 30
0.0
  0
CIRCLE
  5
1E2
  8
DATA
  6
CONTINUOUS
 62
     7
 10
107.99999
 20
-154.0318199999999
 30
0.0
 40
4.25
  0
CIRCLE
  5
1E3
  8
DATA
  6
CONTINUOUS
 62
     7
 10
107.99999
 20
-154.0318199999999
 30
0.0
 40
0.5
  0
CIRCLE
  5
1E4
  8
DATA
  6
CONTINUOUS
 62
     7
 10
107.99999
 20
-152.0318199999999
 30
0.0
 40
0.5
  0
CIRCLE
  5
1E5
  8
DATA
  6
CONTINUOUS
 62
     7
 10
109.99999
 20
-155.0318199999999
 30
0.0
 40
0.4999999999999927
  0
CIRCLE
  5
1E6
  8
DATA
  6
CONTINUOUS
 62
     7
 10
105.99999
 20
-155.0318199999999
 30
0.0
 40
0.4999999999999927
  0
CIRCLE
  5
1E7
  8
DATA
  6
CONTINUOUS
 62
     7
 10
107.99999
 20
-154.0318199999999
 30
0.0
 40
4.9999999999999849
  0
LINE
  5
1E8
  8
DATA
  6
CONTINUOUS
 62
     7
 10
59.999990000000011
 20
-160.0318199999999
 30
0.0
 11
113.99999
 21
-160.0318199999999
 31
0.0
  0
ARC
  5
1E9
  8
DATA
  6
CONTINUOUS
 62
     7
 10
59.999990000000011
 20
-158.5318199999999
 30
0.0
 40
1.5
 50
180.0
 51
270.0
  0
LINE
  5
1EA
  8
DATA
  6
CONTINUOUS
 62
     7
 10
58.499990000000011
 20
-149.5318199999999
 30
0.0
 11
58.499990000000011
 21
-158.5318199999999
 31
0.0
  0
ARC
  5
1EB
  8
DATA
  6
CONTINUOUS
 62
     7
 10
59.999990000000011
 20
-149.5318199999999
 30
0.0
 40
1.5
 50
90.0
 51
180.0
  0
LINE
  5
1EC
  8
DATA
  6
CONTINUOUS
 62
     7
 10
59.999990000000011
 20
-148.0318199999999
 30
0.0
 11
113.99999
 21
-148.0318199999999
 31
0.0
  0
ARC
  5
1ED
  8
DATA
  6
CONTINUOUS
 62
     7
 10
113.99999
 20
-149.5318199999999
 30
0.0
 40
1.5
 50
0.0
 51
90.0
  0
LINE
  5
1EE
  8
DATA
  6
CONTINUOUS
 62
     7
 10
115.49999
 20
-158.5318199999999
 30
0.0
 11
115.49999
 21
-149.5318199999999
 31
0.0
  0
ARC
  5
1EF
  8
DATA
  6
CONTINUOUS
 62
     7
 10
113.99999
 20
-158.5318199999999
 30
0.0
 40
1.5
 50
270.0
 51
0.0
  0
ARC
  5
1F0
  8
DATA
  6
CONTINUOUS
 62
     7
 10
59.999990000000011
 20
-149.5318199999999
 30
0.0
 40
6.5
 50
90.0
 51
180.0
  0
LINE
  5
1F1
  8
DATA
  6
CONTINUOUS
 62
     7
 10
53.499990000000011
 20
-149.5318199999999
 30
0.0
 11
53.499990000000011
 21
-152.2818199999999
 31
0.0
  0
ARC
  5
1F2
  8
DATA
  6
CONTINUOUS
 62
     7
 10
54.24998999999999
 20
-152.2818199999999
 30
0.0
 40
0.7499999999999858
 50
179.99999999999889
 51
0.0000000000010232
  0
LINE
  5
1F3
  8
DATA
  6
CONTINUOUS
 62
     7
 10
66.883695243251978
 20
-137.78182000000001
 30
0.0
 11
107.11628447092529
 21
-137.78182000000001
 31
0.0
  0
LINE
  5
1F4
  8
DATA
  6
CONTINUOUS
 62
     7
 10
63.883695243251971
 20
-143.0318199999999
 30
0.0
 11
63.883695243251971
 21
-140.7818199999999
 31
0.0
  0
LINE
  5
1F5
  8
DATA
  6
CONTINUOUS
 62
     7
 10
110.11628447092529
 20
-143.0318199999999
 30
0.0
 11
110.11628447092529
 21
-140.7818199999999
 31
0.0
  0
LINE
  5
1F6
  8
DATA
  6
CONTINUOUS
 62
     7
 10
108.61628447092529
 20
-143.0318199999999
 30
0.0
 11
108.6162846138367
 21
-140.78182009527421
 31
0.0
  0
LINE
  5
1F7
  8
DATA
  6
CONTINUOUS
 62
     7
 10
66.883695243251978
 20
-139.2818199999999
 30
0.0
 11
107.1162846138367
 21
-139.2818199999999
 31
0.0
  0
LINE
  5
1F8
  8
DATA
  6
CONTINUOUS
 62
     7
 10
65.383695243251964
 20
-143.0318199999999
 30
0.0
 11
65.383695243251964
 21
-140.7818199999999
 31
0.0
  0
LINE
  5
1F9
  8
DATA
  6
CONTINUOUS
 62
     7
 10
59.999990000000011
 20
-143.0318199999999
 30
0.0
 11
67.977242873620384
 21
-143.0318199999999
 31
0.0
  0
ARC
  5
1FA
  8
DATA
  6
CONTINUOUS
 62
     7
 10
67.977242873620384
 20
-143.7818199999999
 30
0.0
 40
0.75
 50
270.0
 51
90.0
  0
ARC
  5
1FB
  8
DATA
  6
CONTINUOUS
 62
     7
 10
113.99999
 20
-149.5318199999999
 30
0.0
 40
6.5
 50
0.0
 51
90.0
  0
LINE
  5
1FC
  8
DATA
  6
CONTINUOUS
 62
     7
 10
120.49999
 20
-149.5318199999999
 30
0.0
 11
120.49999
 21
-152.2818199999999
 31
0.0
  0
ARC
  5
1FD
  8
DATA
  6
CONTINUOUS
 62
     7
 10
119.74999
 20
-152.2818199999999
 30
0.0
 40
0.75
 50
179.99999999999889
 51
0.0000000000010232
  0
LINE
  5
1FE
  8
DATA
  6
CONTINUOUS
 62
     7
 10
113.99999
 20
-143.0318199999999
 30
0.0
 11
106.0227371263795
 21
-143.0318199999999
 31
0.0
  0
ARC
  5
1FF
  8
DATA
  6
CONTINUOUS
 62
     7
 10
106.0227371263795
 20
-143.7818199999999
 30
0.0
 40
0.75
 50
90.0
 51
270.0
  0
ARC
  5
200
  8
DATA
  6
CONTINUOUS
 62
     7
 10
66.883695243251978
 20
-140.7818199999999
 30
0.0
 40
3.0
 50
90.0
 51
180.0
  0
ARC
  5
201
  8
DATA
  6
CONTINUOUS
 62
     7
 10
107.11628447092529
 20
-140.7818199999999
 30
0.0
 40
3.0
 50
0.0
 51
90.0
  0
ARC
  5
202
  8
DATA
  6
CONTINUOUS
 62
     7
 10
66.883695243251978
 20
-140.7818199999999
 30
0.0
 40
1.5
 50
90.0
 51
180.0
  0
ARC
  5
203
  8
DATA
  6
CONTINUOUS
 62
     7
 10
107.1162846138367
 20
-140.7818199999999
 30
0.0
 40
1.500000000000002
 50
359.99999636079309
 51
90.0
  0
ENDSEC
  0
EOF
