  0
SECTION
  2
HEADER
  9
$ACADVER
  1
AC1009
  9
$INSBASE
 10
0.0
 20
0.0
 30
0.0
  9
$EXTMIN
 10
-272.51647823400589
 20
-284.86571085595318
 30
-0.0015258207003583
  9
$EXTMAX
 10
267.51645074857652
 20
518.02445227010935
 30
0.0000000349246037
  9
$LIMMIN
 10
0.0
 20
0.0
  9
$LIMMAX
 10
0.0
 20
0.0
  9
$ORTHOMODE
 70
     0
  9
$REGENMODE
 70
     1
  9
$FILLMODE
 70
     1
  9
$QTEXTMODE
 70
     0
  9
$MIRRTEXT
 70
     1
  9
$DRAGMODE
 70
     2
  9
$LTSCALE
 40
15.24
  9
$OSMODE
 70
   231
  9
$ATTMODE
 70
     1
  9
$TEXTSIZE
 40
0.0
  9
$TRACEWID
 40
1.0
  9
$TEXTSTYLE
  7
STANDARD
  9
$CLAYER
  8
DATA
  9
$CELTYPE
  6
CONTINUOUS
  9
$CECOLOR
 62
   256
  9
$DIMSCALE
 40
1.0
  9
$DIMASZ
 40
0.18
  9
$DIMEXO
 40
0.0625
  9
$DIMDLI
 40
0.38
  9
$DIMRND
 40
0.0
  9
$DIMDLE
 40
0.0
  9
$DIMEXE
 40
0.18
  9
$DIMTP
 40
0.0
  9
$DIMTM
 40
0.0
  9
$DIMTXT
 40
0.18
  9
$DIMCEN
 40
0.09
  9
$DIMTSZ
 40
0.0
  9
$DIMTOL
 70
     0
  9
$DIMLIM
 70
     0
  9
$DIMTIH
 70
     1
  9
$DIMTOH
 70
     1
  9
$DIMSE1
 70
     0
  9
$DIMSE2
 70
     0
  9
$DIMTAD
 70
     0
  9
$DIMZIN
 70
     0
  9
$DIMBLK
  1

  9
$DIMASO
 70
     1
  9
$DIMSHO
 70
     1
  9
$DIMPOST
  1

  9
$DIMAPOST
  1

  9
$DIMALT
 70
     0
  9
$DIMALTD
 70
     2
  9
$DIMALTF
 40
25.399999999999999
  9
$DIMLFAC
 40
1.0
  9
$DIMTOFL
 70
     0
  9
$DIMTVP
 40
0.0
  9
$DIMTIX
 70
     0
  9
$DIMSOXD
 70
     0
  9
$DIMSAH
 70
     0
  9
$DIMBLK1
  1

  9
$DIMBLK2
  1

  9
$DIMSTYLE
  2
STANDARD
  9
$DIMCLRD
 70
     0
  9
$DIMCLRE
 70
     0
  9
$DIMCLRT
 70
     0
  9
$DIMTFAC
 40
1.0
  9
$DIMGAP
 40
0.09
  9
$LUNITS
 70
     2
  9
$LUPREC
 70
     4
  9
$SKETCHINC
 40
0.1
  9
$FILLETRAD
 40
0.0
  9
$AUNITS
 70
     0
  9
$AUPREC
 70
     0
  9
$MENU
  1
acad
  9
$ELEVATION
 40
0.0
  9
$PELEVATION
 40
0.0
  9
$THICKNESS
 40
0.0
  9
$LIMCHECK
 70
     0
  9
$BLIPMODE
 70
     0
  9
$CHAMFERA
 40
0.0
  9
$CHAMFERB
 40
0.0
  9
$SKPOLY
 70
     0
  9
$TDCREATE
 40
2453780.7052314822
  9
$TDUPDATE
 40
2453780.716572396
  9
$TDINDWG
 40
0.0002193519
  9
$TDUSRTIMER
 40
0.0002191782
  9
$USRTIMER
 70
     1
  9
$ANGBASE
 50
0.0
  9
$ANGDIR
 70
     0
  9
$PDMODE
 70
     1
  9
$PDSIZE
 40
-2.0
  9
$PLINEWID
 40
0.0
  9
$COORDS
 70
     2
  9
$SPLFRAME
 70
     0
  9
$SPLINETYPE
 70
     6
  9
$SPLINESEGS
 70
     8
  9
$ATTDIA
 70
     0
  9
$ATTREQ
 70
     1
  9
$HANDLING
 70
     1
  9
$HANDSEED
  5
1CB
  9
$SURFTAB1
 70
     6
  9
$SURFTAB2
 70
     6
  9
$SURFTYPE
 70
     6
  9
$SURFU
 70
     6
  9
$SURFV
 70
     6
  9
$UCSNAME
  2

  9
$UCSORG
 10
0.0
 20
0.0
 30
0.0
  9
$UCSXDIR
 10
1.0
 20
0.0
 30
0.0
  9
$UCSYDIR
 10
0.0
 20
1.0
 30
0.0
  9
$PUCSNAME
  2

  9
$PUCSORG
 10
0.0
 20
0.0
 30
0.0
  9
$PUCSXDIR
 10
1.0
 20
0.0
 30
0.0
  9
$PUCSYDIR
 10
0.0
 20
1.0
 30
0.0
  9
$USERI1
 70
     0
  9
$USERI2
 70
     0
  9
$USERI3
 70
     0
  9
$USERI4
 70
     0
  9
$USERI5
 70
     0
  9
$USERR1
 40
0.0
  9
$USERR2
 40
0.0
  9
$USERR3
 40
0.0
  9
$USERR4
 40
0.0
  9
$USERR5
 40
0.0
  9
$WORLDVIEW
 70
     1
  9
$SHADEDGE
 70
     3
  9
$SHADEDIF
 70
    70
  9
$TILEMODE
 70
     1
  9
$MAXACTVP
 70
    64
  9
$PLIMCHECK
 70
     0
  9
$PEXTMIN
 10
1.0000000000000000E+020
 20
1.0000000000000000E+020
 30
1.0000000000000000E+020
  9
$PEXTMAX
 10
-1.0000000000000000E+020
 20
-1.0000000000000000E+020
 30
-1.0000000000000000E+020
  9
$PLIMMIN
 10
0.0
 20
0.0
  9
$PLIMMAX
 10
12.0
 20
9.0
  9
$UNITMODE
 70
     0
  9
$VISRETAIN
 70
     0
  9
$PLINEGEN
 70
     1
  9
$PSLTSCALE
 70
     0
  0
ENDSEC
  0
SECTION
  2
TABLES
  0
TABLE
  2
VPORT
 70
     2
  0
VPORT
  2
*ACTIVE
 70
     0
 10
0.0
 20
0.0
 11
1.0
 21
1.0
 12
-2.500013742714656
 22
116.579370707078
 13
0.0
 23
0.0
 14
1.0
 24
1.0
 15
0.0
 25
0.0
 16
0.0
 26
0.0
 36
1.0
 17
0.0
 27
0.0
 37
0.0
 40
809.53477137262303
 41
1.665745856353591
 42
50.0
 43
0.0
 44
0.0
 50
0.0
 51
0.0
 71
     0
 72
  2000
 73
     1
 74
     1
 75
     0
 76
     0
 77
     0
 78
     0
  0
ENDTAB
  0
TABLE
  2
LTYPE
 70
    11
  0
LTYPE
  2
CONTINUOUS
 70
     0
  3
Solid line
 72
    65
 73
     0
 40
0.0
  0
ENDTAB
  0
TABLE
  2
LAYER
 70
     6
  0
LAYER
  2
0
 70
     0
 62
     7
  6
CONTINUOUS
  0
LAYER
  2
DATA
 70
     0
 62
     7
  6
CONTINUOUS
  0
LAYER
  2
HIBINO-BASE
 70
     0
 62
     7
  6
CONTINUOUS
  0
LAYER
  2
PATTERN_FILL
 70
     0
 62
     7
  6
CONTINUOUS
  0
LAYER
  2
SPEC
 70
     0
 62
     7
  6
CONTINUOUS
  0
LAYER
  2
DIMNSIONS
 70
     0
 62
     7
  6
CONTINUOUS
  0
ENDTAB
  0
TABLE
  2
STYLE
 70
     2
  0
STYLE
  2
STANDARD
 70
     0
 40
0.0
 41
1.0
 50
0.0
 71
     0
 42
0.0
  3
txt
  4
BIGFONT.SHX
  0
ENDTAB
  0
TABLE
  2
VIEW
 70
     0
  0
ENDTAB
  0
TABLE
  2
UCS
 70
     0
  0
ENDTAB
  0
TABLE
  2
APPID
 70
     1
  0
APPID
  2
ACAD
 70
     0
  0
ENDTAB
  0
TABLE
  2
DIMSTYLE
 70
     1
  0
DIMSTYLE
  2
STANDARD
 70
     0
  3

  4

  5

  6

  7

 40
1.0
 41
0.18
 42
0.0625
 43
0.38
 44
0.18
 45
0.0
 46
0.0
 47
0.0
 48
0.0
140
0.18
141
0.09
142
0.0
143
25.399999999999999
144
1.0
145
0.0
146
1.0
147
0.09
 71
     0
 72
     0
 73
     1
 74
     1
 75
     0
 76
     0
 77
     0
 78
     0
170
     0
171
     2
172
     0
173
     0
174
     0
175
     0
176
     0
177
     0
178
     0
  0
ENDTAB
  0
ENDSEC
  0
SECTION
  2
BLOCKS
  0
BLOCK
  8
0
  2
$MODEL_SPACE
 70
     0
 10
0.0
 20
0.0
 30
0.0
  3
$MODEL_SPACE
  1

  0
ENDBLK
  5
1A5
  8
0
  0
BLOCK
 67
     1
  8
0
  2
$PAPER_SPACE
 70
     0
 10
0.0
 20
0.0
 30
0.0
  3
$PAPER_SPACE
  1

  0
ENDBLK
  5
1A1
 67
     1
  8
0
  0
ENDSEC
  0
SECTION
  2
ENTITIES
  0
LINE
  5
2D
  8
HIBINO-BASE
  6
CONTINUOUS
 62
     7
 10
-272.5
 20
518.0
 30
0.0
 11
267.49997000000002
 21
518.0
 31
0.0
  0
LINE
  5
2E
  8
HIBINO-BASE
  6
CONTINUOUS
 62
     7
 10
267.49997000000002
 20
-261.99998499999998
 30
0.0
 11
-272.5
 21
-261.99998499999998
 31
0.0
  0
LINE
  5
2F
  8
HIBINO-BASE
  6
CONTINUOUS
 62
     7
 10
-272.5
 20
-261.99998499999998
 30
0.0
 11
-272.5
 21
518.0
 31
0.0
  0
TEXT
  5
30
  8
HIBINO-BASE
 62
     7
 10
-250.94800000000001
 20
-281.22600549999999
 30
0.0
 40
10.800120996093741
  1
Hibino Corporation
 41
0.8
 11
-250.94800000000001
 21
-270.42588450390627
 31
0.0
 73
     3
  0
LINE
  5
31
  8
HIBINO-BASE
  6
CONTINUOUS
 62
     7
 10
267.49997000000002
 20
518.0
 30
0.0
 11
267.49997000000002
 21
-261.99998499999998
 31
0.0
  0
LINE
  5
32
  8
HIBINO-BASE
  6
CONTINUOUS
 62
     7
 10
-2.5000150000000181
 20
-194.5
 30
0.0
 11
267.49997000000002
 21
-194.5
 31
0.0
  0
LINE
  5
33
  8
HIBINO-BASE
  6
CONTINUOUS
 62
     7
 10
-2.5000150000000181
 20
-261.99998499999998
 30
0.0
 11
-2.5000150000000181
 21
-194.5
 31
0.0
  0
TEXT
  5
34
  8
HIBINO-BASE
 62
     7
 10
0.1999699999999806
 20
-202.60000959999999
 30
0.0
 40
5.4000778125000002
  1
NOTE
 41
0.8
 11
0.1999699999999809
 21
-197.19993178749999
 31
0.0
 73
     3
  0
LINE
  5
35
  8
HIBINO-BASE
  6
CONTINUOUS
 62
     7
 10
102.499985
 20
-261.99998499999998
 30
0.0
 11
102.499985
 21
-194.5
 31
0.0
  0
TEXT
  5
36
  8
HIBINO-BASE
 62
     7
 10
105.1999849999999
 20
-202.60000959999999
 30
0.0
 40
5.4000778125000002
  1
TITLE
 41
0.8
 11
105.1999849999999
 21
-197.19993178749999
 31
0.0
 73
     3
  0
TEXT
  5
37
  8
HIBINO-BASE
 62
     7
 10
147.70513999999989
 20
-281.22600549999999
 30
0.0
 40
10.800120996093741
  1
ヒビノ株式会社
 41
0.8
 11
147.70513999999989
 21
-270.42588450390627
 31
0.0
 73
     3
  0
LINE
  5
38
  8
HIBINO-BASE
  6
CONTINUOUS
 62
     7
 10
-2.5000150000000181
 20
-232.0
 30
0.0
 11
267.49997000000002
 21
-232.0
 31
0.0
  0
TEXT
  5
39
  8
HIBINO-BASE
 62
     7
 10
142.69998499999991
 20
-239.93103459999989
 30
0.0
 40
5.4000778125000002
  1
DRAWN
 41
0.8
 11
142.69998499999991
 21
-234.53095678749989
 31
0.0
 73
     3
  0
TEXT
  5
3A
  8
HIBINO-BASE
 62
     7
 10
67.69998499999997
 20
-239.93103459999989
 30
0.0
 40
5.4000778125000002
  1
DATE
 41
0.8
 11
67.69998499999997
 21
-234.53095678749989
 31
0.0
 73
     3
  0
TEXT
  5
3B
  8
HIBINO-BASE
 62
     7
 10
0.7999699999999802
 20
-239.8583406999999
 30
0.0
 40
4.8865195898437506
  1
図面サイズ
 41
0.8
 11
0.7999699999999806
 21
-234.97182111015621
 31
0.0
 73
     3
  0
TEXT
  5
3C
  8
HIBINO-BASE
 62
     7
 10
37.699969999999979
 20
-239.93103459999989
 30
0.0
 40
5.4000778125000002
  1
SCALE
 41
0.8
 11
37.699969999999979
 21
-234.53095678749989
 31
0.0
 73
     3
  0
TEXT
  5
3D
  8
HIBINO-BASE
 62
     7
 10
105.1999849999999
 20
-239.93103459999989
 30
0.0
 40
5.4000778125000002
  1
DESIGN
 41
0.8
 11
105.1999849999999
 21
-234.53095678749989
 31
0.0
 73
     3
  0
TEXT
  5
3E
  8
HIBINO-BASE
 62
     7
 10
217.69997000000001
 20
-239.93103459999989
 30
0.0
 40
5.4000778125000002
  1
DRAWING NO.
 41
0.8
 11
217.69997000000001
 21
-234.53095678749989
 31
0.0
 73
     3
  0
TEXT
  5
3F
  8
HIBINO-BASE
 62
     7
 10
180.19997000000001
 20
-239.93103459999989
 30
0.0
 40
5.4000778125000002
  1
CHECK
 41
0.8
 11
180.19997000000001
 21
-234.53095678749989
 31
0.0
 73
     3
  0
LINE
  5
40
  8
HIBINO-BASE
  6
CONTINUOUS
 62
     7
 10
40.624969999999969
 20
-258.25
 30
0.0
 11
51.874984999999981
 21
-247.0
 31
0.0
  0
TEXT
  5
41
  8
HIBINO-BASE
 62
     7
 10
38.749969999999983
 20
-252.1471426
 30
0.0
 40
6.515359453124999
  1
1
 41
0.8
 11
38.749969999999983
 21
-245.63178314687499
 31
0.0
 73
     3
  0
LINE
  5
42
  8
HIBINO-BASE
  6
CONTINUOUS
 62
     7
 10
34.999969999999983
 20
-261.99998499999998
 30
0.0
 11
34.999969999999983
 21
-232.0
 31
0.0
  0
LINE
  5
43
  8
HIBINO-BASE
  6
CONTINUOUS
 62
     7
 10
64.999969999999976
 20
-261.99998499999998
 30
0.0
 11
64.999969999999976
 21
-232.0
 31
0.0
  0
LINE
  5
44
  8
HIBINO-BASE
  6
CONTINUOUS
 62
     7
 10
139.99996999999991
 20
-232.0
 30
0.0
 11
139.99996999999991
 21
-261.99998499999998
 31
0.0
  0
LINE
  5
45
  8
HIBINO-BASE
  6
CONTINUOUS
 62
     7
 10
214.99998500000001
 20
-232.0
 30
0.0
 11
214.99998500000001
 21
-261.99998499999998
 31
0.0
  0
LINE
  5
46
  8
HIBINO-BASE
  6
CONTINUOUS
 62
     7
 10
177.49996999999991
 20
-261.99998499999998
 30
0.0
 11
177.49996999999991
 21
-232.0
 31
0.0
  0
TEXT
  5
47
  8
HIBINO-BASE
 62
     7
 10
9.2326549999999816
 20
-254.50460349999989
 30
0.0
 40
9.7730276367187496
  1
A4
 41
0.8
 11
9.2326549999999816
 21
-244.73157586328119
 31
0.0
 73
     3
  0
TEXT
  5
48
  8
HIBINO-BASE
 62
     7
 10
67.569604999999981
 20
-253.98297460000001
 30
0.0
 40
5.4000778125000002
  1
'05.12.
 41
0.8
 11
67.569604999999981
 21
-248.5828967875
 31
0.0
 73
     3
  0
TEXT
  5
49
  8
HIBINO-BASE
 62
     7
 10
49.999984999999981
 20
-257.7721426
 30
0.0
 40
6.515359453124999
  1
3
 41
0.8
 11
49.999984999999981
 21
-251.25678314687499
 31
0.0
 73
     3
  0
ARC
  5
4A
  8
PATTERN_FILL
  6
CONTINUOUS
 62
     7
 10
0.0
 20
213.0
 30
0.0
 40
10.0
 50
44.427004000805702
 51
135.57299599919421
  0
ARC
  5
4B
  8
PATTERN_FILL
  6
CONTINUOUS
 62
     7
 10
0.0
 20
213.0
 30
0.0
 40
11.99999999999998
 50
35.685334712652121
 51
144.31466528734791
  0
ARC
  5
4C
  8
PATTERN_FILL
  6
CONTINUOUS
 62
     7
 10
0.0
 20
213.0
 30
0.0
 40
14.000000000000011
 50
30.000000000000391
 51
150.0
  0
ARC
  5
4D
  8
PATTERN_FILL
  6
CONTINUOUS
 62
     7
 10
0.0
 20
213.0
 30
0.0
 40
15.999999999999989
 50
25.944479772373931
 51
154.0555202276299
  0
ARC
  5
4E
  8
PATTERN_FILL
  6
CONTINUOUS
 62
     7
 10
0.0
 20
213.0
 30
0.0
 40
18.0
 50
22.885380476156119
 51
157.11461952384141
  0
ARC
  5
4F
  8
PATTERN_FILL
  6
CONTINUOUS
 62
     7
 10
0.0
 20
213.0
 30
0.0
 40
20.0
 50
20.487315114723149
 51
159.51268488527731
  0
ARC
  5
50
  8
PATTERN_FILL
  6
CONTINUOUS
 62
     7
 10
0.0
 20
213.0
 30
0.0
 40
21.999999999999989
 50
18.55300453504093
 51
161.46984582378951
  0
ARC
  5
51
  8
PATTERN_FILL
  6
CONTINUOUS
 62
     7
 10
0.0
 20
213.0
 30
0.0
 40
23.999999999999961
 50
16.940727594531591
 51
163.05927240546839
  0
ARC
  5
52
  8
PATTERN_FILL
  6
CONTINUOUS
 62
     7
 10
0.0
 20
213.0
 30
0.0
 40
26.0
 50
16.191351638617022
 51
163.8086483613834
  0
ARC
  5
53
  8
PATTERN_FILL
  6
CONTINUOUS
 62
     7
 10
0.0
 20
213.0
 30
0.0
 40
27.999999999999972
 50
35.475666086133728
 51
144.5243339138662
  0
ARC
  5
54
  8
PATTERN_FILL
  6
CONTINUOUS
 62
     7
 10
0.0
 20
213.0
 30
0.0
 40
29.999999999999979
 50
59.756072044010331
 51
120.24392795598961
  0
LINE
  5
55
  8
PATTERN_FILL
  6
CONTINUOUS
 62
     7
 10
0.0
 20
244.0
 30
0.0
 11
0.0
 21
220.0
 31
0.0
  0
ARC
  5
56
  8
PATTERN_FILL
  6
CONTINUOUS
 62
     7
 10
627.25000000000068
 20
219.00000000000011
 30
0.0
 40
625.25000000000125
 50
177.71992094845569
 51
179.90836348555121
  0
ARC
  5
57
  8
PATTERN_FILL
  6
CONTINUOUS
 62
     7
 10
627.15511396063755
 20
208.1271368332298
 30
0.0
 40
623.25000000000102
 50
176.74520391614229
 51
178.9084553142732
  0
ARC
  5
58
  8
PATTERN_FILL
  6
CONTINUOUS
 62
     7
 10
626.87149958417763
 20
197.295422520057
 30
0.0
 40
621.2500000000008
 50
175.7892465267945
 51
177.90544145148741
  0
ARC
  5
59
  8
PATTERN_FILL
  6
CONTINUOUS
 62
     7
 10
626.40044573234513
 20
186.5064595709197
 30
0.0
 40
619.25000000000068
 50
174.8526984021124
 51
176.8995189384097
  0
ARC
  5
5A
  8
PATTERN_FILL
  6
CONTINUOUS
 62
     7
 10
625.743301353834
 20
175.76224395533271
 30
0.0
 40
617.2500000000008
 50
173.9366644335438
 51
175.8901446122625
  0
ARC
  5
5B
  8
PATTERN_FILL
  6
CONTINUOUS
 62
     7
 10
624.90148115807051
 20
165.0659041969142
 30
0.0
 40
615.25000000000068
 50
173.04292504797331
 51
174.87663243155129
  0
ARC
  5
5C
  8
PATTERN_FILL
  6
CONTINUOUS
 62
     7
 10
623.8764552367777
 20
154.42060298685459
 30
0.0
 40
613.25000000000045
 50
172.17410924840749
 51
173.8612048870709
  0
ARC
  5
5D
  8
PATTERN_FILL
  6
CONTINUOUS
 62
     7
 10
622.66974763606026
 20
143.8294663026787
 30
0.0
 40
611.25000000000068
 50
171.334201161739
 51
172.84152309440961
  0
ARC
  5
5E
  8
PATTERN_FILL
  6
CONTINUOUS
 62
     7
 10
621.28293552303433
 20
133.29558249158549
 30
0.0
 40
609.2500000000008
 50
170.5295968170378
 51
171.81826710974079
  0
ARC
  5
5F
  8
PATTERN_FILL
  6
CONTINUOUS
 62
     7
 10
619.71764833695431
 20
122.8220013716881
 30
0.0
 40
607.25000000000102
 50
169.77162307628089
 51
170.79138338854639
  0
ARC
  5
60
  8
PATTERN_FILL
  6
CONTINUOUS
 62
     7
 10
617.97556692520448
 20
112.4117333514133
 30
0.0
 40
605.2500000000008
 50
169.08417762807241
 51
169.76078039007089
  0
ARC
  5
61
  8
PATTERN_FILL
  6
CONTINUOUS
 62
     7
 10
616.05842266453351
 20
102.06774856731531
 30
0.0
 40
603.25000000000102
 50
168.5419918620411
 51
168.7263851618977
  0
ARC
  5
62
  8
PATTERN_FILL
  6
CONTINUOUS
 62
     7
 10
0.0
 20
-99.926148209694276
 30
0.0
 40
27.999999999999972
 50
29.983855192344841
 51
150.0016185681479
  0
ARC
  5
63
  8
PATTERN_FILL
  6
CONTINUOUS
 62
     7
 10
0.0
 20
-99.926148209694276
 30
0.0
 40
29.999999999999989
 50
45.277662991887993
 51
135.17201981309989
  0
LINE
  5
64
  8
PATTERN_FILL
  6
CONTINUOUS
 62
     7
 10
0.0
 20
-67.0
 30
0.0
 11
0.0
 21
-72.75
 31
0.0
  0
ARC
  5
65
  8
PATTERN_FILL
  6
CONTINUOUS
 62
     7
 10
0.0
 20
-99.926148209694276
 30
0.0
 40
21.999999999999972
 50
21.11735985747195
 51
30.35976514168425
  0
ARC
  5
66
  8
PATTERN_FILL
  6
CONTINUOUS
 62
     7
 10
0.0
 20
-99.926148209694276
 30
0.0
 40
23.999999999999972
 50
19.284325027965298
 51
44.838138377126491
  0
ARC
  5
67
  8
PATTERN_FILL
  6
CONTINUOUS
 62
     7
 10
0.0
 20
-99.926148209694276
 30
0.0
 40
26.0
 50
17.749251326453042
 51
63.315360796917993
  0
ARC
  5
68
  8
PATTERN_FILL
  6
CONTINUOUS
 62
     7
 10
627.25000000000068
 20
-93.926148209694304
 30
0.0
 40
625.2500000000008
 50
177.54474535891799
 51
178.07236328708191
  0
ARC
  5
69
  8
PATTERN_FILL
  6
CONTINUOUS
 62
     7
 10
627.15511396063755
 20
-104.79901137646451
 30
0.0
 40
623.25000000000068
 50
176.56844905993211
 51
177.10603918884411
  0
ARC
  5
6A
  8
PATTERN_FILL
  6
CONTINUOUS
 62
     7
 10
626.8714995841774
 20
-115.6307256896374
 30
0.0
 40
621.2500000000008
 50
175.61212480624059
 51
176.16440140997861
  0
ARC
  5
6B
  8
PATTERN_FILL
  6
CONTINUOUS
 62
     7
 10
626.40044573234491
 20
-126.4196886387746
 30
0.0
 40
619.25000000000057
 50
174.6803231384614
 51
175.24931768033181
  0
ARC
  5
6C
  8
PATTERN_FILL
  6
CONTINUOUS
 62
     7
 10
625.74330135383389
 20
-137.1639042543616
 30
0.0
 40
617.25000000000045
 50
173.76678532326341
 51
174.36406450510981
  0
ARC
  5
6D
  8
PATTERN_FILL
  6
CONTINUOUS
 62
     7
 10
624.90148115807028
 20
-147.8602440127801
 30
0.0
 40
615.25000000000057
 50
172.8765067326768
 51
173.5143776862555
  0
ARC
  5
6E
  8
PATTERN_FILL
  6
CONTINUOUS
 62
     7
 10
623.8764552367777
 20
-158.50554522283969
 30
0.0
 40
613.2500000000008
 50
172.01194765859
 51
172.71076855907111
  0
ARC
  5
6F
  8
PATTERN_FILL
  6
CONTINUOUS
 62
     7
 10
622.66974763606004
 20
-169.09668190701561
 30
0.0
 40
611.25000000000068
 50
171.17785922683811
 51
171.97605915166201
  0
ARC
  5
70
  8
PATTERN_FILL
  6
CONTINUOUS
 62
     7
 10
621.28293552303433
 20
-179.6305657181087
 30
0.0
 40
609.25000000000114
 50
170.3812365926569
 51
171.38572827999889
  0
ARC
  5
71
  8
PATTERN_FILL
  6
CONTINUOUS
 62
     7
 10
619.71764833695386
 20
-190.10414683800619
 30
0.0
 40
607.25000000000068
 50
169.6352312875961
 51
170.7028466230787
  0
ARC
  5
72
  8
PATTERN_FILL
  6
CONTINUOUS
 62
     7
 10
617.97556692520448
 20
-200.51441485828099
 30
0.0
 40
605.2500000000008
 50
168.96801662507141
 51
169.67167547154281
  0
ARC
  5
73
  8
PATTERN_FILL
  6
CONTINUOUS
 62
     7
 10
616.05842266453317
 20
-210.85839964237911
 30
0.0
 40
603.25000000000068
 50
168.48477727827441
 51
168.6366599455913
  0
ARC
  5
74
  8
PATTERN_FILL
  6
CONTINUOUS
 62
     7
 10
0.0
 20
-99.926148209694276
 30
0.0
 40
21.999999999999972
 50
149.64023485831569
 51
158.882640142528
  0
ARC
  5
75
  8
PATTERN_FILL
  6
CONTINUOUS
 62
     7
 10
0.0
 20
-99.926148209694276
 30
0.0
 40
23.999999999999972
 50
135.16186162287349
 51
160.71567497203469
  0
ARC
  5
76
  8
PATTERN_FILL
  6
CONTINUOUS
 62
     7
 10
0.0
 20
-99.926148209694276
 30
0.0
 40
26.0
 50
116.684639203082
 51
162.25074867354689
  0
ARC
  5
77
  8
PATTERN_FILL
  6
CONTINUOUS
 62
     7
 10
-627.25000000000068
 20
-93.926148209694304
 30
0.0
 40
625.2500000000008
 50
1.927636712918156
 51
2.4552546410819831
  0
ARC
  5
78
  8
PATTERN_FILL
  6
CONTINUOUS
 62
     7
 10
-627.15511396063755
 20
-104.79901137646451
 30
0.0
 40
623.25000000000068
 50
2.8939608111559059
 51
3.43155094006794
  0
ARC
  5
79
  8
PATTERN_FILL
  6
CONTINUOUS
 62
     7
 10
-626.8714995841774
 20
-115.6307256896374
 30
0.0
 40
621.2500000000008
 50
3.835598590021311
 51
4.3878751937593732
  0
ARC
  5
7A
  8
PATTERN_FILL
  6
CONTINUOUS
 62
     7
 10
-626.40044573234491
 20
-126.4196886387746
 30
0.0
 40
619.25000000000057
 50
4.7506823196681527
 51
5.3196768615385741
  0
ARC
  5
7B
  8
PATTERN_FILL
  6
CONTINUOUS
 62
     7
 10
-625.74330135383389
 20
-137.1639042543616
 30
0.0
 40
617.25000000000045
 50
5.6359354948901554
 51
6.2332146767365826
  0
ARC
  5
7C
  8
PATTERN_FILL
  6
CONTINUOUS
 62
     7
 10
-624.90148115807028
 20
-147.8602440127801
 30
0.0
 40
615.25000000000057
 50
6.4856223137444946
 51
7.1234932673232461
  0
ARC
  5
7D
  8
PATTERN_FILL
  6
CONTINUOUS
 62
     7
 10
-623.8764552367777
 20
-158.50554522283969
 30
0.0
 40
613.2500000000008
 50
7.2892314409288979
 51
7.988052341410051
  0
ARC
  5
7E
  8
PATTERN_FILL
  6
CONTINUOUS
 62
     7
 10
-622.66974763606004
 20
-169.09668190701561
 30
0.0
 40
611.25000000000068
 50
8.0239408483380021
 51
8.8221407731618324
  0
ARC
  5
7F
  8
PATTERN_FILL
  6
CONTINUOUS
 62
     7
 10
-621.28293552303433
 20
-179.6305657181087
 30
0.0
 40
609.25000000000114
 50
8.6142717200010903
 51
9.6187634073431401
  0
ARC
  5
80
  8
PATTERN_FILL
  6
CONTINUOUS
 62
     7
 10
-619.71764833695386
 20
-190.10414683800619
 30
0.0
 40
607.25000000000068
 50
9.2971533769213561
 51
10.36476871240389
  0
ARC
  5
81
  8
PATTERN_FILL
  6
CONTINUOUS
 62
     7
 10
-617.97556692520448
 20
-200.51441485828099
 30
0.0
 40
605.2500000000008
 50
10.328324528457211
 51
11.03198337492865
  0
ARC
  5
82
  8
PATTERN_FILL
  6
CONTINUOUS
 62
     7
 10
-616.05842266453317
 20
-210.85839964237911
 30
0.0
 40
603.25000000000068
 50
11.36334005440874
 51
11.51522272172565
  0
ARC
  5
83
  8
PATTERN_FILL
  6
CONTINUOUS
 62
     7
 10
0.0
 20
-84.073851790305739
 30
0.0
 40
27.999999999999972
 50
209.9983814318521
 51
330.01614480765522
  0
ARC
  5
84
  8
PATTERN_FILL
  6
CONTINUOUS
 62
     7
 10
0.0
 20
-84.073851790305739
 30
0.0
 40
29.999999999999989
 50
224.82798018690019
 51
314.72233700811199
  0
LINE
  5
85
  8
PATTERN_FILL
  6
CONTINUOUS
 62
     7
 10
0.0
 20
-117.0
 30
0.0
 11
0.0
 21
-111.25
 31
0.0
  0
ARC
  5
86
  8
PATTERN_FILL
  6
CONTINUOUS
 62
     7
 10
0.0
 20
-84.073851790305739
 30
0.0
 40
21.999999999999972
 50
329.64023485831569
 51
338.88264014252809
  0
ARC
  5
87
  8
PATTERN_FILL
  6
CONTINUOUS
 62
     7
 10
0.0
 20
-84.073851790305739
 30
0.0
 40
23.999999999999972
 50
315.16186162287352
 51
340.71567497203461
  0
ARC
  5
88
  8
PATTERN_FILL
  6
CONTINUOUS
 62
     7
 10
0.0
 20
-84.073851790305739
 30
0.0
 40
26.0
 50
296.68463920308199
 51
342.25074867354692
  0
ARC
  5
89
  8
PATTERN_FILL
  6
CONTINUOUS
 62
     7
 10
627.25000000000068
 20
-90.073851790305653
 30
0.0
 40
625.2500000000008
 50
181.92763671291809
 51
182.45525464108201
  0
ARC
  5
8A
  8
PATTERN_FILL
  6
CONTINUOUS
 62
     7
 10
627.15511396063755
 20
-79.200988623535423
 30
0.0
 40
623.25000000000068
 50
182.89396081115589
 51
183.43155094006789
  0
ARC
  5
8B
  8
PATTERN_FILL
  6
CONTINUOUS
 62
     7
 10
626.8714995841774
 20
-68.369274310362613
 30
0.0
 40
621.2500000000008
 50
183.83559859002131
 51
184.38787519375941
  0
ARC
  5
8C
  8
PATTERN_FILL
  6
CONTINUOUS
 62
     7
 10
626.40044573234491
 20
-57.580311361225348
 30
0.0
 40
619.25000000000057
 50
184.7506823196681
 51
185.31967686153851
  0
ARC
  5
8D
  8
PATTERN_FILL
  6
CONTINUOUS
 62
     7
 10
625.74330135383389
 20
-46.836095745638367
 30
0.0
 40
617.25000000000045
 50
185.63593549489011
 51
186.23321467673651
  0
ARC
  5
8E
  8
PATTERN_FILL
  6
CONTINUOUS
 62
     7
 10
624.90148115807028
 20
-36.139755987219871
 30
0.0
 40
615.25000000000057
 50
186.4856223137445
 51
187.1234932673232
  0
ARC
  5
8F
  8
PATTERN_FILL
  6
CONTINUOUS
 62
     7
 10
623.8764552367777
 20
-25.494454777160289
 30
0.0
 40
613.2500000000008
 50
187.28923144092889
 51
187.98805234141
  0
ARC
  5
90
  8
PATTERN_FILL
  6
CONTINUOUS
 62
     7
 10
622.66974763606004
 20
-14.90331809298436
 30
0.0
 40
611.25000000000068
 50
188.02394084833799
 51
188.82214077316181
  0
ARC
  5
91
  8
PATTERN_FILL
  6
CONTINUOUS
 62
     7
 10
621.28293552303433
 20
-4.3694342818912437
 30
0.0
 40
609.25000000000114
 50
188.61427172000111
 51
189.6187634073431
  0
ARC
  5
92
  8
PATTERN_FILL
  6
CONTINUOUS
 62
     7
 10
619.71764833695386
 20
6.1041468380062707
 30
0.0
 40
607.25000000000068
 50
189.29715337692139
 51
190.36476871240399
  0
ARC
  5
93
  8
PATTERN_FILL
  6
CONTINUOUS
 62
     7
 10
617.97556692520448
 20
16.51441485828105
 30
0.0
 40
605.2500000000008
 50
190.32832452845719
 51
191.0319833749287
  0
ARC
  5
94
  8
PATTERN_FILL
  6
CONTINUOUS
 62
     7
 10
616.05842266453317
 20
26.85839964237914
 30
0.0
 40
603.25000000000068
 50
191.3633400544087
 51
191.51522272172559
  0
ARC
  5
95
  8
PATTERN_FILL
  6
CONTINUOUS
 62
     7
 10
0.0
 20
-84.073851790305739
 30
0.0
 40
21.999999999999972
 50
201.11735985747191
 51
210.35976514168419
  0
ARC
  5
96
  8
PATTERN_FILL
  6
CONTINUOUS
 62
     7
 10
0.0
 20
-84.073851790305739
 30
0.0
 40
23.999999999999972
 50
199.28432502796531
 51
224.83813837712651
  0
ARC
  5
97
  8
PATTERN_FILL
  6
CONTINUOUS
 62
     7
 10
0.0
 20
-84.073851790305739
 30
0.0
 40
26.0
 50
197.74925132645299
 51
243.31536079691799
  0
ARC
  5
98
  8
PATTERN_FILL
  6
CONTINUOUS
 62
     7
 10
-627.25000000000068
 20
-90.073851790305653
 30
0.0
 40
625.2500000000008
 50
357.54474535891802
 51
358.07236328708183
  0
ARC
  5
99
  8
PATTERN_FILL
  6
CONTINUOUS
 62
     7
 10
-627.15511396063755
 20
-79.200988623535423
 30
0.0
 40
623.25000000000068
 50
356.56844905993211
 51
357.10603918884408
  0
ARC
  5
9A
  8
PATTERN_FILL
  6
CONTINUOUS
 62
     7
 10
-626.8714995841774
 20
-68.369274310362613
 30
0.0
 40
621.2500000000008
 50
355.61212480624062
 51
356.16440140997872
  0
ARC
  5
9B
  8
PATTERN_FILL
  6
CONTINUOUS
 62
     7
 10
-626.40044573234491
 20
-57.580311361225348
 30
0.0
 40
619.25000000000057
 50
354.68032313846152
 51
355.2493176803319
  0
ARC
  5
9C
  8
PATTERN_FILL
  6
CONTINUOUS
 62
     7
 10
-625.74330135383389
 20
-46.836095745638367
 30
0.0
 40
617.25000000000045
 50
353.76678532326349
 51
354.36406450510981
  0
ARC
  5
9D
  8
PATTERN_FILL
  6
CONTINUOUS
 62
     7
 10
-624.90148115807028
 20
-36.139755987219871
 30
0.0
 40
615.25000000000057
 50
352.87650673267689
 51
353.51437768625539
  0
ARC
  5
9E
  8
PATTERN_FILL
  6
CONTINUOUS
 62
     7
 10
-623.8764552367777
 20
-25.494454777160289
 30
0.0
 40
613.2500000000008
 50
352.01194765858997
 51
352.7107685590712
  0
ARC
  5
9F
  8
PATTERN_FILL
  6
CONTINUOUS
 62
     7
 10
-622.66974763606004
 20
-14.90331809298436
 30
0.0
 40
611.25000000000068
 50
351.17785922683811
 51
351.97605915166201
  0
ARC
  5
A0
  8
PATTERN_FILL
  6
CONTINUOUS
 62
     7
 10
-621.28293552303433
 20
-4.3694342818912437
 30
0.0
 40
609.25000000000114
 50
350.38123659265682
 51
351.385728279999
  0
ARC
  5
A1
  8
PATTERN_FILL
  6
CONTINUOUS
 62
     7
 10
-619.71764833695386
 20
6.1041468380062707
 30
0.0
 40
607.25000000000068
 50
349.63523128759613
 51
350.70284662307859
  0
ARC
  5
A2
  8
PATTERN_FILL
  6
CONTINUOUS
 62
     7
 10
-617.97556692520448
 20
16.51441485828105
 30
0.0
 40
605.2500000000008
 50
348.9680166250713
 51
349.67167547154293
  0
ARC
  5
A3
  8
PATTERN_FILL
  6
CONTINUOUS
 62
     7
 10
-616.05842266453317
 20
26.85839964237914
 30
0.0
 40
603.25000000000068
 50
348.48477727827441
 51
348.6366599455913
  0
ARC
  5
A4
  8
PATTERN_FILL
  6
CONTINUOUS
 62
     7
 10
0.0
 20
-99.926148209694276
 30
0.0
 40
31.999999999999989
 50
65.561245320537409
 51
114.4387546794626
  0
ARC
  5
A5
  8
PATTERN_FILL
  6
CONTINUOUS
 62
     7
 10
0.0
 20
-84.073851790305739
 30
0.0
 40
31.999999999999972
 50
245.56124532053749
 51
294.43875467946248
  0
ARC
  5
A6
  8
PATTERN_FILL
  6
CONTINUOUS
 62
     7
 10
0.0
 20
211.00000000000011
 30
0.0
 40
10.0
 50
64.15806723683211
 51
115.8419327631678
  0
ARC
  5
A7
  8
PATTERN_FILL
  6
CONTINUOUS
 62
     7
 10
-627.25000000000068
 20
219.00000000000011
 30
0.0
 40
625.25000000000102
 50
0.091636514448776
 51
2.2800790515442699
  0
ARC
  5
A8
  8
PATTERN_FILL
  6
CONTINUOUS
 62
     7
 10
-627.15511396063755
 20
208.1271368332298
 30
0.0
 40
623.25000000000068
 50
1.0915446857268221
 51
3.254796083857681
  0
ARC
  5
A9
  8
PATTERN_FILL
  6
CONTINUOUS
 62
     7
 10
-626.87149958417763
 20
197.295422520057
 30
0.0
 40
621.2500000000008
 50
2.094558548512667
 51
4.2107534732055187
  0
ARC
  5
AA
  8
PATTERN_FILL
  6
CONTINUOUS
 62
     7
 10
-626.40044573234513
 20
186.5064595709197
 30
0.0
 40
619.25000000000068
 50
3.1004810615902869
 51
5.1473015978875196
  0
ARC
  5
AB
  8
PATTERN_FILL
  6
CONTINUOUS
 62
     7
 10
-625.743301353834
 20
175.76224395533271
 30
0.0
 40
617.2500000000008
 50
4.1098553877374604
 51
6.0633355664561481
  0
ARC
  5
AC
  8
PATTERN_FILL
  6
CONTINUOUS
 62
     7
 10
-624.90148115807051
 20
165.0659041969142
 30
0.0
 40
615.25000000000068
 50
5.1233675684486331
 51
6.9570749520266437
  0
ARC
  5
AD
  8
PATTERN_FILL
  6
CONTINUOUS
 62
     7
 10
-623.8764552367777
 20
154.42060298685459
 30
0.0
 40
613.25000000000045
 50
6.138795112929091
 51
7.8258907515925147
  0
ARC
  5
AE
  8
PATTERN_FILL
  6
CONTINUOUS
 62
     7
 10
-622.66974763606026
 20
143.8294663026787
 30
0.0
 40
611.25000000000068
 50
7.1584769055903283
 51
8.6657988382610398
  0
ARC
  5
AF
  8
PATTERN_FILL
  6
CONTINUOUS
 62
     7
 10
-621.28293552303433
 20
133.29558249158549
 30
0.0
 40
609.2500000000008
 50
8.1817328902591822
 51
9.4704031829621673
  0
ARC
  5
B0
  8
PATTERN_FILL
  6
CONTINUOUS
 62
     7
 10
-619.71764833695431
 20
122.8220013716881
 30
0.0
 40
607.25000000000068
 50
9.2086166114535555
 51
10.22837692371905
  0
ARC
  5
B1
  8
PATTERN_FILL
  6
CONTINUOUS
 62
     7
 10
-617.97556692520448
 20
112.4117333514133
 30
0.0
 40
605.2500000000008
 50
10.239219609929179
 51
10.915822371927661
  0
ARC
  5
B2
  8
PATTERN_FILL
  6
CONTINUOUS
 62
     7
 10
-616.05842266453351
 20
102.06774856731531
 30
0.0
 40
603.25000000000068
 50
11.27361483810231
 51
11.45800813795884
  0
ARC
  5
B3
  8
PATTERN_FILL
  6
CONTINUOUS
 62
     7
 10
0.0
 20
223.00000000000011
 30
0.0
 40
10.0
 50
224.42700400080571
 51
315.57299599919418
  0
ARC
  5
B4
  8
PATTERN_FILL
  6
CONTINUOUS
 62
     7
 10
0.0
 20
223.00000000000011
 30
0.0
 40
11.99999999999998
 50
215.68533471265209
 51
324.31466528734802
  0
ARC
  5
B5
  8
PATTERN_FILL
  6
CONTINUOUS
 62
     7
 10
0.0
 20
223.00000000000011
 30
0.0
 40
14.000000000000011
 50
210.0
 51
329.99999999999972
  0
ARC
  5
B6
  8
PATTERN_FILL
  6
CONTINUOUS
 62
     7
 10
0.0
 20
223.00000000000011
 30
0.0
 40
15.999999999999989
 50
205.94447977236999
 51
334.05552022762612
  0
ARC
  5
B7
  8
PATTERN_FILL
  6
CONTINUOUS
 62
     7
 10
0.0
 20
223.00000000000011
 30
0.0
 40
18.0
 50
202.88538047615859
 51
337.11461952384388
  0
ARC
  5
B8
  8
PATTERN_FILL
  6
CONTINUOUS
 62
     7
 10
0.0
 20
223.00000000000011
 30
0.0
 40
20.0
 50
200.48731511472269
 51
339.51268488527683
  0
ARC
  5
B9
  8
PATTERN_FILL
  6
CONTINUOUS
 62
     7
 10
0.0
 20
223.00000000000011
 30
0.0
 40
21.999999999999972
 50
198.53015417621049
 51
341.446995464959
  0
ARC
  5
BA
  8
PATTERN_FILL
  6
CONTINUOUS
 62
     7
 10
0.0
 20
223.00000000000011
 30
0.0
 40
23.999999999999961
 50
196.9407275945315
 51
253.46894670679441
  0
ARC
  5
BB
  8
PATTERN_FILL
  6
CONTINUOUS
 62
     7
 10
0.0
 20
223.00000000000011
 30
0.0
 40
23.999999999999961
 50
286.53105329320613
 51
343.05927240546839
  0
ARC
  5
BC
  8
PATTERN_FILL
  6
CONTINUOUS
 62
     7
 10
0.0
 20
223.00000000000011
 30
0.0
 40
26.0
 50
196.614303122248
 51
242.20422750397211
  0
ARC
  5
BD
  8
PATTERN_FILL
  6
CONTINUOUS
 62
     7
 10
0.0
 20
223.00000000000011
 30
0.0
 40
26.0
 50
297.79577249602812
 51
343.38569687775208
  0
ARC
  5
BE
  8
PATTERN_FILL
  6
CONTINUOUS
 62
     7
 10
0.0
 20
223.00000000000011
 30
0.0
 40
27.999999999999972
 50
213.90717311924169
 51
235.22805596805159
  0
ARC
  5
BF
  8
PATTERN_FILL
  6
CONTINUOUS
 62
     7
 10
0.0
 20
223.00000000000011
 30
0.0
 40
27.999999999999972
 50
304.77194403194829
 51
326.00716260293279
  0
LINE
  5
C0
  8
PATTERN_FILL
  6
CONTINUOUS
 62
     7
 10
0.0
 20
200.0
 30
0.0
 11
0.0
 21
216.00000000000011
 31
0.0
  0
ARC
  5
C1
  8
PATTERN_FILL
  6
CONTINUOUS
 62
     7
 10
627.25000000000068
 20
217.0
 30
0.0
 40
625.25000000000125
 50
180.09163651444871
 51
181.55801407407199
  0
ARC
  5
C2
  8
PATTERN_FILL
  6
CONTINUOUS
 62
     7
 10
627.15511396063755
 20
227.87286316677029
 30
0.0
 40
623.25000000000102
 50
181.0915446857268
 51
182.56322542334681
  0
ARC
  5
C3
  8
PATTERN_FILL
  6
CONTINUOUS
 62
     7
 10
626.87149958417763
 20
238.704577479943
 30
0.0
 40
621.2500000000008
 50
182.09455854851259
 51
183.5719050810259
  0
ARC
  5
C4
  8
PATTERN_FILL
  6
CONTINUOUS
 62
     7
 10
626.40044573234513
 20
249.49354042908041
 30
0.0
 40
619.25000000000102
 50
183.1004810615903
 51
184.5842532794687
  0
ARC
  5
C5
  8
PATTERN_FILL
  6
CONTINUOUS
 62
     7
 10
625.743301353834
 20
260.23775604466732
 30
0.0
 40
617.2500000000008
 50
184.10985538773741
 51
185.60043940803601
  0
ARC
  5
C6
  8
PATTERN_FILL
  6
CONTINUOUS
 62
     7
 10
624.90148115807051
 20
270.93409580308588
 30
0.0
 40
615.25000000000068
 50
185.1233675684486
 51
186.6205323933809
  0
ARC
  5
C7
  8
PATTERN_FILL
  6
CONTINUOUS
 62
     7
 10
623.8764552367777
 20
281.5793970131453
 30
0.0
 40
613.25000000000045
 50
186.1387951129291
 51
187.64460184417081
  0
ARC
  5
C8
  8
PATTERN_FILL
  6
CONTINUOUS
 62
     7
 10
622.66974763606026
 20
292.17053369732122
 30
0.0
 40
611.25000000000068
 50
187.15847690559031
 51
188.6727248406977
  0
ARC
  5
C9
  8
PATTERN_FILL
  6
CONTINUOUS
 62
     7
 10
621.28293552303433
 20
302.70441750841451
 30
0.0
 40
609.2500000000008
 50
188.18173289025921
 51
189.5056402057586
  0
ARC
  5
CA
  8
PATTERN_FILL
  6
CONTINUOUS
 62
     7
 10
619.71764833695431
 20
313.17799862831203
 30
0.0
 40
607.25000000000068
 50
189.20861661145349
 51
190.25934627179279
  0
ARC
  5
CB
  8
PATTERN_FILL
  6
CONTINUOUS
 62
     7
 10
617.97556692520448
 20
323.5882666485868
 30
0.0
 40
605.2500000000008
 50
190.23921960992919
 51
190.93855274996881
  0
ARC
  5
CC
  8
PATTERN_FILL
  6
CONTINUOUS
 62
     7
 10
616.05842266453351
 20
333.93225143268478
 30
0.0
 40
603.25000000000068
 50
191.27361483810239
 51
191.45800813795881
  0
ARC
  5
CD
  8
PATTERN_FILL
  6
CONTINUOUS
 62
     7
 10
0.0
 20
225.0
 30
0.0
 40
9.9999999999999982
 50
244.1580672368321
 51
295.84193276316779
  0
ARC
  5
CE
  8
PATTERN_FILL
  6
CONTINUOUS
 62
     7
 10
-627.25000000000068
 20
217.0
 30
0.0
 40
625.25000000000102
 50
358.44198592592761
 51
359.90836348555092
  0
ARC
  5
CF
  8
PATTERN_FILL
  6
CONTINUOUS
 62
     7
 10
-627.15511396063755
 20
227.87286316677029
 30
0.0
 40
623.25000000000068
 50
357.43677457665183
 51
358.90845531427323
  0
ARC
  5
D0
  8
PATTERN_FILL
  6
CONTINUOUS
 62
     7
 10
-626.87149958417763
 20
238.704577479943
 30
0.0
 40
621.2500000000008
 50
356.42735789610208
 51
357.90544145148749
  0
ARC
  5
D1
  8
PATTERN_FILL
  6
CONTINUOUS
 62
     7
 10
-626.40044573234513
 20
249.49354042908041
 30
0.0
 40
619.25000000000068
 50
355.41574672053139
 51
356.89951893840959
  0
ARC
  5
D2
  8
PATTERN_FILL
  6
CONTINUOUS
 62
     7
 10
-625.743301353834
 20
260.23775604466732
 30
0.0
 40
617.25000000000045
 50
354.39956059194952
 51
355.89014461226247
  0
ARC
  5
D3
  8
PATTERN_FILL
  6
CONTINUOUS
 62
     7
 10
-624.90148115807051
 20
270.93409580308588
 30
0.0
 40
615.25000000000068
 50
353.3794676066197
 51
354.87663243155117
  0
ARC
  5
D4
  8
PATTERN_FILL
  6
CONTINUOUS
 62
     7
 10
-623.8764552367777
 20
281.5793970131453
 30
0.0
 40
613.25000000000045
 50
352.35539815582882
 51
353.86120488707093
  0
ARC
  5
D5
  8
PATTERN_FILL
  6
CONTINUOUS
 62
     7
 10
-622.66974763606026
 20
292.17053369732122
 30
0.0
 40
611.25000000000068
 50
351.33420116173897
 51
352.84152309440969
  0
ARC
  5
D6
  8
PATTERN_FILL
  6
CONTINUOUS
 62
     7
 10
-621.28293552303433
 20
302.70441750841451
 30
0.0
 40
609.2500000000008
 50
350.49435979427039
 51
351.81826710974099
  0
ARC
  5
D7
  8
PATTERN_FILL
  6
CONTINUOUS
 62
     7
 10
-619.71764833695431
 20
313.17799862831203
 30
0.0
 40
607.25000000000068
 50
349.74065372820638
 51
350.79138338854659
  0
ARC
  5
D8
  8
PATTERN_FILL
  6
CONTINUOUS
 62
     7
 10
-617.97556692520448
 20
323.5882666485868
 30
0.0
 40
605.2500000000008
 50
349.06144725001388
 51
349.76078039007092
  0
ARC
  5
D9
  8
PATTERN_FILL
  6
CONTINUOUS
 62
     7
 10
-616.05842266453351
 20
333.93225143268478
 30
0.0
 40
603.25000000000068
 50
348.54199186204119
 51
348.72638516189772
  0
LINE
  5
DA
  8
SPEC
  6
CONTINUOUS
 62
     7
 10
-250.0
 20
488.0
 30
0.0
 11
110.0
 21
488.0
 31
0.0
  0
LINE
  5
DB
  8
SPEC
  6
CONTINUOUS
 62
     7
 10
-250.0
 20
476.75
 30
0.0
 11
110.0
 21
476.75
 31
0.0
  0
LINE
  5
DC
  8
SPEC
  6
CONTINUOUS
 62
     7
 10
-250.0
 20
431.74999999999989
 30
0.0
 11
110.0
 21
431.74999999999989
 31
0.0
  0
LINE
  5
DD
  8
SPEC
  6
CONTINUOUS
 62
     7
 10
-250.0
 20
443.0
 30
0.0
 11
110.0
 21
443.0
 31
0.0
  0
LINE
  5
DE
  8
SPEC
  6
CONTINUOUS
 62
     7
 10
-250.0
 20
454.25
 30
0.0
 11
110.0
 21
454.25
 31
0.0
  0
LINE
  5
DF
  8
SPEC
  6
CONTINUOUS
 62
     7
 10
-250.0
 20
420.5
 30
0.0
 11
110.0
 21
420.5
 31
0.0
  0
LINE
  5
E0
  8
SPEC
  6
CONTINUOUS
 62
     7
 10
-250.0
 20
398.0
 30
0.0
 11
110.0
 21
398.0
 31
0.0
  0
LINE
  5
E1
  8
SPEC
  6
CONTINUOUS
 62
     7
 10
-250.0
 20
409.25
 30
0.0
 11
110.0
 21
409.25
 31
0.0
  0
LINE
  5
E2
  8
SPEC
  6
CONTINUOUS
 62
     7
 10
-250.0
 20
375.5
 30
0.0
 11
110.0
 21
375.5
 31
0.0
  0
LINE
  5
E3
  8
SPEC
  6
CONTINUOUS
 62
     7
 10
-250.0
 20
465.5
 30
0.0
 11
110.0
 21
465.5
 31
0.0
  0
TEXT
  5
E4
  8
SPEC
 62
     7
 10
-149.80000000000001
 20
479.11373833333329
 30
0.0
 40
5.7009440104166673
  1
F3E
 41
0.8
 11
-149.80000000000001
 21
484.81468234375001
 31
0.0
 73
     3
  0
LINE
  5
E5
  8
SPEC
  6
CONTINUOUS
 62
     7
 10
-250.0
 20
488.0
 30
0.0
 11
-250.0
 21
341.75
 31
0.0
  0
TEXT
  5
E6
  8
SPEC
 62
     7
 10
-246.25
 20
492.1797949999999
 30
0.0
 40
7.3297851562499989
  1
仕様
 41
0.8
 11
-246.25
 21
499.50958015624991
 31
0.0
 73
     3
  0
LINE
  5
E7
  8
SPEC
  6
CONTINUOUS
 62
     7
 10
-152.5
 20
488.0
 30
0.0
 11
-152.5
 21
341.75
 31
0.0
  0
LINE
  5
E8
  8
SPEC
  6
CONTINUOUS
 62
     7
 10
110.0
 20
488.0
 30
0.0
 11
110.0
 21
341.75
 31
0.0
  0
TEXT
  5
E9
  8
SPEC
 62
     7
 10
-149.80000000000001
 20
389.11375333333331
 30
0.0
 40
5.7009440104166673
  1
+2dBV(ゲイン調整スイッチ[-10dB]時)
 41
0.8
 11
-149.80000000000001
 21
394.81469734375003
 31
0.0
 73
     3
  0
TEXT
  5
EA
  8
SPEC
 62
     7
 10
-247.30000000000001
 20
434.11375333333331
 30
0.0
 40
5.7009440104166673
  1
アンテナ形式
 41
0.8
 11
-247.30000000000001
 21
439.81469734375003
 31
0.0
 73
     3
  0
TEXT
  5
EB
  8
SPEC
 62
     7
 10
-247.30000000000001
 20
479.11373833333329
 30
0.0
 40
5.7009440104166673
  1
電波型式
 41
0.8
 11
-247.30000000000001
 21
484.81468234375001
 31
0.0
 73
     3
  0
TEXT
  5
EC
  8
SPEC
 62
     7
 10
-247.30000000000001
 20
411.61375333333342
 30
0.0
 40
5.7009440104166673
  1
トーン信号周波数
 41
0.8
 11
-247.30000000000001
 21
417.31469734375003
 31
0.0
 73
     3
  0
TEXT
  5
ED
  8
SPEC
 62
     7
 10
-247.30000000000001
 20
400.36375333333331
 30
0.0
 40
5.7009440104166673
  1
周波数特性
 41
0.8
 11
-247.30000000000001
 21
406.06469734375003
 31
0.0
 73
     3
  0
TEXT
  5
EE
  8
SPEC
 62
     7
 10
-247.30000000000001
 20
445.36375333333331
 30
0.0
 40
5.7009440104166673
  1
空中線電力
 41
0.8
 11
-247.30000000000001
 21
451.06469734375003
 31
0.0
 73
     3
  0
TEXT
  5
EF
  8
SPEC
 62
     7
 10
-247.30000000000001
 20
422.86375333333331
 30
0.0
 40
5.7009440104166673
  1
到達距離
 41
0.8
 11
-247.30000000000001
 21
428.56469734375003
 31
0.0
 73
     3
  0
TEXT
  5
F0
  8
SPEC
 62
     7
 10
-247.30000000000001
 20
467.86375333333342
 30
0.0
 40
5.7009440104166673
  1
送信周波数
 41
0.8
 11
-247.30000000000001
 21
473.56469734375003
 31
0.0
 73
     3
  0
TEXT
  5
F1
  8
SPEC
 62
     7
 10
-247.30000000000001
 20
456.61375333333331
 30
0.0
 40
5.7009440104166673
  1
発振方式
 41
0.8
 11
-247.30000000000001
 21
462.31469734375003
 31
0.0
 73
     3
  0
TEXT
  5
F2
  8
SPEC
 62
     7
 10
-247.30000000000001
 20
389.11375333333331
 30
0.0
 40
5.7009440104166673
  1
最大入力レベル
 41
0.8
 11
-247.30000000000001
 21
394.81469734375003
 31
0.0
 73
     3
  0
TEXT
  5
F3
  8
SPEC
 62
     7
 10
-149.80000000000001
 20
434.11375333333331
 30
0.0
 40
5.7009440104166673
  1
内蔵式
 41
0.8
 11
-149.80000000000001
 21
439.81469734375003
 31
0.0
 73
     3
  0
TEXT
  5
F4
  8
SPEC
 62
     7
 10
-149.80000000000001
 20
411.61375333333342
 30
0.0
 40
5.7009440104166673
  1
32.768kHz
 41
0.8
 11
-149.80000000000001
 21
417.31469734375003
 31
0.0
 73
     3
  0
TEXT
  5
F5
  8
SPEC
 62
     7
 10
-149.80000000000001
 20
400.36375333333331
 30
0.0
 40
5.7009440104166673
  1
45Hz～15kHz(±2dB)
 41
0.8
 11
-149.80000000000001
 21
406.06469734375003
 31
0.0
 73
     3
  0
TEXT
  5
F6
  8
SPEC
 62
     7
 10
-149.80000000000001
 20
445.36375333333331
 30
0.0
 40
5.7009440104166673
  1
10mW
 41
0.8
 11
-149.80000000000001
 21
451.06469734375003
 31
0.0
 73
     3
  0
TEXT
  5
F7
  8
SPEC
 62
     7
 10
-149.80000000000001
 20
422.86375333333331
 30
0.0
 40
5.7009440104166673
  1
約60m(標準環境における最大値)
 41
0.8
 11
-149.80000000000001
 21
428.56469734375003
 31
0.0
 73
     3
  0
TEXT
  5
F8
  8
SPEC
 62
     7
 10
-149.80000000000001
 20
456.61375333333331
 30
0.0
 40
5.7009440104166673
  1
水晶制御PLLシンセサイザー方式
 41
0.8
 11
-149.80000000000001
 21
462.31469734375003
 31
0.0
 73
     3
  0
TEXT
  5
F9
  8
SPEC
 62
     7
 10
-149.80000000000001
 20
467.86375333333342
 30
0.0
 40
5.7009440104166673
  1
B型 (806～810MHz)30チャンネルのうち任意の1チャンネル
 41
0.8
 11
-149.80000000000001
 21
473.56469734375003
 31
0.0
 73
     3
  0
LINE
  5
FA
  8
SPEC
  6
CONTINUOUS
 62
     7
 10
-250.0
 20
364.25
 30
0.0
 11
110.0
 21
364.25
 31
0.0
  0
LINE
  5
FB
  8
SPEC
  6
CONTINUOUS
 62
     7
 10
-250.0
 20
353.0
 30
0.0
 11
110.0
 21
353.0
 31
0.0
  0
TEXT
  5
FC
  8
SPEC
 62
     7
 10
-149.80000000000001
 20
366.61375333333342
 30
0.0
 40
5.7009440104166673
  1
単3形アルカリ乾電池×2、または単3形ニッケル水素充電池×2
 41
0.8
 11
-149.80000000000001
 21
372.31469734375003
 31
0.0
 73
     3
  0
TEXT
  5
FD
  8
SPEC
 62
     7
 10
-247.30000000000001
 20
366.61375333333342
 30
0.0
 40
5.7009440104166673
  1
電源
 41
0.8
 11
-247.30000000000001
 21
372.31469734375003
 31
0.0
 73
     3
  0
LINE
  5
FE
  8
SPEC
  6
CONTINUOUS
 62
     7
 10
-250.0
 20
341.75
 30
0.0
 11
110.0
 21
341.75
 31
0.0
  0
TEXT
  5
FF
  8
SPEC
 62
     7
 10
-149.80000000000001
 20
355.36375333333342
 30
0.0
 40
5.7009440104166647
  1
φ53×244mm
 41
0.8
 11
-149.80000000000001
 21
361.06469734375003
 31
0.0
 73
     3
  0
TEXT
  5
100
  8
SPEC
 62
     7
 10
-247.30000000000001
 20
355.36375333333342
 30
0.0
 40
5.7009440104166673
  1
寸法(W×H×D)
 41
0.8
 11
-247.30000000000001
 21
361.06469734375003
 31
0.0
 73
     3
  0
TEXT
  5
101
  8
SPEC
 62
     7
 10
-149.80000000000001
 20
344.11375333333342
 30
0.0
 40
5.7009440104166673
  1
約290g(電池除く)
 41
0.8
 11
-149.80000000000001
 21
349.81469734375008
 31
0.0
 73
     3
  0
TEXT
  5
102
  8
SPEC
 62
     7
 10
-247.30000000000001
 20
344.11375333333342
 30
0.0
 40
5.7009440104166673
  1
重量
 41
0.8
 11
-247.30000000000001
 21
349.81469734375008
 31
0.0
 73
     3
  0
TEXT
  5
103
  8
SPEC
 62
     7
 10
-149.80000000000001
 20
377.86375333333342
 30
0.0
 40
5.7009440104166673
  1
0dB、-10dBの2段階切替
 41
0.8
 11
-149.80000000000001
 21
383.56469734375003
 31
0.0
 73
     3
  0
TEXT
  5
104
  8
SPEC
 62
     7
 10
-247.30000000000001
 20
377.86375333333342
 30
0.0
 40
5.7009440104166673
  1
ゲイン調整スイッチ
 41
0.8
 11
-247.30000000000001
 21
383.56469734375003
 31
0.0
 73
     3
  0
LINE
  5
105
  8
SPEC
  6
CONTINUOUS
 62
     7
 10
-250.0
 20
386.75
 30
0.0
 11
110.0
 21
386.75
 31
0.0
  0
TEXT
  5
106
  8
DIMNSIONS
 62
     7
 10
-62.500015000000019
 20
-225.19151500000001
 30
0.0
 40
7.3297851562499989
  1
(単位：mm)
 41
0.8
 11
-62.500015000000019
 21
-217.86172984375
 31
0.0
 73
     3
  0
LINE
  5
107
  8
DIMNSIONS
  6
CONTINUOUS
 62
     7
 10
-26.25
 20
-86.000000022351756
 30
0.0
 11
-26.25
 21
-34.000000022351749
 31
0.0
  0
LINE
  5
108
  8
DIMNSIONS
  6
CONTINUOUS
 62
     7
 10
26.25
 20
-86.000000022351756
 30
0.0
 11
26.25
 21
-34.000000022351749
 31
0.0
  0
LINE
  5
109
  8
DIMNSIONS
  6
CONTINUOUS
 62
     7
 10
-26.25
 20
-40.0
 30
0.0
 11
26.25
 21
-40.0
 31
0.0
  0
LINE
  5
10A
  8
DIMNSIONS
  6
CONTINUOUS
 62
     7
 10
-26.25
 20
-40.0
 30
0.0
 11
-16.725000000000001
 21
-37.447783942093572
 31
0.0
  0
LINE
  5
10B
  8
DIMNSIONS
  6
CONTINUOUS
 62
     7
 10
-26.25
 20
-40.0
 30
0.0
 11
-16.725000000000001
 21
-42.552216057906442
 31
0.0
  0
LINE
  5
10C
  8
DIMNSIONS
  6
CONTINUOUS
 62
     7
 10
26.25
 20
-40.0
 30
0.0
 11
16.725000000000001
 21
-42.552216057906442
 31
0.0
  0
LINE
  5
10D
  8
DIMNSIONS
  6
CONTINUOUS
 62
     7
 10
26.25
 20
-40.0
 30
0.0
 11
16.725000000000001
 21
-37.447783942093572
 31
0.0
  0
TEXT
  5
10E
  8
DIMNSIONS
 62
     7
 10
-5.2916666666666661
 20
-35.518333344509202
 30
0.0
 40
8.1442057291666661
  1
53
 41
0.8
 11
-5.2916666666666652
 21
-27.37412761534253
 31
0.0
 73
     3
  0
LINE
  5
10F
  8
DIMNSIONS
  6
CONTINUOUS
 62
     7
 10
-5.9999999776482564
 20
244.0
 30
0.0
 11
-95.999999977648244
 21
244.0
 31
0.0
  0
LINE
  5
110
  8
DIMNSIONS
  6
CONTINUOUS
 62
     7
 10
-5.9999999776482564
 20
0.0
 30
0.0
 11
-95.999999977648244
 21
0.0
 31
0.0
  0
LINE
  5
111
  8
DIMNSIONS
  6
CONTINUOUS
 62
     7
 10
-90.0
 20
244.0
 30
0.0
 11
-90.0
 21
0.0
 31
0.0
  0
LINE
  5
112
  8
DIMNSIONS
  6
CONTINUOUS
 62
     7
 10
-90.0
 20
244.0
 30
0.0
 11
-87.447783942093565
 21
234.47499999999999
 31
0.0
  0
LINE
  5
113
  8
DIMNSIONS
  6
CONTINUOUS
 62
     7
 10
-90.0
 20
244.0
 30
0.0
 11
-92.552216057906435
 21
234.47499999999999
 31
0.0
  0
LINE
  5
114
  8
DIMNSIONS
  6
CONTINUOUS
 62
     7
 10
-90.0
 20
0.0
 30
0.0
 11
-92.552216057906435
 21
9.5250000000000021
 31
0.0
  0
LINE
  5
115
  8
DIMNSIONS
  6
CONTINUOUS
 62
     7
 10
-90.0
 20
0.0
 30
0.0
 11
-87.447783942093551
 21
9.5250000000000021
 31
0.0
  0
TEXT
  5
116
  8
DIMNSIONS
 62
     7
 10
-94.481666655490812
 20
114.0625
 30
0.0
 40
8.1442057291666661
  1
244
 50
90.0
 41
0.8
 11
-102.6258723846575
 21
114.0625
 31
0.0
 73
     3
  0
LINE
  5
117
  8
DIMNSIONS
  6
CONTINUOUS
 62
     7
 10
-5.9999999776482564
 20
244.0
 30
0.0
 11
-65.999999977648244
 21
244.0
 31
0.0
  0
LINE
  5
118
  8
DIMNSIONS
  6
CONTINUOUS
 62
     7
 10
-24.499999977648251
 20
170.0
 30
0.0
 11
-65.999999977648244
 21
170.0
 31
0.0
  0
LINE
  5
119
  8
DIMNSIONS
  6
CONTINUOUS
 62
     7
 10
-60.0
 20
244.0
 30
0.0
 11
-60.0
 21
170.0
 31
0.0
  0
LINE
  5
11A
  8
DIMNSIONS
  6
CONTINUOUS
 62
     7
 10
-60.0
 20
244.0
 30
0.0
 11
-57.447783942093558
 21
234.47499999999999
 31
0.0
  0
LINE
  5
11B
  8
DIMNSIONS
  6
CONTINUOUS
 62
     7
 10
-60.0
 20
244.0
 30
0.0
 11
-62.552216057906442
 21
234.47499999999999
 31
0.0
  0
LINE
  5
11C
  8
DIMNSIONS
  6
CONTINUOUS
 62
     7
 10
-60.0
 20
170.0
 30
0.0
 11
-62.552216057906442
 21
179.52500000000001
 31
0.0
  0
LINE
  5
11D
  8
DIMNSIONS
  6
CONTINUOUS
 62
     7
 10
-60.0
 20
170.0
 30
0.0
 11
-57.447783942093558
 21
179.52500000000001
 31
0.0
  0
TEXT
  5
11E
  8
DIMNSIONS
 62
     7
 10
-64.481666655490798
 20
201.7083333333334
 30
0.0
 40
8.1442057291666661
  1
74
 50
90.0
 41
0.8
 11
-72.62587238465747
 21
201.7083333333334
 31
0.0
 73
     3
  0
LINE
  5
11F
  8
DIMNSIONS
  6
CONTINUOUS
 62
     7
 10
-24.499999977648251
 20
170.0
 30
0.0
 11
-65.999999977648244
 21
170.0
 31
0.0
  0
LINE
  5
120
  8
DIMNSIONS
  6
CONTINUOUS
 62
     7
 10
-12.92893216578277
 20
0.0
 30
0.0
 11
-65.999999977648244
 21
0.0
 31
0.0
  0
LINE
  5
121
  8
DIMNSIONS
  6
CONTINUOUS
 62
     7
 10
-60.0
 20
170.0
 30
0.0
 11
-60.0
 21
0.0
 31
0.0
  0
LINE
  5
122
  8
DIMNSIONS
  6
CONTINUOUS
 62
     7
 10
-60.0
 20
170.0
 30
0.0
 11
-57.447783942093558
 21
160.47499999999999
 31
0.0
  0
LINE
  5
123
  8
DIMNSIONS
  6
CONTINUOUS
 62
     7
 10
-60.0
 20
170.0
 30
0.0
 11
-62.552216057906442
 21
160.47499999999999
 31
0.0
  0
LINE
  5
124
  8
DIMNSIONS
  6
CONTINUOUS
 62
     7
 10
-60.0
 20
0.0
 30
0.0
 11
-62.552216057906442
 21
9.5250000000000021
 31
0.0
  0
LINE
  5
125
  8
DIMNSIONS
  6
CONTINUOUS
 62
     7
 10
-60.0
 20
0.0
 30
0.0
 11
-57.447783942093558
 21
9.5250000000000021
 31
0.0
  0
TEXT
  5
126
  8
DIMNSIONS
 62
     7
 10
-64.481666655490798
 20
77.062500000000014
 30
0.0
 40
8.1442057291666661
  1
170
 50
90.0
 41
0.8
 11
-72.62587238465747
 21
77.062500000000014
 31
0.0
 73
     3
  0
TEXT
  5
127
  8
DATA
 62
     7
 10
139.99996999999991
 20
-228.60732999999999
 30
0.0
 40
7.3297851562499989
  1
SLX2/BETA 58
 41
0.8
 11
139.99996999999991
 21
-221.27754484375001
 31
0.0
 73
     3
  0
TEXT
  5
128
  8
DATA
 62
     7
 10
139.99996999999991
 20
-206.85732999999999
 30
0.0
 40
7.3297851562499989
  1
SHURE
 41
0.8
 11
139.99996999999991
 21
-199.52754484375001
 31
0.0
 73
     3
  0
TEXT
  5
129
  8
DATA
 62
     7
 10
139.99996999999991
 20
-216.8581574561403
 30
0.0
 40
6.5153645833333318
  1
ハンドヘルド型送信機
 41
0.8
 11
139.99996999999991
 21
-210.34279287280691
 31
0.0
 73
     3
  0
LINE
  5
12A
  8
DATA
  6
CONTINUOUS
 62
     7
 10
-26.0
 20
219.0
 30
0.0
 11
26.0
 21
219.0
 31
0.0
  0
LINE
  5
12B
  8
DATA
  6
CONTINUOUS
 62
     7
 10
-26.0
 20
217.0
 30
0.0
 11
26.0
 21
217.0
 31
0.0
  0
LINE
  5
12C
  8
DATA
  6
CONTINUOUS
 62
     7
 10
-18.0
 20
77.999999999999986
 30
0.0
 11
18.0
 21
77.999999999999986
 31
0.0
  0
LINE
  5
12D
  8
DATA
  6
CONTINUOUS
 62
     7
 10
-12.99999999999998
 20
4.0
 30
0.0
 11
12.99999999999998
 21
4.0
 31
0.0
  0
LINE
  5
12E
  8
DATA
  6
CONTINUOUS
 62
     7
 10
-6.9289321881345236
 20
0.0
 30
0.0
 11
6.9289321881345236
 21
0.0
 31
0.0
  0
LINE
  5
12F
  8
DATA
  6
CONTINUOUS
 62
     7
 10
-16.566856570819489
 20
8.0
 30
0.0
 11
16.566856570819422
 21
8.0
 31
0.0
  0
LINE
  5
130
  8
DATA
  6
CONTINUOUS
 62
     7
 10
-18.5
 20
170.0
 30
0.0
 11
-18.0
 21
77.999999999999986
 31
0.0
  0
LINE
  5
131
  8
DATA
  6
CONTINUOUS
 62
     7
 10
-18.0
 20
77.999999999999986
 30
0.0
 11
-17.028987777593532
 21
10.02914443154719
 31
0.0
  0
LINE
  5
132
  8
DATA
  6
CONTINUOUS
 62
     7
 10
18.5
 20
170.0
 30
0.0
 11
18.0
 21
77.999999999999986
 31
0.0
  0
LINE
  5
133
  8
DATA
  6
CONTINUOUS
 62
     7
 10
18.0
 20
77.999999999999986
 30
0.0
 11
17.028987777593532
 21
10.02914443154722
 31
0.0
  0
LINE
  5
134
  8
DATA
  6
CONTINUOUS
 62
     7
 10
-15.565031809528721
 20
6.5650318095287039
 30
0.0
 11
-10.46446609406726
 21
1.464466094067262
 31
0.0
  0
LINE
  5
135
  8
DATA
  6
CONTINUOUS
 62
     7
 10
15.565031809528721
 20
6.5650318095287332
 30
0.0
 11
10.46446609406726
 21
1.464466094067262
 31
0.0
  0
ARC
  5
136
  8
DATA
  6
CONTINUOUS
 62
     7
 10
12.02949790359599
 20
10.100565715461469
 30
0.0
 40
5.0
 50
315.0
 51
359.18154453831141
  0
ARC
  5
137
  8
DATA
  6
CONTINUOUS
 62
     7
 10
-12.02949790359599
 20
10.100565715461469
 30
0.0
 40
4.9999999999999831
 50
180.8184554616889
 51
225.0000000000004
  0
ARC
  5
138
  8
DATA
  6
CONTINUOUS
 62
     7
 10
6.9289321881345103
 20
4.9999999999999707
 30
0.0
 40
4.9999999999999707
 50
270.0000000000004
 51
315.0000000000004
  0
ARC
  5
139
  8
DATA
  6
CONTINUOUS
 62
     7
 10
-6.9289321881345378
 20
5.0
 30
0.0
 40
4.9999999999999902
 50
225.00000000000011
 51
270.0000000000004
  0
LINE
  5
13A
  8
DATA
  6
CONTINUOUS
 62
     7
 10
19.25
 20
200.0
 30
0.0
 11
-19.25
 21
200.0
 31
0.0
  0
LINE
  5
13B
  8
DATA
  6
CONTINUOUS
 62
     7
 10
-26.0
 20
220.0
 30
0.0
 11
26.0
 21
220.0
 31
0.0
  0
LINE
  5
13C
  8
DATA
  6
CONTINUOUS
 62
     7
 10
-26.0
 20
216.0
 30
0.0
 11
26.0
 21
216.0
 31
0.0
  0
LINE
  5
13D
  8
DATA
  6
CONTINUOUS
 62
     7
 10
-11.5
 20
77.999999999999986
 30
0.0
 11
-11.5
 21
123.0
 31
0.0
  0
LINE
  5
13E
  8
DATA
  6
CONTINUOUS
 62
     7
 10
11.5
 20
77.999999999999986
 30
0.0
 11
11.5
 21
123.0
 31
0.0
  0
LINE
  5
13F
  8
DATA
  6
CONTINUOUS
 62
     7
 10
-11.5
 20
123.0
 30
0.0
 11
11.5
 21
123.0
 31
0.0
  0
LINE
  5
140
  8
DATA
  6
CONTINUOUS
 62
     7
 10
-8.0
 20
80.999999999999986
 30
0.0
 11
8.0
 21
80.999999999999986
 31
0.0
  0
LINE
  5
141
  8
DATA
  6
CONTINUOUS
 62
     7
 10
10.0
 20
82.999999999999986
 30
0.0
 11
10.0
 21
86.999999999999986
 31
0.0
  0
LINE
  5
142
  8
DATA
  6
CONTINUOUS
 62
     7
 10
8.0
 20
88.999999999999986
 30
0.0
 11
-8.0
 21
88.999999999999986
 31
0.0
  0
LINE
  5
143
  8
DATA
  6
CONTINUOUS
 62
     7
 10
-10.0
 20
86.999999999999986
 30
0.0
 11
-10.0
 21
82.999999999999986
 31
0.0
  0
LINE
  5
144
  8
DATA
  6
CONTINUOUS
 62
     7
 10
-8.0
 20
87.499999999999986
 30
0.0
 11
-5.0
 21
87.499999999999986
 31
0.0
  0
LINE
  5
145
  8
DATA
  6
CONTINUOUS
 62
     7
 10
-9.0
 20
86.499999999999986
 30
0.0
 11
-9.0
 21
83.499999999999986
 31
0.0
  0
LINE
  5
146
  8
DATA
  6
CONTINUOUS
 62
     7
 10
-8.0
 20
82.499999999999986
 30
0.0
 11
-5.0
 21
82.499999999999986
 31
0.0
  0
LINE
  5
147
  8
DATA
  6
CONTINUOUS
 62
     7
 10
-4.0
 20
83.499999999999986
 30
0.0
 11
-4.0
 21
86.499999999999986
 31
0.0
  0
ARC
  5
148
  8
DATA
  6
CONTINUOUS
 62
     7
 10
-8.0
 20
83.499999999999986
 30
0.0
 40
1.0
 50
180.0
 51
270.0
  0
ARC
  5
149
  8
DATA
  6
CONTINUOUS
 62
     7
 10
-5.0
 20
83.499999999999986
 30
0.0
 40
1.0
 50
270.0
 51
0.0
  0
ARC
  5
14A
  8
DATA
  6
CONTINUOUS
 62
     7
 10
-8.0
 20
86.499999999999986
 30
0.0
 40
1.0
 50
90.0
 51
180.0
  0
ARC
  5
14B
  8
DATA
  6
CONTINUOUS
 62
     7
 10
-5.0
 20
86.499999999999986
 30
0.0
 40
1.0
 50
0.0
 51
90.0
  0
LINE
  5
14C
  8
DATA
  6
CONTINUOUS
 62
     7
 10
8.0
 20
87.499999999999986
 30
0.0
 11
5.0
 21
87.499999999999986
 31
0.0
  0
LINE
  5
14D
  8
DATA
  6
CONTINUOUS
 62
     7
 10
9.0
 20
86.499999999999986
 30
0.0
 11
9.0
 21
83.499999999999986
 31
0.0
  0
LINE
  5
14E
  8
DATA
  6
CONTINUOUS
 62
     7
 10
8.0
 20
82.499999999999986
 30
0.0
 11
5.0
 21
82.499999999999986
 31
0.0
  0
LINE
  5
14F
  8
DATA
  6
CONTINUOUS
 62
     7
 10
4.0
 20
83.499999999999986
 30
0.0
 11
4.0
 21
86.499999999999986
 31
0.0
  0
ARC
  5
150
  8
DATA
  6
CONTINUOUS
 62
     7
 10
8.0
 20
83.499999999999986
 30
0.0
 40
1.0
 50
270.0
 51
0.0
  0
ARC
  5
151
  8
DATA
  6
CONTINUOUS
 62
     7
 10
5.0
 20
83.499999999999986
 30
0.0
 40
1.0
 50
180.0
 51
270.0
  0
ARC
  5
152
  8
DATA
  6
CONTINUOUS
 62
     7
 10
8.0
 20
86.499999999999986
 30
0.0
 40
1.0
 50
0.0
 51
90.0
  0
ARC
  5
153
  8
DATA
  6
CONTINUOUS
 62
     7
 10
5.0
 20
86.499999999999986
 30
0.0
 40
1.0
 50
90.0
 51
180.0
  0
TEXT
  5
154
  8
DATA
 62
     7
 10
-12.0
 20
73.359333333333311
 30
0.0
 40
3.7041666666666648
  1
mute
 41
0.8
 11
-12.0
 21
77.063499999999976
 31
0.0
 73
     3
  0
TEXT
  5
155
  8
DATA
 62
     7
 10
0.999999999999998
 20
73.359333333333311
 30
0.0
 40
3.2576822916666659
  1
select
 41
0.8
 11
0.9999999999999982
 21
76.617015624999979
 31
0.0
 73
     3
  0
ARC
  5
156
  8
DATA
  6
CONTINUOUS
 62
     7
 10
-6.4999999999999778
 20
85.0
 30
0.0
 40
0.9999999999999785
 50
120.00000000000171
 51
60.000000000000639
  0
LINE
  5
157
  8
DATA
  6
CONTINUOUS
 62
     7
 10
-6.5
 20
86.499999999999986
 30
0.0
 11
-6.5
 21
85.499999999999986
 31
0.0
  0
ARC
  5
158
  8
DATA
  6
CONTINUOUS
 62
     7
 10
-8.0
 20
82.999999999999986
 30
0.0
 40
2.0
 50
180.0
 51
270.0
  0
ARC
  5
159
  8
DATA
  6
CONTINUOUS
 62
     7
 10
-8.0
 20
86.999999999999986
 30
0.0
 40
2.0
 50
90.0
 51
180.0
  0
ARC
  5
15A
  8
DATA
  6
CONTINUOUS
 62
     7
 10
8.0
 20
86.999999999999986
 30
0.0
 40
2.0
 50
0.0
 51
90.0
  0
ARC
  5
15B
  8
DATA
  6
CONTINUOUS
 62
     7
 10
8.0
 20
82.999999999999986
 30
0.0
 40
2.0
 50
270.0
 51
0.0
  0
LINE
  5
15C
  8
DATA
  6
CONTINUOUS
 62
     7
 10
-9.0
 20
92.999999999999986
 30
0.0
 11
9.0
 21
92.999999999999986
 31
0.0
  0
LINE
  5
15D
  8
DATA
  6
CONTINUOUS
 62
     7
 10
-9.0
 20
92.999999999999986
 30
0.0
 11
-9.0
 21
105.0
 31
0.0
  0
LINE
  5
15E
  8
DATA
  6
CONTINUOUS
 62
     7
 10
-9.0
 20
105.0
 30
0.0
 11
9.0
 21
105.0
 31
0.0
  0
LINE
  5
15F
  8
DATA
  6
CONTINUOUS
 62
     7
 10
9.0
 20
105.0
 30
0.0
 11
9.0
 21
92.999999999999986
 31
0.0
  0
CIRCLE
  5
160
  8
DATA
  6
CONTINUOUS
 62
     7
 10
0.0
 20
110.5
 30
0.0
 40
1.5
  0
TEXT
  5
161
  8
DATA
 62
     7
 10
-6.3146631056766571
 20
113.50347095812209
 30
0.0
 40
5.5562500000000004
  1
SLX2
 41
0.8
 11
-6.3146631056766571
 21
119.0597209581221
 31
0.0
 73
     3
  0
CIRCLE
  5
162
  8
DATA
  6
CONTINUOUS
 62
     7
 10
0.0
 20
-92.0
 30
0.0
 40
26.25
  0
CIRCLE
  5
163
  8
DATA
  6
CONTINUOUS
 62
     7
 10
0.0
 20
-92.0
 30
0.0
 40
25.0
  0
CIRCLE
  5
164
  8
DATA
  6
CONTINUOUS
 62
     7
 10
0.0
 20
-92.0
 30
0.0
 40
13.0
  0
CIRCLE
  5
165
  8
DATA
  6
CONTINUOUS
 62
     7
 10
0.0
 20
-92.0
 30
0.0
 40
18.5
  0
CIRCLE
  5
166
  8
DATA
  6
CONTINUOUS
 62
     7
 10
0.0
 20
-92.0
 30
0.0
 40
19.25
  0
TEXT
  5
167
  8
DATA
 62
     7
 10
-9.8542543859649161
 20
185.47802144249499
 30
0.0
 40
4.072102864583333
  1
BETA 58A
 41
0.8
 11
-9.8542543859649161
 21
189.55012430707839
 31
0.0
 73
     3
  0
CIRCLE
  5
168
  8
DATA
  6
CONTINUOUS
 62
     7
 10
0.0
 20
-92.0
 30
0.0
 40
17.0
  0
LINE
  5
169
  8
DATA
  6
CONTINUOUS
 62
     7
 10
-26.0
 20
220.0
 30
0.0
 11
-26.0
 21
219.0
 31
0.0
  0
LINE
  5
16A
  8
DATA
  6
CONTINUOUS
 62
     7
 10
-26.0
 20
217.0
 30
0.0
 11
-26.0
 21
216.0
 31
0.0
  0
LINE
  5
16B
  8
DATA
  6
CONTINUOUS
 62
     7
 10
26.0
 20
220.0
 30
0.0
 11
26.0
 21
219.0
 31
0.0
  0
LINE
  5
16C
  8
DATA
  6
CONTINUOUS
 62
     7
 10
26.0
 20
217.0
 30
0.0
 11
26.0
 21
216.0
 31
0.0
  0
ARC
  5
16D
  8
DATA
  6
CONTINUOUS
 62
     7
 10
-24.125
 20
218.0
 30
0.0
 40
2.125
 50
151.92751306414701
 51
208.07248693585291
  0
ARC
  5
16E
  8
DATA
  6
CONTINUOUS
 62
     7
 10
24.125
 20
218.0
 30
0.0
 40
2.125
 50
331.92751306414709
 51
28.072486935852972
  0
ARC
  5
16F
  8
DATA
  6
CONTINUOUS
 62
     7
 10
-0.1361761277610292
 20
216.3752094575448
 30
0.0
 40
24.791569613987701
 50
180.86717942713969
 51
221.33917947172131
  0
ARC
  5
170
  8
DATA
  6
CONTINUOUS
 62
     7
 10
0.0
 20
219.0
 30
0.0
 40
25.0
 50
2.2905982518368471
 51
177.7057156570805
  0
ARC
  5
171
  8
DATA
  6
CONTINUOUS
 62
     7
 10
0.1361761277610327
 20
216.3752094575448
 30
0.0
 40
24.791569613987701
 50
318.66082052827869
 51
359.1328205728604
  0
LINE
  5
172
  8
DATA
  6
CONTINUOUS
 62
     7
 10
-18.5
 20
192.0
 30
0.0
 11
18.5
 21
192.0
 31
0.0
  0
LINE
  5
173
  8
DATA
  6
CONTINUOUS
 62
     7
 10
-17.5
 20
195.5
 30
0.0
 11
17.5
 21
195.5
 31
0.0
  0
LINE
  5
174
  8
DATA
  6
CONTINUOUS
 62
     7
 10
-18.5
 20
192.0
 30
0.0
 11
-17.5
 21
195.5
 31
0.0
  0
LINE
  5
175
  8
DATA
  6
CONTINUOUS
 62
     7
 10
-17.75
 20
196.0
 30
0.0
 11
17.75
 21
196.0
 31
0.0
  0
CIRCLE
  5
176
  8
DATA
  6
CONTINUOUS
 62
     7
 10
0.0
 20
-92.0
 30
0.0
 40
26.0
  0
TEXT
  5
177
  8
DATA
 62
     7
 10
-8.0
 20
-94.461000000000013
 30
0.0
 40
5.5562500000000004
  1
SHURE
 41
0.8
 11
-8.0
 21
-88.904750000000007
 31
0.0
 73
     3
  0
LINE
  5
178
  8
DATA
  6
CONTINUOUS
 62
     7
 10
-19.25
 20
200.0
 30
0.0
 11
-17.75
 21
196.0
 31
0.0
  0
LINE
  5
179
  8
DATA
  6
CONTINUOUS
 62
     7
 10
-17.75
 20
196.0
 30
0.0
 11
-16.5
 21
195.5
 31
0.0
  0
LINE
  5
17A
  8
DATA
  6
CONTINUOUS
 62
     7
 10
18.5
 20
192.0
 30
0.0
 11
17.5
 21
195.5
 31
0.0
  0
LINE
  5
17B
  8
DATA
  6
CONTINUOUS
 62
     7
 10
19.25
 20
200.0
 30
0.0
 11
17.75
 21
196.0
 31
0.0
  0
LINE
  5
17C
  8
DATA
  6
CONTINUOUS
 62
     7
 10
17.75
 20
196.0
 30
0.0
 11
16.5
 21
195.5
 31
0.0
  0
LINE
  5
17D
  8
DATA
  6
CONTINUOUS
 62
     7
 10
-18.5
 20
192.0
 30
0.0
 11
-18.5
 21
170.0
 31
0.0
  0
LINE
  5
17E
  8
DATA
  6
CONTINUOUS
 62
     7
 10
-18.5
 20
170.0
 30
0.0
 11
18.5
 21
170.0
 31
0.0
  0
LINE
  5
17F
  8
DATA
  6
CONTINUOUS
 62
     7
 10
18.5
 20
170.0
 30
0.0
 11
18.5
 21
192.0
 31
0.0
  0
ENDSEC
  0
EOF
