  0
SECTION
  2
HEADER
  9
$ACADVER
  1
AC1009
  9
$INSBASE
 10
0.0
 20
0.0
 30
0.0
  9
$EXTMIN
 10
-272.51647823400589
 20
-284.86571085595318
 30
-0.0015258207003583
  9
$EXTMAX
 10
267.51645074857652
 20
518.02445227010935
 30
0.0000000349246037
  9
$LIMMIN
 10
0.0
 20
0.0
  9
$LIMMAX
 10
0.0
 20
0.0
  9
$ORTHOMODE
 70
     0
  9
$REGENMODE
 70
     1
  9
$FILLMODE
 70
     1
  9
$QTEXTMODE
 70
     0
  9
$MIRRTEXT
 70
     1
  9
$DRAGMODE
 70
     2
  9
$LTSCALE
 40
15.24
  9
$OSMODE
 70
   231
  9
$ATTMODE
 70
     1
  9
$TEXTSIZE
 40
0.0
  9
$TRACEWID
 40
1.0
  9
$TEXTSTYLE
  7
STANDARD
  9
$CLAYER
  8
DATA
  9
$CELTYPE
  6
CONTINUOUS
  9
$CECOLOR
 62
   256
  9
$DIMSCALE
 40
1.0
  9
$DIMASZ
 40
0.18
  9
$DIMEXO
 40
0.0625
  9
$DIMDLI
 40
0.38
  9
$DIMRND
 40
0.0
  9
$DIMDLE
 40
0.0
  9
$DIMEXE
 40
0.18
  9
$DIMTP
 40
0.0
  9
$DIMTM
 40
0.0
  9
$DIMTXT
 40
0.18
  9
$DIMCEN
 40
0.09
  9
$DIMTSZ
 40
0.0
  9
$DIMTOL
 70
     0
  9
$DIMLIM
 70
     0
  9
$DIMTIH
 70
     1
  9
$DIMTOH
 70
     1
  9
$DIMSE1
 70
     0
  9
$DIMSE2
 70
     0
  9
$DIMTAD
 70
     0
  9
$DIMZIN
 70
     0
  9
$DIMBLK
  1

  9
$DIMASO
 70
     1
  9
$DIMSHO
 70
     1
  9
$DIMPOST
  1

  9
$DIMAPOST
  1

  9
$DIMALT
 70
     0
  9
$DIMALTD
 70
     2
  9
$DIMALTF
 40
25.399999999999999
  9
$DIMLFAC
 40
1.0
  9
$DIMTOFL
 70
     0
  9
$DIMTVP
 40
0.0
  9
$DIMTIX
 70
     0
  9
$DIMSOXD
 70
     0
  9
$DIMSAH
 70
     0
  9
$DIMBLK1
  1

  9
$DIMBLK2
  1

  9
$DIMSTYLE
  2
STANDARD
  9
$DIMCLRD
 70
     0
  9
$DIMCLRE
 70
     0
  9
$DIMCLRT
 70
     0
  9
$DIMTFAC
 40
1.0
  9
$DIMGAP
 40
0.09
  9
$LUNITS
 70
     2
  9
$LUPREC
 70
     4
  9
$SKETCHINC
 40
0.1
  9
$FILLETRAD
 40
0.0
  9
$AUNITS
 70
     0
  9
$AUPREC
 70
     0
  9
$MENU
  1
acad
  9
$ELEVATION
 40
0.0
  9
$PELEVATION
 40
0.0
  9
$THICKNESS
 40
0.0
  9
$LIMCHECK
 70
     0
  9
$BLIPMODE
 70
     0
  9
$CHAMFERA
 40
0.0
  9
$CHAMFERB
 40
0.0
  9
$SKPOLY
 70
     0
  9
$TDCREATE
 40
2453780.705868056
  9
$TDUPDATE
 40
2453780.7168445722
  9
$TDINDWG
 40
0.0002240625
  9
$TDUSRTIMER
 40
0.0002238889
  9
$USRTIMER
 70
     1
  9
$ANGBASE
 50
0.0
  9
$ANGDIR
 70
     0
  9
$PDMODE
 70
     1
  9
$PDSIZE
 40
-2.0
  9
$PLINEWID
 40
0.0
  9
$COORDS
 70
     2
  9
$SPLFRAME
 70
     0
  9
$SPLINETYPE
 70
     6
  9
$SPLINESEGS
 70
     8
  9
$ATTDIA
 70
     0
  9
$ATTREQ
 70
     1
  9
$HANDLING
 70
     1
  9
$HANDSEED
  5
1D1
  9
$SURFTAB1
 70
     6
  9
$SURFTAB2
 70
     6
  9
$SURFTYPE
 70
     6
  9
$SURFU
 70
     6
  9
$SURFV
 70
     6
  9
$UCSNAME
  2

  9
$UCSORG
 10
0.0
 20
0.0
 30
0.0
  9
$UCSXDIR
 10
1.0
 20
0.0
 30
0.0
  9
$UCSYDIR
 10
0.0
 20
1.0
 30
0.0
  9
$PUCSNAME
  2

  9
$PUCSORG
 10
0.0
 20
0.0
 30
0.0
  9
$PUCSXDIR
 10
1.0
 20
0.0
 30
0.0
  9
$PUCSYDIR
 10
0.0
 20
1.0
 30
0.0
  9
$USERI1
 70
     0
  9
$USERI2
 70
     0
  9
$USERI3
 70
     0
  9
$USERI4
 70
     0
  9
$USERI5
 70
     0
  9
$USERR1
 40
0.0
  9
$USERR2
 40
0.0
  9
$USERR3
 40
0.0
  9
$USERR4
 40
0.0
  9
$USERR5
 40
0.0
  9
$WORLDVIEW
 70
     1
  9
$SHADEDGE
 70
     3
  9
$SHADEDIF
 70
    70
  9
$TILEMODE
 70
     1
  9
$MAXACTVP
 70
    64
  9
$PLIMCHECK
 70
     0
  9
$PEXTMIN
 10
1.0000000000000000E+020
 20
1.0000000000000000E+020
 30
1.0000000000000000E+020
  9
$PEXTMAX
 10
-1.0000000000000000E+020
 20
-1.0000000000000000E+020
 30
-1.0000000000000000E+020
  9
$PLIMMIN
 10
0.0
 20
0.0
  9
$PLIMMAX
 10
12.0
 20
9.0
  9
$UNITMODE
 70
     0
  9
$VISRETAIN
 70
     0
  9
$PLINEGEN
 70
     1
  9
$PSLTSCALE
 70
     0
  0
ENDSEC
  0
SECTION
  2
TABLES
  0
TABLE
  2
VPORT
 70
     2
  0
VPORT
  2
*ACTIVE
 70
     0
 10
0.0
 20
0.0
 11
1.0
 21
1.0
 12
-2.500013742714656
 22
116.579370707078
 13
0.0
 23
0.0
 14
1.0
 24
1.0
 15
0.0
 25
0.0
 16
0.0
 26
0.0
 36
1.0
 17
0.0
 27
0.0
 37
0.0
 40
809.53477137262303
 41
1.665745856353591
 42
50.0
 43
0.0
 44
0.0
 50
0.0
 51
0.0
 71
     0
 72
  2000
 73
     1
 74
     1
 75
     0
 76
     0
 77
     0
 78
     0
  0
ENDTAB
  0
TABLE
  2
LTYPE
 70
    11
  0
LTYPE
  2
CONTINUOUS
 70
     0
  3
Solid line
 72
    65
 73
     0
 40
0.0
  0
ENDTAB
  0
TABLE
  2
LAYER
 70
     6
  0
LAYER
  2
0
 70
     0
 62
     7
  6
CONTINUOUS
  0
LAYER
  2
DATA
 70
     0
 62
     7
  6
CONTINUOUS
  0
LAYER
  2
HIBINO-BASE
 70
     0
 62
     7
  6
CONTINUOUS
  0
LAYER
  2
PATTERN_FILL
 70
     0
 62
     7
  6
CONTINUOUS
  0
LAYER
  2
SPEC
 70
     0
 62
     7
  6
CONTINUOUS
  0
LAYER
  2
DIMNSIONS
 70
     0
 62
     7
  6
CONTINUOUS
  0
ENDTAB
  0
TABLE
  2
STYLE
 70
     2
  0
STYLE
  2
STANDARD
 70
     0
 40
0.0
 41
1.0
 50
0.0
 71
     0
 42
0.0
  3
txt
  4
BIGFONT.SHX
  0
ENDTAB
  0
TABLE
  2
VIEW
 70
     0
  0
ENDTAB
  0
TABLE
  2
UCS
 70
     0
  0
ENDTAB
  0
TABLE
  2
APPID
 70
     1
  0
APPID
  2
ACAD
 70
     0
  0
ENDTAB
  0
TABLE
  2
DIMSTYLE
 70
     1
  0
DIMSTYLE
  2
STANDARD
 70
     0
  3

  4

  5

  6

  7

 40
1.0
 41
0.18
 42
0.0625
 43
0.38
 44
0.18
 45
0.0
 46
0.0
 47
0.0
 48
0.0
140
0.18
141
0.09
142
0.0
143
25.399999999999999
144
1.0
145
0.0
146
1.0
147
0.09
 71
     0
 72
     0
 73
     1
 74
     1
 75
     0
 76
     0
 77
     0
 78
     0
170
     0
171
     2
172
     0
173
     0
174
     0
175
     0
176
     0
177
     0
178
     0
  0
ENDTAB
  0
ENDSEC
  0
SECTION
  2
BLOCKS
  0
BLOCK
  8
0
  2
$MODEL_SPACE
 70
     0
 10
0.0
 20
0.0
 30
0.0
  3
$MODEL_SPACE
  1

  0
ENDBLK
  5
1AB
  8
0
  0
BLOCK
 67
     1
  8
0
  2
$PAPER_SPACE
 70
     0
 10
0.0
 20
0.0
 30
0.0
  3
$PAPER_SPACE
  1

  0
ENDBLK
  5
1A7
 67
     1
  8
0
  0
ENDSEC
  0
SECTION
  2
ENTITIES
  0
LINE
  5
2D
  8
HIBINO-BASE
  6
CONTINUOUS
 62
     7
 10
-272.5
 20
518.0
 30
0.0
 11
267.49997000000002
 21
518.0
 31
0.0
  0
LINE
  5
2E
  8
HIBINO-BASE
  6
CONTINUOUS
 62
     7
 10
267.49997000000002
 20
-261.99998499999998
 30
0.0
 11
-272.5
 21
-261.99998499999998
 31
0.0
  0
LINE
  5
2F
  8
HIBINO-BASE
  6
CONTINUOUS
 62
     7
 10
-272.5
 20
-261.99998499999998
 30
0.0
 11
-272.5
 21
518.0
 31
0.0
  0
TEXT
  5
30
  8
HIBINO-BASE
 62
     7
 10
-250.94800000000001
 20
-281.22600549999999
 30
0.0
 40
10.800120996093741
  1
Hibino Corporation
 41
0.8
 11
-250.94800000000001
 21
-270.42588450390627
 31
0.0
 73
     3
  0
LINE
  5
31
  8
HIBINO-BASE
  6
CONTINUOUS
 62
     7
 10
267.49997000000002
 20
518.0
 30
0.0
 11
267.49997000000002
 21
-261.99998499999998
 31
0.0
  0
LINE
  5
32
  8
HIBINO-BASE
  6
CONTINUOUS
 62
     7
 10
-2.5000150000000181
 20
-194.5
 30
0.0
 11
267.49997000000002
 21
-194.5
 31
0.0
  0
LINE
  5
33
  8
HIBINO-BASE
  6
CONTINUOUS
 62
     7
 10
-2.5000150000000181
 20
-261.99998499999998
 30
0.0
 11
-2.5000150000000181
 21
-194.5
 31
0.0
  0
TEXT
  5
34
  8
HIBINO-BASE
 62
     7
 10
0.1999699999999806
 20
-202.60000959999999
 30
0.0
 40
5.4000778125000002
  1
NOTE
 41
0.8
 11
0.1999699999999809
 21
-197.19993178749999
 31
0.0
 73
     3
  0
LINE
  5
35
  8
HIBINO-BASE
  6
CONTINUOUS
 62
     7
 10
102.499985
 20
-261.99998499999998
 30
0.0
 11
102.499985
 21
-194.5
 31
0.0
  0
TEXT
  5
36
  8
HIBINO-BASE
 62
     7
 10
105.1999849999999
 20
-202.60000959999999
 30
0.0
 40
5.4000778125000002
  1
TITLE
 41
0.8
 11
105.1999849999999
 21
-197.19993178749999
 31
0.0
 73
     3
  0
TEXT
  5
37
  8
HIBINO-BASE
 62
     7
 10
147.70513999999989
 20
-281.22600549999999
 30
0.0
 40
10.800120996093741
  1
ヒビノ株式会社
 41
0.8
 11
147.70513999999989
 21
-270.42588450390627
 31
0.0
 73
     3
  0
LINE
  5
38
  8
HIBINO-BASE
  6
CONTINUOUS
 62
     7
 10
-2.5000150000000181
 20
-232.0
 30
0.0
 11
267.49997000000002
 21
-232.0
 31
0.0
  0
TEXT
  5
39
  8
HIBINO-BASE
 62
     7
 10
142.69998499999991
 20
-239.93103459999989
 30
0.0
 40
5.4000778125000002
  1
DRAWN
 41
0.8
 11
142.69998499999991
 21
-234.53095678749989
 31
0.0
 73
     3
  0
TEXT
  5
3A
  8
HIBINO-BASE
 62
     7
 10
67.69998499999997
 20
-239.93103459999989
 30
0.0
 40
5.4000778125000002
  1
DATE
 41
0.8
 11
67.69998499999997
 21
-234.53095678749989
 31
0.0
 73
     3
  0
TEXT
  5
3B
  8
HIBINO-BASE
 62
     7
 10
0.7999699999999802
 20
-239.8583406999999
 30
0.0
 40
4.8865195898437506
  1
図面サイズ
 41
0.8
 11
0.7999699999999806
 21
-234.97182111015621
 31
0.0
 73
     3
  0
TEXT
  5
3C
  8
HIBINO-BASE
 62
     7
 10
37.699969999999979
 20
-239.93103459999989
 30
0.0
 40
5.4000778125000002
  1
SCALE
 41
0.8
 11
37.699969999999979
 21
-234.53095678749989
 31
0.0
 73
     3
  0
TEXT
  5
3D
  8
HIBINO-BASE
 62
     7
 10
105.1999849999999
 20
-239.93103459999989
 30
0.0
 40
5.4000778125000002
  1
DESIGN
 41
0.8
 11
105.1999849999999
 21
-234.53095678749989
 31
0.0
 73
     3
  0
TEXT
  5
3E
  8
HIBINO-BASE
 62
     7
 10
217.69997000000001
 20
-239.93103459999989
 30
0.0
 40
5.4000778125000002
  1
DRAWING NO.
 41
0.8
 11
217.69997000000001
 21
-234.53095678749989
 31
0.0
 73
     3
  0
TEXT
  5
3F
  8
HIBINO-BASE
 62
     7
 10
180.19997000000001
 20
-239.93103459999989
 30
0.0
 40
5.4000778125000002
  1
CHECK
 41
0.8
 11
180.19997000000001
 21
-234.53095678749989
 31
0.0
 73
     3
  0
LINE
  5
40
  8
HIBINO-BASE
  6
CONTINUOUS
 62
     7
 10
40.624969999999969
 20
-258.25
 30
0.0
 11
51.874984999999981
 21
-247.0
 31
0.0
  0
TEXT
  5
41
  8
HIBINO-BASE
 62
     7
 10
38.749969999999983
 20
-252.1471426
 30
0.0
 40
6.515359453124999
  1
1
 41
0.8
 11
38.749969999999983
 21
-245.63178314687499
 31
0.0
 73
     3
  0
LINE
  5
42
  8
HIBINO-BASE
  6
CONTINUOUS
 62
     7
 10
34.999969999999983
 20
-261.99998499999998
 30
0.0
 11
34.999969999999983
 21
-232.0
 31
0.0
  0
LINE
  5
43
  8
HIBINO-BASE
  6
CONTINUOUS
 62
     7
 10
64.999969999999976
 20
-261.99998499999998
 30
0.0
 11
64.999969999999976
 21
-232.0
 31
0.0
  0
LINE
  5
44
  8
HIBINO-BASE
  6
CONTINUOUS
 62
     7
 10
139.99996999999991
 20
-232.0
 30
0.0
 11
139.99996999999991
 21
-261.99998499999998
 31
0.0
  0
LINE
  5
45
  8
HIBINO-BASE
  6
CONTINUOUS
 62
     7
 10
214.99998500000001
 20
-232.0
 30
0.0
 11
214.99998500000001
 21
-261.99998499999998
 31
0.0
  0
LINE
  5
46
  8
HIBINO-BASE
  6
CONTINUOUS
 62
     7
 10
177.49996999999991
 20
-261.99998499999998
 30
0.0
 11
177.49996999999991
 21
-232.0
 31
0.0
  0
TEXT
  5
47
  8
HIBINO-BASE
 62
     7
 10
9.2326549999999816
 20
-254.50460349999989
 30
0.0
 40
9.7730276367187496
  1
A4
 41
0.8
 11
9.2326549999999816
 21
-244.73157586328119
 31
0.0
 73
     3
  0
TEXT
  5
48
  8
HIBINO-BASE
 62
     7
 10
67.569604999999981
 20
-253.98297460000001
 30
0.0
 40
5.4000778125000002
  1
'05.12.
 41
0.8
 11
67.569604999999981
 21
-248.5828967875
 31
0.0
 73
     3
  0
TEXT
  5
49
  8
HIBINO-BASE
 62
     7
 10
49.999984999999981
 20
-257.7721426
 30
0.0
 40
6.515359453124999
  1
3
 41
0.8
 11
49.999984999999981
 21
-251.25678314687499
 31
0.0
 73
     3
  0
ARC
  5
4A
  8
PATTERN_FILL
  6
CONTINUOUS
 62
     7
 10
0.0
 20
-99.926148209694276
 30
0.0
 40
27.99999999999995
 50
41.579406753593332
 51
138.4205932464067
  0
ARC
  5
4B
  8
PATTERN_FILL
  6
CONTINUOUS
 62
     7
 10
0.0
 20
-99.926148209694276
 30
0.0
 40
29.999999999999961
 50
59.692779533865462
 51
120.79568572898231
  0
LINE
  5
4C
  8
PATTERN_FILL
  6
CONTINUOUS
 62
     7
 10
0.0
 20
-68.5
 30
0.0
 11
0.0
 21
-72.75
 31
0.0
  0
ARC
  5
4D
  8
PATTERN_FILL
  6
CONTINUOUS
 62
     7
 10
0.0
 20
206.4738517903057
 30
0.0
 40
10.0
 50
53.380529869726459
 51
126.61947013027149
  0
ARC
  5
4E
  8
PATTERN_FILL
  6
CONTINUOUS
 62
     7
 10
0.0
 20
206.4738517903057
 30
0.0
 40
11.999999999999989
 50
41.978036550102637
 51
138.02196344989599
  0
ARC
  5
4F
  8
PATTERN_FILL
  6
CONTINUOUS
 62
     7
 10
0.0
 20
206.4738517903057
 30
0.0
 40
13.999999999999989
 50
34.980408191510811
 51
145.01959180848829
  0
ARC
  5
50
  8
PATTERN_FILL
  6
CONTINUOUS
 62
     7
 10
0.0
 20
206.4738517903057
 30
0.0
 40
16.0
 50
30.108181005260821
 51
149.89181899473161
  0
ARC
  5
51
  8
PATTERN_FILL
  6
CONTINUOUS
 62
     7
 10
0.0
 20
206.4738517903057
 30
0.0
 40
18.0
 50
26.480750716242738
 51
153.51924928375681
  0
ARC
  5
52
  8
PATTERN_FILL
  6
CONTINUOUS
 62
     7
 10
0.0
 20
206.4738517903057
 30
0.0
 40
20.0
 50
23.659936496119059
 51
156.34006350388009
  0
ARC
  5
53
  8
PATTERN_FILL
  6
CONTINUOUS
 62
     7
 10
0.0
 20
206.4738517903057
 30
0.0
 40
21.999999999999989
 50
21.396808296465291
 51
158.603191703541
  0
ARC
  5
54
  8
PATTERN_FILL
  6
CONTINUOUS
 62
     7
 10
0.0
 20
206.4738517903057
 30
0.0
 40
23.999999999999972
 50
19.53744509878786
 51
160.46255490121189
  0
ARC
  5
55
  8
PATTERN_FILL
  6
CONTINUOUS
 62
     7
 10
0.0
 20
206.4738517903057
 30
0.0
 40
26.0
 50
26.27342213849969
 51
153.72657786151419
  0
ARC
  5
56
  8
PATTERN_FILL
  6
CONTINUOUS
 62
     7
 10
0.0
 20
206.4738517903057
 30
0.0
 40
27.999999999999972
 50
35.263743639465481
 51
144.73625636052671
  0
LINE
  5
57
  8
PATTERN_FILL
  6
CONTINUOUS
 62
     7
 10
-0.0000000000000018
 20
240.5
 30
0.0
 11
0.0
 21
214.4738517903057
 31
0.0
  0
ARC
  5
58
  8
PATTERN_FILL
  6
CONTINUOUS
 62
     7
 10
627.25000000000068
 20
212.47385179030579
 30
0.0
 40
625.25000000000102
 50
177.43091849221719
 51
179.8143303570364
  0
ARC
  5
59
  8
PATTERN_FILL
  6
CONTINUOUS
 62
     7
 10
627.15511396063755
 20
201.6009886235355
 30
0.0
 40
623.25000000000068
 50
176.4216627334753
 51
178.81410078891639
  0
ARC
  5
5A
  8
PATTERN_FILL
  6
CONTINUOUS
 62
     7
 10
626.87149958417763
 20
190.7692743103627
 30
0.0
 40
621.2500000000008
 50
175.40859142077261
 51
177.81086310428731
  0
ARC
  5
5B
  8
PATTERN_FILL
  6
CONTINUOUS
 62
     7
 10
626.40044573234513
 20
179.9803113612254
 30
0.0
 40
619.25000000000068
 50
174.3914953990521
 51
176.80442755867421
  0
ARC
  5
5C
  8
PATTERN_FILL
  6
CONTINUOUS
 62
     7
 10
625.743301353834
 20
169.23609574563841
 30
0.0
 40
617.2500000000008
 50
173.37019546087191
 51
175.79463638621979
  0
ARC
  5
5D
  8
PATTERN_FILL
  6
CONTINUOUS
 62
     7
 10
624.90148115807051
 20
158.53975598721991
 30
0.0
 40
615.25000000000057
 50
172.3446121221065
 51
174.78143323256069
  0
ARC
  5
5E
  8
PATTERN_FILL
  6
CONTINUOUS
 62
     7
 10
623.8764552367777
 20
147.89445477716041
 30
0.0
 40
613.2500000000008
 50
171.3655831741824
 51
173.76476214715041
  0
ARC
  5
5F
  8
PATTERN_FILL
  6
CONTINUOUS
 62
     7
 10
622.66974763606026
 20
137.30331809298451
 30
0.0
 40
611.25000000000102
 50
170.59413001108419
 51
172.74456088062021
  0
ARC
  5
60
  8
PATTERN_FILL
  6
CONTINUOUS
 62
     7
 10
621.28293552303433
 20
126.76943428189129
 30
0.0
 40
609.2500000000008
 50
170.0708234699882
 51
171.72076060684969
  0
ARC
  5
61
  8
PATTERN_FILL
  6
CONTINUOUS
 62
     7
 10
619.71764833695431
 20
116.2958531619938
 30
0.0
 40
607.25000000000102
 50
169.61753968622691
 51
170.69328561139409
  0
ARC
  5
62
  8
PATTERN_FILL
  6
CONTINUOUS
 62
     7
 10
617.97556692520448
 20
105.88558514171901
 30
0.0
 40
605.2500000000008
 50
169.28324397585041
 51
169.66205294322091
  0
ARC
  5
63
  8
PATTERN_FILL
  6
CONTINUOUS
 62
     7
 10
0.0
 20
206.4738517903057
 30
0.0
 40
29.999999999999972
 50
42.08274258968919
 51
137.91725741031391
  0
ARC
  5
64
  8
PATTERN_FILL
  6
CONTINUOUS
 62
     7
 10
0.0000000000000018
 20
206.4738517903057
 30
0.0
 40
31.999999999999961
 50
47.649690532571732
 51
132.11121881360791
  0
ARC
  5
65
  8
PATTERN_FILL
  6
CONTINUOUS
 62
     7
 10
0.0
 20
206.4738517903057
 30
0.0
 40
33.999999999999972
 50
52.384916499729059
 51
127.4767181662519
  0
ARC
  5
66
  8
PATTERN_FILL
  6
CONTINUOUS
 62
     7
 10
0.0
 20
206.4738517903057
 30
0.0
 40
35.999999999999957
 50
56.523331261749497
 51
70.938887752911413
  0
ARC
  5
67
  8
PATTERN_FILL
  6
CONTINUOUS
 62
     7
 10
627.25000000000068
 20
-93.926148209694304
 30
0.0
 40
625.25000000000102
 50
177.68173763036759
 51
178.0723632870781
  0
ARC
  5
68
  8
PATTERN_FILL
  6
CONTINUOUS
 62
     7
 10
627.15511396063755
 20
-104.79901137646451
 30
0.0
 40
623.25000000000102
 50
176.70932812921549
 51
177.10603918884439
  0
ARC
  5
69
  8
PATTERN_FILL
  6
CONTINUOUS
 62
     7
 10
626.87149958417763
 20
-115.6307256896374
 30
0.0
 40
621.2500000000008
 50
175.75736054394139
 51
176.16440140998051
  0
ARC
  5
6A
  8
PATTERN_FILL
  6
CONTINUOUS
 62
     7
 10
626.40044573234513
 20
-126.4196886387746
 30
0.0
 40
619.25000000000057
 50
174.8267208371494
 51
175.24931768033071
  0
ARC
  5
6B
  8
PATTERN_FILL
  6
CONTINUOUS
 62
     7
 10
625.743301353834
 20
-137.1639042543616
 30
0.0
 40
617.25000000000045
 50
173.918912058947
 51
174.3640645051108
  0
ARC
  5
6C
  8
PATTERN_FILL
  6
CONTINUOUS
 62
     7
 10
624.90148115807051
 20
-147.8602440127801
 30
0.0
 40
615.25000000000068
 50
173.03637418671531
 51
173.51437768625459
  0
ARC
  5
6D
  8
PATTERN_FILL
  6
CONTINUOUS
 62
     7
 10
623.87645523677793
 20
-158.50554522283969
 30
0.0
 40
613.2500000000008
 50
172.18286536026079
 51
172.7107685590733
  0
ARC
  5
6E
  8
PATTERN_FILL
  6
CONTINUOUS
 62
     7
 10
622.66974763606026
 20
-169.09668190701561
 30
0.0
 40
611.25000000000068
 50
171.36444740483759
 51
171.97605915166329
  0
ARC
  5
6F
  8
PATTERN_FILL
  6
CONTINUOUS
 62
     7
 10
621.28293552303433
 20
-179.6305657181087
 30
0.0
 40
609.25000000000125
 50
170.59183234412581
 51
171.38572968021211
  0
ARC
  5
70
  8
PATTERN_FILL
  6
CONTINUOUS
 62
     7
 10
619.71764833695431
 20
-190.10414683800619
 30
0.0
 40
607.25000000000068
 50
169.88738536136421
 51
170.7028466230789
  0
ARC
  5
71
  8
PATTERN_FILL
  6
CONTINUOUS
 62
     7
 10
617.97556692520482
 20
-200.51441485828099
 30
0.0
 40
605.2500000000008
 50
169.31877415663641
 51
169.6716754715427
  0
ARC
  5
72
  8
PATTERN_FILL
  6
CONTINUOUS
 62
     7
 10
-627.25000000000068
 20
212.47385179030579
 30
0.0
 40
625.25000000000102
 50
0.1856696429635506
 51
2.56908150778276
  0
ARC
  5
73
  8
PATTERN_FILL
  6
CONTINUOUS
 62
     7
 10
-627.15511396063755
 20
201.6009886235355
 30
0.0
 40
623.25000000000102
 50
1.185899211083594
 51
3.5783372665247088
  0
ARC
  5
74
  8
PATTERN_FILL
  6
CONTINUOUS
 62
     7
 10
-626.87149958417763
 20
190.7692743103627
 30
0.0
 40
621.2500000000008
 50
2.1891368957126862
 51
4.5914085792273731
  0
ARC
  5
75
  8
PATTERN_FILL
  6
CONTINUOUS
 62
     7
 10
-626.40044573234513
 20
179.9803113612254
 30
0.0
 40
619.25000000000068
 50
3.1955724413257611
 51
5.6085046009478461
  0
ARC
  5
76
  8
PATTERN_FILL
  6
CONTINUOUS
 62
     7
 10
-625.743301353834
 20
169.23609574563841
 30
0.0
 40
617.2500000000008
 50
4.2053636137802206
 51
6.6298045391281022
  0
ARC
  5
77
  8
PATTERN_FILL
  6
CONTINUOUS
 62
     7
 10
-624.90148115807051
 20
158.53975598721991
 30
0.0
 40
615.25000000000057
 50
5.218566767439313
 51
7.6553878778935411
  0
ARC
  5
78
  8
PATTERN_FILL
  6
CONTINUOUS
 62
     7
 10
-623.8764552367777
 20
147.89445477716041
 30
0.0
 40
613.2500000000008
 50
6.2352378528496004
 51
8.6344168258175475
  0
ARC
  5
79
  8
PATTERN_FILL
  6
CONTINUOUS
 62
     7
 10
-622.66974763606026
 20
137.30331809298451
 30
0.0
 40
611.25000000000102
 50
7.2554391193798011
 51
9.405869988915855
  0
ARC
  5
7A
  8
PATTERN_FILL
  6
CONTINUOUS
 62
     7
 10
-621.28293552303433
 20
126.76943428189129
 30
0.0
 40
609.25000000000102
 50
8.2792393931503181
 51
9.9291765300117518
  0
ARC
  5
7B
  8
PATTERN_FILL
  6
CONTINUOUS
 62
     7
 10
-619.71764833695431
 20
116.2958531619938
 30
0.0
 40
607.25000000000102
 50
9.3067143886058918
 51
10.382460313773141
  0
ARC
  5
7C
  8
PATTERN_FILL
  6
CONTINUOUS
 62
     7
 10
-617.97556692520448
 20
105.88558514171901
 30
0.0
 40
605.2500000000008
 50
10.337947056779131
 51
10.716756024149589
  0
ARC
  5
7D
  8
PATTERN_FILL
  6
CONTINUOUS
 62
     7
 10
-0.0000000000000036
 20
206.4738517903057
 30
0.0
 40
35.999999999999957
 50
109.0611122470886
 51
123.4766687382505
  0
ARC
  5
7E
  8
PATTERN_FILL
  6
CONTINUOUS
 62
     7
 10
0.0000000000000071
 20
218.5484773090636
 30
0.0
 40
9.9999999999999982
 50
233.38052986972849
 51
306.61947013027361
  0
ARC
  5
7F
  8
PATTERN_FILL
  6
CONTINUOUS
 62
     7
 10
0.0000000000000071
 20
218.5484773090636
 30
0.0
 40
11.999999999999989
 50
221.97803655010401
 51
318.02196344989738
  0
ARC
  5
80
  8
PATTERN_FILL
  6
CONTINUOUS
 62
     7
 10
0.0000000000000071
 20
218.5484773090636
 30
0.0
 40
14.0
 50
214.98040819151171
 51
325.01959180848922
  0
ARC
  5
81
  8
PATTERN_FILL
  6
CONTINUOUS
 62
     7
 10
0.0000000000000071
 20
218.5484773090636
 30
0.0
 40
16.0
 50
210.10818100526839
 51
329.8918189947392
  0
ARC
  5
82
  8
PATTERN_FILL
  6
CONTINUOUS
 62
     7
 10
0.0000000000000071
 20
218.5484773090636
 30
0.0
 40
18.0
 50
206.48075071624319
 51
333.51924928375718
  0
ARC
  5
83
  8
PATTERN_FILL
  6
CONTINUOUS
 62
     7
 10
0.0000000000000071
 20
218.5484773090636
 30
0.0
 40
20.0
 50
203.6599364961198
 51
336.34006350388103
  0
ARC
  5
84
  8
PATTERN_FILL
  6
CONTINUOUS
 62
     7
 10
0.0000000000000071
 20
218.5484773090636
 30
0.0
 40
21.999999999999989
 50
201.396808296459
 51
338.60319170353461
  0
ARC
  5
85
  8
PATTERN_FILL
  6
CONTINUOUS
 62
     7
 10
0.0000000000000071
 20
218.5484773090636
 30
0.0
 40
23.999999999999972
 50
199.53744509878811
 51
340.462554901212
  0
ARC
  5
86
  8
PATTERN_FILL
  6
CONTINUOUS
 62
     7
 10
0.0000000000000071
 20
218.5484773090636
 30
0.0
 40
26.0
 50
206.27342213848581
 51
333.72657786150029
  0
ARC
  5
87
  8
PATTERN_FILL
  6
CONTINUOUS
 62
     7
 10
0.0000000000000071
 20
218.5484773090636
 30
0.0
 40
27.999999999999961
 50
217.6302638057937
 51
322.3697361942061
  0
LINE
  5
88
  8
PATTERN_FILL
  6
CONTINUOUS
 62
     7
 10
0.0000000000000053
 20
186.5
 30
0.0
 11
0.0000000000000071
 21
210.5484773090636
 31
0.0
  0
ARC
  5
89
  8
PATTERN_FILL
  6
CONTINUOUS
 62
     7
 10
627.25000000000068
 20
212.5484773090636
 30
0.0
 40
625.25000000000102
 50
180.18566964296349
 51
182.38768473231389
  0
ARC
  5
8A
  8
PATTERN_FILL
  6
CONTINUOUS
 62
     7
 10
627.15511396063755
 20
223.4213404758338
 30
0.0
 40
623.25000000000102
 50
181.18589921108361
 51
183.39619134088559
  0
ARC
  5
8B
  8
PATTERN_FILL
  6
CONTINUOUS
 62
     7
 10
626.87149958417763
 20
234.2530547890066
 30
0.0
 40
621.2500000000008
 50
182.18913689571269
 51
184.40845064446299
  0
ARC
  5
8C
  8
PATTERN_FILL
  6
CONTINUOUS
 62
     7
 10
626.40044573234513
 20
245.04201773814381
 30
0.0
 40
619.25000000000068
 50
183.19557244132571
 51
185.4246701197066
  0
ARC
  5
8D
  8
PATTERN_FILL
  6
CONTINUOUS
 62
     7
 10
625.743301353834
 20
255.78623335373081
 30
0.0
 40
617.2500000000008
 50
184.20536361378009
 51
186.4450271309166
  0
ARC
  5
8E
  8
PATTERN_FILL
  6
CONTINUOUS
 62
     7
 10
624.90148115807051
 20
266.4825731121494
 30
0.0
 40
615.25000000000057
 50
185.2185667674392
 51
187.46959918333249
  0
ARC
  5
8F
  8
PATTERN_FILL
  6
CONTINUOUS
 62
     7
 10
623.8764552367777
 20
277.12787432220892
 30
0.0
 40
613.2500000000008
 50
186.23523785284951
 51
188.49846518672601
  0
ARC
  5
90
  8
PATTERN_FILL
  6
CONTINUOUS
 62
     7
 10
622.66974763606026
 20
287.71901100638479
 30
0.0
 40
611.25000000000102
 50
187.25543911937979
 51
189.1740024782768
  0
ARC
  5
91
  8
PATTERN_FILL
  6
CONTINUOUS
 62
     7
 10
621.28293552303433
 20
298.25289481747802
 30
0.0
 40
609.25000000000102
 50
188.27923939315031
 51
189.6770638443727
  0
ARC
  5
92
  8
PATTERN_FILL
  6
CONTINUOUS
 62
     7
 10
619.71764833695431
 20
308.72647593737548
 30
0.0
 40
607.25000000000102
 50
189.3067143886058
 51
190.209039367896
  0
ARC
  5
93
  8
PATTERN_FILL
  6
CONTINUOUS
 62
     7
 10
617.97556692520448
 20
319.13674395765031
 30
0.0
 40
605.2500000000008
 50
190.33794705677909
 51
190.71675602414959
  0
ARC
  5
94
  8
PATTERN_FILL
  6
CONTINUOUS
 62
     7
 10
0.0000000000000071
 20
218.5484773090636
 30
0.0
 40
29.999999999999961
 50
225.43281486382551
 51
314.56718513617437
  0
ARC
  5
95
  8
PATTERN_FILL
  6
CONTINUOUS
 62
     7
 10
0.0000000000000089
 20
218.5484773090636
 30
0.0
 40
31.99999999999995
 50
231.0103952500022
 51
308.98960474999791
  0
ARC
  5
96
  8
PATTERN_FILL
  6
CONTINUOUS
 62
     7
 10
0.0000000000000071
 20
218.5484773090636
 30
0.0
 40
33.999999999999972
 50
235.37612986763239
 51
250.49326972204429
  0
ARC
  5
97
  8
PATTERN_FILL
  6
CONTINUOUS
 62
     7
 10
0.0000000000000071
 20
218.5484773090636
 30
0.0
 40
33.999999999999972
 50
289.50673027795568
 51
304.6238701323677
  0
ARC
  5
98
  8
PATTERN_FILL
  6
CONTINUOUS
 62
     7
 10
0.0000000000000071
 20
218.5484773090636
 30
0.0
 40
35.99999999999995
 50
297.0971477816658
 51
301.0465854398804
  0
ARC
  5
99
  8
PATTERN_FILL
  6
CONTINUOUS
 62
     7
 10
-627.25000000000068
 20
212.5484773090636
 30
0.0
 40
625.25000000000102
 50
357.61231526768461
 51
359.81433035703651
  0
ARC
  5
9A
  8
PATTERN_FILL
  6
CONTINUOUS
 62
     7
 10
-627.15511396063755
 20
223.4213404758338
 30
0.0
 40
623.25000000000068
 50
356.60380865911111
 51
358.81410078891639
  0
ARC
  5
9B
  8
PATTERN_FILL
  6
CONTINUOUS
 62
     7
 10
-626.87149958417763
 20
234.2530547890066
 30
0.0
 40
621.2500000000008
 50
355.59154935553681
 51
357.81086310428719
  0
ARC
  5
9C
  8
PATTERN_FILL
  6
CONTINUOUS
 62
     7
 10
-626.40044573234513
 20
245.04201773814381
 30
0.0
 40
619.25000000000068
 50
354.57532988029573
 51
356.80442755867432
  0
ARC
  5
9D
  8
PATTERN_FILL
  6
CONTINUOUS
 62
     7
 10
-625.743301353834
 20
255.78623335373081
 30
0.0
 40
617.2500000000008
 50
353.55497286908439
 51
355.79463638621979
  0
ARC
  5
9E
  8
PATTERN_FILL
  6
CONTINUOUS
 62
     7
 10
-624.90148115807051
 20
266.4825731121494
 30
0.0
 40
615.25000000000057
 50
352.5304008166608
 51
354.78143323256057
  0
ARC
  5
9F
  8
PATTERN_FILL
  6
CONTINUOUS
 62
     7
 10
-623.8764552367777
 20
277.12787432220892
 30
0.0
 40
613.2500000000008
 50
351.50153481327112
 51
353.76476214715029
  0
ARC
  5
A0
  8
PATTERN_FILL
  6
CONTINUOUS
 62
     7
 10
-622.66974763606026
 20
287.71901100638479
 30
0.0
 40
611.25000000000102
 50
350.82599752172177
 51
352.74456088062021
  0
ARC
  5
A1
  8
PATTERN_FILL
  6
CONTINUOUS
 62
     7
 10
-621.28293552303433
 20
298.25289481747802
 30
0.0
 40
609.2500000000008
 50
350.32293615562548
 51
351.72076060684969
  0
ARC
  5
A2
  8
PATTERN_FILL
  6
CONTINUOUS
 62
     7
 10
-619.71764833695431
 20
308.72647593737548
 30
0.0
 40
607.25000000000102
 50
349.79096063210358
 51
350.693285611394
  0
ARC
  5
A3
  8
PATTERN_FILL
  6
CONTINUOUS
 62
     7
 10
-617.97556692520448
 20
319.13674395765031
 30
0.0
 40
605.2500000000008
 50
349.28324397585038
 51
349.66205294322077
  0
ARC
  5
A4
  8
PATTERN_FILL
  6
CONTINUOUS
 62
     7
 10
0.0000000000000036
 20
218.5484773090636
 30
0.0
 40
35.999999999999957
 50
238.9534145601194
 51
242.90285221833409
  0
ARC
  5
A5
  8
PATTERN_FILL
  6
CONTINUOUS
 62
     7
 10
0.0
 20
-99.926148209694276
 30
0.0
 40
25.999999999999961
 50
17.591006267423879
 51
17.74925132645097
  0
ARC
  5
A6
  8
PATTERN_FILL
  6
CONTINUOUS
 62
     7
 10
0.0
 20
-99.926148209694276
 30
0.0
 40
25.999999999999961
 50
26.915350291053429
 51
63.31536079691746
  0
ARC
  5
A7
  8
PATTERN_FILL
  6
CONTINUOUS
 62
     7
 10
0.0
 20
-99.926148209694276
 30
0.0
 40
25.999999999999979
 50
116.6846392030822
 51
153.08464970894639
  0
ARC
  5
A8
  8
PATTERN_FILL
  6
CONTINUOUS
 62
     7
 10
0.0
 20
-99.926148209694276
 30
0.0
 40
25.999999999999972
 50
162.25074867354681
 51
162.40899373257611
  0
ARC
  5
A9
  8
PATTERN_FILL
  6
CONTINUOUS
 62
     7
 10
0.0
 20
-99.926148209694276
 30
0.0
 40
23.99999999999995
 50
19.284325027965181
 51
44.83813837712642
  0
ARC
  5
AA
  8
PATTERN_FILL
  6
CONTINUOUS
 62
     7
 10
0.0
 20
-99.926148209694276
 30
0.0
 40
23.99999999999995
 50
135.16186162287349
 51
160.7156749720348
  0
ARC
  5
AB
  8
PATTERN_FILL
  6
CONTINUOUS
 62
     7
 10
0.0
 20
-99.926148209694276
 30
0.0
 40
21.99999999999995
 50
21.117359857471971
 51
30.358444247691679
  0
ARC
  5
AC
  8
PATTERN_FILL
  6
CONTINUOUS
 62
     7
 10
0.0
 20
-99.926148209694276
 30
0.0
 40
21.99999999999995
 50
149.64155575230831
 51
158.882640142528
  0
ARC
  5
AD
  8
PATTERN_FILL
  6
CONTINUOUS
 62
     7
 10
-627.25000000000068
 20
-93.926148209694304
 30
0.0
 40
625.25000000000114
 50
1.927636712921869
 51
2.3182623696323481
  0
ARC
  5
AE
  8
PATTERN_FILL
  6
CONTINUOUS
 62
     7
 10
-627.15511396063755
 20
-104.79901137646451
 30
0.0
 40
623.25000000000102
 50
2.8939608111556279
 51
3.2906718707844358
  0
ARC
  5
AF
  8
PATTERN_FILL
  6
CONTINUOUS
 62
     7
 10
-626.87149958417763
 20
-115.6307256896374
 30
0.0
 40
621.2500000000008
 50
3.8355985900194791
 51
4.2426394560586402
  0
ARC
  5
B0
  8
PATTERN_FILL
  6
CONTINUOUS
 62
     7
 10
-626.40044573234513
 20
-126.4196886387746
 30
0.0
 40
619.25000000000057
 50
4.7506823196693491
 51
5.1732791628505614
  0
ARC
  5
B1
  8
PATTERN_FILL
  6
CONTINUOUS
 62
     7
 10
-625.743301353834
 20
-137.1639042543616
 30
0.0
 40
617.25000000000045
 50
5.6359354948891882
 51
6.0810879410529841
  0
ARC
  5
B2
  8
PATTERN_FILL
  6
CONTINUOUS
 62
     7
 10
-624.90148115807051
 20
-147.8602440127801
 30
0.0
 40
615.25000000000068
 50
6.4856223137454663
 51
6.963625813284767
  0
ARC
  5
B3
  8
PATTERN_FILL
  6
CONTINUOUS
 62
     7
 10
-623.87645523677793
 20
-158.50554522283969
 30
0.0
 40
613.2500000000008
 50
7.2892314409267316
 51
7.8171346397391801
  0
ARC
  5
B4
  8
PATTERN_FILL
  6
CONTINUOUS
 62
     7
 10
-622.66974763606026
 20
-169.09668190701561
 30
0.0
 40
611.25000000000068
 50
8.0239408483367303
 51
8.6355525951623342
  0
ARC
  5
B5
  8
PATTERN_FILL
  6
CONTINUOUS
 62
     7
 10
-621.28293552303433
 20
-179.6305657181087
 30
0.0
 40
609.25000000000125
 50
8.6142703197878951
 51
9.4081676558742267
  0
ARC
  5
B6
  8
PATTERN_FILL
  6
CONTINUOUS
 62
     7
 10
-619.71764833695431
 20
-190.10414683800619
 30
0.0
 40
607.25000000000068
 50
9.2971533769211252
 51
10.11261463863578
  0
ARC
  5
B7
  8
PATTERN_FILL
  6
CONTINUOUS
 62
     7
 10
-617.97556692520482
 20
-200.51441485828099
 30
0.0
 40
605.2500000000008
 50
10.32832452845726
 51
10.681225843363629
  0
ARC
  5
B8
  8
PATTERN_FILL
  6
CONTINUOUS
 62
     7
 10
0.0
 20
-99.926148209694276
 30
0.0
 40
25.999999999999961
 50
162.250748673549
 51
162.40899373257611
  0
ARC
  5
B9
  8
PATTERN_FILL
  6
CONTINUOUS
 62
     7
 10
0.0
 20
-84.073851790305739
 30
0.0
 40
27.99999999999995
 50
221.5794067535933
 51
318.42059324640672
  0
ARC
  5
BA
  8
PATTERN_FILL
  6
CONTINUOUS
 62
     7
 10
0.0
 20
-84.073851790305739
 30
0.0
 40
29.999999999999961
 50
239.20431427101769
 51
300.30722046613448
  0
LINE
  5
BB
  8
PATTERN_FILL
  6
CONTINUOUS
 62
     7
 10
0.0
 20
-115.5
 30
0.0
 11
0.0
 21
-111.25
 31
0.0
  0
ARC
  5
BC
  8
PATTERN_FILL
  6
CONTINUOUS
 62
     7
 10
627.25000000000068
 20
-90.073851790305653
 30
0.0
 40
625.25000000000114
 50
181.92763671292181
 51
182.31826236963241
  0
ARC
  5
BD
  8
PATTERN_FILL
  6
CONTINUOUS
 62
     7
 10
627.15511396063755
 20
-79.200988623535423
 30
0.0
 40
623.25000000000102
 50
182.89396081115561
 51
183.29067187078439
  0
ARC
  5
BE
  8
PATTERN_FILL
  6
CONTINUOUS
 62
     7
 10
626.87149958417763
 20
-68.369274310362613
 30
0.0
 40
621.2500000000008
 50
183.8355985900194
 51
184.24263945605861
  0
ARC
  5
BF
  8
PATTERN_FILL
  6
CONTINUOUS
 62
     7
 10
626.40044573234513
 20
-57.580311361225348
 30
0.0
 40
619.25000000000057
 50
184.75068231966941
 51
185.1732791628506
  0
ARC
  5
C0
  8
PATTERN_FILL
  6
CONTINUOUS
 62
     7
 10
625.743301353834
 20
-46.836095745638367
 30
0.0
 40
617.25000000000045
 50
185.6359354948892
 51
186.081087941053
  0
ARC
  5
C1
  8
PATTERN_FILL
  6
CONTINUOUS
 62
     7
 10
624.90148115807051
 20
-36.139755987219871
 30
0.0
 40
615.25000000000068
 50
186.48562231374549
 51
186.96362581328481
  0
ARC
  5
C2
  8
PATTERN_FILL
  6
CONTINUOUS
 62
     7
 10
623.87645523677793
 20
-25.494454777160289
 30
0.0
 40
613.2500000000008
 50
187.2892314409267
 51
187.81713463973921
  0
ARC
  5
C3
  8
PATTERN_FILL
  6
CONTINUOUS
 62
     7
 10
622.66974763606026
 20
-14.90331809298436
 30
0.0
 40
611.25000000000068
 50
188.02394084833671
 51
188.6355525951623
  0
ARC
  5
C4
  8
PATTERN_FILL
  6
CONTINUOUS
 62
     7
 10
621.28293552303433
 20
-4.3694342818912437
 30
0.0
 40
609.25000000000125
 50
188.61427031978781
 51
189.40816765587419
  0
ARC
  5
C5
  8
PATTERN_FILL
  6
CONTINUOUS
 62
     7
 10
619.71764833695431
 20
6.1041468380062707
 30
0.0
 40
607.25000000000068
 50
189.2971533769211
 51
190.1126146386357
  0
ARC
  5
C6
  8
PATTERN_FILL
  6
CONTINUOUS
 62
     7
 10
617.97556692520482
 20
16.51441485828105
 30
0.0
 40
605.2500000000008
 50
190.3283245284573
 51
190.68122584336359
  0
ARC
  5
C7
  8
PATTERN_FILL
  6
CONTINUOUS
 62
     7
 10
0.0
 20
-84.073851790305739
 30
0.0
 40
25.99999999999995
 50
296.6846392030825
 51
333.08464970894659
  0
ARC
  5
C8
  8
PATTERN_FILL
  6
CONTINUOUS
 62
     7
 10
0.0
 20
-84.073851790305739
 30
0.0
 40
25.999999999999979
 50
206.91535029105361
 51
243.31536079691779
  0
ARC
  5
C9
  8
PATTERN_FILL
  6
CONTINUOUS
 62
     7
 10
0.0
 20
-84.073851790305739
 30
0.0
 40
25.999999999999979
 50
197.59100626742381
 51
197.74925132645311
  0
ARC
  5
CA
  8
PATTERN_FILL
  6
CONTINUOUS
 62
     7
 10
0.0
 20
-84.073851790305739
 30
0.0
 40
23.99999999999995
 50
315.16186162287357
 51
340.71567497203478
  0
ARC
  5
CB
  8
PATTERN_FILL
  6
CONTINUOUS
 62
     7
 10
0.0
 20
-84.073851790305739
 30
0.0
 40
23.99999999999995
 50
199.28432502796511
 51
224.83813837712651
  0
ARC
  5
CC
  8
PATTERN_FILL
  6
CONTINUOUS
 62
     7
 10
0.0
 20
-84.073851790305739
 30
0.0
 40
21.99999999999995
 50
329.64155575230831
 51
338.88264014252809
  0
ARC
  5
CD
  8
PATTERN_FILL
  6
CONTINUOUS
 62
     7
 10
0.0
 20
-84.073851790305739
 30
0.0
 40
21.99999999999995
 50
201.11735985747191
 51
210.35844424769169
  0
ARC
  5
CE
  8
PATTERN_FILL
  6
CONTINUOUS
 62
     7
 10
-627.25000000000068
 20
-90.073851790305653
 30
0.0
 40
625.25000000000102
 50
357.68173763036759
 51
358.07236328707819
  0
ARC
  5
CF
  8
PATTERN_FILL
  6
CONTINUOUS
 62
     7
 10
-627.15511396063755
 20
-79.200988623535423
 30
0.0
 40
623.25000000000102
 50
356.70932812921552
 51
357.10603918884431
  0
ARC
  5
D0
  8
PATTERN_FILL
  6
CONTINUOUS
 62
     7
 10
-626.87149958417763
 20
-68.369274310362613
 30
0.0
 40
621.2500000000008
 50
355.7573605439415
 51
356.16440140998048
  0
ARC
  5
D1
  8
PATTERN_FILL
  6
CONTINUOUS
 62
     7
 10
-626.40044573234513
 20
-57.580311361225348
 30
0.0
 40
619.25000000000057
 50
354.82672083714948
 51
355.24931768033059
  0
ARC
  5
D2
  8
PATTERN_FILL
  6
CONTINUOUS
 62
     7
 10
-625.743301353834
 20
-46.836095745638367
 30
0.0
 40
617.25000000000045
 50
353.918912058947
 51
354.36406450511078
  0
ARC
  5
D3
  8
PATTERN_FILL
  6
CONTINUOUS
 62
     7
 10
-624.90148115807051
 20
-36.139755987219871
 30
0.0
 40
615.25000000000068
 50
353.03637418671519
 51
353.51437768625448
  0
ARC
  5
D4
  8
PATTERN_FILL
  6
CONTINUOUS
 62
     7
 10
-623.87645523677793
 20
-25.494454777160289
 30
0.0
 40
613.2500000000008
 50
352.18286536026091
 51
352.7107685590733
  0
ARC
  5
D5
  8
PATTERN_FILL
  6
CONTINUOUS
 62
     7
 10
-622.66974763606026
 20
-14.90331809298436
 30
0.0
 40
611.25000000000068
 50
351.36444740483768
 51
351.97605915166332
  0
ARC
  5
D6
  8
PATTERN_FILL
  6
CONTINUOUS
 62
     7
 10
-621.28293552303433
 20
-4.3694342818912437
 30
0.0
 40
609.25000000000125
 50
350.59183234412581
 51
351.38572968021208
  0
ARC
  5
D7
  8
PATTERN_FILL
  6
CONTINUOUS
 62
     7
 10
-619.71764833695431
 20
6.1041468380062707
 30
0.0
 40
607.25000000000068
 50
349.8873853613643
 51
350.70284662307893
  0
ARC
  5
D8
  8
PATTERN_FILL
  6
CONTINUOUS
 62
     7
 10
-617.97556692520482
 20
16.51441485828105
 30
0.0
 40
605.2500000000008
 50
349.31877415663638
 51
349.67167547154293
  0
ARC
  5
D9
  8
PATTERN_FILL
  6
CONTINUOUS
 62
     7
 10
0.0
 20
-84.073851790305739
 30
0.0
 40
25.999999999999961
 50
197.59100626742381
 51
197.74925132645089
  0
LINE
  5
DA
  8
SPEC
  6
CONTINUOUS
 62
     7
 10
-250.0
 20
488.0
 30
0.0
 11
110.0
 21
488.0
 31
0.0
  0
LINE
  5
DB
  8
SPEC
  6
CONTINUOUS
 62
     7
 10
-250.0
 20
476.75
 30
0.0
 11
110.0
 21
476.75
 31
0.0
  0
LINE
  5
DC
  8
SPEC
  6
CONTINUOUS
 62
     7
 10
-250.0
 20
431.74999999999989
 30
0.0
 11
110.0
 21
431.74999999999989
 31
0.0
  0
LINE
  5
DD
  8
SPEC
  6
CONTINUOUS
 62
     7
 10
-250.0
 20
443.0
 30
0.0
 11
110.0
 21
443.0
 31
0.0
  0
LINE
  5
DE
  8
SPEC
  6
CONTINUOUS
 62
     7
 10
-250.0
 20
454.25
 30
0.0
 11
110.0
 21
454.25
 31
0.0
  0
LINE
  5
DF
  8
SPEC
  6
CONTINUOUS
 62
     7
 10
-250.0
 20
420.5
 30
0.0
 11
110.0
 21
420.5
 31
0.0
  0
LINE
  5
E0
  8
SPEC
  6
CONTINUOUS
 62
     7
 10
-250.0
 20
398.0
 30
0.0
 11
110.0
 21
398.0
 31
0.0
  0
LINE
  5
E1
  8
SPEC
  6
CONTINUOUS
 62
     7
 10
-250.0
 20
409.25
 30
0.0
 11
110.0
 21
409.25
 31
0.0
  0
LINE
  5
E2
  8
SPEC
  6
CONTINUOUS
 62
     7
 10
-250.0
 20
375.5
 30
0.0
 11
110.0
 21
375.5
 31
0.0
  0
LINE
  5
E3
  8
SPEC
  6
CONTINUOUS
 62
     7
 10
-250.0
 20
465.5
 30
0.0
 11
110.0
 21
465.5
 31
0.0
  0
TEXT
  5
E4
  8
SPEC
 62
     7
 10
-149.80000000000001
 20
479.11373833333329
 30
0.0
 40
5.7009440104166673
  1
F3E
 41
0.8
 11
-149.80000000000001
 21
484.81468234375001
 31
0.0
 73
     3
  0
LINE
  5
E5
  8
SPEC
  6
CONTINUOUS
 62
     7
 10
-250.0
 20
488.0
 30
0.0
 11
-250.0
 21
341.75
 31
0.0
  0
TEXT
  5
E6
  8
SPEC
 62
     7
 10
-246.25
 20
492.1797949999999
 30
0.0
 40
7.3297851562499989
  1
仕様
 41
0.8
 11
-246.25
 21
499.50958015624991
 31
0.0
 73
     3
  0
LINE
  5
E7
  8
SPEC
  6
CONTINUOUS
 62
     7
 10
-152.5
 20
488.0
 30
0.0
 11
-152.5
 21
341.75
 31
0.0
  0
LINE
  5
E8
  8
SPEC
  6
CONTINUOUS
 62
     7
 10
110.0
 20
488.0
 30
0.0
 11
110.0
 21
341.75
 31
0.0
  0
TEXT
  5
E9
  8
SPEC
 62
     7
 10
-149.80000000000001
 20
389.11375333333331
 30
0.0
 40
5.7009440104166673
  1
+2dBV(ゲイン調整スイッチ[-10dB]時)
 41
0.8
 11
-149.80000000000001
 21
394.81469734375003
 31
0.0
 73
     3
  0
TEXT
  5
EA
  8
SPEC
 62
     7
 10
-247.30000000000001
 20
434.11375333333331
 30
0.0
 40
5.7009440104166673
  1
アンテナ形式
 41
0.8
 11
-247.30000000000001
 21
439.81469734375003
 31
0.0
 73
     3
  0
TEXT
  5
EB
  8
SPEC
 62
     7
 10
-247.30000000000001
 20
479.11373833333329
 30
0.0
 40
5.7009440104166673
  1
電波型式
 41
0.8
 11
-247.30000000000001
 21
484.81468234375001
 31
0.0
 73
     3
  0
TEXT
  5
EC
  8
SPEC
 62
     7
 10
-247.30000000000001
 20
411.61375333333342
 30
0.0
 40
5.7009440104166673
  1
トーン信号周波数
 41
0.8
 11
-247.30000000000001
 21
417.31469734375003
 31
0.0
 73
     3
  0
TEXT
  5
ED
  8
SPEC
 62
     7
 10
-247.30000000000001
 20
400.36375333333331
 30
0.0
 40
5.7009440104166673
  1
周波数特性
 41
0.8
 11
-247.30000000000001
 21
406.06469734375003
 31
0.0
 73
     3
  0
TEXT
  5
EE
  8
SPEC
 62
     7
 10
-247.30000000000001
 20
445.36375333333331
 30
0.0
 40
5.7009440104166673
  1
空中線電力
 41
0.8
 11
-247.30000000000001
 21
451.06469734375003
 31
0.0
 73
     3
  0
TEXT
  5
EF
  8
SPEC
 62
     7
 10
-247.30000000000001
 20
422.86375333333331
 30
0.0
 40
5.7009440104166673
  1
到達距離
 41
0.8
 11
-247.30000000000001
 21
428.56469734375003
 31
0.0
 73
     3
  0
TEXT
  5
F0
  8
SPEC
 62
     7
 10
-247.30000000000001
 20
467.86375333333342
 30
0.0
 40
5.7009440104166673
  1
送信周波数
 41
0.8
 11
-247.30000000000001
 21
473.56469734375003
 31
0.0
 73
     3
  0
TEXT
  5
F1
  8
SPEC
 62
     7
 10
-247.30000000000001
 20
456.61375333333331
 30
0.0
 40
5.7009440104166673
  1
発振方式
 41
0.8
 11
-247.30000000000001
 21
462.31469734375003
 31
0.0
 73
     3
  0
TEXT
  5
F2
  8
SPEC
 62
     7
 10
-247.30000000000001
 20
389.11375333333331
 30
0.0
 40
5.7009440104166673
  1
最大入力レベル
 41
0.8
 11
-247.30000000000001
 21
394.81469734375003
 31
0.0
 73
     3
  0
TEXT
  5
F3
  8
SPEC
 62
     7
 10
-149.80000000000001
 20
434.11375333333331
 30
0.0
 40
5.7009440104166673
  1
内蔵式
 41
0.8
 11
-149.80000000000001
 21
439.81469734375003
 31
0.0
 73
     3
  0
TEXT
  5
F4
  8
SPEC
 62
     7
 10
-149.80000000000001
 20
411.61375333333342
 30
0.0
 40
5.7009440104166673
  1
32.768kHz
 41
0.8
 11
-149.80000000000001
 21
417.31469734375003
 31
0.0
 73
     3
  0
TEXT
  5
F5
  8
SPEC
 62
     7
 10
-149.80000000000001
 20
400.36375333333331
 30
0.0
 40
5.7009440104166673
  1
45Hz～15kHz(±2dB)
 41
0.8
 11
-149.80000000000001
 21
406.06469734375003
 31
0.0
 73
     3
  0
TEXT
  5
F6
  8
SPEC
 62
     7
 10
-149.80000000000001
 20
445.36375333333331
 30
0.0
 40
5.7009440104166673
  1
10mW
 41
0.8
 11
-149.80000000000001
 21
451.06469734375003
 31
0.0
 73
     3
  0
TEXT
  5
F7
  8
SPEC
 62
     7
 10
-149.80000000000001
 20
422.86375333333331
 30
0.0
 40
5.7009440104166673
  1
約60m(標準環境における最大値)
 41
0.8
 11
-149.80000000000001
 21
428.56469734375003
 31
0.0
 73
     3
  0
TEXT
  5
F8
  8
SPEC
 62
     7
 10
-149.80000000000001
 20
456.61375333333331
 30
0.0
 40
5.7009440104166673
  1
水晶制御PLLシンセサイザー方式
 41
0.8
 11
-149.80000000000001
 21
462.31469734375003
 31
0.0
 73
     3
  0
TEXT
  5
F9
  8
SPEC
 62
     7
 10
-149.80000000000001
 20
467.86375333333342
 30
0.0
 40
5.7009440104166673
  1
B型 (806～810MHz)30チャンネルのうち任意の1チャンネル
 41
0.8
 11
-149.80000000000001
 21
473.56469734375003
 31
0.0
 73
     3
  0
LINE
  5
FA
  8
SPEC
  6
CONTINUOUS
 62
     7
 10
-250.0
 20
364.25
 30
0.0
 11
110.0
 21
364.25
 31
0.0
  0
LINE
  5
FB
  8
SPEC
  6
CONTINUOUS
 62
     7
 10
-250.0
 20
353.0
 30
0.0
 11
110.0
 21
353.0
 31
0.0
  0
TEXT
  5
FC
  8
SPEC
 62
     7
 10
-149.80000000000001
 20
366.61375333333342
 30
0.0
 40
5.7009440104166673
  1
単3形アルカリ乾電池×2、または単3形ニッケル水素充電池×2
 41
0.8
 11
-149.80000000000001
 21
372.31469734375003
 31
0.0
 73
     3
  0
TEXT
  5
FD
  8
SPEC
 62
     7
 10
-247.30000000000001
 20
366.61375333333342
 30
0.0
 40
5.7009440104166673
  1
電源
 41
0.8
 11
-247.30000000000001
 21
372.31469734375003
 31
0.0
 73
     3
  0
LINE
  5
FE
  8
SPEC
  6
CONTINUOUS
 62
     7
 10
-250.0
 20
341.75
 30
0.0
 11
110.0
 21
341.75
 31
0.0
  0
TEXT
  5
FF
  8
SPEC
 62
     7
 10
-149.80000000000001
 20
355.36375333333342
 30
0.0
 40
5.7009440104166647
  1
φ51×241mm
 41
0.8
 11
-149.80000000000001
 21
361.06469734375003
 31
0.0
 73
     3
  0
TEXT
  5
100
  8
SPEC
 62
     7
 10
-247.30000000000001
 20
355.36375333333342
 30
0.0
 40
5.7009440104166673
  1
寸法(W×H×D)
 41
0.8
 11
-247.30000000000001
 21
361.06469734375003
 31
0.0
 73
     3
  0
TEXT
  5
101
  8
SPEC
 62
     7
 10
-149.80000000000001
 20
344.11375333333342
 30
0.0
 40
5.7009440104166673
  1
約188g(電池除く)
 41
0.8
 11
-149.80000000000001
 21
349.81469734375008
 31
0.0
 73
     3
  0
TEXT
  5
102
  8
SPEC
 62
     7
 10
-247.30000000000001
 20
344.11375333333342
 30
0.0
 40
5.7009440104166673
  1
重量
 41
0.8
 11
-247.30000000000001
 21
349.81469734375008
 31
0.0
 73
     3
  0
TEXT
  5
103
  8
SPEC
 62
     7
 10
-149.80000000000001
 20
377.86375333333342
 30
0.0
 40
5.7009440104166673
  1
0dB、-10dBの2段階切替
 41
0.8
 11
-149.80000000000001
 21
383.56469734375003
 31
0.0
 73
     3
  0
TEXT
  5
104
  8
SPEC
 62
     7
 10
-247.30000000000001
 20
377.86375333333342
 30
0.0
 40
5.7009440104166673
  1
ゲイン調整スイッチ
 41
0.8
 11
-247.30000000000001
 21
383.56469734375003
 31
0.0
 73
     3
  0
LINE
  5
105
  8
SPEC
  6
CONTINUOUS
 62
     7
 10
-250.0
 20
386.75
 30
0.0
 11
110.0
 21
386.75
 31
0.0
  0
TEXT
  5
106
  8
DIMNSIONS
 62
     7
 10
-62.500015000000019
 20
-225.19151500000001
 30
0.0
 40
7.3297851562499989
  1
(単位：mm)
 41
0.8
 11
-62.500015000000019
 21
-217.86172984375
 31
0.0
 73
     3
  0
LINE
  5
107
  8
DIMNSIONS
  6
CONTINUOUS
 62
     7
 10
-5.9999999776482591
 20
240.5
 30
0.0
 11
-95.999999977648244
 21
240.5
 31
0.0
  0
LINE
  5
108
  8
DIMNSIONS
  6
CONTINUOUS
 62
     7
 10
-5.9999999776482564
 20
0.0
 30
0.0
 11
-95.999999977648244
 21
0.0
 31
0.0
  0
LINE
  5
109
  8
DIMNSIONS
  6
CONTINUOUS
 62
     7
 10
-90.0
 20
240.5
 30
0.0
 11
-90.0
 21
0.0
 31
0.0
  0
LINE
  5
10A
  8
DIMNSIONS
  6
CONTINUOUS
 62
     7
 10
-90.0
 20
240.5
 30
0.0
 11
-87.447783942093565
 21
230.97499999999999
 31
0.0
  0
LINE
  5
10B
  8
DIMNSIONS
  6
CONTINUOUS
 62
     7
 10
-90.0
 20
240.5
 30
0.0
 11
-92.552216057906435
 21
230.97499999999999
 31
0.0
  0
LINE
  5
10C
  8
DIMNSIONS
  6
CONTINUOUS
 62
     7
 10
-90.0
 20
0.0
 30
0.0
 11
-92.552216057906435
 21
9.5250000000000021
 31
0.0
  0
LINE
  5
10D
  8
DIMNSIONS
  6
CONTINUOUS
 62
     7
 10
-90.0
 20
0.0
 30
0.0
 11
-87.447783942093551
 21
9.5250000000000021
 31
0.0
  0
TEXT
  5
10E
  8
DIMNSIONS
 62
     7
 10
-94.481666655490812
 20
112.3125
 30
0.0
 40
8.1442057291666661
  1
241
 50
90.0
 41
0.8
 11
-102.6258723846575
 21
112.3125
 31
0.0
 73
     3
  0
LINE
  5
10F
  8
DIMNSIONS
  6
CONTINUOUS
 62
     7
 10
-25.5
 20
-86.000000022351756
 30
0.0
 11
-25.5
 21
-34.000000022351749
 31
0.0
  0
LINE
  5
110
  8
DIMNSIONS
  6
CONTINUOUS
 62
     7
 10
25.5
 20
-86.000000022351756
 30
0.0
 11
25.5
 21
-34.000000022351749
 31
0.0
  0
LINE
  5
111
  8
DIMNSIONS
  6
CONTINUOUS
 62
     7
 10
-25.5
 20
-40.0
 30
0.0
 11
25.5
 21
-40.0
 31
0.0
  0
LINE
  5
112
  8
DIMNSIONS
  6
CONTINUOUS
 62
     7
 10
-25.5
 20
-40.0
 30
0.0
 11
-15.975
 21
-37.447783942093572
 31
0.0
  0
LINE
  5
113
  8
DIMNSIONS
  6
CONTINUOUS
 62
     7
 10
-25.5
 20
-40.0
 30
0.0
 11
-15.975
 21
-42.552216057906442
 31
0.0
  0
LINE
  5
114
  8
DIMNSIONS
  6
CONTINUOUS
 62
     7
 10
25.5
 20
-40.0
 30
0.0
 11
15.975
 21
-42.552216057906442
 31
0.0
  0
LINE
  5
115
  8
DIMNSIONS
  6
CONTINUOUS
 62
     7
 10
25.5
 20
-40.0
 30
0.0
 11
15.975
 21
-37.447783942093572
 31
0.0
  0
TEXT
  5
116
  8
DIMNSIONS
 62
     7
 10
-5.2916666666666661
 20
-35.518333344509202
 30
0.0
 40
8.1442057291666661
  1
51
 41
0.8
 11
-5.2916666666666652
 21
-27.37412761534253
 31
0.0
 73
     3
  0
LINE
  5
117
  8
DIMNSIONS
  6
CONTINUOUS
 62
     7
 10
-5.9999999776482591
 20
240.5
 30
0.0
 11
-65.999999977648244
 21
240.5
 31
0.0
  0
LINE
  5
118
  8
DIMNSIONS
  6
CONTINUOUS
 62
     7
 10
-24.499999977648251
 20
170.0
 30
0.0
 11
-65.999999977648244
 21
170.0
 31
0.0
  0
LINE
  5
119
  8
DIMNSIONS
  6
CONTINUOUS
 62
     7
 10
-60.0
 20
240.5
 30
0.0
 11
-60.0
 21
170.0
 31
0.0
  0
LINE
  5
11A
  8
DIMNSIONS
  6
CONTINUOUS
 62
     7
 10
-60.0
 20
240.5
 30
0.0
 11
-57.447783942093558
 21
230.97499999999999
 31
0.0
  0
LINE
  5
11B
  8
DIMNSIONS
  6
CONTINUOUS
 62
     7
 10
-60.0
 20
240.5
 30
0.0
 11
-62.552216057906442
 21
230.97499999999999
 31
0.0
  0
LINE
  5
11C
  8
DIMNSIONS
  6
CONTINUOUS
 62
     7
 10
-60.0
 20
170.0
 30
0.0
 11
-62.552216057906442
 21
179.52500000000001
 31
0.0
  0
LINE
  5
11D
  8
DIMNSIONS
  6
CONTINUOUS
 62
     7
 10
-60.0
 20
170.0
 30
0.0
 11
-57.447783942093558
 21
179.52500000000001
 31
0.0
  0
TEXT
  5
11E
  8
DIMNSIONS
 62
     7
 10
-64.481666655490798
 20
199.95833333333329
 30
0.0
 40
8.1442057291666661
  1
71
 50
90.0
 41
0.8
 11
-72.62587238465747
 21
199.95833333333329
 31
0.0
 73
     3
  0
LINE
  5
11F
  8
DIMNSIONS
  6
CONTINUOUS
 62
     7
 10
-24.499999977648251
 20
170.0
 30
0.0
 11
-65.999999977648244
 21
170.0
 31
0.0
  0
LINE
  5
120
  8
DIMNSIONS
  6
CONTINUOUS
 62
     7
 10
-12.92893216578277
 20
0.0
 30
0.0
 11
-65.999999977648244
 21
0.0
 31
0.0
  0
LINE
  5
121
  8
DIMNSIONS
  6
CONTINUOUS
 62
     7
 10
-60.0
 20
170.0
 30
0.0
 11
-60.0
 21
0.0
 31
0.0
  0
LINE
  5
122
  8
DIMNSIONS
  6
CONTINUOUS
 62
     7
 10
-60.0
 20
170.0
 30
0.0
 11
-57.447783942093558
 21
160.47499999999999
 31
0.0
  0
LINE
  5
123
  8
DIMNSIONS
  6
CONTINUOUS
 62
     7
 10
-60.0
 20
170.0
 30
0.0
 11
-62.552216057906442
 21
160.47499999999999
 31
0.0
  0
LINE
  5
124
  8
DIMNSIONS
  6
CONTINUOUS
 62
     7
 10
-60.0
 20
0.0
 30
0.0
 11
-62.552216057906442
 21
9.5250000000000021
 31
0.0
  0
LINE
  5
125
  8
DIMNSIONS
  6
CONTINUOUS
 62
     7
 10
-60.0
 20
0.0
 30
0.0
 11
-57.447783942093558
 21
9.5250000000000021
 31
0.0
  0
TEXT
  5
126
  8
DIMNSIONS
 62
     7
 10
-64.481666655490798
 20
77.0625
 30
0.0
 40
8.1442057291666661
  1
170
 50
90.0
 41
0.8
 11
-72.62587238465747
 21
77.0625
 31
0.0
 73
     3
  0
TEXT
  5
127
  8
DATA
 62
     7
 10
139.99996999999991
 20
-228.60732999999999
 30
0.0
 40
7.3297851562499989
  1
SLX2/BETA 87A
 41
0.8
 11
139.99996999999991
 21
-221.27754484375001
 31
0.0
 73
     3
  0
TEXT
  5
128
  8
DATA
 62
     7
 10
139.99996999999991
 20
-206.85732999999999
 30
0.0
 40
7.3297851562499989
  1
SHURE
 41
0.8
 11
139.99996999999991
 21
-199.52754484375001
 31
0.0
 73
     3
  0
TEXT
  5
129
  8
DATA
 62
     7
 10
139.99996999999991
 20
-216.8581574561403
 30
0.0
 40
6.5153645833333318
  1
ハンドヘルド型送信機
 41
0.8
 11
139.99996999999991
 21
-210.34279287280691
 31
0.0
 73
     3
  0
LINE
  5
12A
  8
DATA
  6
CONTINUOUS
 62
     7
 10
-18.5
 20
170.0
 30
0.0
 11
18.5
 21
170.0
 31
0.0
  0
LINE
  5
12B
  8
DATA
  6
CONTINUOUS
 62
     7
 10
-18.0
 20
77.999999999999986
 30
0.0
 11
18.0
 21
77.999999999999986
 31
0.0
  0
LINE
  5
12C
  8
DATA
  6
CONTINUOUS
 62
     7
 10
-12.99999999999998
 20
4.0
 30
0.0
 11
12.99999999999998
 21
4.0
 31
0.0
  0
LINE
  5
12D
  8
DATA
  6
CONTINUOUS
 62
     7
 10
-6.9289321881345236
 20
0.0
 30
0.0
 11
6.9289321881345236
 21
0.0
 31
0.0
  0
LINE
  5
12E
  8
DATA
  6
CONTINUOUS
 62
     7
 10
-16.566856570819489
 20
8.0
 30
0.0
 11
16.566856570819422
 21
8.0
 31
0.0
  0
LINE
  5
12F
  8
DATA
  6
CONTINUOUS
 62
     7
 10
-18.5
 20
170.0
 30
0.0
 11
-18.0
 21
77.999999999999986
 31
0.0
  0
LINE
  5
130
  8
DATA
  6
CONTINUOUS
 62
     7
 10
-18.0
 20
77.999999999999986
 30
0.0
 11
-17.028987777593532
 21
10.02914443154719
 31
0.0
  0
LINE
  5
131
  8
DATA
  6
CONTINUOUS
 62
     7
 10
18.5
 20
170.0
 30
0.0
 11
18.0
 21
77.999999999999986
 31
0.0
  0
LINE
  5
132
  8
DATA
  6
CONTINUOUS
 62
     7
 10
18.0
 20
77.999999999999986
 30
0.0
 11
17.028987777593532
 21
10.02914443154722
 31
0.0
  0
LINE
  5
133
  8
DATA
  6
CONTINUOUS
 62
     7
 10
-15.565031809528721
 20
6.5650318095287039
 30
0.0
 11
-10.46446609406726
 21
1.464466094067262
 31
0.0
  0
LINE
  5
134
  8
DATA
  6
CONTINUOUS
 62
     7
 10
15.565031809528721
 20
6.5650318095287332
 30
0.0
 11
10.46446609406726
 21
1.464466094067262
 31
0.0
  0
ARC
  5
135
  8
DATA
  6
CONTINUOUS
 62
     7
 10
12.02949790359599
 20
10.100565715461469
 30
0.0
 40
5.0
 50
315.0
 51
359.18154453831141
  0
ARC
  5
136
  8
DATA
  6
CONTINUOUS
 62
     7
 10
-12.02949790359599
 20
10.100565715461469
 30
0.0
 40
4.9999999999999831
 50
180.8184554616889
 51
225.0000000000004
  0
ARC
  5
137
  8
DATA
  6
CONTINUOUS
 62
     7
 10
6.9289321881345103
 20
4.9999999999999707
 30
0.0
 40
4.9999999999999707
 50
270.0000000000004
 51
315.0000000000004
  0
ARC
  5
138
  8
DATA
  6
CONTINUOUS
 62
     7
 10
-6.9289321881345378
 20
5.0
 30
0.0
 40
4.9999999999999902
 50
225.00000000000011
 51
270.0000000000004
  0
LINE
  5
139
  8
DATA
  6
CONTINUOUS
 62
     7
 10
-11.5
 20
77.999999999999986
 30
0.0
 11
-11.5
 21
123.0
 31
0.0
  0
LINE
  5
13A
  8
DATA
  6
CONTINUOUS
 62
     7
 10
11.5
 20
77.999999999999986
 30
0.0
 11
11.5
 21
123.0
 31
0.0
  0
LINE
  5
13B
  8
DATA
  6
CONTINUOUS
 62
     7
 10
-11.5
 20
123.0
 30
0.0
 11
11.5
 21
123.0
 31
0.0
  0
LINE
  5
13C
  8
DATA
  6
CONTINUOUS
 62
     7
 10
-8.0
 20
80.999999999999986
 30
0.0
 11
8.0
 21
80.999999999999986
 31
0.0
  0
LINE
  5
13D
  8
DATA
  6
CONTINUOUS
 62
     7
 10
10.0
 20
82.999999999999986
 30
0.0
 11
10.0
 21
86.999999999999986
 31
0.0
  0
LINE
  5
13E
  8
DATA
  6
CONTINUOUS
 62
     7
 10
8.0
 20
88.999999999999986
 30
0.0
 11
-8.0
 21
88.999999999999986
 31
0.0
  0
LINE
  5
13F
  8
DATA
  6
CONTINUOUS
 62
     7
 10
-10.0
 20
86.999999999999986
 30
0.0
 11
-10.0
 21
82.999999999999986
 31
0.0
  0
LINE
  5
140
  8
DATA
  6
CONTINUOUS
 62
     7
 10
-8.0
 20
87.499999999999986
 30
0.0
 11
-5.0
 21
87.499999999999986
 31
0.0
  0
LINE
  5
141
  8
DATA
  6
CONTINUOUS
 62
     7
 10
-9.0
 20
86.499999999999986
 30
0.0
 11
-9.0
 21
83.499999999999986
 31
0.0
  0
LINE
  5
142
  8
DATA
  6
CONTINUOUS
 62
     7
 10
-8.0
 20
82.499999999999986
 30
0.0
 11
-5.0
 21
82.499999999999986
 31
0.0
  0
LINE
  5
143
  8
DATA
  6
CONTINUOUS
 62
     7
 10
-4.0
 20
83.499999999999986
 30
0.0
 11
-4.0
 21
86.499999999999986
 31
0.0
  0
ARC
  5
144
  8
DATA
  6
CONTINUOUS
 62
     7
 10
-8.0
 20
83.499999999999986
 30
0.0
 40
1.0
 50
180.0
 51
270.0
  0
ARC
  5
145
  8
DATA
  6
CONTINUOUS
 62
     7
 10
-5.0
 20
83.499999999999986
 30
0.0
 40
1.0
 50
270.0
 51
0.0
  0
ARC
  5
146
  8
DATA
  6
CONTINUOUS
 62
     7
 10
-8.0
 20
86.499999999999986
 30
0.0
 40
1.0
 50
90.0
 51
180.0
  0
ARC
  5
147
  8
DATA
  6
CONTINUOUS
 62
     7
 10
-5.0
 20
86.499999999999986
 30
0.0
 40
1.0
 50
0.0
 51
90.0
  0
LINE
  5
148
  8
DATA
  6
CONTINUOUS
 62
     7
 10
8.0
 20
87.499999999999986
 30
0.0
 11
5.0
 21
87.499999999999986
 31
0.0
  0
LINE
  5
149
  8
DATA
  6
CONTINUOUS
 62
     7
 10
9.0
 20
86.499999999999986
 30
0.0
 11
9.0
 21
83.499999999999986
 31
0.0
  0
LINE
  5
14A
  8
DATA
  6
CONTINUOUS
 62
     7
 10
8.0
 20
82.499999999999986
 30
0.0
 11
5.0
 21
82.499999999999986
 31
0.0
  0
LINE
  5
14B
  8
DATA
  6
CONTINUOUS
 62
     7
 10
4.0
 20
83.499999999999986
 30
0.0
 11
4.0
 21
86.499999999999986
 31
0.0
  0
ARC
  5
14C
  8
DATA
  6
CONTINUOUS
 62
     7
 10
8.0
 20
83.499999999999986
 30
0.0
 40
1.0
 50
270.0
 51
0.0
  0
ARC
  5
14D
  8
DATA
  6
CONTINUOUS
 62
     7
 10
5.0
 20
83.499999999999986
 30
0.0
 40
1.0
 50
180.0
 51
270.0
  0
ARC
  5
14E
  8
DATA
  6
CONTINUOUS
 62
     7
 10
8.0
 20
86.499999999999986
 30
0.0
 40
1.0
 50
0.0
 51
90.0
  0
ARC
  5
14F
  8
DATA
  6
CONTINUOUS
 62
     7
 10
5.0
 20
86.499999999999986
 30
0.0
 40
1.0
 50
90.0
 51
180.0
  0
TEXT
  5
150
  8
DATA
 62
     7
 10
-12.0
 20
73.359333333333311
 30
0.0
 40
3.7041666666666648
  1
mute
 41
0.8
 11
-12.0
 21
77.063499999999976
 31
0.0
 73
     3
  0
TEXT
  5
151
  8
DATA
 62
     7
 10
0.999999999999998
 20
73.359333333333311
 30
0.0
 40
3.2576822916666659
  1
select
 41
0.8
 11
0.9999999999999982
 21
76.617015624999979
 31
0.0
 73
     3
  0
ARC
  5
152
  8
DATA
  6
CONTINUOUS
 62
     7
 10
-6.4999999999999778
 20
85.0
 30
0.0
 40
0.9999999999999785
 50
120.00000000000171
 51
60.000000000000639
  0
LINE
  5
153
  8
DATA
  6
CONTINUOUS
 62
     7
 10
-6.5
 20
86.499999999999986
 30
0.0
 11
-6.5
 21
85.499999999999986
 31
0.0
  0
ARC
  5
154
  8
DATA
  6
CONTINUOUS
 62
     7
 10
-8.0
 20
82.999999999999986
 30
0.0
 40
2.0
 50
180.0
 51
270.0
  0
ARC
  5
155
  8
DATA
  6
CONTINUOUS
 62
     7
 10
-8.0
 20
86.999999999999986
 30
0.0
 40
2.0
 50
90.0
 51
180.0
  0
ARC
  5
156
  8
DATA
  6
CONTINUOUS
 62
     7
 10
8.0
 20
86.999999999999986
 30
0.0
 40
2.0
 50
0.0
 51
90.0
  0
ARC
  5
157
  8
DATA
  6
CONTINUOUS
 62
     7
 10
8.0
 20
82.999999999999986
 30
0.0
 40
2.0
 50
270.0
 51
0.0
  0
LINE
  5
158
  8
DATA
  6
CONTINUOUS
 62
     7
 10
-9.0
 20
92.999999999999986
 30
0.0
 11
9.0
 21
92.999999999999986
 31
0.0
  0
LINE
  5
159
  8
DATA
  6
CONTINUOUS
 62
     7
 10
-9.0
 20
92.999999999999986
 30
0.0
 11
-9.0
 21
105.0
 31
0.0
  0
LINE
  5
15A
  8
DATA
  6
CONTINUOUS
 62
     7
 10
-9.0
 20
105.0
 30
0.0
 11
9.0
 21
105.0
 31
0.0
  0
LINE
  5
15B
  8
DATA
  6
CONTINUOUS
 62
     7
 10
9.0
 20
105.0
 30
0.0
 11
9.0
 21
92.999999999999986
 31
0.0
  0
CIRCLE
  5
15C
  8
DATA
  6
CONTINUOUS
 62
     7
 10
0.0
 20
110.5
 30
0.0
 40
1.5
  0
TEXT
  5
15D
  8
DATA
 62
     7
 10
-6.3146631056766571
 20
113.50347095812209
 30
0.0
 40
5.5562500000000004
  1
SLX2
 41
0.8
 11
-6.3146631056766571
 21
119.0597209581221
 31
0.0
 73
     3
  0
CIRCLE
  5
15E
  8
DATA
  6
CONTINUOUS
 62
     7
 10
0.0
 20
-92.0
 30
0.0
 40
25.0
  0
CIRCLE
  5
15F
  8
DATA
  6
CONTINUOUS
 62
     7
 10
0.0
 20
-92.0
 30
0.0
 40
23.5
  0
CIRCLE
  5
160
  8
DATA
  6
CONTINUOUS
 62
     7
 10
0.0
 20
-92.0
 30
0.0
 40
13.0
  0
CIRCLE
  5
161
  8
DATA
  6
CONTINUOUS
 62
     7
 10
0.0
 20
-92.0
 30
0.0
 40
18.5
  0
CIRCLE
  5
162
  8
DATA
  6
CONTINUOUS
 62
     7
 10
0.0
 20
-92.0
 30
0.0
 40
19.25
  0
LINE
  5
163
  8
DATA
  6
CONTINUOUS
 62
     7
 10
-18.5
 20
170.0
 30
0.0
 11
-18.5
 21
177.5
 31
0.0
  0
LINE
  5
164
  8
DATA
  6
CONTINUOUS
 62
     7
 10
18.5
 20
170.0
 30
0.0
 11
18.5
 21
177.5
 31
0.0
  0
LINE
  5
165
  8
DATA
  6
CONTINUOUS
 62
     7
 10
-18.5
 20
177.5
 30
0.0
 11
18.5
 21
177.5
 31
0.0
  0
LINE
  5
166
  8
DATA
  6
CONTINUOUS
 62
     7
 10
-18.0
 20
180.0
 30
0.0
 11
18.0
 21
180.0
 31
0.0
  0
LINE
  5
167
  8
DATA
  6
CONTINUOUS
 62
     7
 10
-18.0
 20
180.0
 30
0.0
 11
-18.5
 21
177.5
 31
0.0
  0
LINE
  5
168
  8
DATA
  6
CONTINUOUS
 62
     7
 10
18.0
 20
180.0
 30
0.0
 11
18.5
 21
177.5
 31
0.0
  0
LINE
  5
169
  8
DATA
  6
CONTINUOUS
 62
     7
 10
-19.25
 20
186.5
 30
0.0
 11
19.25
 21
186.5
 31
0.0
  0
LINE
  5
16A
  8
DATA
  6
CONTINUOUS
 62
     7
 10
-19.25
 20
186.5
 30
0.0
 11
-18.0
 21
180.0
 31
0.0
  0
LINE
  5
16B
  8
DATA
  6
CONTINUOUS
 62
     7
 10
19.25
 20
186.5
 30
0.0
 11
18.0
 21
180.0
 31
0.0
  0
LINE
  5
16C
  8
DATA
  6
CONTINUOUS
 62
     7
 10
-25.0
 20
214.5
 30
0.0
 11
25.0
 21
214.5
 31
0.0
  0
LINE
  5
16D
  8
DATA
  6
CONTINUOUS
 62
     7
 10
-25.0
 20
210.5
 30
0.0
 11
25.0
 21
210.5
 31
0.0
  0
LINE
  5
16E
  8
DATA
  6
CONTINUOUS
 62
     7
 10
-25.0
 20
213.5
 30
0.0
 11
25.0
 21
213.5
 31
0.0
  0
LINE
  5
16F
  8
DATA
  6
CONTINUOUS
 62
     7
 10
-25.0
 20
211.5
 30
0.0
 11
25.0
 21
211.5
 31
0.0
  0
LINE
  5
170
  8
DATA
  6
CONTINUOUS
 62
     7
 10
-23.0
 20
214.5
 30
0.0
 11
23.0
 21
214.5
 31
0.0
  0
LINE
  5
171
  8
DATA
  6
CONTINUOUS
 62
     7
 10
18.25
 20
186.5
 30
0.0
 11
22.729927686416701
 21
203.56639118634931
 31
0.0
  0
CIRCLE
  5
172
  8
DATA
  6
CONTINUOUS
 62
     7
 10
0.0
 20
-92.0
 30
0.0
 40
17.0
  0
LINE
  5
173
  8
DATA
  6
CONTINUOUS
 62
     7
 10
25.0
 20
214.5
 30
0.0
 11
25.0
 21
213.5
 31
0.0
  0
LINE
  5
174
  8
DATA
  6
CONTINUOUS
 62
     7
 10
25.0
 20
211.5
 30
0.0
 11
25.0
 21
210.5
 31
0.0
  0
LINE
  5
175
  8
DATA
  6
CONTINUOUS
 62
     7
 10
-25.0
 20
214.5
 30
0.0
 11
-25.0
 21
213.5
 31
0.0
  0
LINE
  5
176
  8
DATA
  6
CONTINUOUS
 62
     7
 10
-25.0
 20
211.5
 30
0.0
 11
-25.0
 21
210.5
 31
0.0
  0
ARC
  5
177
  8
DATA
  6
CONTINUOUS
 62
     7
 10
-24.403312163512972
 20
212.51116454968471
 30
0.0
 40
1.154916413430839
 50
121.1078229189671
 51
241.10782291896791
  0
ARC
  5
178
  8
DATA
  6
CONTINUOUS
 62
     7
 10
24.403312163512972
 20
212.51116454968471
 30
0.0
 40
1.1549164134308489
 50
298.89217708103217
 51
58.892177081032912
  0
ARC
  5
179
  8
DATA
  6
CONTINUOUS
 62
     7
 10
-57.399999999999999
 20
212.5
 30
0.0
 40
80.900000000000006
 50
1.416603643380594
 51
18.185447628869351
  0
LINE
  5
17A
  8
DATA
  6
CONTINUOUS
 62
     7
 10
23.5
 20
210.5
 30
0.0
 11
23.5
 21
209.53299720403371
 31
0.0
  0
ARC
  5
17B
  8
DATA
  6
CONTINUOUS
 62
     7
 10
0.0000000000000036
 20
209.53299720403371
 30
0.0
 40
23.5
 50
345.29169610031721
 51
360.0
  0
ARC
  5
17C
  8
DATA
  6
CONTINUOUS
 62
     7
 10
15.65894880163555
 20
236.5
 30
0.0
 40
3.9999999999999818
 50
18.18544762886901
 51
90.0
  0
LINE
  5
17D
  8
DATA
  6
CONTINUOUS
 62
     7
 10
-18.25
 20
186.5
 30
0.0
 11
-22.729927686416701
 21
203.56639118634931
 31
0.0
  0
ARC
  5
17E
  8
DATA
  6
CONTINUOUS
 62
     7
 10
57.399999999999991
 20
212.5
 30
0.0
 40
80.900000000000006
 50
161.81455237113059
 51
178.5833963566194
  0
LINE
  5
17F
  8
DATA
  6
CONTINUOUS
 62
     7
 10
-23.5
 20
210.5
 30
0.0
 11
-23.5
 21
209.53299720403371
 31
0.0
  0
ARC
  5
180
  8
DATA
  6
CONTINUOUS
 62
     7
 10
0.0
 20
209.53299720403371
 30
0.0
 40
23.5
 50
180.0
 51
194.70830389968279
  0
ARC
  5
181
  8
DATA
  6
CONTINUOUS
 62
     7
 10
-15.65894880163555
 20
236.5
 30
0.0
 40
3.9999999999999711
 50
90.0
 51
161.81455237113099
  0
LINE
  5
182
  8
DATA
  6
CONTINUOUS
 62
     7
 10
-15.65894880163555
 20
240.5
 30
0.0
 11
15.65894880163555
 21
240.5
 31
0.0
  0
TEXT
  5
183
  8
DATA
 62
     7
 10
-8.1873830409356732
 20
172.079125
 30
0.0
 40
3.2576822916666659
  1
BETA 87A
 41
0.8
 11
-8.1873830409356732
 21
175.33680729166659
 31
0.0
 73
     3
  0
CIRCLE
  5
184
  8
DATA
  6
CONTINUOUS
 62
     7
 10
0.0
 20
-92.0
 30
0.0
 40
25.5
  0
TEXT
  5
185
  8
DATA
 62
     7
 10
-8.0
 20
-94.461000000000013
 30
0.0
 40
5.5562500000000004
  1
SHURE
 41
0.8
 11
-8.0
 21
-88.904750000000007
 31
0.0
 73
     3
  0
ENDSEC
  0
EOF
