  0
SECTION
  2
HEADER
  9
$ACADVER
  1
AC1009
  9
$INSBASE
 10
0.0
 20
0.0
 30
0.0
  9
$EXTMIN
 10
-272.51647823400589
 20
-284.86571085595318
 30
-0.0015258207003583
  9
$EXTMAX
 10
267.51645074857652
 20
518.02445227010935
 30
0.0000000349246037
  9
$LIMMIN
 10
0.0
 20
0.0
  9
$LIMMAX
 10
0.0
 20
0.0
  9
$ORTHOMODE
 70
     0
  9
$REGENMODE
 70
     1
  9
$FILLMODE
 70
     1
  9
$QTEXTMODE
 70
     0
  9
$MIRRTEXT
 70
     1
  9
$DRAGMODE
 70
     2
  9
$LTSCALE
 40
15.24
  9
$OSMODE
 70
   231
  9
$ATTMODE
 70
     1
  9
$TEXTSIZE
 40
0.0
  9
$TRACEWID
 40
1.0
  9
$TEXTSTYLE
  7
STANDARD
  9
$CLAYER
  8
DATA
  9
$CELTYPE
  6
CONTINUOUS
  9
$CECOLOR
 62
   256
  9
$DIMSCALE
 40
1.0
  9
$DIMASZ
 40
0.18
  9
$DIMEXO
 40
0.0625
  9
$DIMDLI
 40
0.38
  9
$DIMRND
 40
0.0
  9
$DIMDLE
 40
0.0
  9
$DIMEXE
 40
0.18
  9
$DIMTP
 40
0.0
  9
$DIMTM
 40
0.0
  9
$DIMTXT
 40
0.18
  9
$DIMCEN
 40
0.09
  9
$DIMTSZ
 40
0.0
  9
$DIMTOL
 70
     0
  9
$DIMLIM
 70
     0
  9
$DIMTIH
 70
     1
  9
$DIMTOH
 70
     1
  9
$DIMSE1
 70
     0
  9
$DIMSE2
 70
     0
  9
$DIMTAD
 70
     0
  9
$DIMZIN
 70
     0
  9
$DIMBLK
  1

  9
$DIMASO
 70
     1
  9
$DIMSHO
 70
     1
  9
$DIMPOST
  1

  9
$DIMAPOST
  1

  9
$DIMALT
 70
     0
  9
$DIMALTD
 70
     2
  9
$DIMALTF
 40
25.399999999999999
  9
$DIMLFAC
 40
1.0
  9
$DIMTOFL
 70
     0
  9
$DIMTVP
 40
0.0
  9
$DIMTIX
 70
     0
  9
$DIMSOXD
 70
     0
  9
$DIMSAH
 70
     0
  9
$DIMBLK1
  1

  9
$DIMBLK2
  1

  9
$DIMSTYLE
  2
STANDARD
  9
$DIMCLRD
 70
     0
  9
$DIMCLRE
 70
     0
  9
$DIMCLRT
 70
     0
  9
$DIMTFAC
 40
1.0
  9
$DIMGAP
 40
0.09
  9
$LUNITS
 70
     2
  9
$LUPREC
 70
     4
  9
$SKETCHINC
 40
0.1
  9
$FILLETRAD
 40
0.0
  9
$AUNITS
 70
     0
  9
$AUPREC
 70
     0
  9
$MENU
  1
acad
  9
$ELEVATION
 40
0.0
  9
$PELEVATION
 40
0.0
  9
$THICKNESS
 40
0.0
  9
$LIMCHECK
 70
     0
  9
$BLIPMODE
 70
     0
  9
$CHAMFERA
 40
0.0
  9
$CHAMFERB
 40
0.0
  9
$SKPOLY
 70
     0
  9
$TDCREATE
 40
2453780.7064930559
  9
$TDUPDATE
 40
2453780.7171000931
  9
$TDINDWG
 40
0.0002032755
  9
$TDUSRTIMER
 40
0.0002030903
  9
$USRTIMER
 70
     1
  9
$ANGBASE
 50
0.0
  9
$ANGDIR
 70
     0
  9
$PDMODE
 70
     1
  9
$PDSIZE
 40
-2.0
  9
$PLINEWID
 40
0.0
  9
$COORDS
 70
     2
  9
$SPLFRAME
 70
     0
  9
$SPLINETYPE
 70
     6
  9
$SPLINESEGS
 70
     8
  9
$ATTDIA
 70
     0
  9
$ATTREQ
 70
     1
  9
$HANDLING
 70
     1
  9
$HANDSEED
  5
1CE
  9
$SURFTAB1
 70
     6
  9
$SURFTAB2
 70
     6
  9
$SURFTYPE
 70
     6
  9
$SURFU
 70
     6
  9
$SURFV
 70
     6
  9
$UCSNAME
  2

  9
$UCSORG
 10
0.0
 20
0.0
 30
0.0
  9
$UCSXDIR
 10
1.0
 20
0.0
 30
0.0
  9
$UCSYDIR
 10
0.0
 20
1.0
 30
0.0
  9
$PUCSNAME
  2

  9
$PUCSORG
 10
0.0
 20
0.0
 30
0.0
  9
$PUCSXDIR
 10
1.0
 20
0.0
 30
0.0
  9
$PUCSYDIR
 10
0.0
 20
1.0
 30
0.0
  9
$USERI1
 70
     0
  9
$USERI2
 70
     0
  9
$USERI3
 70
     0
  9
$USERI4
 70
     0
  9
$USERI5
 70
     0
  9
$USERR1
 40
0.0
  9
$USERR2
 40
0.0
  9
$USERR3
 40
0.0
  9
$USERR4
 40
0.0
  9
$USERR5
 40
0.0
  9
$WORLDVIEW
 70
     1
  9
$SHADEDGE
 70
     3
  9
$SHADEDIF
 70
    70
  9
$TILEMODE
 70
     1
  9
$MAXACTVP
 70
    64
  9
$PLIMCHECK
 70
     0
  9
$PEXTMIN
 10
1.0000000000000000E+020
 20
1.0000000000000000E+020
 30
1.0000000000000000E+020
  9
$PEXTMAX
 10
-1.0000000000000000E+020
 20
-1.0000000000000000E+020
 30
-1.0000000000000000E+020
  9
$PLIMMIN
 10
0.0
 20
0.0
  9
$PLIMMAX
 10
12.0
 20
9.0
  9
$UNITMODE
 70
     0
  9
$VISRETAIN
 70
     0
  9
$PLINEGEN
 70
     1
  9
$PSLTSCALE
 70
     0
  0
ENDSEC
  0
SECTION
  2
TABLES
  0
TABLE
  2
VPORT
 70
     2
  0
VPORT
  2
*ACTIVE
 70
     0
 10
0.0
 20
0.0
 11
1.0
 21
1.0
 12
-2.500013742714656
 22
116.579370707078
 13
0.0
 23
0.0
 14
1.0
 24
1.0
 15
0.0
 25
0.0
 16
0.0
 26
0.0
 36
1.0
 17
0.0
 27
0.0
 37
0.0
 40
809.53477137262303
 41
1.665745856353591
 42
50.0
 43
0.0
 44
0.0
 50
0.0
 51
0.0
 71
     0
 72
  2000
 73
     1
 74
     1
 75
     0
 76
     0
 77
     0
 78
     0
  0
ENDTAB
  0
TABLE
  2
LTYPE
 70
    11
  0
LTYPE
  2
CONTINUOUS
 70
     0
  3
Solid line
 72
    65
 73
     0
 40
0.0
  0
ENDTAB
  0
TABLE
  2
LAYER
 70
     6
  0
LAYER
  2
0
 70
     0
 62
     7
  6
CONTINUOUS
  0
LAYER
  2
DATA
 70
     0
 62
     7
  6
CONTINUOUS
  0
LAYER
  2
HIBINO-BASE
 70
     0
 62
     7
  6
CONTINUOUS
  0
LAYER
  2
PATTERN_FILL
 70
     0
 62
     7
  6
CONTINUOUS
  0
LAYER
  2
SPEC
 70
     0
 62
     7
  6
CONTINUOUS
  0
LAYER
  2
DIMNSIONS
 70
     0
 62
     7
  6
CONTINUOUS
  0
ENDTAB
  0
TABLE
  2
STYLE
 70
     2
  0
STYLE
  2
STANDARD
 70
     0
 40
0.0
 41
1.0
 50
0.0
 71
     0
 42
0.0
  3
txt
  4
BIGFONT.SHX
  0
ENDTAB
  0
TABLE
  2
VIEW
 70
     0
  0
ENDTAB
  0
TABLE
  2
UCS
 70
     0
  0
ENDTAB
  0
TABLE
  2
APPID
 70
     1
  0
APPID
  2
ACAD
 70
     0
  0
ENDTAB
  0
TABLE
  2
DIMSTYLE
 70
     1
  0
DIMSTYLE
  2
STANDARD
 70
     0
  3

  4

  5

  6

  7

 40
1.0
 41
0.18
 42
0.0625
 43
0.38
 44
0.18
 45
0.0
 46
0.0
 47
0.0
 48
0.0
140
0.18
141
0.09
142
0.0
143
25.399999999999999
144
1.0
145
0.0
146
1.0
147
0.09
 71
     0
 72
     0
 73
     1
 74
     1
 75
     0
 76
     0
 77
     0
 78
     0
170
     0
171
     2
172
     0
173
     0
174
     0
175
     0
176
     0
177
     0
178
     0
  0
ENDTAB
  0
ENDSEC
  0
SECTION
  2
BLOCKS
  0
BLOCK
  8
0
  2
$MODEL_SPACE
 70
     0
 10
0.0
 20
0.0
 30
0.0
  3
$MODEL_SPACE
  1

  0
ENDBLK
  5
1A8
  8
0
  0
BLOCK
 67
     1
  8
0
  2
$PAPER_SPACE
 70
     0
 10
0.0
 20
0.0
 30
0.0
  3
$PAPER_SPACE
  1

  0
ENDBLK
  5
1A4
 67
     1
  8
0
  0
ENDSEC
  0
SECTION
  2
ENTITIES
  0
LINE
  5
2D
  8
HIBINO-BASE
  6
CONTINUOUS
 62
     7
 10
-272.5
 20
518.0
 30
0.0
 11
267.49997000000002
 21
518.0
 31
0.0
  0
LINE
  5
2E
  8
HIBINO-BASE
  6
CONTINUOUS
 62
     7
 10
267.49997000000002
 20
-261.99998499999998
 30
0.0
 11
-272.5
 21
-261.99998499999998
 31
0.0
  0
LINE
  5
2F
  8
HIBINO-BASE
  6
CONTINUOUS
 62
     7
 10
-272.5
 20
-261.99998499999998
 30
0.0
 11
-272.5
 21
518.0
 31
0.0
  0
TEXT
  5
30
  8
HIBINO-BASE
 62
     7
 10
-250.94800000000001
 20
-281.22600549999999
 30
0.0
 40
10.800120996093741
  1
Hibino Corporation
 41
0.8
 11
-250.94800000000001
 21
-270.42588450390627
 31
0.0
 73
     3
  0
LINE
  5
31
  8
HIBINO-BASE
  6
CONTINUOUS
 62
     7
 10
267.49997000000002
 20
518.0
 30
0.0
 11
267.49997000000002
 21
-261.99998499999998
 31
0.0
  0
LINE
  5
32
  8
HIBINO-BASE
  6
CONTINUOUS
 62
     7
 10
-2.5000150000000181
 20
-194.5
 30
0.0
 11
267.49997000000002
 21
-194.5
 31
0.0
  0
LINE
  5
33
  8
HIBINO-BASE
  6
CONTINUOUS
 62
     7
 10
-2.5000150000000181
 20
-261.99998499999998
 30
0.0
 11
-2.5000150000000181
 21
-194.5
 31
0.0
  0
TEXT
  5
34
  8
HIBINO-BASE
 62
     7
 10
0.1999699999999806
 20
-202.60000959999999
 30
0.0
 40
5.4000778125000002
  1
NOTE
 41
0.8
 11
0.1999699999999809
 21
-197.19993178749999
 31
0.0
 73
     3
  0
LINE
  5
35
  8
HIBINO-BASE
  6
CONTINUOUS
 62
     7
 10
102.499985
 20
-261.99998499999998
 30
0.0
 11
102.499985
 21
-194.5
 31
0.0
  0
TEXT
  5
36
  8
HIBINO-BASE
 62
     7
 10
105.1999849999999
 20
-202.60000959999999
 30
0.0
 40
5.4000778125000002
  1
TITLE
 41
0.8
 11
105.1999849999999
 21
-197.19993178749999
 31
0.0
 73
     3
  0
TEXT
  5
37
  8
HIBINO-BASE
 62
     7
 10
147.70513999999989
 20
-281.22600549999999
 30
0.0
 40
10.800120996093741
  1
ヒビノ株式会社
 41
0.8
 11
147.70513999999989
 21
-270.42588450390627
 31
0.0
 73
     3
  0
LINE
  5
38
  8
HIBINO-BASE
  6
CONTINUOUS
 62
     7
 10
-2.5000150000000181
 20
-232.0
 30
0.0
 11
267.49997000000002
 21
-232.0
 31
0.0
  0
TEXT
  5
39
  8
HIBINO-BASE
 62
     7
 10
142.69998499999991
 20
-239.93103459999989
 30
0.0
 40
5.4000778125000002
  1
DRAWN
 41
0.8
 11
142.69998499999991
 21
-234.53095678749989
 31
0.0
 73
     3
  0
TEXT
  5
3A
  8
HIBINO-BASE
 62
     7
 10
67.69998499999997
 20
-239.93103459999989
 30
0.0
 40
5.4000778125000002
  1
DATE
 41
0.8
 11
67.69998499999997
 21
-234.53095678749989
 31
0.0
 73
     3
  0
TEXT
  5
3B
  8
HIBINO-BASE
 62
     7
 10
0.7999699999999802
 20
-239.8583406999999
 30
0.0
 40
4.8865195898437506
  1
図面サイズ
 41
0.8
 11
0.7999699999999806
 21
-234.97182111015621
 31
0.0
 73
     3
  0
TEXT
  5
3C
  8
HIBINO-BASE
 62
     7
 10
37.699969999999979
 20
-239.93103459999989
 30
0.0
 40
5.4000778125000002
  1
SCALE
 41
0.8
 11
37.699969999999979
 21
-234.53095678749989
 31
0.0
 73
     3
  0
TEXT
  5
3D
  8
HIBINO-BASE
 62
     7
 10
105.1999849999999
 20
-239.93103459999989
 30
0.0
 40
5.4000778125000002
  1
DESIGN
 41
0.8
 11
105.1999849999999
 21
-234.53095678749989
 31
0.0
 73
     3
  0
TEXT
  5
3E
  8
HIBINO-BASE
 62
     7
 10
217.69997000000001
 20
-239.93103459999989
 30
0.0
 40
5.4000778125000002
  1
DRAWING NO.
 41
0.8
 11
217.69997000000001
 21
-234.53095678749989
 31
0.0
 73
     3
  0
TEXT
  5
3F
  8
HIBINO-BASE
 62
     7
 10
180.19997000000001
 20
-239.93103459999989
 30
0.0
 40
5.4000778125000002
  1
CHECK
 41
0.8
 11
180.19997000000001
 21
-234.53095678749989
 31
0.0
 73
     3
  0
LINE
  5
40
  8
HIBINO-BASE
  6
CONTINUOUS
 62
     7
 10
40.624969999999969
 20
-258.25
 30
0.0
 11
51.874984999999981
 21
-247.0
 31
0.0
  0
TEXT
  5
41
  8
HIBINO-BASE
 62
     7
 10
38.749969999999983
 20
-252.1471426
 30
0.0
 40
6.515359453124999
  1
1
 41
0.8
 11
38.749969999999983
 21
-245.63178314687499
 31
0.0
 73
     3
  0
LINE
  5
42
  8
HIBINO-BASE
  6
CONTINUOUS
 62
     7
 10
34.999969999999983
 20
-261.99998499999998
 30
0.0
 11
34.999969999999983
 21
-232.0
 31
0.0
  0
LINE
  5
43
  8
HIBINO-BASE
  6
CONTINUOUS
 62
     7
 10
64.999969999999976
 20
-261.99998499999998
 30
0.0
 11
64.999969999999976
 21
-232.0
 31
0.0
  0
LINE
  5
44
  8
HIBINO-BASE
  6
CONTINUOUS
 62
     7
 10
139.99996999999991
 20
-232.0
 30
0.0
 11
139.99996999999991
 21
-261.99998499999998
 31
0.0
  0
LINE
  5
45
  8
HIBINO-BASE
  6
CONTINUOUS
 62
     7
 10
214.99998500000001
 20
-232.0
 30
0.0
 11
214.99998500000001
 21
-261.99998499999998
 31
0.0
  0
LINE
  5
46
  8
HIBINO-BASE
  6
CONTINUOUS
 62
     7
 10
177.49996999999991
 20
-261.99998499999998
 30
0.0
 11
177.49996999999991
 21
-232.0
 31
0.0
  0
TEXT
  5
47
  8
HIBINO-BASE
 62
     7
 10
9.2326549999999816
 20
-254.50460349999989
 30
0.0
 40
9.7730276367187496
  1
A4
 41
0.8
 11
9.2326549999999816
 21
-244.73157586328119
 31
0.0
 73
     3
  0
TEXT
  5
48
  8
HIBINO-BASE
 62
     7
 10
67.569604999999981
 20
-253.98297460000001
 30
0.0
 40
5.4000778125000002
  1
'05.12.
 41
0.8
 11
67.569604999999981
 21
-248.5828967875
 31
0.0
 73
     3
  0
TEXT
  5
49
  8
HIBINO-BASE
 62
     7
 10
49.999984999999981
 20
-257.7721426
 30
0.0
 40
6.515359453124999
  1
3
 41
0.8
 11
49.999984999999981
 21
-251.25678314687499
 31
0.0
 73
     3
  0
ARC
  5
4A
  8
PATTERN_FILL
  6
CONTINUOUS
 62
     7
 10
0.0
 20
214.5
 30
0.0
 40
10.0
 50
53.599660963763668
 51
126.4003390362363
  0
ARC
  5
4B
  8
PATTERN_FILL
  6
CONTINUOUS
 62
     7
 10
0.0
 20
214.5
 30
0.0
 40
11.999999999999989
 50
42.124351230594129
 51
137.87564876940391
  0
ARC
  5
4C
  8
PATTERN_FILL
  6
CONTINUOUS
 62
     7
 10
0.0
 20
214.5
 30
0.0
 40
14.0
 50
35.094144276795177
 51
144.9058557232045
  0
ARC
  5
4D
  8
PATTERN_FILL
  6
CONTINUOUS
 62
     7
 10
0.0
 20
214.5
 30
0.0
 40
16.0
 50
30.20241855225246
 51
149.7975814477482
  0
ARC
  5
4E
  8
PATTERN_FILL
  6
CONTINUOUS
 62
     7
 10
0.0
 20
214.5
 30
0.0
 40
18.0
 50
26.5616993229389
 51
153.43494882292211
  0
ARC
  5
4F
  8
PATTERN_FILL
  6
CONTINUOUS
 62
     7
 10
0.0
 20
214.5
 30
0.0
 40
20.0
 50
23.731125427057371
 51
156.26887457294339
  0
ARC
  5
50
  8
PATTERN_FILL
  6
CONTINUOUS
 62
     7
 10
0.0
 20
214.5
 30
0.0
 40
21.999999999999972
 50
21.46047018826064
 51
158.53952981173811
  0
ARC
  5
51
  8
PATTERN_FILL
  6
CONTINUOUS
 62
     7
 10
0.0
 20
214.5
 30
0.0
 40
23.999999999999972
 50
19.59509694437585
 51
160.40490305562571
  0
ARC
  5
52
  8
PATTERN_FILL
  6
CONTINUOUS
 62
     7
 10
0.0
 20
214.5
 30
0.0
 40
25.999999999999989
 50
18.033510641120849
 51
161.9664893588785
  0
ARC
  5
53
  8
PATTERN_FILL
  6
CONTINUOUS
 62
     7
 10
0.0
 20
214.5
 30
0.0
 40
27.999999999999972
 50
31.73867705312561
 51
148.25510271161659
  0
ARC
  5
54
  8
PATTERN_FILL
  6
CONTINUOUS
 62
     7
 10
0.0
 20
214.5
 30
0.0
 40
29.999999999999989
 50
49.936953190654783
 51
130.06304680934571
  0
LINE
  5
55
  8
PATTERN_FILL
  6
CONTINUOUS
 62
     7
 10
0.0
 20
246.56889486544429
 30
0.0
 11
0.0
 21
222.54890285905071
 31
0.0
  0
ARC
  5
56
  8
PATTERN_FILL
  6
CONTINUOUS
 62
     7
 10
627.25000000000068
 20
220.50000000000011
 30
0.0
 40
625.25000000000125
 50
177.62228234378679
 51
179.81224518743269
  0
ARC
  5
57
  8
PATTERN_FILL
  6
CONTINUOUS
 62
     7
 10
627.15511396063755
 20
209.62713683322971
 30
0.0
 40
623.25000000000102
 50
176.64787135243429
 51
178.8120084901951
  0
ARC
  5
58
  8
PATTERN_FILL
  6
CONTINUOUS
 62
     7
 10
626.87149958417763
 20
198.795422520057
 30
0.0
 40
621.2500000000008
 50
175.6925185254936
 51
177.80876298600049
  0
ARC
  5
59
  8
PATTERN_FILL
  6
CONTINUOUS
 62
     7
 10
626.40044573234513
 20
188.0064595709197
 30
0.0
 40
619.25000000000068
 50
174.7568967864261
 51
176.802318915803
  0
ARC
  5
5A
  8
PATTERN_FILL
  6
CONTINUOUS
 62
     7
 10
625.743301353834
 20
177.26224395533271
 30
0.0
 40
617.2500000000008
 50
173.84215089977079
 51
175.79251849750759
  0
ARC
  5
5B
  8
PATTERN_FILL
  6
CONTINUOUS
 62
     7
 10
624.90148115807051
 20
166.5659041969142
 30
0.0
 40
615.25000000000068
 50
172.9501261623839
 51
174.77930535910889
  0
ARC
  5
5C
  8
PATTERN_FILL
  6
CONTINUOUS
 62
     7
 10
623.8764552367777
 20
155.9206029868547
 30
0.0
 40
613.2500000000008
 50
172.08355841610469
 51
173.76262353086301
  0
ARC
  5
5D
  8
PATTERN_FILL
  6
CONTINUOUS
 62
     7
 10
622.66974763606026
 20
145.3294663026787
 30
0.0
 40
611.25000000000068
 50
171.24661687742449
 51
172.7424107425291
  0
ARC
  5
5E
  8
PATTERN_FILL
  6
CONTINUOUS
 62
     7
 10
621.28293552303433
 20
134.79558249158549
 30
0.0
 40
609.2500000000008
 50
170.44604891570879
 51
171.7185981453211
  0
ARC
  5
5F
  8
PATTERN_FILL
  6
CONTINUOUS
 62
     7
 10
619.71764833695431
 20
124.322001371688
 30
0.0
 40
607.25000000000068
 50
169.69395782133449
 51
170.69111000020271
  0
ARC
  5
60
  8
PATTERN_FILL
  6
CONTINUOUS
 62
     7
 10
617.97556692520448
 20
113.9117333514133
 30
0.0
 40
605.2500000000008
 50
169.0163545526573
 51
169.65986332947989
  0
ARC
  5
61
  8
PATTERN_FILL
  6
CONTINUOUS
 62
     7
 10
616.05842266453351
 20
103.56774856731521
 30
0.0
 40
603.25000000000068
 50
168.50119800312569
 51
168.6247675281989
  0
ARC
  5
62
  8
PATTERN_FILL
  6
CONTINUOUS
 62
     7
 10
0.0
 20
-99.926148209694276
 30
0.0
 40
27.999999999999972
 50
30.011133366889059
 51
150.00161856814779
  0
ARC
  5
63
  8
PATTERN_FILL
  6
CONTINUOUS
 62
     7
 10
0.0
 20
-99.926148209694276
 30
0.0
 40
29.999999999999989
 50
45.277662991887993
 51
135.17201981309989
  0
LINE
  5
64
  8
PATTERN_FILL
  6
CONTINUOUS
 62
     7
 10
0.0
 20
-67.0
 30
0.0
 11
0.0
 21
-72.75
 31
0.0
  0
ARC
  5
65
  8
PATTERN_FILL
  6
CONTINUOUS
 62
     7
 10
0.0
 20
-99.926148209694276
 30
0.0
 40
21.999999999999972
 50
21.117359857472032
 51
30.359765141684409
  0
ARC
  5
66
  8
PATTERN_FILL
  6
CONTINUOUS
 62
     7
 10
0.0
 20
-99.926148209694276
 30
0.0
 40
23.999999999999972
 50
19.284325027965082
 51
44.838138377126491
  0
ARC
  5
67
  8
PATTERN_FILL
  6
CONTINUOUS
 62
     7
 10
0.0
 20
-99.926148209694276
 30
0.0
 40
26.0
 50
17.749251326453169
 51
63.315360796917993
  0
ARC
  5
68
  8
PATTERN_FILL
  6
CONTINUOUS
 62
     7
 10
627.25000000000068
 20
-93.926148209694304
 30
0.0
 40
625.2500000000008
 50
177.54474535891799
 51
178.07236328708191
  0
ARC
  5
69
  8
PATTERN_FILL
  6
CONTINUOUS
 62
     7
 10
627.15511396063755
 20
-104.79901137646451
 30
0.0
 40
623.25000000000068
 50
176.5699051017387
 51
177.1060391888447
  0
ARC
  5
6A
  8
PATTERN_FILL
  6
CONTINUOUS
 62
     7
 10
626.8714995841774
 20
-115.6307256896374
 30
0.0
 40
621.2500000000008
 50
175.61513962146469
 51
176.16440140997861
  0
ARC
  5
6B
  8
PATTERN_FILL
  6
CONTINUOUS
 62
     7
 10
626.40044573234491
 20
-126.4196886387746
 30
0.0
 40
619.25000000000057
 50
174.6803231384614
 51
175.24931768033181
  0
ARC
  5
6C
  8
PATTERN_FILL
  6
CONTINUOUS
 62
     7
 10
625.74330135383389
 20
-137.1639042543616
 30
0.0
 40
617.25000000000045
 50
173.76678532326341
 51
174.36406450510981
  0
ARC
  5
6D
  8
PATTERN_FILL
  6
CONTINUOUS
 62
     7
 10
624.90148115807028
 20
-147.8602440127801
 30
0.0
 40
615.25000000000057
 50
172.8765067326768
 51
173.5143776862555
  0
ARC
  5
6E
  8
PATTERN_FILL
  6
CONTINUOUS
 62
     7
 10
623.8764552367777
 20
-158.50554522283969
 30
0.0
 40
613.2500000000008
 50
172.01194765859
 51
172.71076855907111
  0
ARC
  5
6F
  8
PATTERN_FILL
  6
CONTINUOUS
 62
     7
 10
622.66974763606004
 20
-169.09668190701561
 30
0.0
 40
611.25000000000068
 50
171.17785922683811
 51
171.97605915166201
  0
ARC
  5
70
  8
PATTERN_FILL
  6
CONTINUOUS
 62
     7
 10
621.28293552303433
 20
-179.6305657181087
 30
0.0
 40
609.25000000000114
 50
170.3812365926569
 51
171.38572827999889
  0
ARC
  5
71
  8
PATTERN_FILL
  6
CONTINUOUS
 62
     7
 10
619.71764833695386
 20
-190.10414683800619
 30
0.0
 40
607.25000000000068
 50
169.6352312875961
 51
170.7028466230787
  0
ARC
  5
72
  8
PATTERN_FILL
  6
CONTINUOUS
 62
     7
 10
617.97556692520448
 20
-200.51441485828099
 30
0.0
 40
605.2500000000008
 50
168.96801662507141
 51
169.67167547154281
  0
ARC
  5
73
  8
PATTERN_FILL
  6
CONTINUOUS
 62
     7
 10
616.05842266453317
 20
-210.85839964237911
 30
0.0
 40
603.25000000000068
 50
168.48477727829851
 51
168.6366599455921
  0
ARC
  5
74
  8
PATTERN_FILL
  6
CONTINUOUS
 62
     7
 10
0.0
 20
-99.926148209694276
 30
0.0
 40
31.999999999999989
 50
65.561245320537409
 51
114.4387546794626
  0
ARC
  5
75
  8
PATTERN_FILL
  6
CONTINUOUS
 62
     7
 10
0.0
 20
-99.926148209694276
 30
0.0
 40
21.999999999999972
 50
149.64023485831561
 51
158.882640142528
  0
ARC
  5
76
  8
PATTERN_FILL
  6
CONTINUOUS
 62
     7
 10
0.0
 20
-99.926148209694276
 30
0.0
 40
23.999999999999972
 50
135.16186162287349
 51
160.71567497203489
  0
ARC
  5
77
  8
PATTERN_FILL
  6
CONTINUOUS
 62
     7
 10
0.0
 20
-99.926148209694276
 30
0.0
 40
26.0
 50
116.684639203082
 51
162.25074867354681
  0
ARC
  5
78
  8
PATTERN_FILL
  6
CONTINUOUS
 62
     7
 10
-627.25000000000068
 20
-93.926148209694304
 30
0.0
 40
625.2500000000008
 50
1.927636712918156
 51
2.4552546410819831
  0
ARC
  5
79
  8
PATTERN_FILL
  6
CONTINUOUS
 62
     7
 10
-627.15511396063755
 20
-104.79901137646451
 30
0.0
 40
623.25000000000068
 50
2.893960811155222
 51
3.4300948982612729
  0
ARC
  5
7A
  8
PATTERN_FILL
  6
CONTINUOUS
 62
     7
 10
-626.8714995841774
 20
-115.6307256896374
 30
0.0
 40
621.2500000000008
 50
3.835598590021311
 51
4.3848603785352367
  0
ARC
  5
7B
  8
PATTERN_FILL
  6
CONTINUOUS
 62
     7
 10
-626.40044573234491
 20
-126.4196886387746
 30
0.0
 40
619.25000000000057
 50
4.7506823196681527
 51
5.3196768615385741
  0
ARC
  5
7C
  8
PATTERN_FILL
  6
CONTINUOUS
 62
     7
 10
-625.74330135383389
 20
-137.1639042543616
 30
0.0
 40
617.25000000000045
 50
5.6359354948901554
 51
6.2332146767365826
  0
ARC
  5
7D
  8
PATTERN_FILL
  6
CONTINUOUS
 62
     7
 10
-624.90148115807028
 20
-147.8602440127801
 30
0.0
 40
615.25000000000057
 50
6.4856223137444946
 51
7.1234932673232461
  0
ARC
  5
7E
  8
PATTERN_FILL
  6
CONTINUOUS
 62
     7
 10
-623.8764552367777
 20
-158.50554522283969
 30
0.0
 40
613.2500000000008
 50
7.2892314409288979
 51
7.988052341410051
  0
ARC
  5
7F
  8
PATTERN_FILL
  6
CONTINUOUS
 62
     7
 10
-622.66974763606004
 20
-169.09668190701561
 30
0.0
 40
611.25000000000068
 50
8.0239408483380021
 51
8.8221407731618324
  0
ARC
  5
80
  8
PATTERN_FILL
  6
CONTINUOUS
 62
     7
 10
-621.28293552303433
 20
-179.6305657181087
 30
0.0
 40
609.25000000000125
 50
8.6142717200010743
 51
9.6187634073431401
  0
ARC
  5
81
  8
PATTERN_FILL
  6
CONTINUOUS
 62
     7
 10
-619.71764833695386
 20
-190.10414683800619
 30
0.0
 40
607.25000000000068
 50
9.2971533769213561
 51
10.36476871240389
  0
ARC
  5
82
  8
PATTERN_FILL
  6
CONTINUOUS
 62
     7
 10
-617.97556692520448
 20
-200.51441485828099
 30
0.0
 40
605.2500000000008
 50
10.328324528457211
 51
11.03198337492865
  0
ARC
  5
83
  8
PATTERN_FILL
  6
CONTINUOUS
 62
     7
 10
-616.05842266453317
 20
-210.85839964237911
 30
0.0
 40
603.25000000000068
 50
11.36334005440783
 51
11.51522272170144
  0
ARC
  5
84
  8
PATTERN_FILL
  6
CONTINUOUS
 62
     7
 10
0.0
 20
-84.073851790305739
 30
0.0
 40
27.999999999999961
 50
209.9983814318521
 51
329.98886663311089
  0
ARC
  5
85
  8
PATTERN_FILL
  6
CONTINUOUS
 62
     7
 10
0.0
 20
-84.073851790305739
 30
0.0
 40
29.999999999999989
 50
224.82798018690019
 51
314.72233700811199
  0
LINE
  5
86
  8
PATTERN_FILL
  6
CONTINUOUS
 62
     7
 10
0.0
 20
-117.0
 30
0.0
 11
0.0
 21
-111.25
 31
0.0
  0
ARC
  5
87
  8
PATTERN_FILL
  6
CONTINUOUS
 62
     7
 10
0.0
 20
-84.073851790305739
 30
0.0
 40
21.999999999999972
 50
329.64023485831569
 51
338.88264014252798
  0
ARC
  5
88
  8
PATTERN_FILL
  6
CONTINUOUS
 62
     7
 10
0.0
 20
-84.073851790305739
 30
0.0
 40
23.999999999999972
 50
315.16186162287352
 51
340.71567497203489
  0
ARC
  5
89
  8
PATTERN_FILL
  6
CONTINUOUS
 62
     7
 10
0.0
 20
-84.073851790305739
 30
0.0
 40
26.0
 50
296.68463920308199
 51
342.25074867354681
  0
ARC
  5
8A
  8
PATTERN_FILL
  6
CONTINUOUS
 62
     7
 10
627.25000000000068
 20
-90.073851790305653
 30
0.0
 40
625.2500000000008
 50
181.92763671291809
 51
182.45525464108201
  0
ARC
  5
8B
  8
PATTERN_FILL
  6
CONTINUOUS
 62
     7
 10
627.15511396063755
 20
-79.200988623535423
 30
0.0
 40
623.25000000000068
 50
182.89396081115521
 51
183.4300948982613
  0
ARC
  5
8C
  8
PATTERN_FILL
  6
CONTINUOUS
 62
     7
 10
626.8714995841774
 20
-68.369274310362613
 30
0.0
 40
621.2500000000008
 50
183.83559859002131
 51
184.38486037853519
  0
ARC
  5
8D
  8
PATTERN_FILL
  6
CONTINUOUS
 62
     7
 10
626.40044573234491
 20
-57.580311361225348
 30
0.0
 40
619.25000000000057
 50
184.7506823196681
 51
185.31967686153851
  0
ARC
  5
8E
  8
PATTERN_FILL
  6
CONTINUOUS
 62
     7
 10
625.74330135383389
 20
-46.836095745638367
 30
0.0
 40
617.25000000000045
 50
185.63593549489011
 51
186.23321467673651
  0
ARC
  5
8F
  8
PATTERN_FILL
  6
CONTINUOUS
 62
     7
 10
624.90148115807028
 20
-36.139755987219871
 30
0.0
 40
615.25000000000057
 50
186.4856223137445
 51
187.1234932673232
  0
ARC
  5
90
  8
PATTERN_FILL
  6
CONTINUOUS
 62
     7
 10
623.8764552367777
 20
-25.494454777160289
 30
0.0
 40
613.2500000000008
 50
187.28923144092889
 51
187.98805234141
  0
ARC
  5
91
  8
PATTERN_FILL
  6
CONTINUOUS
 62
     7
 10
622.66974763606004
 20
-14.90331809298436
 30
0.0
 40
611.25000000000068
 50
188.02394084833799
 51
188.82214077316181
  0
ARC
  5
92
  8
PATTERN_FILL
  6
CONTINUOUS
 62
     7
 10
621.28293552303433
 20
-4.3694342818912437
 30
0.0
 40
609.25000000000125
 50
188.61427172000111
 51
189.6187634073431
  0
ARC
  5
93
  8
PATTERN_FILL
  6
CONTINUOUS
 62
     7
 10
619.71764833695386
 20
6.1041468380062707
 30
0.0
 40
607.25000000000068
 50
189.29715337692139
 51
190.36476871240399
  0
ARC
  5
94
  8
PATTERN_FILL
  6
CONTINUOUS
 62
     7
 10
617.97556692520448
 20
16.51441485828105
 30
0.0
 40
605.2500000000008
 50
190.32832452845719
 51
191.0319833749287
  0
ARC
  5
95
  8
PATTERN_FILL
  6
CONTINUOUS
 62
     7
 10
616.05842266453317
 20
26.85839964237914
 30
0.0
 40
603.25000000000068
 50
191.36334005440779
 51
191.51522272170141
  0
ARC
  5
96
  8
PATTERN_FILL
  6
CONTINUOUS
 62
     7
 10
0.0
 20
-84.073851790305739
 30
0.0
 40
31.999999999999972
 50
245.56124532053749
 51
294.43875467946248
  0
ARC
  5
97
  8
PATTERN_FILL
  6
CONTINUOUS
 62
     7
 10
0.0
 20
-84.073851790305739
 30
0.0
 40
21.999999999999972
 50
201.117359857472
 51
210.35976514168439
  0
ARC
  5
98
  8
PATTERN_FILL
  6
CONTINUOUS
 62
     7
 10
0.0
 20
-84.073851790305739
 30
0.0
 40
23.999999999999972
 50
199.28432502796511
 51
224.83813837712651
  0
ARC
  5
99
  8
PATTERN_FILL
  6
CONTINUOUS
 62
     7
 10
0.0
 20
-84.073851790305739
 30
0.0
 40
26.0
 50
197.74925132645311
 51
243.31536079691799
  0
ARC
  5
9A
  8
PATTERN_FILL
  6
CONTINUOUS
 62
     7
 10
-627.25000000000068
 20
-90.073851790305653
 30
0.0
 40
625.2500000000008
 50
357.54474535891802
 51
358.07236328708183
  0
ARC
  5
9B
  8
PATTERN_FILL
  6
CONTINUOUS
 62
     7
 10
-627.15511396063755
 20
-79.200988623535423
 30
0.0
 40
623.25000000000068
 50
356.56990510173881
 51
357.10603918884482
  0
ARC
  5
9C
  8
PATTERN_FILL
  6
CONTINUOUS
 62
     7
 10
-626.8714995841774
 20
-68.369274310362613
 30
0.0
 40
621.2500000000008
 50
355.61513962146478
 51
356.16440140997872
  0
ARC
  5
9D
  8
PATTERN_FILL
  6
CONTINUOUS
 62
     7
 10
-626.40044573234491
 20
-57.580311361225348
 30
0.0
 40
619.25000000000057
 50
354.68032313846152
 51
355.2493176803319
  0
ARC
  5
9E
  8
PATTERN_FILL
  6
CONTINUOUS
 62
     7
 10
-625.74330135383389
 20
-46.836095745638367
 30
0.0
 40
617.25000000000045
 50
353.76678532326349
 51
354.36406450510981
  0
ARC
  5
9F
  8
PATTERN_FILL
  6
CONTINUOUS
 62
     7
 10
-624.90148115807028
 20
-36.139755987219871
 30
0.0
 40
615.25000000000057
 50
352.87650673267689
 51
353.51437768625539
  0
ARC
  5
A0
  8
PATTERN_FILL
  6
CONTINUOUS
 62
     7
 10
-623.8764552367777
 20
-25.494454777160289
 30
0.0
 40
613.2500000000008
 50
352.01194765858997
 51
352.7107685590712
  0
ARC
  5
A1
  8
PATTERN_FILL
  6
CONTINUOUS
 62
     7
 10
-622.66974763606004
 20
-14.90331809298436
 30
0.0
 40
611.25000000000068
 50
351.17785922683811
 51
351.97605915166201
  0
ARC
  5
A2
  8
PATTERN_FILL
  6
CONTINUOUS
 62
     7
 10
-621.28293552303433
 20
-4.3694342818912437
 30
0.0
 40
609.25000000000114
 50
350.38123659265682
 51
351.385728279999
  0
ARC
  5
A3
  8
PATTERN_FILL
  6
CONTINUOUS
 62
     7
 10
-619.71764833695386
 20
6.1041468380062707
 30
0.0
 40
607.25000000000068
 50
349.63523128759613
 51
350.70284662307859
  0
ARC
  5
A4
  8
PATTERN_FILL
  6
CONTINUOUS
 62
     7
 10
-617.97556692520448
 20
16.51441485828105
 30
0.0
 40
605.2500000000008
 50
348.9680166250713
 51
349.67167547154293
  0
ARC
  5
A5
  8
PATTERN_FILL
  6
CONTINUOUS
 62
     7
 10
-616.05842266453317
 20
26.85839964237914
 30
0.0
 40
603.25000000000068
 50
348.48477727829862
 51
348.63665994559221
  0
ARC
  5
A6
  8
PATTERN_FILL
  6
CONTINUOUS
 62
     7
 10
-627.25000000000068
 20
220.50000000000011
 30
0.0
 40
625.25000000000102
 50
0.1877548125672655
 51
2.377717656213254
  0
ARC
  5
A7
  8
PATTERN_FILL
  6
CONTINUOUS
 62
     7
 10
-627.15511396063755
 20
209.62713683322971
 30
0.0
 40
623.25000000000102
 50
1.187991509804905
 51
3.352128647565686
  0
ARC
  5
A8
  8
PATTERN_FILL
  6
CONTINUOUS
 62
     7
 10
-626.87149958417763
 20
198.795422520057
 30
0.0
 40
621.2500000000008
 50
2.1912370139994799
 51
4.3074814745063756
  0
ARC
  5
A9
  8
PATTERN_FILL
  6
CONTINUOUS
 62
     7
 10
-626.40044573234513
 20
188.0064595709197
 30
0.0
 40
619.25000000000068
 50
3.197681084196994
 51
5.243103213573856
  0
ARC
  5
AA
  8
PATTERN_FILL
  6
CONTINUOUS
 62
     7
 10
-625.743301353834
 20
177.26224395533271
 30
0.0
 40
617.2500000000008
 50
4.2074815024923868
 51
6.1578491002291988
  0
ARC
  5
AB
  8
PATTERN_FILL
  6
CONTINUOUS
 62
     7
 10
-624.90148115807051
 20
166.5659041969142
 30
0.0
 40
615.25000000000068
 50
5.2206946408911401
 51
7.049873837616107
  0
ARC
  5
AC
  8
PATTERN_FILL
  6
CONTINUOUS
 62
     7
 10
-623.8764552367777
 20
155.9206029868547
 30
0.0
 40
613.2500000000008
 50
6.2373764691370619
 51
7.9164415838952307
  0
ARC
  5
AD
  8
PATTERN_FILL
  6
CONTINUOUS
 62
     7
 10
-622.66974763606026
 20
145.3294663026787
 30
0.0
 40
611.25000000000068
 50
7.2575892574709107
 51
8.7533831225754888
  0
ARC
  5
AE
  8
PATTERN_FILL
  6
CONTINUOUS
 62
     7
 10
-621.28293552303433
 20
134.79558249158549
 30
0.0
 40
609.2500000000008
 50
8.2814018546788546
 51
9.5539510842911604
  0
ARC
  5
AF
  8
PATTERN_FILL
  6
CONTINUOUS
 62
     7
 10
-619.71764833695431
 20
124.322001371688
 30
0.0
 40
607.25000000000068
 50
9.3088899997973122
 51
10.306042178665489
  0
ARC
  5
B0
  8
PATTERN_FILL
  6
CONTINUOUS
 62
     7
 10
-617.97556692520448
 20
113.9117333514133
 30
0.0
 40
605.2500000000008
 50
10.34013667052001
 51
10.983645447342751
  0
ARC
  5
B1
  8
PATTERN_FILL
  6
CONTINUOUS
 62
     7
 10
-616.05842266453351
 20
103.56774856731521
 30
0.0
 40
603.25000000000068
 50
11.37523247180108
 51
11.498801996874329
  0
ARC
  5
B2
  8
PATTERN_FILL
  6
CONTINUOUS
 62
     7
 10
0.0
 20
226.5978057181014
 30
0.0
 40
10.0
 50
233.59966096376371
 51
306.4003390362364
  0
ARC
  5
B3
  8
PATTERN_FILL
  6
CONTINUOUS
 62
     7
 10
0.0
 20
226.5978057181014
 30
0.0
 40
11.999999999999989
 50
222.12435123059609
 51
317.87564876940593
  0
ARC
  5
B4
  8
PATTERN_FILL
  6
CONTINUOUS
 62
     7
 10
0.0
 20
226.5978057181014
 30
0.0
 40
14.0
 50
215.0941442767955
 51
324.90585572320481
  0
ARC
  5
B5
  8
PATTERN_FILL
  6
CONTINUOUS
 62
     7
 10
0.0
 20
226.5978057181014
 30
0.0
 40
16.0
 50
210.20241855225169
 51
329.79758144774752
  0
ARC
  5
B6
  8
PATTERN_FILL
  6
CONTINUOUS
 62
     7
 10
0.0
 20
226.5978057181014
 30
0.0
 40
18.0
 50
206.56505117707781
 51
333.43830067706119
  0
ARC
  5
B7
  8
PATTERN_FILL
  6
CONTINUOUS
 62
     7
 10
0.0
 20
226.5978057181014
 30
0.0
 40
20.0
 50
203.73112542705661
 51
336.26887457294259
  0
ARC
  5
B8
  8
PATTERN_FILL
  6
CONTINUOUS
 62
     7
 10
0.0
 20
226.5978057181014
 30
0.0
 40
21.999999999999972
 50
201.46047018826189
 51
338.53952981173938
  0
ARC
  5
B9
  8
PATTERN_FILL
  6
CONTINUOUS
 62
     7
 10
0.0
 20
226.5978057181014
 30
0.0
 40
23.999999999999972
 50
199.59509694437421
 51
340.40490305562412
  0
ARC
  5
BA
  8
PATTERN_FILL
  6
CONTINUOUS
 62
     7
 10
0.0
 20
226.5978057181014
 30
0.0
 40
25.999999999999989
 50
198.03351064112141
 51
247.6619927951929
  0
ARC
  5
BB
  8
PATTERN_FILL
  6
CONTINUOUS
 62
     7
 10
0.0
 20
226.5978057181014
 30
0.0
 40
26.0
 50
292.33800720480701
 51
341.96648935887919
  0
ARC
  5
BC
  8
PATTERN_FILL
  6
CONTINUOUS
 62
     7
 10
0.0
 20
226.5978057181014
 30
0.0
 40
27.999999999999972
 50
211.7448972883833
 51
239.19211119210561
  0
ARC
  5
BD
  8
PATTERN_FILL
  6
CONTINUOUS
 62
     7
 10
0.0
 20
226.5978057181014
 30
0.0
 40
27.999999999999961
 50
300.8078888078943
 51
328.26132294687432
  0
ARC
  5
BE
  8
PATTERN_FILL
  6
CONTINUOUS
 62
     7
 10
0.0
 20
226.5978057181014
 30
0.0
 40
30.0
 50
229.93695319065441
 51
233.28604814697221
  0
ARC
  5
BF
  8
PATTERN_FILL
  6
CONTINUOUS
 62
     7
 10
0.0
 20
226.5978057181014
 30
0.0
 40
29.999999999999989
 50
306.71395185302782
 51
310.06304680934522
  0
LINE
  5
C0
  8
PATTERN_FILL
  6
CONTINUOUS
 62
     7
 10
0.0
 20
202.54890285905071
 30
0.0
 11
0.0
 21
218.54890285905071
 31
0.0
  0
ARC
  5
C1
  8
PATTERN_FILL
  6
CONTINUOUS
 62
     7
 10
627.25000000000068
 20
220.5978057181014
 30
0.0
 40
625.2500000000008
 50
180.18775481256731
 51
181.6541697449602
  0
ARC
  5
C2
  8
PATTERN_FILL
  6
CONTINUOUS
 62
     7
 10
627.15511396063755
 20
231.47066888487171
 30
0.0
 40
623.25000000000102
 50
181.18799150980479
 51
182.6597520068936
  0
ARC
  5
C3
  8
PATTERN_FILL
  6
CONTINUOUS
 62
     7
 10
626.87149958417763
 20
242.3023831980444
 30
0.0
 40
621.25000000000102
 50
182.1912370139994
 51
183.66883528374879
  0
ARC
  5
C4
  8
PATTERN_FILL
  6
CONTINUOUS
 62
     7
 10
626.40044573234513
 20
253.0913461471817
 30
0.0
 40
619.25000000000068
 50
183.19768108419689
 51
184.6816206117181
  0
ARC
  5
C5
  8
PATTERN_FILL
  6
CONTINUOUS
 62
     7
 10
625.743301353834
 20
263.83556176276869
 30
0.0
 40
617.2500000000008
 50
184.2074815024923
 51
185.69827826682129
  0
ARC
  5
C6
  8
PATTERN_FILL
  6
CONTINUOUS
 62
     7
 10
624.90148115807051
 20
274.53190152118719
 30
0.0
 40
615.25000000000057
 50
185.22069464089111
 51
186.71887813101441
  0
ARC
  5
C7
  8
PATTERN_FILL
  6
CONTINUOUS
 62
     7
 10
623.8764552367777
 20
285.17720273124678
 30
0.0
 40
613.2500000000008
 50
186.23737646913699
 51
187.74349084927459
  0
ARC
  5
C8
  8
PATTERN_FILL
  6
CONTINUOUS
 62
     7
 10
622.66974763606026
 20
295.76833941542259
 30
0.0
 40
611.25000000000068
 50
187.2575892574709
 51
188.7533831225754
  0
ARC
  5
C9
  8
PATTERN_FILL
  6
CONTINUOUS
 62
     7
 10
621.28293552303433
 20
306.30222322651588
 30
0.0
 40
609.2500000000008
 50
188.28140185467879
 51
189.55395108429121
  0
ARC
  5
CA
  8
PATTERN_FILL
  6
CONTINUOUS
 62
     7
 10
619.71764833695431
 20
316.77580434641328
 30
0.0
 40
607.25000000000068
 50
189.30888999979729
 51
190.30604217866551
  0
ARC
  5
CB
  8
PATTERN_FILL
  6
CONTINUOUS
 62
     7
 10
617.97556692520448
 20
327.18607236668799
 30
0.0
 40
605.2500000000008
 50
190.34013667051991
 51
190.9836454473427
  0
ARC
  5
CC
  8
PATTERN_FILL
  6
CONTINUOUS
 62
     7
 10
616.05842266453351
 20
337.53005715078621
 30
0.0
 40
603.25000000000068
 50
191.3752324718011
 51
191.49880199687439
  0
ARC
  5
CD
  8
PATTERN_FILL
  6
CONTINUOUS
 62
     7
 10
-627.25000000000068
 20
220.5978057181014
 30
0.0
 40
625.25000000000125
 50
358.34583025504003
 51
359.81224518743272
  0
ARC
  5
CE
  8
PATTERN_FILL
  6
CONTINUOUS
 62
     7
 10
-627.15511396063755
 20
231.47066888487171
 30
0.0
 40
623.25000000000102
 50
357.340247993106
 51
358.8120084901953
  0
ARC
  5
CF
  8
PATTERN_FILL
  6
CONTINUOUS
 62
     7
 10
-626.87149958417763
 20
242.3023831980444
 30
0.0
 40
621.2500000000008
 50
356.33116471625101
 51
357.80876298600037
  0
ARC
  5
D0
  8
PATTERN_FILL
  6
CONTINUOUS
 62
     7
 10
-626.40044573234513
 20
253.0913461471817
 30
0.0
 40
619.25000000000068
 50
355.31837938827618
 51
356.8023189158032
  0
ARC
  5
D1
  8
PATTERN_FILL
  6
CONTINUOUS
 62
     7
 10
-625.743301353834
 20
263.83556176276869
 30
0.0
 40
617.2500000000008
 50
354.30172173317879
 51
355.79251849750727
  0
ARC
  5
D2
  8
PATTERN_FILL
  6
CONTINUOUS
 62
     7
 10
-624.90148115807051
 20
274.53190152118719
 30
0.0
 40
615.25000000000068
 50
353.28112186898028
 51
354.77930535910878
  0
ARC
  5
D3
  8
PATTERN_FILL
  6
CONTINUOUS
 62
     7
 10
-623.8764552367777
 20
285.17720273124678
 30
0.0
 40
613.2500000000008
 50
352.25650915072691
 51
353.76262353086258
  0
ARC
  5
D4
  8
PATTERN_FILL
  6
CONTINUOUS
 62
     7
 10
-622.66974763606026
 20
295.76833941542259
 30
0.0
 40
611.25000000000068
 50
351.24661687742457
 51
352.74241074252922
  0
ARC
  5
D5
  8
PATTERN_FILL
  6
CONTINUOUS
 62
     7
 10
-621.28293552303433
 20
306.30222322651588
 30
0.0
 40
609.2500000000008
 50
350.44604891570879
 51
351.71859814532121
  0
ARC
  5
D6
  8
PATTERN_FILL
  6
CONTINUOUS
 62
     7
 10
-619.71764833695431
 20
316.77580434641328
 30
0.0
 40
607.25000000000068
 50
349.69395782133449
 51
350.69111000020263
  0
ARC
  5
D7
  8
PATTERN_FILL
  6
CONTINUOUS
 62
     7
 10
-617.97556692520448
 20
327.18607236668799
 30
0.0
 40
605.2500000000008
 50
349.01635455265722
 51
349.65986332948
  0
ARC
  5
D8
  8
PATTERN_FILL
  6
CONTINUOUS
 62
     7
 10
-616.05842266453351
 20
337.53005715078621
 30
0.0
 40
603.25000000000068
 50
348.50119800312558
 51
348.6247675281989
  0
LINE
  5
D9
  8
SPEC
  6
CONTINUOUS
 62
     7
 10
-250.0
 20
488.0
 30
0.0
 11
110.0
 21
488.0
 31
0.0
  0
LINE
  5
DA
  8
SPEC
  6
CONTINUOUS
 62
     7
 10
-250.0
 20
476.75
 30
0.0
 11
110.0
 21
476.75
 31
0.0
  0
LINE
  5
DB
  8
SPEC
  6
CONTINUOUS
 62
     7
 10
-250.0
 20
431.74999999999989
 30
0.0
 11
110.0
 21
431.74999999999989
 31
0.0
  0
LINE
  5
DC
  8
SPEC
  6
CONTINUOUS
 62
     7
 10
-250.0
 20
443.0
 30
0.0
 11
110.0
 21
443.0
 31
0.0
  0
LINE
  5
DD
  8
SPEC
  6
CONTINUOUS
 62
     7
 10
-250.0
 20
454.25
 30
0.0
 11
110.0
 21
454.25
 31
0.0
  0
LINE
  5
DE
  8
SPEC
  6
CONTINUOUS
 62
     7
 10
-250.0
 20
420.5
 30
0.0
 11
110.0
 21
420.5
 31
0.0
  0
LINE
  5
DF
  8
SPEC
  6
CONTINUOUS
 62
     7
 10
-250.0
 20
398.0
 30
0.0
 11
110.0
 21
398.0
 31
0.0
  0
LINE
  5
E0
  8
SPEC
  6
CONTINUOUS
 62
     7
 10
-250.0
 20
409.25
 30
0.0
 11
110.0
 21
409.25
 31
0.0
  0
LINE
  5
E1
  8
SPEC
  6
CONTINUOUS
 62
     7
 10
-250.0
 20
375.5
 30
0.0
 11
110.0
 21
375.5
 31
0.0
  0
LINE
  5
E2
  8
SPEC
  6
CONTINUOUS
 62
     7
 10
-250.0
 20
465.5
 30
0.0
 11
110.0
 21
465.5
 31
0.0
  0
TEXT
  5
E3
  8
SPEC
 62
     7
 10
-149.80000000000001
 20
479.11373833333329
 30
0.0
 40
5.7009440104166673
  1
F3E
 41
0.8
 11
-149.80000000000001
 21
484.81468234375001
 31
0.0
 73
     3
  0
LINE
  5
E4
  8
SPEC
  6
CONTINUOUS
 62
     7
 10
-250.0
 20
488.0
 30
0.0
 11
-250.0
 21
341.75
 31
0.0
  0
TEXT
  5
E5
  8
SPEC
 62
     7
 10
-246.25
 20
492.1797949999999
 30
0.0
 40
7.3297851562499989
  1
仕様
 41
0.8
 11
-246.25
 21
499.50958015624991
 31
0.0
 73
     3
  0
LINE
  5
E6
  8
SPEC
  6
CONTINUOUS
 62
     7
 10
-152.5
 20
488.0
 30
0.0
 11
-152.5
 21
341.75
 31
0.0
  0
LINE
  5
E7
  8
SPEC
  6
CONTINUOUS
 62
     7
 10
110.0
 20
488.0
 30
0.0
 11
110.0
 21
341.75
 31
0.0
  0
TEXT
  5
E8
  8
SPEC
 62
     7
 10
-149.80000000000001
 20
389.11375333333331
 30
0.0
 40
5.7009440104166673
  1
+2dBV(ゲイン調整スイッチ[-10dB]時)
 41
0.8
 11
-149.80000000000001
 21
394.81469734375003
 31
0.0
 73
     3
  0
TEXT
  5
E9
  8
SPEC
 62
     7
 10
-247.30000000000001
 20
434.11375333333331
 30
0.0
 40
5.7009440104166673
  1
アンテナ形式
 41
0.8
 11
-247.30000000000001
 21
439.81469734375003
 31
0.0
 73
     3
  0
TEXT
  5
EA
  8
SPEC
 62
     7
 10
-247.30000000000001
 20
479.11373833333329
 30
0.0
 40
5.7009440104166673
  1
電波型式
 41
0.8
 11
-247.30000000000001
 21
484.81468234375001
 31
0.0
 73
     3
  0
TEXT
  5
EB
  8
SPEC
 62
     7
 10
-247.30000000000001
 20
411.61375333333342
 30
0.0
 40
5.7009440104166673
  1
トーン信号周波数
 41
0.8
 11
-247.30000000000001
 21
417.31469734375003
 31
0.0
 73
     3
  0
TEXT
  5
EC
  8
SPEC
 62
     7
 10
-247.30000000000001
 20
400.36375333333331
 30
0.0
 40
5.7009440104166673
  1
周波数特性
 41
0.8
 11
-247.30000000000001
 21
406.06469734375003
 31
0.0
 73
     3
  0
TEXT
  5
ED
  8
SPEC
 62
     7
 10
-247.30000000000001
 20
445.36375333333331
 30
0.0
 40
5.7009440104166673
  1
空中線電力
 41
0.8
 11
-247.30000000000001
 21
451.06469734375003
 31
0.0
 73
     3
  0
TEXT
  5
EE
  8
SPEC
 62
     7
 10
-247.30000000000001
 20
422.86375333333331
 30
0.0
 40
5.7009440104166673
  1
到達距離
 41
0.8
 11
-247.30000000000001
 21
428.56469734375003
 31
0.0
 73
     3
  0
TEXT
  5
EF
  8
SPEC
 62
     7
 10
-247.30000000000001
 20
467.86375333333342
 30
0.0
 40
5.7009440104166673
  1
送信周波数
 41
0.8
 11
-247.30000000000001
 21
473.56469734375003
 31
0.0
 73
     3
  0
TEXT
  5
F0
  8
SPEC
 62
     7
 10
-247.30000000000001
 20
456.61375333333331
 30
0.0
 40
5.7009440104166673
  1
発振方式
 41
0.8
 11
-247.30000000000001
 21
462.31469734375003
 31
0.0
 73
     3
  0
TEXT
  5
F1
  8
SPEC
 62
     7
 10
-247.30000000000001
 20
389.11375333333331
 30
0.0
 40
5.7009440104166673
  1
最大入力レベル
 41
0.8
 11
-247.30000000000001
 21
394.81469734375003
 31
0.0
 73
     3
  0
TEXT
  5
F2
  8
SPEC
 62
     7
 10
-149.80000000000001
 20
434.11375333333331
 30
0.0
 40
5.7009440104166673
  1
内蔵式
 41
0.8
 11
-149.80000000000001
 21
439.81469734375003
 31
0.0
 73
     3
  0
TEXT
  5
F3
  8
SPEC
 62
     7
 10
-149.80000000000001
 20
411.61375333333342
 30
0.0
 40
5.7009440104166673
  1
32.768kHz
 41
0.8
 11
-149.80000000000001
 21
417.31469734375003
 31
0.0
 73
     3
  0
TEXT
  5
F4
  8
SPEC
 62
     7
 10
-149.80000000000001
 20
400.36375333333331
 30
0.0
 40
5.7009440104166673
  1
45Hz～15kHz(±2dB)
 41
0.8
 11
-149.80000000000001
 21
406.06469734375003
 31
0.0
 73
     3
  0
TEXT
  5
F5
  8
SPEC
 62
     7
 10
-149.80000000000001
 20
445.36375333333331
 30
0.0
 40
5.7009440104166673
  1
10mW
 41
0.8
 11
-149.80000000000001
 21
451.06469734375003
 31
0.0
 73
     3
  0
TEXT
  5
F6
  8
SPEC
 62
     7
 10
-149.80000000000001
 20
422.86375333333331
 30
0.0
 40
5.7009440104166673
  1
約60m(標準環境における最大値)
 41
0.8
 11
-149.80000000000001
 21
428.56469734375003
 31
0.0
 73
     3
  0
TEXT
  5
F7
  8
SPEC
 62
     7
 10
-149.80000000000001
 20
456.61375333333331
 30
0.0
 40
5.7009440104166673
  1
水晶制御PLLシンセサイザー方式
 41
0.8
 11
-149.80000000000001
 21
462.31469734375003
 31
0.0
 73
     3
  0
TEXT
  5
F8
  8
SPEC
 62
     7
 10
-149.80000000000001
 20
467.86375333333342
 30
0.0
 40
5.7009440104166673
  1
B型 (806～810MHz)30チャンネルのうち任意の1チャンネル
 41
0.8
 11
-149.80000000000001
 21
473.56469734375003
 31
0.0
 73
     3
  0
LINE
  5
F9
  8
SPEC
  6
CONTINUOUS
 62
     7
 10
-250.0
 20
364.25
 30
0.0
 11
110.0
 21
364.25
 31
0.0
  0
LINE
  5
FA
  8
SPEC
  6
CONTINUOUS
 62
     7
 10
-250.0
 20
353.0
 30
0.0
 11
110.0
 21
353.0
 31
0.0
  0
TEXT
  5
FB
  8
SPEC
 62
     7
 10
-149.80000000000001
 20
366.61375333333342
 30
0.0
 40
5.7009440104166673
  1
単3形アルカリ乾電池×2、または単3形ニッケル水素充電池×2
 41
0.8
 11
-149.80000000000001
 21
372.31469734375003
 31
0.0
 73
     3
  0
TEXT
  5
FC
  8
SPEC
 62
     7
 10
-247.30000000000001
 20
366.61375333333342
 30
0.0
 40
5.7009440104166673
  1
電源
 41
0.8
 11
-247.30000000000001
 21
372.31469734375003
 31
0.0
 73
     3
  0
LINE
  5
FD
  8
SPEC
  6
CONTINUOUS
 62
     7
 10
-250.0
 20
341.75
 30
0.0
 11
110.0
 21
341.75
 31
0.0
  0
TEXT
  5
FE
  8
SPEC
 62
     7
 10
-149.80000000000001
 20
355.36375333333342
 30
0.0
 40
5.7009440104166647
  1
φ51×247mm
 41
0.8
 11
-149.80000000000001
 21
361.06469734375003
 31
0.0
 73
     3
  0
TEXT
  5
FF
  8
SPEC
 62
     7
 10
-247.30000000000001
 20
355.36375333333342
 30
0.0
 40
5.7009440104166673
  1
寸法(W×H×D)
 41
0.8
 11
-247.30000000000001
 21
361.06469734375003
 31
0.0
 73
     3
  0
TEXT
  5
100
  8
SPEC
 62
     7
 10
-149.80000000000001
 20
344.11375333333342
 30
0.0
 40
5.7009440104166673
  1
約290g(電池除く)
 41
0.8
 11
-149.80000000000001
 21
349.81469734375008
 31
0.0
 73
     3
  0
TEXT
  5
101
  8
SPEC
 62
     7
 10
-247.30000000000001
 20
344.11375333333342
 30
0.0
 40
5.7009440104166673
  1
重量
 41
0.8
 11
-247.30000000000001
 21
349.81469734375008
 31
0.0
 73
     3
  0
TEXT
  5
102
  8
SPEC
 62
     7
 10
-149.80000000000001
 20
377.86375333333342
 30
0.0
 40
5.7009440104166673
  1
0dB、-10dBの2段階切替
 41
0.8
 11
-149.80000000000001
 21
383.56469734375003
 31
0.0
 73
     3
  0
TEXT
  5
103
  8
SPEC
 62
     7
 10
-247.30000000000001
 20
377.86375333333342
 30
0.0
 40
5.7009440104166673
  1
ゲイン調整スイッチ
 41
0.8
 11
-247.30000000000001
 21
383.56469734375003
 31
0.0
 73
     3
  0
LINE
  5
104
  8
SPEC
  6
CONTINUOUS
 62
     7
 10
-250.0
 20
386.75
 30
0.0
 11
110.0
 21
386.75
 31
0.0
  0
TEXT
  5
105
  8
DIMNSIONS
 62
     7
 10
-62.500015000000019
 20
-225.19151500000001
 30
0.0
 40
7.3297851562499989
  1
(単位：mm)
 41
0.8
 11
-62.500015000000019
 21
-217.86172984375
 31
0.0
 73
     3
  0
LINE
  5
106
  8
DIMNSIONS
  6
CONTINUOUS
 62
     7
 10
-25.5
 20
-86.000000022351756
 30
0.0
 11
-25.5
 21
-34.000000022351749
 31
0.0
  0
LINE
  5
107
  8
DIMNSIONS
  6
CONTINUOUS
 62
     7
 10
25.5
 20
-86.000000022351756
 30
0.0
 11
25.5
 21
-34.000000022351749
 31
0.0
  0
LINE
  5
108
  8
DIMNSIONS
  6
CONTINUOUS
 62
     7
 10
-25.5
 20
-40.0
 30
0.0
 11
25.5
 21
-40.0
 31
0.0
  0
LINE
  5
109
  8
DIMNSIONS
  6
CONTINUOUS
 62
     7
 10
-25.5
 20
-40.0
 30
0.0
 11
-15.974999999999991
 21
-37.447783942093572
 31
0.0
  0
LINE
  5
10A
  8
DIMNSIONS
  6
CONTINUOUS
 62
     7
 10
-25.5
 20
-40.0
 30
0.0
 11
-15.974999999999991
 21
-42.552216057906442
 31
0.0
  0
LINE
  5
10B
  8
DIMNSIONS
  6
CONTINUOUS
 62
     7
 10
25.5
 20
-40.0
 30
0.0
 11
15.974999999999991
 21
-42.552216057906442
 31
0.0
  0
LINE
  5
10C
  8
DIMNSIONS
  6
CONTINUOUS
 62
     7
 10
25.5
 20
-40.0
 30
0.0
 11
15.974999999999991
 21
-37.447783942093572
 31
0.0
  0
TEXT
  5
10D
  8
DIMNSIONS
 62
     7
 10
-5.2916666666666661
 20
-35.518333344509202
 30
0.0
 40
8.1442057291666661
  1
51
 41
0.8
 11
-5.2916666666666652
 21
-27.37412761534253
 31
0.0
 73
     3
  0
LINE
  5
10E
  8
DIMNSIONS
  6
CONTINUOUS
 62
     7
 10
-5.9999999776482564
 20
246.56889486544429
 30
0.0
 11
-95.999999977648244
 21
246.56889486544429
 31
0.0
  0
LINE
  5
10F
  8
DIMNSIONS
  6
CONTINUOUS
 62
     7
 10
-5.9999999776482564
 20
0.0
 30
0.0
 11
-95.999999977648244
 21
0.0
 31
0.0
  0
LINE
  5
110
  8
DIMNSIONS
  6
CONTINUOUS
 62
     7
 10
-90.0
 20
246.56889486544429
 30
0.0
 11
-90.0
 21
0.0
 31
0.0
  0
LINE
  5
111
  8
DIMNSIONS
  6
CONTINUOUS
 62
     7
 10
-90.0
 20
246.56889486544429
 30
0.0
 11
-87.447783942093565
 21
237.04389486544429
 31
0.0
  0
LINE
  5
112
  8
DIMNSIONS
  6
CONTINUOUS
 62
     7
 10
-90.0
 20
246.56889486544429
 30
0.0
 11
-92.552216057906435
 21
237.04389486544429
 31
0.0
  0
LINE
  5
113
  8
DIMNSIONS
  6
CONTINUOUS
 62
     7
 10
-90.0
 20
0.0
 30
0.0
 11
-92.552216057906435
 21
9.5250000000000021
 31
0.0
  0
LINE
  5
114
  8
DIMNSIONS
  6
CONTINUOUS
 62
     7
 10
-90.0
 20
0.0
 30
0.0
 11
-87.447783942093551
 21
9.5250000000000021
 31
0.0
  0
TEXT
  5
115
  8
DIMNSIONS
 62
     7
 10
-94.481666655490812
 20
115.3469474327221
 30
0.0
 40
8.1442057291666661
  1
247
 50
90.0
 41
0.8
 11
-102.6258723846575
 21
115.3469474327221
 31
0.0
 73
     3
  0
LINE
  5
116
  8
DIMNSIONS
  6
CONTINUOUS
 62
     7
 10
-5.9999999776482564
 20
246.56889486544429
 30
0.0
 11
-65.999999977648244
 21
246.56889486544429
 31
0.0
  0
LINE
  5
117
  8
DIMNSIONS
  6
CONTINUOUS
 62
     7
 10
-24.499999977648251
 20
170.0
 30
0.0
 11
-65.999999977648244
 21
170.0
 31
0.0
  0
LINE
  5
118
  8
DIMNSIONS
  6
CONTINUOUS
 62
     7
 10
-60.0
 20
246.56889486544429
 30
0.0
 11
-60.0
 21
170.0
 31
0.0
  0
LINE
  5
119
  8
DIMNSIONS
  6
CONTINUOUS
 62
     7
 10
-60.0
 20
246.56889486544429
 30
0.0
 11
-57.447783942093558
 21
237.04389486544429
 31
0.0
  0
LINE
  5
11A
  8
DIMNSIONS
  6
CONTINUOUS
 62
     7
 10
-60.0
 20
246.56889486544429
 30
0.0
 11
-62.552216057906442
 21
237.04389486544429
 31
0.0
  0
LINE
  5
11B
  8
DIMNSIONS
  6
CONTINUOUS
 62
     7
 10
-60.0
 20
170.0
 30
0.0
 11
-62.552216057906442
 21
179.52500000000001
 31
0.0
  0
LINE
  5
11C
  8
DIMNSIONS
  6
CONTINUOUS
 62
     7
 10
-60.0
 20
170.0
 30
0.0
 11
-57.447783942093558
 21
179.52500000000001
 31
0.0
  0
TEXT
  5
11D
  8
DIMNSIONS
 62
     7
 10
-64.481666655490798
 20
202.99278076605549
 30
0.0
 40
8.1442057291666661
  1
77
 50
90.0
 41
0.8
 11
-72.62587238465747
 21
202.99278076605549
 31
0.0
 73
     3
  0
LINE
  5
11E
  8
DIMNSIONS
  6
CONTINUOUS
 62
     7
 10
-24.499999977648251
 20
170.0
 30
0.0
 11
-65.999999977648244
 21
170.0
 31
0.0
  0
LINE
  5
11F
  8
DIMNSIONS
  6
CONTINUOUS
 62
     7
 10
-12.92893216578277
 20
0.0
 30
0.0
 11
-65.999999977648244
 21
0.0
 31
0.0
  0
LINE
  5
120
  8
DIMNSIONS
  6
CONTINUOUS
 62
     7
 10
-60.0
 20
170.0
 30
0.0
 11
-60.0
 21
0.0
 31
0.0
  0
LINE
  5
121
  8
DIMNSIONS
  6
CONTINUOUS
 62
     7
 10
-60.0
 20
170.0
 30
0.0
 11
-57.447783942093558
 21
160.47499999999999
 31
0.0
  0
LINE
  5
122
  8
DIMNSIONS
  6
CONTINUOUS
 62
     7
 10
-60.0
 20
170.0
 30
0.0
 11
-62.552216057906442
 21
160.47499999999999
 31
0.0
  0
LINE
  5
123
  8
DIMNSIONS
  6
CONTINUOUS
 62
     7
 10
-60.0
 20
0.0
 30
0.0
 11
-62.552216057906442
 21
9.5250000000000021
 31
0.0
  0
LINE
  5
124
  8
DIMNSIONS
  6
CONTINUOUS
 62
     7
 10
-60.0
 20
0.0
 30
0.0
 11
-57.447783942093558
 21
9.5250000000000021
 31
0.0
  0
TEXT
  5
125
  8
DIMNSIONS
 62
     7
 10
-64.481666655490798
 20
77.0625
 30
0.0
 40
8.1442057291666661
  1
170
 50
90.0
 41
0.8
 11
-72.62587238465747
 21
77.0625
 31
0.0
 73
     3
  0
TEXT
  5
126
  8
DATA
 62
     7
 10
139.99996999999991
 20
-228.60732999999999
 30
0.0
 40
7.3297851562499989
  1
SLX2/SM58
 41
0.8
 11
139.99996999999991
 21
-221.27754484375001
 31
0.0
 73
     3
  0
TEXT
  5
127
  8
DATA
 62
     7
 10
139.99996999999991
 20
-206.85732999999999
 30
0.0
 40
7.3297851562499989
  1
SHURE
 41
0.8
 11
139.99996999999991
 21
-199.52754484375001
 31
0.0
 73
     3
  0
TEXT
  5
128
  8
DATA
 62
     7
 10
139.99996999999991
 20
-216.8581574561403
 30
0.0
 40
6.5153645833333318
  1
ハンドヘルド型送信機
 41
0.8
 11
139.99996999999991
 21
-210.34279287280691
 31
0.0
 73
     3
  0
LINE
  5
129
  8
DATA
  6
CONTINUOUS
 62
     7
 10
-17.0
 20
198.0
 30
0.0
 11
17.0
 21
198.0
 31
0.0
  0
LINE
  5
12A
  8
DATA
  6
CONTINUOUS
 62
     7
 10
17.795842796833341
 20
200.54890285905071
 30
0.0
 11
-17.795842796833149
 21
200.54890285905071
 31
0.0
  0
ARC
  5
12B
  8
DATA
  6
CONTINUOUS
 62
     7
 10
17.25
 20
202.54890285905071
 30
0.0
 40
2.0000000000000049
 50
295.94447977237081
 51
0.0
  0
LINE
  5
12C
  8
DATA
  6
CONTINUOUS
 62
     7
 10
-17.0
 20
198.0
 30
0.0
 11
-17.0
 21
198.9520292165663
 31
0.0
  0
ARC
  5
12D
  8
DATA
  6
CONTINUOUS
 62
     7
 10
-17.25
 20
202.54890285905071
 30
0.0
 40
2.0
 50
180.0
 51
244.05552022762919
  0
ARC
  5
12E
  8
DATA
  6
CONTINUOUS
 62
     7
 10
-18.99999999999979
 20
198.9520292165663
 30
0.0
 40
1.9999999999997859
 50
0.0
 51
64.055520227634645
  0
ARC
  5
12F
  8
DATA
  6
CONTINUOUS
 62
     7
 10
-17.25
 20
202.54890285905071
 30
0.0
 40
2.0
 50
180.0
 51
244.05552022762919
  0
LINE
  5
130
  8
DATA
  6
CONTINUOUS
 62
     7
 10
17.0
 20
198.0
 30
0.0
 11
17.0
 21
198.9520292165663
 31
0.0
  0
ARC
  5
131
  8
DATA
  6
CONTINUOUS
 62
     7
 10
18.99999999999979
 20
198.9520292165663
 30
0.0
 40
1.9999999999997851
 50
115.9444797723653
 51
180.0
  0
LINE
  5
132
  8
DATA
  6
CONTINUOUS
 62
     7
 10
17.75
 20
198.0
 30
0.0
 11
-17.75
 21
198.0
 31
0.0
  0
LINE
  5
133
  8
DATA
  6
CONTINUOUS
 62
     7
 10
-18.5
 20
170.0
 30
0.0
 11
18.5
 21
170.0
 31
0.0
  0
LINE
  5
134
  8
DATA
  6
CONTINUOUS
 62
     7
 10
-18.0
 20
77.999999999999986
 30
0.0
 11
18.0
 21
77.999999999999986
 31
0.0
  0
LINE
  5
135
  8
DATA
  6
CONTINUOUS
 62
     7
 10
-12.99999999999998
 20
4.0
 30
0.0
 11
12.99999999999998
 21
4.0
 31
0.0
  0
LINE
  5
136
  8
DATA
  6
CONTINUOUS
 62
     7
 10
-6.9289321881345236
 20
0.0
 30
0.0
 11
6.9289321881345236
 21
0.0
 31
0.0
  0
LINE
  5
137
  8
DATA
  6
CONTINUOUS
 62
     7
 10
-16.566856570819489
 20
8.0
 30
0.0
 11
16.566856570819422
 21
8.0
 31
0.0
  0
LINE
  5
138
  8
DATA
  6
CONTINUOUS
 62
     7
 10
-18.5
 20
170.0
 30
0.0
 11
-18.0
 21
77.999999999999986
 31
0.0
  0
LINE
  5
139
  8
DATA
  6
CONTINUOUS
 62
     7
 10
-18.0
 20
77.999999999999986
 30
0.0
 11
-17.028987777593532
 21
10.02914443154719
 31
0.0
  0
LINE
  5
13A
  8
DATA
  6
CONTINUOUS
 62
     7
 10
18.5
 20
170.0
 30
0.0
 11
18.0
 21
77.999999999999986
 31
0.0
  0
LINE
  5
13B
  8
DATA
  6
CONTINUOUS
 62
     7
 10
18.0
 20
77.999999999999986
 30
0.0
 11
17.028987777593532
 21
10.02914443154722
 31
0.0
  0
LINE
  5
13C
  8
DATA
  6
CONTINUOUS
 62
     7
 10
-15.565031809528721
 20
6.5650318095287039
 30
0.0
 11
-10.46446609406726
 21
1.464466094067262
 31
0.0
  0
LINE
  5
13D
  8
DATA
  6
CONTINUOUS
 62
     7
 10
15.565031809528721
 20
6.5650318095287332
 30
0.0
 11
10.46446609406726
 21
1.464466094067262
 31
0.0
  0
ARC
  5
13E
  8
DATA
  6
CONTINUOUS
 62
     7
 10
12.02949790359599
 20
10.100565715461469
 30
0.0
 40
5.0
 50
315.0
 51
359.18154453831141
  0
ARC
  5
13F
  8
DATA
  6
CONTINUOUS
 62
     7
 10
-12.02949790359599
 20
10.100565715461469
 30
0.0
 40
4.9999999999999831
 50
180.8184554616889
 51
225.0000000000004
  0
ARC
  5
140
  8
DATA
  6
CONTINUOUS
 62
     7
 10
6.9289321881345103
 20
4.9999999999999707
 30
0.0
 40
4.9999999999999707
 50
270.0000000000004
 51
315.0000000000004
  0
ARC
  5
141
  8
DATA
  6
CONTINUOUS
 62
     7
 10
-6.9289321881345378
 20
5.0
 30
0.0
 40
4.9999999999999902
 50
225.00000000000011
 51
270.0000000000004
  0
LINE
  5
142
  8
DATA
  6
CONTINUOUS
 62
     7
 10
19.25
 20
202.54890285905071
 30
0.0
 11
-19.25
 21
202.54890285905071
 31
0.0
  0
LINE
  5
143
  8
DATA
  6
CONTINUOUS
 62
     7
 10
-11.5
 20
77.999999999999986
 30
0.0
 11
-11.5
 21
123.0
 31
0.0
  0
LINE
  5
144
  8
DATA
  6
CONTINUOUS
 62
     7
 10
11.5
 20
77.999999999999986
 30
0.0
 11
11.5
 21
123.0
 31
0.0
  0
LINE
  5
145
  8
DATA
  6
CONTINUOUS
 62
     7
 10
-11.5
 20
123.0
 30
0.0
 11
11.5
 21
123.0
 31
0.0
  0
LINE
  5
146
  8
DATA
  6
CONTINUOUS
 62
     7
 10
-8.0
 20
80.999999999999986
 30
0.0
 11
8.0
 21
80.999999999999986
 31
0.0
  0
LINE
  5
147
  8
DATA
  6
CONTINUOUS
 62
     7
 10
10.0
 20
82.999999999999986
 30
0.0
 11
10.0
 21
86.999999999999986
 31
0.0
  0
LINE
  5
148
  8
DATA
  6
CONTINUOUS
 62
     7
 10
8.0
 20
88.999999999999986
 30
0.0
 11
-8.0
 21
88.999999999999986
 31
0.0
  0
LINE
  5
149
  8
DATA
  6
CONTINUOUS
 62
     7
 10
-10.0
 20
86.999999999999986
 30
0.0
 11
-10.0
 21
82.999999999999986
 31
0.0
  0
LINE
  5
14A
  8
DATA
  6
CONTINUOUS
 62
     7
 10
-8.0
 20
87.499999999999986
 30
0.0
 11
-5.0
 21
87.499999999999986
 31
0.0
  0
LINE
  5
14B
  8
DATA
  6
CONTINUOUS
 62
     7
 10
-9.0
 20
86.499999999999986
 30
0.0
 11
-9.0
 21
83.499999999999986
 31
0.0
  0
LINE
  5
14C
  8
DATA
  6
CONTINUOUS
 62
     7
 10
-8.0
 20
82.499999999999986
 30
0.0
 11
-5.0
 21
82.499999999999986
 31
0.0
  0
LINE
  5
14D
  8
DATA
  6
CONTINUOUS
 62
     7
 10
-4.0
 20
83.499999999999986
 30
0.0
 11
-4.0
 21
86.499999999999986
 31
0.0
  0
ARC
  5
14E
  8
DATA
  6
CONTINUOUS
 62
     7
 10
-8.0
 20
83.499999999999986
 30
0.0
 40
1.0
 50
180.0
 51
270.0
  0
ARC
  5
14F
  8
DATA
  6
CONTINUOUS
 62
     7
 10
-5.0
 20
83.499999999999986
 30
0.0
 40
1.0
 50
270.0
 51
0.0
  0
ARC
  5
150
  8
DATA
  6
CONTINUOUS
 62
     7
 10
-8.0
 20
86.499999999999986
 30
0.0
 40
1.0
 50
90.0
 51
180.0
  0
ARC
  5
151
  8
DATA
  6
CONTINUOUS
 62
     7
 10
-5.0
 20
86.499999999999986
 30
0.0
 40
1.0
 50
0.0
 51
90.0
  0
LINE
  5
152
  8
DATA
  6
CONTINUOUS
 62
     7
 10
8.0
 20
87.499999999999986
 30
0.0
 11
5.0
 21
87.499999999999986
 31
0.0
  0
LINE
  5
153
  8
DATA
  6
CONTINUOUS
 62
     7
 10
9.0
 20
86.499999999999986
 30
0.0
 11
9.0
 21
83.499999999999986
 31
0.0
  0
LINE
  5
154
  8
DATA
  6
CONTINUOUS
 62
     7
 10
8.0
 20
82.499999999999986
 30
0.0
 11
5.0
 21
82.499999999999986
 31
0.0
  0
LINE
  5
155
  8
DATA
  6
CONTINUOUS
 62
     7
 10
4.0
 20
83.499999999999986
 30
0.0
 11
4.0
 21
86.499999999999986
 31
0.0
  0
ARC
  5
156
  8
DATA
  6
CONTINUOUS
 62
     7
 10
8.0
 20
83.499999999999986
 30
0.0
 40
1.0
 50
270.0
 51
0.0
  0
ARC
  5
157
  8
DATA
  6
CONTINUOUS
 62
     7
 10
5.0
 20
83.499999999999986
 30
0.0
 40
1.0
 50
180.0
 51
270.0
  0
ARC
  5
158
  8
DATA
  6
CONTINUOUS
 62
     7
 10
8.0
 20
86.499999999999986
 30
0.0
 40
1.0
 50
0.0
 51
90.0
  0
ARC
  5
159
  8
DATA
  6
CONTINUOUS
 62
     7
 10
5.0
 20
86.499999999999986
 30
0.0
 40
1.0
 50
90.0
 51
180.0
  0
TEXT
  5
15A
  8
DATA
 62
     7
 10
-12.0
 20
73.359333333333311
 30
0.0
 40
3.7041666666666648
  1
mute
 41
0.8
 11
-12.0
 21
77.063499999999976
 31
0.0
 73
     3
  0
TEXT
  5
15B
  8
DATA
 62
     7
 10
0.999999999999998
 20
73.359333333333311
 30
0.0
 40
3.2576822916666659
  1
select
 41
0.8
 11
0.9999999999999982
 21
76.617015624999979
 31
0.0
 73
     3
  0
ARC
  5
15C
  8
DATA
  6
CONTINUOUS
 62
     7
 10
-6.4999999999999778
 20
85.0
 30
0.0
 40
0.9999999999999785
 50
120.00000000000171
 51
60.000000000000639
  0
LINE
  5
15D
  8
DATA
  6
CONTINUOUS
 62
     7
 10
-6.5
 20
86.499999999999986
 30
0.0
 11
-6.5
 21
85.499999999999986
 31
0.0
  0
ARC
  5
15E
  8
DATA
  6
CONTINUOUS
 62
     7
 10
-8.0
 20
82.999999999999986
 30
0.0
 40
2.0
 50
180.0
 51
270.0
  0
ARC
  5
15F
  8
DATA
  6
CONTINUOUS
 62
     7
 10
-8.0
 20
86.999999999999986
 30
0.0
 40
2.0
 50
90.0
 51
180.0
  0
ARC
  5
160
  8
DATA
  6
CONTINUOUS
 62
     7
 10
8.0
 20
86.999999999999986
 30
0.0
 40
2.0
 50
0.0
 51
90.0
  0
ARC
  5
161
  8
DATA
  6
CONTINUOUS
 62
     7
 10
8.0
 20
82.999999999999986
 30
0.0
 40
2.0
 50
270.0
 51
0.0
  0
LINE
  5
162
  8
DATA
  6
CONTINUOUS
 62
     7
 10
-9.0
 20
92.999999999999986
 30
0.0
 11
9.0
 21
92.999999999999986
 31
0.0
  0
LINE
  5
163
  8
DATA
  6
CONTINUOUS
 62
     7
 10
-9.0
 20
92.999999999999986
 30
0.0
 11
-9.0
 21
105.0
 31
0.0
  0
LINE
  5
164
  8
DATA
  6
CONTINUOUS
 62
     7
 10
-9.0
 20
105.0
 30
0.0
 11
9.0
 21
105.0
 31
0.0
  0
LINE
  5
165
  8
DATA
  6
CONTINUOUS
 62
     7
 10
9.0
 20
105.0
 30
0.0
 11
9.0
 21
92.999999999999986
 31
0.0
  0
CIRCLE
  5
166
  8
DATA
  6
CONTINUOUS
 62
     7
 10
0.0
 20
110.5
 30
0.0
 40
1.5
  0
TEXT
  5
167
  8
DATA
 62
     7
 10
-6.3146631056766571
 20
113.50347095812209
 30
0.0
 40
5.5562500000000004
  1
SLX2
 41
0.8
 11
-6.3146631056766571
 21
119.0597209581221
 31
0.0
 73
     3
  0
CIRCLE
  5
168
  8
DATA
  6
CONTINUOUS
 62
     7
 10
0.0
 20
-92.0
 30
0.0
 40
25.5
  0
CIRCLE
  5
169
  8
DATA
  6
CONTINUOUS
 62
     7
 10
0.0
 20
-92.0
 30
0.0
 40
25.0
  0
CIRCLE
  5
16A
  8
DATA
  6
CONTINUOUS
 62
     7
 10
0.0
 20
-92.0
 30
0.0
 40
13.0
  0
CIRCLE
  5
16B
  8
DATA
  6
CONTINUOUS
 62
     7
 10
0.0
 20
-92.0
 30
0.0
 40
18.5
  0
CIRCLE
  5
16C
  8
DATA
  6
CONTINUOUS
 62
     7
 10
0.0
 20
-92.0
 30
0.0
 40
19.25
  0
TEXT
  5
16D
  8
DATA
 62
     7
 10
-8.0
 20
-94.461000000000013
 30
0.0
 40
5.5562500000000004
  1
SHURE
 41
0.8
 11
-8.0
 21
-88.904750000000007
 31
0.0
 73
     3
  0
TEXT
  5
16E
  8
DATA
 62
     7
 10
-5.7861131672015311
 20
188.3738937621832
 30
0.0
 40
4.630208333333333
  1
SM58
 41
0.8
 11
-5.7861131672015311
 21
193.00410209551649
 31
0.0
 73
     3
  0
CIRCLE
  5
16F
  8
DATA
  6
CONTINUOUS
 62
     7
 10
0.0
 20
-92.0
 30
0.0
 40
17.0
  0
LINE
  5
170
  8
DATA
  6
CONTINUOUS
 62
     7
 10
-18.5
 20
170.0
 30
0.0
 11
-18.5
 21
194.5
 31
0.0
  0
LINE
  5
171
  8
DATA
  6
CONTINUOUS
 62
     7
 10
18.5
 20
170.0
 30
0.0
 11
18.5
 21
194.5
 31
0.0
  0
LINE
  5
172
  8
DATA
  6
CONTINUOUS
 62
     7
 10
-18.5
 20
194.5
 30
0.0
 11
18.5
 21
194.5
 31
0.0
  0
LINE
  5
173
  8
DATA
  6
CONTINUOUS
 62
     7
 10
-17.75
 20
198.0
 30
0.0
 11
-18.5
 21
194.5
 31
0.0
  0
LINE
  5
174
  8
DATA
  6
CONTINUOUS
 62
     7
 10
17.75
 20
198.0
 30
0.0
 11
18.5
 21
194.5
 31
0.0
  0
LINE
  5
175
  8
DATA
  6
CONTINUOUS
 62
     7
 10
-25.5
 20
221.54890285905071
 30
0.0
 11
25.5
 21
221.54890285905071
 31
0.0
  0
LINE
  5
176
  8
DATA
  6
CONTINUOUS
 62
     7
 10
-25.5
 20
219.54890285905071
 30
0.0
 11
25.5
 21
219.54890285905071
 31
0.0
  0
LINE
  5
177
  8
DATA
  6
CONTINUOUS
 62
     7
 10
-25.5
 20
218.54890285905071
 30
0.0
 11
-25.5
 21
219.54890285905071
 31
0.0
  0
LINE
  5
178
  8
DATA
  6
CONTINUOUS
 62
     7
 10
-25.5
 20
221.54890285905071
 30
0.0
 11
-25.5
 21
222.54890285905071
 31
0.0
  0
LINE
  5
179
  8
DATA
  6
CONTINUOUS
 62
     7
 10
25.5
 20
222.54890285905071
 30
0.0
 11
25.5
 21
221.54890285905071
 31
0.0
  0
LINE
  5
17A
  8
DATA
  6
CONTINUOUS
 62
     7
 10
25.5
 20
219.54890285905071
 30
0.0
 11
25.5
 21
218.54890285905071
 31
0.0
  0
LINE
  5
17B
  8
DATA
  6
CONTINUOUS
 62
     7
 10
-25.5
 20
222.54890285905071
 30
0.0
 11
25.5
 21
222.54890285905071
 31
0.0
  0
LINE
  5
17C
  8
DATA
  6
CONTINUOUS
 62
     7
 10
-25.5
 20
218.54890285905071
 30
0.0
 11
25.5
 21
218.54890285905071
 31
0.0
  0
LINE
  5
17D
  8
DATA
  6
CONTINUOUS
 62
     7
 10
-25.0
 20
219.54890285905071
 30
0.0
 11
-25.0
 21
221.54890285905071
 31
0.0
  0
LINE
  5
17E
  8
DATA
  6
CONTINUOUS
 62
     7
 10
25.0
 20
219.54890285905071
 30
0.0
 11
25.0
 21
221.54890285905071
 31
0.0
  0
LINE
  5
17F
  8
DATA
  6
CONTINUOUS
 62
     7
 10
-18.5
 20
202.54890285905071
 30
0.0
 11
18.5
 21
202.54890285905071
 31
0.0
  0
ARC
  5
180
  8
DATA
  6
CONTINUOUS
 62
     7
 10
0.0
 20
221.54890285905071
 30
0.0
 40
25.019992006393611
 50
2.2906100426385292
 51
177.7093899573614
  0
ARC
  5
181
  8
DATA
  6
CONTINUOUS
 62
     7
 10
0.0572087175188614
 20
219.40808140054281
 30
0.0
 40
25.071934438320941
 50
181.96382709775239
 51
222.25506958975089
  0
ARC
  5
182
  8
DATA
  6
CONTINUOUS
 62
     7
 10
-0.0572087175188614
 20
219.40808140054281
 30
0.0
 40
25.071934438320941
 50
317.74493041024908
 51
358.03617290224759
  0
ENDSEC
  0
EOF
