  0
SECTION
  2
HEADER
  9
$ACADVER
  1
AC1009
  9
$INSBASE
 10
0.0
 20
0.0
 30
0.0
  9
$EXTMIN
 10
-75.016463234005641
 20
-125.56798085595319
 30
-0.0015258207003583
  9
$EXTMAX
 10
465.01646574857659
 20
677.32218227010958
 30
0.0000000349246037
  9
$LIMMIN
 10
0.0
 20
0.0
  9
$LIMMAX
 10
0.0
 20
0.0
  9
$ORTHOMODE
 70
     0
  9
$REGENMODE
 70
     1
  9
$FILLMODE
 70
     1
  9
$QTEXTMODE
 70
     0
  9
$MIRRTEXT
 70
     1
  9
$DRAGMODE
 70
     2
  9
$LTSCALE
 40
15.24
  9
$OSMODE
 70
   231
  9
$ATTMODE
 70
     1
  9
$TEXTSIZE
 40
0.0
  9
$TRACEWID
 40
1.0
  9
$TEXTSTYLE
  7
STANDARD
  9
$CLAYER
  8
DATA
  9
$CELTYPE
  6
CONTINUOUS
  9
$CECOLOR
 62
   256
  9
$DIMSCALE
 40
1.0
  9
$DIMASZ
 40
0.18
  9
$DIMEXO
 40
0.0625
  9
$DIMDLI
 40
0.38
  9
$DIMRND
 40
0.0
  9
$DIMDLE
 40
0.0
  9
$DIMEXE
 40
0.18
  9
$DIMTP
 40
0.0
  9
$DIMTM
 40
0.0
  9
$DIMTXT
 40
0.18
  9
$DIMCEN
 40
0.09
  9
$DIMTSZ
 40
0.0
  9
$DIMTOL
 70
     0
  9
$DIMLIM
 70
     0
  9
$DIMTIH
 70
     1
  9
$DIMTOH
 70
     1
  9
$DIMSE1
 70
     0
  9
$DIMSE2
 70
     0
  9
$DIMTAD
 70
     0
  9
$DIMZIN
 70
     0
  9
$DIMBLK
  1

  9
$DIMASO
 70
     1
  9
$DIMSHO
 70
     1
  9
$DIMPOST
  1

  9
$DIMAPOST
  1

  9
$DIMALT
 70
     0
  9
$DIMALTD
 70
     2
  9
$DIMALTF
 40
25.399999999999999
  9
$DIMLFAC
 40
1.0
  9
$DIMTOFL
 70
     0
  9
$DIMTVP
 40
0.0
  9
$DIMTIX
 70
     0
  9
$DIMSOXD
 70
     0
  9
$DIMSAH
 70
     0
  9
$DIMBLK1
  1

  9
$DIMBLK2
  1

  9
$DIMSTYLE
  2
STANDARD
  9
$DIMCLRD
 70
     0
  9
$DIMCLRE
 70
     0
  9
$DIMCLRT
 70
     0
  9
$DIMTFAC
 40
1.0
  9
$DIMGAP
 40
0.09
  9
$LUNITS
 70
     2
  9
$LUPREC
 70
     4
  9
$SKETCHINC
 40
0.1
  9
$FILLETRAD
 40
0.0
  9
$AUNITS
 70
     0
  9
$AUPREC
 70
     0
  9
$MENU
  1
acad
  9
$ELEVATION
 40
0.0
  9
$PELEVATION
 40
0.0
  9
$THICKNESS
 40
0.0
  9
$LIMCHECK
 70
     0
  9
$BLIPMODE
 70
     0
  9
$CHAMFERA
 40
0.0
  9
$CHAMFERB
 40
0.0
  9
$SKPOLY
 70
     0
  9
$TDCREATE
 40
2453780.7079861122
  9
$TDUPDATE
 40
2453780.717675359
  9
$TDINDWG
 40
0.0002875347
  9
$TDUSRTIMER
 40
0.0002873611
  9
$USRTIMER
 70
     1
  9
$ANGBASE
 50
0.0
  9
$ANGDIR
 70
     0
  9
$PDMODE
 70
     1
  9
$PDSIZE
 40
-2.0
  9
$PLINEWID
 40
0.0
  9
$COORDS
 70
     2
  9
$SPLFRAME
 70
     0
  9
$SPLINETYPE
 70
     6
  9
$SPLINESEGS
 70
     8
  9
$ATTDIA
 70
     0
  9
$ATTREQ
 70
     1
  9
$HANDLING
 70
     1
  9
$HANDSEED
  5
352
  9
$SURFTAB1
 70
     6
  9
$SURFTAB2
 70
     6
  9
$SURFTYPE
 70
     6
  9
$SURFU
 70
     6
  9
$SURFV
 70
     6
  9
$UCSNAME
  2

  9
$UCSORG
 10
0.0
 20
0.0
 30
0.0
  9
$UCSXDIR
 10
1.0
 20
0.0
 30
0.0
  9
$UCSYDIR
 10
0.0
 20
1.0
 30
0.0
  9
$PUCSNAME
  2

  9
$PUCSORG
 10
0.0
 20
0.0
 30
0.0
  9
$PUCSXDIR
 10
1.0
 20
0.0
 30
0.0
  9
$PUCSYDIR
 10
0.0
 20
1.0
 30
0.0
  9
$USERI1
 70
     0
  9
$USERI2
 70
     0
  9
$USERI3
 70
     0
  9
$USERI4
 70
     0
  9
$USERI5
 70
     0
  9
$USERR1
 40
0.0
  9
$USERR2
 40
0.0
  9
$USERR3
 40
0.0
  9
$USERR4
 40
0.0
  9
$USERR5
 40
0.0
  9
$WORLDVIEW
 70
     1
  9
$SHADEDGE
 70
     3
  9
$SHADEDIF
 70
    70
  9
$TILEMODE
 70
     1
  9
$MAXACTVP
 70
    64
  9
$PLIMCHECK
 70
     0
  9
$PEXTMIN
 10
1.0000000000000000E+020
 20
1.0000000000000000E+020
 30
1.0000000000000000E+020
  9
$PEXTMAX
 10
-1.0000000000000000E+020
 20
-1.0000000000000000E+020
 30
-1.0000000000000000E+020
  9
$PLIMMIN
 10
0.0
 20
0.0
  9
$PLIMMAX
 10
12.0
 20
9.0
  9
$UNITMODE
 70
     0
  9
$VISRETAIN
 70
     0
  9
$PLINEGEN
 70
     1
  9
$PSLTSCALE
 70
     0
  0
ENDSEC
  0
SECTION
  2
TABLES
  0
TABLE
  2
VPORT
 70
     2
  0
VPORT
  2
*ACTIVE
 70
     0
 10
0.0
 20
0.0
 11
1.0
 21
1.0
 12
195.00000125728539
 22
275.87710070707823
 13
0.0
 23
0.0
 14
1.0
 24
1.0
 15
0.0
 25
0.0
 16
0.0
 26
0.0
 36
1.0
 17
0.0
 27
0.0
 37
0.0
 40
809.53477137262325
 41
1.665745856353591
 42
50.0
 43
0.0
 44
0.0
 50
0.0
 51
0.0
 71
     0
 72
  2000
 73
     1
 74
     1
 75
     0
 76
     0
 77
     0
 78
     0
  0
ENDTAB
  0
TABLE
  2
LTYPE
 70
    11
  0
LTYPE
  2
CONTINUOUS
 70
     0
  3
Solid line
 72
    65
 73
     0
 40
0.0
  0
LTYPE
  2
STYLE_01
 70
     0
  3

 72
    65
 73
     2
 40
0.4166412353515625
 49
0.208282470703125
 49
-0.2083587646484375
  0
ENDTAB
  0
TABLE
  2
LAYER
 70
     5
  0
LAYER
  2
0
 70
     0
 62
     7
  6
CONTINUOUS
  0
LAYER
  2
DATA
 70
     0
 62
     7
  6
CONTINUOUS
  0
LAYER
  2
HIBINO-BASE
 70
     0
 62
     7
  6
CONTINUOUS
  0
LAYER
  2
SPEC
 70
     0
 62
     7
  6
CONTINUOUS
  0
LAYER
  2
DIMNSIONS
 70
     0
 62
     7
  6
CONTINUOUS
  0
ENDTAB
  0
TABLE
  2
STYLE
 70
     2
  0
STYLE
  2
STANDARD
 70
     0
 40
0.0
 41
1.0
 50
0.0
 71
     0
 42
0.0
  3
txt
  4
BIGFONT.SHX
  0
ENDTAB
  0
TABLE
  2
VIEW
 70
     0
  0
ENDTAB
  0
TABLE
  2
UCS
 70
     0
  0
ENDTAB
  0
TABLE
  2
APPID
 70
     1
  0
APPID
  2
ACAD
 70
     0
  0
ENDTAB
  0
TABLE
  2
DIMSTYLE
 70
     1
  0
DIMSTYLE
  2
STANDARD
 70
     0
  3

  4

  5

  6

  7

 40
1.0
 41
0.18
 42
0.0625
 43
0.38
 44
0.18
 45
0.0
 46
0.0
 47
0.0
 48
0.0
140
0.18
141
0.09
142
0.0
143
25.399999999999999
144
1.0
145
0.0
146
1.0
147
0.09
 71
     0
 72
     0
 73
     1
 74
     1
 75
     0
 76
     0
 77
     0
 78
     0
170
     0
171
     2
172
     0
173
     0
174
     0
175
     0
176
     0
177
     0
178
     0
  0
ENDTAB
  0
ENDSEC
  0
SECTION
  2
BLOCKS
  0
BLOCK
  8
0
  2
$MODEL_SPACE
 70
     0
 10
0.0
 20
0.0
 30
0.0
  3
$MODEL_SPACE
  1

  0
ENDBLK
  5
31D
  8
0
  0
BLOCK
 67
     1
  8
0
  2
$PAPER_SPACE
 70
     0
 10
0.0
 20
0.0
 30
0.0
  3
$PAPER_SPACE
  1

  0
ENDBLK
  5
319
 67
     1
  8
0
  0
ENDSEC
  0
SECTION
  2
ENTITIES
  0
LINE
  5
2C
  8
HIBINO-BASE
  6
CONTINUOUS
 62
     7
 10
-74.999985000000024
 20
677.29772999999989
 30
0.0
 11
464.99998499999992
 21
677.29772999999989
 31
0.0
  0
LINE
  5
2D
  8
HIBINO-BASE
  6
CONTINUOUS
 62
     7
 10
464.99998499999992
 20
-102.70225499999999
 30
0.0
 11
-74.999985000000024
 21
-102.70225499999999
 31
0.0
  0
LINE
  5
2E
  8
HIBINO-BASE
  6
CONTINUOUS
 62
     7
 10
-74.999985000000024
 20
-102.70225499999999
 30
0.0
 11
-74.999985000000024
 21
677.29772999999989
 31
0.0
  0
TEXT
  5
2F
  8
HIBINO-BASE
 62
     7
 10
-53.44798499999996
 20
-121.9282755
 30
0.0
 40
10.800120996093741
  1
Hibino Corporation
 41
0.8
 11
-53.44798499999996
 21
-111.1281545039062
 31
0.0
 73
     3
  0
LINE
  5
30
  8
HIBINO-BASE
  6
CONTINUOUS
 62
     7
 10
464.99998499999992
 20
677.29772999999989
 30
0.0
 11
464.99998499999992
 21
-102.70225499999999
 31
0.0
  0
LINE
  5
31
  8
HIBINO-BASE
  6
CONTINUOUS
 62
     7
 10
195.0
 20
-35.202269999999999
 30
0.0
 11
464.99998499999992
 21
-35.202269999999999
 31
0.0
  0
LINE
  5
32
  8
HIBINO-BASE
  6
CONTINUOUS
 62
     7
 10
195.0
 20
-102.70225499999999
 30
0.0
 11
195.0
 21
-35.202269999999999
 31
0.0
  0
TEXT
  5
33
  8
HIBINO-BASE
 62
     7
 10
197.699985
 20
-43.302279600000013
 30
0.0
 40
5.4000778125000002
  1
NOTE
 41
0.8
 11
197.699985
 21
-37.902201787500012
 31
0.0
 73
     3
  0
LINE
  5
34
  8
HIBINO-BASE
  6
CONTINUOUS
 62
     7
 10
300.0
 20
-102.70225499999999
 30
0.0
 11
300.0
 21
-35.202269999999999
 31
0.0
  0
TEXT
  5
35
  8
HIBINO-BASE
 62
     7
 10
302.69999999999999
 20
-43.302279600000013
 30
0.0
 40
5.4000778125000002
  1
TITLE
 41
0.8
 11
302.69999999999999
 21
-37.902201787500012
 31
0.0
 73
     3
  0
TEXT
  5
36
  8
HIBINO-BASE
 62
     7
 10
345.20515499999999
 20
-121.9282755
 30
0.0
 40
10.800120996093741
  1
ヒビノ株式会社
 41
0.8
 11
345.20515499999999
 21
-111.1281545039062
 31
0.0
 73
     3
  0
LINE
  5
37
  8
HIBINO-BASE
  6
CONTINUOUS
 62
     7
 10
195.0
 20
-72.702269999999999
 30
0.0
 11
464.99998499999992
 21
-72.702269999999999
 31
0.0
  0
TEXT
  5
38
  8
HIBINO-BASE
 62
     7
 10
340.2000000000001
 20
-80.633304599999974
 30
0.0
 40
5.4000778125000002
  1
DRAWN
 41
0.8
 11
340.2000000000001
 21
-75.233226787499973
 31
0.0
 73
     3
  0
TEXT
  5
39
  8
HIBINO-BASE
 62
     7
 10
265.2000000000001
 20
-80.633304599999974
 30
0.0
 40
5.4000778125000002
  1
DATE
 41
0.8
 11
265.2000000000001
 21
-75.233226787499973
 31
0.0
 73
     3
  0
TEXT
  5
3A
  8
HIBINO-BASE
 62
     7
 10
198.29998499999999
 20
-80.560610700000026
 30
0.0
 40
4.8865195898437506
  1
図面サイズ
 41
0.8
 11
198.29998499999999
 21
-75.674091110156269
 31
0.0
 73
     3
  0
TEXT
  5
3B
  8
HIBINO-BASE
 62
     7
 10
235.199985
 20
-80.633304599999974
 30
0.0
 40
5.4000778125000002
  1
SCALE
 41
0.8
 11
235.199985
 21
-75.233226787499973
 31
0.0
 73
     3
  0
TEXT
  5
3C
  8
HIBINO-BASE
 62
     7
 10
302.69999999999999
 20
-80.633304599999974
 30
0.0
 40
5.4000778125000002
  1
DESIGN
 41
0.8
 11
302.69999999999999
 21
-75.233226787499973
 31
0.0
 73
     3
  0
TEXT
  5
3D
  8
HIBINO-BASE
 62
     7
 10
415.19998500000003
 20
-80.633304599999974
 30
0.0
 40
5.4000778125000002
  1
DRAWING NO.
 41
0.8
 11
415.19998500000003
 21
-75.233226787499973
 31
0.0
 73
     3
  0
TEXT
  5
3E
  8
HIBINO-BASE
 62
     7
 10
377.69998500000003
 20
-80.633304599999974
 30
0.0
 40
5.4000778125000002
  1
CHECK
 41
0.8
 11
377.69998500000003
 21
-75.233226787499973
 31
0.0
 73
     3
  0
LINE
  5
3F
  8
HIBINO-BASE
  6
CONTINUOUS
 62
     7
 10
238.12498500000001
 20
-98.952270000000013
 30
0.0
 11
249.375
 21
-87.702269999999999
 31
0.0
  0
TEXT
  5
40
  8
HIBINO-BASE
 62
     7
 10
236.24998500000001
 20
-92.849412599999965
 30
0.0
 40
6.515359453124999
  1
1
 41
0.8
 11
236.24998500000001
 21
-86.334053146874965
 31
0.0
 73
     3
  0
LINE
  5
41
  8
HIBINO-BASE
  6
CONTINUOUS
 62
     7
 10
232.49998500000001
 20
-102.70225499999999
 30
0.0
 11
232.49998500000001
 21
-72.702269999999999
 31
0.0
  0
LINE
  5
42
  8
HIBINO-BASE
  6
CONTINUOUS
 62
     7
 10
262.49998499999998
 20
-102.70225499999999
 30
0.0
 11
262.49998499999998
 21
-72.702269999999999
 31
0.0
  0
LINE
  5
43
  8
HIBINO-BASE
  6
CONTINUOUS
 62
     7
 10
337.49998500000009
 20
-72.702269999999999
 30
0.0
 11
337.49998500000009
 21
-102.70225499999999
 31
0.0
  0
LINE
  5
44
  8
HIBINO-BASE
  6
CONTINUOUS
 62
     7
 10
412.5
 20
-72.702269999999999
 30
0.0
 11
412.5
 21
-102.70225499999999
 31
0.0
  0
LINE
  5
45
  8
HIBINO-BASE
  6
CONTINUOUS
 62
     7
 10
374.99998499999998
 20
-102.70225499999999
 30
0.0
 11
374.99998499999998
 21
-72.702269999999999
 31
0.0
  0
TEXT
  5
46
  8
HIBINO-BASE
 62
     7
 10
206.73267000000001
 20
-95.206873499999929
 30
0.0
 40
9.7730276367187496
  1
A4
 41
0.8
 11
206.73267000000001
 21
-85.433845863281178
 31
0.0
 73
     3
  0
TEXT
  5
47
  8
HIBINO-BASE
 62
     7
 10
270.72395988305408
 20
-94.685244599999947
 30
0.0
 40
5.4000778125000002
  1
'05.12
 41
0.8
 11
270.72395988305408
 21
-89.285166787499961
 31
0.0
 73
     3
  0
TEXT
  5
48
  8
HIBINO-BASE
 62
     7
 10
247.5
 20
-98.474412599999965
 30
0.0
 40
6.515359453124999
  1
3
 41
0.8
 11
247.5
 21
-91.959053146874965
 31
0.0
 73
     3
  0
LINE
  5
49
  8
SPEC
  6
CONTINUOUS
 62
     7
 10
-52.499985000000031
 20
647.29773
 30
0.0
 11
410.0
 21
647.29773
 31
0.0
  0
LINE
  5
4A
  8
SPEC
  6
CONTINUOUS
 62
     7
 10
-52.499985000000031
 20
636.04773
 30
0.0
 11
410.0
 21
636.04773
 31
0.0
  0
LINE
  5
4B
  8
SPEC
  6
CONTINUOUS
 62
     7
 10
-52.499985000000031
 20
591.04773
 30
0.0
 11
410.0
 21
591.04773
 31
0.0
  0
LINE
  5
4C
  8
SPEC
  6
CONTINUOUS
 62
     7
 10
-52.499985000000031
 20
602.29772999999989
 30
0.0
 11
410.0
 21
602.29772999999989
 31
0.0
  0
LINE
  5
4D
  8
SPEC
  6
CONTINUOUS
 62
     7
 10
-52.499985000000031
 20
613.54772999999989
 30
0.0
 11
410.0
 21
613.54772999999989
 31
0.0
  0
LINE
  5
4E
  8
SPEC
  6
CONTINUOUS
 62
     7
 10
-52.499985000000031
 20
624.79773
 30
0.0
 11
410.0
 21
624.79773
 31
0.0
  0
TEXT
  5
4F
  8
SPEC
 62
     7
 10
65.200015000000008
 20
638.41146833333323
 30
0.0
 40
5.7009440104166647
  1
F3E
 41
0.8
 11
65.200015000000008
 21
644.11241234374995
 31
0.0
 73
     3
  0
LINE
  5
50
  8
SPEC
  6
CONTINUOUS
 62
     7
 10
-52.499985000000031
 20
647.29773
 30
0.0
 11
-52.499985000000031
 21
489.79772999999989
 31
0.0
  0
TEXT
  5
51
  8
SPEC
 62
     7
 10
-48.749985000000031
 20
651.47752500000001
 30
0.0
 40
7.3297851562500007
  1
仕様
 41
0.8
 11
-48.749985000000031
 21
658.80731015624997
 31
0.0
 73
     3
  0
LINE
  5
52
  8
SPEC
  6
CONTINUOUS
 62
     7
 10
60.0
 20
647.29773
 30
0.0
 11
60.0
 21
489.79772999999989
 31
0.0
  0
LINE
  5
53
  8
SPEC
  6
CONTINUOUS
 62
     7
 10
410.0
 20
647.29773
 30
0.0
 11
410.0
 21
489.79772999999989
 31
0.0
  0
TEXT
  5
54
  8
SPEC
 62
     7
 10
-49.799984999999992
 20
638.41146833333323
 30
0.0
 40
5.7009440104166647
  1
電波型式
 41
0.8
 11
-49.799984999999992
 21
644.11241234374995
 31
0.0
 73
     3
  0
TEXT
  5
55
  8
SPEC
 62
     7
 10
-49.799984999999992
 20
604.66148333333308
 30
0.0
 40
5.7009440104166647
  1
アンテナ入力
 41
0.8
 11
-49.799984999999992
 21
610.3624273437498
 31
0.0
 73
     3
  0
TEXT
  5
56
  8
SPEC
 62
     7
 10
-49.799984999999992
 20
627.16148333333297
 30
0.0
 40
5.7009440104166647
  1
受信周波数
 41
0.8
 11
-49.799984999999992
 21
632.8624273437498
 31
0.0
 73
     3
  0
TEXT
  5
57
  8
SPEC
 62
     7
 10
-49.799984999999992
 20
615.91148333333297
 30
0.0
 40
5.7009440104166647
  1
トーン信号周波数
 41
0.8
 11
-49.799984999999992
 21
621.6124273437498
 31
0.0
 73
     3
  0
TEXT
  5
58
  8
SPEC
 62
     7
 10
65.200015000000008
 20
604.66148333333308
 30
0.0
 40
5.7009440104166647
  1
実効インピーダンス:50Ω、コネクタ :BNC
 41
0.8
 11
65.200015000000008
 21
610.3624273437498
 31
0.0
 73
     3
  0
TEXT
  5
59
  8
SPEC
 62
     7
 10
65.200015000000008
 20
615.91148333333297
 30
0.0
 40
5.7009440104166647
  1
32.768kHz
 41
0.8
 11
65.200015000000008
 21
621.6124273437498
 31
0.0
 73
     3
  0
TEXT
  5
5A
  8
SPEC
 62
     7
 10
65.200015000000008
 20
627.16148333333297
 30
0.0
 40
5.7009440104166647
  1
B型 (806～810MHz)30チャンネルのうち任意の1チャンネル
 41
0.8
 11
65.200015000000008
 21
632.8624273437498
 31
0.0
 73
     3
  0
LINE
  5
5B
  8
SPEC
  6
CONTINUOUS
 62
     7
 10
-52.499985000000031
 20
546.04772999999989
 30
0.0
 11
400.0
 21
546.04772999999989
 31
0.0
  0
TEXT
  5
5C
  8
SPEC
 62
     7
 10
65.200015000000008
 20
537.16148333333331
 30
0.0
 40
5.7009440104166647
  1
197×42×134mm(ラックマウント面より。コネクタ ・アンテナ・保護用ダンパー・突起含まず)
 41
0.8
 11
65.200015000000008
 21
542.86242734375003
 31
0.0
 73
     3
  0
TEXT
  5
5D
  8
SPEC
 62
     7
 10
-49.799984999999992
 20
537.48488333333319
 30
0.0
 40
5.7009440104166647
  1
寸法(W×H×D)
 41
0.8
 11
-49.799984999999992
 21
543.18582734374991
 31
0.0
 73
     3
  0
TEXT
  5
5E
  8
SPEC
 62
     7
 10
-7.7999849999999924
 20
559.98488333333296
 30
0.0
 40
5.7009440104166647
  1
レベル
 41
0.8
 11
-7.7999849999999924
 21
565.68582734374979
 31
0.0
 73
     3
  0
LINE
  5
5F
  8
SPEC
  6
CONTINUOUS
 62
     7
 10
-52.499985000000031
 20
546.04772999999989
 30
0.0
 11
410.0
 21
546.04772999999989
 31
0.0
  0
TEXT
  5
60
  8
SPEC
 62
     7
 10
-49.799984999999992
 20
525.76146833333326
 30
0.0
 40
5.7009440104166647
  1
重量
 41
0.8
 11
-49.799984999999992
 21
531.46241234374986
 31
0.0
 73
     3
  0
TEXT
  5
61
  8
SPEC
 62
     7
 10
65.200015000000008
 20
525.76146833333326
 30
0.0
 40
5.7009440104166647
  1
約816g
 41
0.8
 11
65.200015000000008
 21
531.46241234374986
 31
0.0
 73
     3
  0
TEXT
  5
62
  8
SPEC
 62
     7
 10
65.200015000000008
 20
582.16148333333297
 30
0.0
 40
5.7009440104166647
  1
バランス:XLR3ピン・オス、アンバランス:フォーンジャック
 41
0.8
 11
65.200015000000008
 21
587.86242734374969
 31
0.0
 73
     3
  0
TEXT
  5
63
  8
SPEC
 62
     7
 10
65.200015000000008
 20
570.91148333333297
 30
0.0
 40
5.7009440104166647
  1
バランス:200Ω、アンバランス:1kΩ
 41
0.8
 11
65.200015000000008
 21
576.6124273437498
 31
0.0
 73
     3
  0
TEXT
  5
64
  8
SPEC
 62
     7
 10
65.200015000000008
 20
548.41148333333319
 30
0.0
 40
5.7009440104166647
  1
DC12～18V(160mA)、ACアダプタ(AC100V、50/60Hz)
 41
0.8
 11
65.200015000000008
 21
554.11242734375003
 31
0.0
 73
     3
  0
TEXT
  5
65
  8
SPEC
 62
     7
 10
-49.799984999999992
 20
548.73488333333319
 30
0.0
 40
5.7009440104166647
  1
電源
 41
0.8
 11
-49.799984999999992
 21
554.43582734374991
 31
0.0
 73
     3
  0
TEXT
  5
66
  8
SPEC
 62
     7
 10
65.200015000000008
 20
514.66148333333331
 30
0.0
 40
5.7009440104166647
  1
1/4波長アンテナ×2、ACアダプタ、ラックマウント金具大・小、リンクバー、止めネジ金具一式
 41
0.8
 11
65.200015000000008
 21
520.36242734375003
 31
0.0
 73
     3
  0
TEXT
  5
67
  8
SPEC
 62
     7
 10
-49.799984999999992
 20
514.98488333333307
 30
0.0
 40
5.7009440104166647
  1
付属品
 41
0.8
 11
-49.799984999999992
 21
520.68582734374979
 31
0.0
 73
     3
  0
TEXT
  5
68
  8
SPEC
 62
     7
 10
65.200015000000008
 20
492.16148333333342
 30
0.0
 40
5.7009440104166647
  1
アンテナホールキャップ×2
 41
0.8
 11
65.200015000000008
 21
497.86242734375008
 31
0.0
 73
     3
  0
LINE
  5
69
  8
SPEC
  6
CONTINUOUS
 62
     7
 10
-52.499985000000031
 20
534.79773
 30
0.0
 11
410.0
 21
534.79773
 31
0.0
  0
LINE
  5
6A
  8
SPEC
  6
CONTINUOUS
 62
     7
 10
-52.499985000000031
 20
489.79772999999989
 30
0.0
 11
410.0
 21
489.79772999999989
 31
0.0
  0
TEXT
  5
6B
  8
SPEC
 62
     7
 10
65.200015000000008
 20
503.41148333333342
 30
0.0
 40
5.7009440104166647
  1
保護用バンパー×4、50Ω同軸ケーブル(60cm)×2、フロントアンテナ用バルクヘッドアダプタ×2
 41
0.8
 11
65.200015000000008
 21
509.11242734375003
 31
0.0
 73
     3
  0
TEXT
  5
6C
  8
SPEC
 62
     7
 10
-7.7999849999999924
 20
570.91148333333297
 30
0.0
 40
5.7009440104166647
  1
インピーダンス
 41
0.8
 11
-7.7999849999999924
 21
576.6124273437498
 31
0.0
 73
     3
  0
TEXT
  5
6D
  8
SPEC
 62
     7
 10
-49.799984999999992
 20
593.41148333333308
 30
0.0
 40
5.7009440104166647
  1
感度(12dB SINAD)
 41
0.8
 11
-49.799984999999992
 21
599.1124273437498
 31
0.0
 73
     3
  0
TEXT
  5
6E
  8
SPEC
 62
     7
 10
-49.799984999999992
 20
582.16148333333297
 30
0.0
 40
5.7009440104166647
  1
音声出力
 41
0.8
 11
-49.799984999999992
 21
587.86242734374969
 31
0.0
 73
     3
  0
TEXT
  5
6F
  8
SPEC
 62
     7
 10
65.200015000000008
 20
559.66148333333297
 30
0.0
 40
5.7009440104166647
  1
バランス:-13dBV(600Ω負荷)、アンバランス:-2dBV(3kΩ負荷)
 41
0.8
 11
65.200015000000008
 21
565.3624273437498
 31
0.0
 73
     3
  0
TEXT
  5
70
  8
SPEC
 62
     7
 10
65.200015000000008
 20
593.41148333333308
 30
0.0
 40
5.7009440104166647
  1
-105dBm(標準)
 41
0.8
 11
65.200015000000008
 21
599.1124273437498
 31
0.0
 73
     3
  0
TEXT
  5
71
  8
SPEC
 62
     7
 10
-7.7999849999999924
 20
582.16148333333297
 30
0.0
 40
5.7009440104166647
  1
コネクタ 
 41
0.8
 11
-7.7999849999999924
 21
587.86242734374969
 31
0.0
 73
     3
  0
LINE
  5
72
  8
SPEC
  6
CONTINUOUS
 62
     7
 10
-10.0
 20
591.04773
 30
0.0
 11
-10.0
 21
557.29772999999989
 31
0.0
  0
LINE
  5
73
  8
SPEC
  6
CONTINUOUS
 62
     7
 10
-52.499985000000031
 20
557.29772999999989
 30
0.0
 11
410.0
 21
557.29772999999989
 31
0.0
  0
LINE
  5
74
  8
SPEC
  6
CONTINUOUS
 62
     7
 10
-9.0607737810201154
 20
579.79773
 30
0.0
 11
410.0
 21
579.79773
 31
0.0
  0
LINE
  5
75
  8
SPEC
  6
CONTINUOUS
 62
     7
 10
-9.0607737810201154
 20
568.54773
 30
0.0
 11
410.0
 21
568.54773
 31
0.0
  0
LINE
  5
76
  8
SPEC
  6
CONTINUOUS
 62
     7
 10
-52.499985000000031
 20
523.54773
 30
0.0
 11
410.0
 21
523.54773
 31
0.0
  0
TEXT
  5
77
  8
DIMNSIONS
 62
     7
 10
135.0
 20
-65.893785000000022
 30
0.0
 40
7.3297851562500007
  1
(単位：mm)
 41
0.8
 11
135.0
 21
-58.563999843750018
 31
0.0
 73
     3
  0
LINE
  5
78
  8
DIMNSIONS
  6
CONTINUOUS
 62
     7
 10
420.0
 20
47.999999977648251
 30
0.0
 11
420.0
 21
75.999999977648272
 31
0.0
  0
LINE
  5
79
  8
DIMNSIONS
  6
CONTINUOUS
 62
     7
 10
438.49999999999989
 20
31.724999977648281
 30
0.0
 11
438.49999999999989
 21
75.999999977648272
 31
0.0
  0
LINE
  5
7A
  8
DIMNSIONS
  6
CONTINUOUS
 62
     7
 10
438.49999999999989
 20
70.0
 30
0.0
 11
420.0
 21
70.0
 31
0.0
  0
LINE
  5
7B
  8
DIMNSIONS
  6
CONTINUOUS
 62
     7
 10
420.0
 20
70.0
 30
0.0
 11
404.99999998491251
 21
70.0
 31
0.0
  0
LINE
  5
7C
  8
DIMNSIONS
  6
CONTINUOUS
 62
     7
 10
420.0
 20
70.0
 30
0.0
 11
410.47500000000002
 21
67.447783942093579
 31
0.0
  0
LINE
  5
7D
  8
DIMNSIONS
  6
CONTINUOUS
 62
     7
 10
420.0
 20
70.0
 30
0.0
 11
410.47500000000002
 21
72.552216057906435
 31
0.0
  0
LINE
  5
7E
  8
DIMNSIONS
  6
CONTINUOUS
 62
     7
 10
438.49999999999989
 20
70.0
 30
0.0
 11
453.50000001508738
 21
70.0
 31
0.0
  0
LINE
  5
7F
  8
DIMNSIONS
  6
CONTINUOUS
 62
     7
 10
438.49999999999989
 20
70.0
 30
0.0
 11
448.02499999999992
 21
72.552216057906435
 31
0.0
  0
LINE
  5
80
  8
DIMNSIONS
  6
CONTINUOUS
 62
     7
 10
438.49999999999989
 20
70.0
 30
0.0
 11
448.02499999999992
 21
67.447783942093579
 31
0.0
  0
TEXT
  5
81
  8
DIMNSIONS
 62
     7
 10
418.66666666666652
 20
74.481666655490798
 30
0.0
 40
8.1442057291666661
  1
18.5
 41
0.8
 11
418.66666666666652
 21
82.625872384657455
 31
0.0
 73
     3
  0
LINE
  5
82
  8
DIMNSIONS
  6
CONTINUOUS
 62
     7
 10
0.0
 20
47.999999977648251
 30
0.0
 11
0.0
 21
75.999999977648272
 31
0.0
  0
LINE
  5
83
  8
DIMNSIONS
  6
CONTINUOUS
 62
     7
 10
197.0
 20
47.999999977648251
 30
0.0
 11
197.0
 21
75.999999977648272
 31
0.0
  0
LINE
  5
84
  8
DIMNSIONS
  6
CONTINUOUS
 62
     7
 10
0.0
 20
70.0
 30
0.0
 11
197.0
 21
70.0
 31
0.0
  0
LINE
  5
85
  8
DIMNSIONS
  6
CONTINUOUS
 62
     7
 10
0.0
 20
70.0
 30
0.0
 11
9.5250000000000021
 21
72.552216057906435
 31
0.0
  0
LINE
  5
86
  8
DIMNSIONS
  6
CONTINUOUS
 62
     7
 10
0.0
 20
70.0
 30
0.0
 11
9.5250000000000021
 21
67.447783942093579
 31
0.0
  0
LINE
  5
87
  8
DIMNSIONS
  6
CONTINUOUS
 62
     7
 10
197.0
 20
70.0
 30
0.0
 11
187.47499999999999
 21
67.447783942093579
 31
0.0
  0
LINE
  5
88
  8
DIMNSIONS
  6
CONTINUOUS
 62
     7
 10
197.0
 20
70.0
 30
0.0
 11
187.47499999999999
 21
72.552216057906435
 31
0.0
  0
TEXT
  5
89
  8
DIMNSIONS
 62
     7
 10
90.5625
 20
74.481666655490798
 30
0.0
 40
8.1442057291666661
  1
197
 41
0.8
 11
90.5625
 21
82.625872384657455
 31
0.0
 73
     3
  0
LINE
  5
8A
  8
DIMNSIONS
  6
CONTINUOUS
 62
     7
 10
-5.9999999776482573
 20
42.0
 30
0.0
 11
-45.999999977648251
 21
42.0
 31
0.0
  0
LINE
  5
8B
  8
DIMNSIONS
  6
CONTINUOUS
 62
     7
 10
-5.9999999776482573
 20
0.0
 30
0.0
 11
-45.999999977648251
 21
0.0
 31
0.0
  0
LINE
  5
8C
  8
DIMNSIONS
  6
CONTINUOUS
 62
     7
 10
-40.0
 20
42.0
 30
0.0
 11
-40.0
 21
0.0
 31
0.0
  0
LINE
  5
8D
  8
DIMNSIONS
  6
CONTINUOUS
 62
     7
 10
-40.0
 20
42.0
 30
0.0
 11
-37.447783942093572
 21
32.475000000000001
 31
0.0
  0
LINE
  5
8E
  8
DIMNSIONS
  6
CONTINUOUS
 62
     7
 10
-40.0
 20
42.0
 30
0.0
 11
-42.552216057906442
 21
32.475000000000001
 31
0.0
  0
LINE
  5
8F
  8
DIMNSIONS
  6
CONTINUOUS
 62
     7
 10
-40.0
 20
0.0
 30
0.0
 11
-42.552216057906442
 21
9.5249999999999755
 31
0.0
  0
LINE
  5
90
  8
DIMNSIONS
  6
CONTINUOUS
 62
     7
 10
-40.0
 20
0.0
 30
0.0
 11
-37.447783942093572
 21
9.5249999999999755
 31
0.0
  0
TEXT
  5
91
  8
DIMNSIONS
 62
     7
 10
-44.48166665549077
 20
15.708333333333311
 30
0.0
 40
8.1442057291666661
  1
42
 50
90.0
 41
0.8
 11
-52.625872384657441
 21
15.708333333333311
 31
0.0
 73
     3
  0
LINE
  5
92
  8
DIMNSIONS
  6
CONTINUOUS
 62
     7
 10
420.0
 20
47.999999977648251
 30
0.0
 11
420.0
 21
75.999999977648272
 31
0.0
  0
LINE
  5
93
  8
DIMNSIONS
  6
CONTINUOUS
 62
     7
 10
286.0
 20
47.999999977648251
 30
0.0
 11
286.0
 21
75.999999977648272
 31
0.0
  0
LINE
  5
94
  8
DIMNSIONS
  6
CONTINUOUS
 62
     7
 10
420.0
 20
70.0
 30
0.0
 11
286.0
 21
70.0
 31
0.0
  0
LINE
  5
95
  8
DIMNSIONS
  6
CONTINUOUS
 62
     7
 10
420.0
 20
70.0
 30
0.0
 11
410.47500000000002
 21
67.447783942093579
 31
0.0
  0
LINE
  5
96
  8
DIMNSIONS
  6
CONTINUOUS
 62
     7
 10
420.0
 20
70.0
 30
0.0
 11
410.47500000000002
 21
72.552216057906435
 31
0.0
  0
LINE
  5
97
  8
DIMNSIONS
  6
CONTINUOUS
 62
     7
 10
286.0
 20
70.0
 30
0.0
 11
295.52499999999998
 21
72.552216057906435
 31
0.0
  0
LINE
  5
98
  8
DIMNSIONS
  6
CONTINUOUS
 62
     7
 10
286.0
 20
70.0
 30
0.0
 11
295.52499999999998
 21
67.447783942093579
 31
0.0
  0
TEXT
  5
99
  8
DIMNSIONS
 62
     7
 10
345.0625
 20
74.481666655490798
 30
0.0
 40
8.1442057291666661
  1
134
 41
0.8
 11
345.0625
 21
82.625872384657455
 31
0.0
 73
     3
  0
LINE
  5
9A
  8
DIMNSIONS
  6
CONTINUOUS
 62
     7
 10
270.01011281918699
 20
33.499999977648251
 30
0.0
 11
270.01011281918699
 21
75.999999977648272
 31
0.0
  0
LINE
  5
9B
  8
DIMNSIONS
  6
CONTINUOUS
 62
     7
 10
286.0
 20
47.999999977648251
 30
0.0
 11
286.0
 21
75.999999977648272
 31
0.0
  0
LINE
  5
9C
  8
DIMNSIONS
  6
CONTINUOUS
 62
     7
 10
286.0
 20
70.0
 30
0.0
 11
270.01011281918699
 21
70.0
 31
0.0
  0
LINE
  5
9D
  8
DIMNSIONS
  6
CONTINUOUS
 62
     7
 10
270.01011281918699
 20
70.0
 30
0.0
 11
255.01011280409961
 21
70.0
 31
0.0
  0
LINE
  5
9E
  8
DIMNSIONS
  6
CONTINUOUS
 62
     7
 10
270.01011281918699
 20
70.0
 30
0.0
 11
260.4851128191869
 21
67.447783942093579
 31
0.0
  0
LINE
  5
9F
  8
DIMNSIONS
  6
CONTINUOUS
 62
     7
 10
270.01011281918699
 20
70.0
 30
0.0
 11
260.4851128191869
 21
72.552216057906435
 31
0.0
  0
LINE
  5
A0
  8
DIMNSIONS
  6
CONTINUOUS
 62
     7
 10
286.0
 20
70.0
 30
0.0
 11
301.00000001508749
 21
70.0
 31
0.0
  0
LINE
  5
A1
  8
DIMNSIONS
  6
CONTINUOUS
 62
     7
 10
286.0
 20
70.0
 30
0.0
 11
295.52499999999998
 21
72.552216057906435
 31
0.0
  0
LINE
  5
A2
  8
DIMNSIONS
  6
CONTINUOUS
 62
     7
 10
286.0
 20
70.0
 30
0.0
 11
295.52499999999998
 21
67.447783942093579
 31
0.0
  0
TEXT
  5
A3
  8
DIMNSIONS
 62
     7
 10
272.71338974292678
 20
74.481666655490798
 30
0.0
 40
8.1442057291666661
  1
16
 41
0.8
 11
272.71338974292678
 21
82.625872384657455
 31
0.0
 73
     3
  0
TEXT
  5
A4
  8
DATA
 62
     7
 10
330.0
 20
-47.559599999999982
 30
0.0
 40
7.3297851562500007
  1
SHURE
 41
0.8
 11
330.0
 21
-40.229814843749971
 31
0.0
 73
     3
  0
TEXT
  5
A5
  8
DATA
 62
     7
 10
330.0
 20
-57.100626666666699
 30
0.0
 40
5.7009440104166647
  1
ダイバーシティ受信機
 41
0.8
 11
330.0
 21
-51.399682656250043
 31
0.0
 73
     3
  0
TEXT
  5
A6
  8
DATA
 62
     7
 10
330.0
 20
-68.543760000000006
 30
0.0
 40
7.3297851562500007
  1
SLX4
 41
0.8
 11
330.0
 21
-61.213974843750009
 31
0.0
 73
     3
  0
LINE
  5
A7
  8
DATA
  6
CONTINUOUS
 62
     7
 10
15.0
 20
20.0
 30
0.0
 11
18.0
 21
20.0
 31
0.0
  0
LINE
  5
A8
  8
DATA
  6
CONTINUOUS
 62
     7
 10
15.0
 20
20.0
 30
0.0
 11
15.0
 21
22.0
 31
0.0
  0
LINE
  5
A9
  8
DATA
  6
CONTINUOUS
 62
     7
 10
15.0
 20
22.0
 30
0.0
 11
18.0
 21
22.0
 31
0.0
  0
LINE
  5
AA
  8
DATA
  6
CONTINUOUS
 62
     7
 10
18.0
 20
22.0
 30
0.0
 11
18.0
 21
20.0
 31
0.0
  0
LINE
  5
AB
  8
DATA
  6
CONTINUOUS
 62
     7
 10
15.0
 20
23.0
 30
0.0
 11
18.0
 21
23.0
 31
0.0
  0
LINE
  5
AC
  8
DATA
  6
CONTINUOUS
 62
     7
 10
15.0
 20
23.0
 30
0.0
 11
15.0
 21
25.0
 31
0.0
  0
LINE
  5
AD
  8
DATA
  6
CONTINUOUS
 62
     7
 10
15.0
 20
25.0
 30
0.0
 11
18.0
 21
25.0
 31
0.0
  0
LINE
  5
AE
  8
DATA
  6
CONTINUOUS
 62
     7
 10
18.0
 20
25.0
 30
0.0
 11
18.0
 21
23.0
 31
0.0
  0
LINE
  5
AF
  8
DATA
  6
CONTINUOUS
 62
     7
 10
15.0
 20
26.0
 30
0.0
 11
18.0
 21
26.0
 31
0.0
  0
LINE
  5
B0
  8
DATA
  6
CONTINUOUS
 62
     7
 10
15.0
 20
26.0
 30
0.0
 11
15.0
 21
28.0
 31
0.0
  0
LINE
  5
B1
  8
DATA
  6
CONTINUOUS
 62
     7
 10
15.0
 20
28.0
 30
0.0
 11
18.0
 21
28.0
 31
0.0
  0
LINE
  5
B2
  8
DATA
  6
CONTINUOUS
 62
     7
 10
18.0
 20
28.0
 30
0.0
 11
18.0
 21
26.0
 31
0.0
  0
LINE
  5
B3
  8
DATA
  6
CONTINUOUS
 62
     7
 10
15.0
 20
17.0
 30
0.0
 11
18.0
 21
17.0
 31
0.0
  0
LINE
  5
B4
  8
DATA
  6
CONTINUOUS
 62
     7
 10
15.0
 20
17.0
 30
0.0
 11
15.0
 21
19.0
 31
0.0
  0
LINE
  5
B5
  8
DATA
  6
CONTINUOUS
 62
     7
 10
15.0
 20
19.0
 30
0.0
 11
18.0
 21
19.0
 31
0.0
  0
LINE
  5
B6
  8
DATA
  6
CONTINUOUS
 62
     7
 10
18.0
 20
19.0
 30
0.0
 11
18.0
 21
17.0
 31
0.0
  0
LINE
  5
B7
  8
DATA
  6
CONTINUOUS
 62
     7
 10
15.0
 20
14.0
 30
0.0
 11
18.0
 21
14.0
 31
0.0
  0
LINE
  5
B8
  8
DATA
  6
CONTINUOUS
 62
     7
 10
15.0
 20
14.0
 30
0.0
 11
15.0
 21
16.0
 31
0.0
  0
LINE
  5
B9
  8
DATA
  6
CONTINUOUS
 62
     7
 10
15.0
 20
16.0
 30
0.0
 11
18.0
 21
16.0
 31
0.0
  0
LINE
  5
BA
  8
DATA
  6
CONTINUOUS
 62
     7
 10
18.0
 20
16.0
 30
0.0
 11
18.0
 21
14.0
 31
0.0
  0
LINE
  5
BB
  8
DATA
  6
CONTINUOUS
 62
     7
 10
122.0
 20
20.0
 30
0.0
 11
126.0
 21
20.0
 31
0.0
  0
LINE
  5
BC
  8
DATA
  6
CONTINUOUS
 62
     7
 10
122.0
 20
22.0
 30
0.0
 11
126.0
 21
22.0
 31
0.0
  0
ARC
  5
BD
  8
DATA
  6
CONTINUOUS
 62
     7
 10
122.0
 20
21.0
 30
0.0
 40
1.0
 50
90.0
 51
270.0
  0
ARC
  5
BE
  8
DATA
  6
CONTINUOUS
 62
     7
 10
126.0
 20
21.0
 30
0.0
 40
1.0
 50
270.0
 51
90.0
  0
LINE
  5
BF
  8
DATA
  6
CONTINUOUS
 62
     7
 10
122.0
 20
22.5
 30
0.0
 11
126.0
 21
22.5
 31
0.0
  0
ARC
  5
C0
  8
DATA
  6
CONTINUOUS
 62
     7
 10
122.0
 20
21.0
 30
0.0
 40
1.5
 50
90.0
 51
270.0
  0
LINE
  5
C1
  8
DATA
  6
CONTINUOUS
 62
     7
 10
122.0
 20
19.5
 30
0.0
 11
126.0
 21
19.5
 31
0.0
  0
ARC
  5
C2
  8
DATA
  6
CONTINUOUS
 62
     7
 10
126.0
 20
21.0
 30
0.0
 40
1.5
 50
270.0
 51
90.0
  0
CIRCLE
  5
C3
  8
DATA
  6
CONTINUOUS
 62
     7
 10
154.0
 20
21.0
 30
0.0
 40
7.5
  0
CIRCLE
  5
C4
  8
DATA
  6
CONTINUOUS
 62
     7
 10
180.0
 20
21.0
 30
0.0
 40
3.5
  0
CIRCLE
  5
C5
  8
DATA
  6
CONTINUOUS
 62
     7
 10
180.0
 20
21.0
 30
0.0
 40
7.0
  0
ARC
  5
C6
  8
DATA
  6
CONTINUOUS
 62
     7
 10
154.0
 20
21.0
 30
0.0
 40
11.0
 50
214.6235354791757
 51
145.3764645208243
  0
ARC
  5
C7
  8
DATA
  6
CONTINUOUS
 62
     7
 10
154.0
 20
21.0
 30
0.0
 40
16.000000000000011
 50
231.37516712694699
 51
128.6248328730529
  0
LINE
  5
C8
  8
DATA
  6
CONTINUOUS
 62
     7
 10
130.0
 20
26.25
 30
0.0
 11
130.0
 21
15.75
 31
0.0
  0
LINE
  5
C9
  8
DATA
  6
CONTINUOUS
 62
     7
 10
131.0
 20
27.25
 30
0.0
 11
144.94806650488411
 21
27.25
 31
0.0
  0
LINE
  5
CA
  8
DATA
  6
CONTINUOUS
 62
     7
 10
131.0
 20
14.75
 30
0.0
 11
144.94806650488411
 21
14.75
 31
0.0
  0
LINE
  5
CB
  8
DATA
  6
CONTINUOUS
 62
     7
 10
28.0
 20
10.5
 30
0.0
 11
28.0
 21
31.5
 31
0.0
  0
LINE
  5
CC
  8
DATA
  6
CONTINUOUS
 62
     7
 10
30.0
 20
33.5
 30
0.0
 11
144.0125078222809
 21
33.5
 31
0.0
  0
LINE
  5
CD
  8
DATA
  6
CONTINUOUS
 62
     7
 10
30.0
 20
8.5
 30
0.0
 11
144.0125078222809
 21
8.5
 31
0.0
  0
ARC
  5
CE
  8
DATA
  6
CONTINUOUS
 62
     7
 10
30.0
 20
31.5
 30
0.0
 40
2.0
 50
90.0
 51
180.0
  0
ARC
  5
CF
  8
DATA
  6
CONTINUOUS
 62
     7
 10
30.0
 20
10.5
 30
0.0
 40
2.0
 50
180.0
 51
270.0
  0
ARC
  5
D0
  8
DATA
  6
CONTINUOUS
 62
     7
 10
131.0
 20
26.25
 30
0.0
 40
1.0
 50
90.0
 51
180.0
  0
ARC
  5
D1
  8
DATA
  6
CONTINUOUS
 62
     7
 10
131.0
 20
15.75
 30
0.0
 40
1.0
 50
180.0
 51
270.0
  0
LINE
  5
D2
  8
DATA
  6
CONTINUOUS
 62
     7
 10
97.5
 20
15.0
 30
0.0
 11
97.5
 21
19.0
 31
0.0
  0
LINE
  5
D3
  8
DATA
  6
CONTINUOUS
 62
     7
 10
98.0
 20
19.5
 30
0.0
 11
107.0
 21
19.5
 31
0.0
  0
LINE
  5
D4
  8
DATA
  6
CONTINUOUS
 62
     7
 10
98.0
 20
14.5
 30
0.0
 11
107.0
 21
14.5
 31
0.0
  0
LINE
  5
D5
  8
DATA
  6
CONTINUOUS
 62
     7
 10
107.5
 20
15.0
 30
0.0
 11
107.5
 21
19.0
 31
0.0
  0
LINE
  5
D6
  8
DATA
  6
CONTINUOUS
 62
     7
 10
97.5
 20
27.0
 30
0.0
 11
97.5
 21
23.0
 31
0.0
  0
LINE
  5
D7
  8
DATA
  6
CONTINUOUS
 62
     7
 10
98.0
 20
22.5
 30
0.0
 11
107.0
 21
22.5
 31
0.0
  0
LINE
  5
D8
  8
DATA
  6
CONTINUOUS
 62
     7
 10
98.0
 20
27.5
 30
0.0
 11
107.0
 21
27.5
 31
0.0
  0
LINE
  5
D9
  8
DATA
  6
CONTINUOUS
 62
     7
 10
107.5
 20
27.0
 30
0.0
 11
107.5
 21
23.0
 31
0.0
  0
LINE
  5
DA
  8
DATA
  6
CONTINUOUS
 62
     7
 10
32.0
 20
30.5
 30
0.0
 11
32.0
 21
11.5
 31
0.0
  0
LINE
  5
DB
  8
DATA
  6
CONTINUOUS
 62
     7
 10
33.0
 20
10.5
 30
0.0
 11
91.0
 21
10.5
 31
0.0
  0
LINE
  5
DC
  8
DATA
  6
CONTINUOUS
 62
     7
 10
33.0
 20
31.5
 30
0.0
 11
91.0
 21
31.5
 31
0.0
  0
LINE
  5
DD
  8
DATA
  6
CONTINUOUS
 62
     7
 10
92.0
 20
30.5
 30
0.0
 11
92.0
 21
11.5
 31
0.0
  0
ARC
  5
DE
  8
DATA
  6
CONTINUOUS
 62
     7
 10
33.0
 20
30.5
 30
0.0
 40
1.0
 50
90.0
 51
180.0
  0
ARC
  5
DF
  8
DATA
  6
CONTINUOUS
 62
     7
 10
33.0
 20
11.5
 30
0.0
 40
1.0
 50
180.0
 51
270.0
  0
ARC
  5
E0
  8
DATA
  6
CONTINUOUS
 62
     7
 10
91.0
 20
30.5
 30
0.0
 40
1.0
 50
0.0
 51
90.0
  0
ARC
  5
E1
  8
DATA
  6
CONTINUOUS
 62
     7
 10
91.0
 20
11.5
 30
0.0
 40
1.0
 50
270.0
 51
0.0
  0
ARC
  5
E2
  8
DATA
  6
CONTINUOUS
 62
     7
 10
98.0
 20
27.0
 30
0.0
 40
0.5
 50
90.0
 51
180.0
  0
ARC
  5
E3
  8
DATA
  6
CONTINUOUS
 62
     7
 10
107.0
 20
27.0
 30
0.0
 40
0.5
 50
0.0
 51
90.0
  0
ARC
  5
E4
  8
DATA
  6
CONTINUOUS
 62
     7
 10
98.0
 20
23.0
 30
0.0
 40
0.5
 50
180.0
 51
270.0
  0
ARC
  5
E5
  8
DATA
  6
CONTINUOUS
 62
     7
 10
107.0
 20
23.0
 30
0.0
 40
0.5
 50
270.0
 51
0.0
  0
ARC
  5
E6
  8
DATA
  6
CONTINUOUS
 62
     7
 10
98.0
 20
19.0
 30
0.0
 40
0.5
 50
90.0
 51
180.0
  0
ARC
  5
E7
  8
DATA
  6
CONTINUOUS
 62
     7
 10
98.0
 20
15.0
 30
0.0
 40
0.5
 50
180.0
 51
270.0
  0
ARC
  5
E8
  8
DATA
  6
CONTINUOUS
 62
     7
 10
107.0
 20
19.0
 30
0.0
 40
0.5
 50
0.0
 51
90.0
  0
ARC
  5
E9
  8
DATA
  6
CONTINUOUS
 62
     7
 10
107.0
 20
15.0
 30
0.0
 40
0.5
 50
270.0
 51
0.0
  0
TEXT
  5
EA
  8
DATA
 62
     7
 10
11.0
 20
9.3593333333333568
 30
0.0
 40
3.2576822916666659
  1
audio
 41
0.8
 11
11.0
 21
12.61701562500002
 31
0.0
 73
     3
  0
TEXT
  5
EB
  8
DATA
 62
     7
 10
109.0
 20
24.019461013645241
 30
0.0
 40
2.4432617187500001
  1
menu
 41
0.8
 11
109.0
 21
26.462722732395239
 31
0.0
 73
     3
  0
TEXT
  5
EC
  8
DATA
 62
     7
 10
109.0
 20
15.893349902534821
 30
0.0
 40
2.4432617187500001
  1
select
 41
0.8
 11
109.0
 21
18.33661162128482
 31
0.0
 73
     3
  0
TEXT
  5
ED
  8
DATA
 62
     7
 10
120.2812889863548
 20
15.893349902534821
 30
0.0
 40
2.4432617187500001
  1
ready
 41
0.8
 11
120.2812889863548
 21
18.33661162128482
 31
0.0
 73
     3
  0
TEXT
  5
EE
  8
DATA
 62
     7
 10
135.40615253411301
 20
19.856999999999989
 30
0.0
 40
2.4432617187500001
  1
sync
 41
0.8
 11
135.40615253411301
 21
22.300261718750001
 31
0.0
 73
     3
  0
TEXT
  5
EF
  8
DATA
 62
     7
 10
175.70833333333329
 20
8.3593333333333568
 30
0.0
 40
3.2576822916666659
  1
power
 41
0.8
 11
175.70833333333329
 21
11.61701562500002
 31
0.0
 73
     3
  0
TEXT
  5
F0
  8
DATA
 62
     7
 10
179.6142391171544
 20
31.939208256229939
 30
0.0
 40
4.8865234374999993
  1
SLX4
 41
0.8
 11
179.6142391171544
 21
36.825731693729942
 31
0.0
 73
     3
  0
ARC
  5
F1
  8
DATA
  6
CONTINUOUS
 62
     7
 10
180.0
 20
21.0
 30
0.0
 40
1.5000000000000211
 50
119.9999999999992
 51
60.00000000000054
  0
LINE
  5
F2
  8
DATA
  6
CONTINUOUS
 62
     7
 10
180.0
 20
21.0
 30
0.0
 11
180.0
 21
23.0
 31
0.0
  0
LINE
  5
F3
  8
DATA
  6
CONTINUOUS
 62
     7
 10
10.0
 20
379.0
 30
0.0
 11
187.0
 21
379.0
 31
0.0
  0
LINE
  5
F4
  8
DATA
  6
CONTINUOUS
 62
     7
 10
0.0
 20
383.8890872965261
 30
0.0
 11
0.0
 21
421.0
 31
0.0
  0
LINE
  5
F5
  8
DATA
  6
CONTINUOUS
 62
     7
 10
0.0
 20
421.0
 30
0.0
 11
18.0
 21
421.0
 31
0.0
  0
LINE
  5
F6
  8
DATA
  6
CONTINUOUS
 62
     7
 10
197.0
 20
421.0
 30
0.0
 11
197.0
 21
383.8890872965261
 31
0.0
  0
LINE
  5
F7
  8
DATA
  6
CONTINUOUS
 62
     7
 10
0.0
 20
0.0
 30
0.0
 11
0.0
 21
42.0
 31
0.0
  0
LINE
  5
F8
  8
DATA
  6
CONTINUOUS
 62
     7
 10
0.0
 20
0.0
 30
0.0
 11
197.0
 21
0.0
 31
0.0
  0
LINE
  5
F9
  8
DATA
  6
CONTINUOUS
 62
     7
 10
0.0
 20
42.0
 30
0.0
 11
197.0
 21
42.0
 31
0.0
  0
LINE
  5
FA
  8
DATA
  6
CONTINUOUS
 62
     7
 10
197.0
 20
42.0
 30
0.0
 11
197.0
 21
0.0
 31
0.0
  0
LINE
  5
FB
  8
DATA
  6
CONTINUOUS
 62
     7
 10
97.0
 20
20.0
 30
0.0
 11
97.0
 21
14.0
 31
0.0
  0
LINE
  5
FC
  8
DATA
  6
CONTINUOUS
 62
     7
 10
97.0
 20
14.0
 30
0.0
 11
108.0
 21
14.0
 31
0.0
  0
LINE
  5
FD
  8
DATA
  6
CONTINUOUS
 62
     7
 10
97.0
 20
20.0
 30
0.0
 11
108.0
 21
20.0
 31
0.0
  0
LINE
  5
FE
  8
DATA
  6
CONTINUOUS
 62
     7
 10
108.0
 20
20.0
 30
0.0
 11
108.0
 21
14.0
 31
0.0
  0
LINE
  5
FF
  8
DATA
  6
CONTINUOUS
 62
     7
 10
97.0
 20
22.0
 30
0.0
 11
97.0
 21
28.0
 31
0.0
  0
LINE
  5
100
  8
DATA
  6
CONTINUOUS
 62
     7
 10
97.0
 20
22.0
 30
0.0
 11
108.0
 21
22.0
 31
0.0
  0
LINE
  5
101
  8
DATA
  6
CONTINUOUS
 62
     7
 10
108.0
 20
22.0
 30
0.0
 11
108.0
 21
28.0
 31
0.0
  0
LINE
  5
102
  8
DATA
  6
CONTINUOUS
 62
     7
 10
97.0
 20
28.0
 30
0.0
 11
108.0
 21
28.0
 31
0.0
  0
LINE
  5
103
  8
DATA
  6
CONTINUOUS
 62
     7
 10
-3.2768775266122239
 20
47.0
 30
0.0
 11
16.0
 21
47.0
 31
0.0
  0
LINE
  5
104
  8
DATA
  6
CONTINUOUS
 62
     7
 10
18.0
 20
45.0
 30
0.0
 11
18.0
 21
42.0
 31
0.0
  0
LINE
  5
105
  8
DATA
  6
CONTINUOUS
 62
     7
 10
18.0
 20
0.0
 30
0.0
 11
18.0
 21
-3.0
 31
0.0
  0
LINE
  5
106
  8
DATA
  6
CONTINUOUS
 62
     7
 10
16.0
 20
-5.0
 30
0.0
 11
-3.2768775266122239
 21
-5.0
 31
0.0
  0
ARC
  5
107
  8
DATA
  6
CONTINUOUS
 62
     7
 10
162.99999999999989
 20
21.0
 30
0.0
 40
169.99999999999989
 50
171.78678929826179
 51
188.21321070173821
  0
ARC
  5
108
  8
DATA
  6
CONTINUOUS
 62
     7
 10
-3.2768775266122239
 20
45.000000000000057
 30
0.0
 40
1.9999999999999429
 50
90.0
 51
171.78678929826361
  0
ARC
  5
109
  8
DATA
  6
CONTINUOUS
 62
     7
 10
-3.2768775266122239
 20
-3.0
 30
0.0
 40
1.99999999999998
 50
188.21321070173801
 51
270.0
  0
ARC
  5
10A
  8
DATA
  6
CONTINUOUS
 62
     7
 10
16.0
 20
-3.0
 30
0.0
 40
2.0
 50
270.0
 51
0.0
  0
ARC
  5
10B
  8
DATA
  6
CONTINUOUS
 62
     7
 10
16.0
 20
45.0
 30
0.0
 40
2.0
 50
0.0
 51
90.0
  0
LINE
  5
10C
  8
DATA
  6
CONTINUOUS
 62
     7
 10
-0.3884387633061124
 20
-6.5
 30
0.0
 11
13.111561236693889
 21
-6.5
 31
0.0
  0
LINE
  5
10D
  8
DATA
  6
CONTINUOUS
 62
     7
 10
13.111561236693889
 20
-6.5
 30
0.0
 11
13.111561236693889
 21
-5.0
 31
0.0
  0
LINE
  5
10E
  8
DATA
  6
CONTINUOUS
 62
     7
 10
-0.3884387633061124
 20
-6.5
 30
0.0
 11
-0.3884387633061124
 21
-5.0
 31
0.0
  0
LINE
  5
10F
  8
DATA
  6
CONTINUOUS
 62
     7
 10
200.2768775266122
 20
47.0
 30
0.0
 11
181.0
 21
47.0
 31
0.0
  0
LINE
  5
110
  8
DATA
  6
CONTINUOUS
 62
     7
 10
179.0
 20
45.0
 30
0.0
 11
179.0
 21
42.0
 31
0.0
  0
LINE
  5
111
  8
DATA
  6
CONTINUOUS
 62
     7
 10
179.0
 20
0.0
 30
0.0
 11
179.0
 21
-3.0
 31
0.0
  0
LINE
  5
112
  8
DATA
  6
CONTINUOUS
 62
     7
 10
181.0
 20
-5.0
 30
0.0
 11
200.2768775266122
 21
-5.0
 31
0.0
  0
ARC
  5
113
  8
DATA
  6
CONTINUOUS
 62
     7
 10
34.00000000000005
 20
21.0
 30
0.0
 40
169.99999999999989
 50
351.78678929826168
 51
8.2132107017382072
  0
ARC
  5
114
  8
DATA
  6
CONTINUOUS
 62
     7
 10
181.0
 20
-3.0
 30
0.0
 40
2.0
 50
180.0
 51
270.0
  0
ARC
  5
115
  8
DATA
  6
CONTINUOUS
 62
     7
 10
181.0
 20
45.0
 30
0.0
 40
2.0
 50
90.0
 51
180.0
  0
LINE
  5
116
  8
DATA
  6
CONTINUOUS
 62
     7
 10
197.38843876330611
 20
-6.5
 30
0.0
 11
183.88843876330611
 21
-6.5
 31
0.0
  0
LINE
  5
117
  8
DATA
  6
CONTINUOUS
 62
     7
 10
183.88843876330611
 20
-6.5
 30
0.0
 11
183.88843876330611
 21
-5.0
 31
0.0
  0
LINE
  5
118
  8
DATA
  6
CONTINUOUS
 62
     7
 10
197.38843876330611
 20
-6.5
 30
0.0
 11
197.38843876330611
 21
-5.0
 31
0.0
  0
ARC
  5
119
  8
DATA
  6
CONTINUOUS
 62
     7
 10
200.2768775266122
 20
45.000000000000057
 30
0.0
 40
1.9999999999999709
 50
8.2132107017364273
 51
90.0
  0
ARC
  5
11A
  8
DATA
  6
CONTINUOUS
 62
     7
 10
200.2768775266122
 20
-3.0
 30
0.0
 40
2.0
 50
270.0
 51
351.78678929826202
  0
LINE
  5
11B
  8
DATA
  6
CONTINUOUS
 62
     7
 10
-2.1109127034739852
 20
374.0
 30
0.0
 11
16.0
 21
374.0
 31
0.0
  0
LINE
  5
11C
  8
DATA
  6
CONTINUOUS
 62
     7
 10
18.0
 20
376.0
 30
0.0
 11
18.0
 21
379.0
 31
0.0
  0
LINE
  5
11D
  8
DATA
  6
CONTINUOUS
 62
     7
 10
18.0
 20
421.0
 30
0.0
 11
18.0
 21
424.0
 31
0.0
  0
LINE
  5
11E
  8
DATA
  6
CONTINUOUS
 62
     7
 10
16.0
 20
426.0
 30
0.0
 11
-3.2768775266122239
 21
426.0
 31
0.0
  0
ARC
  5
11F
  8
DATA
  6
CONTINUOUS
 62
     7
 10
162.99999999999989
 20
400.0
 30
0.0
 40
169.99999999999989
 50
171.78678929826179
 51
187.33974349192451
  0
ARC
  5
120
  8
DATA
  6
CONTINUOUS
 62
     7
 10
16.0
 20
424.0
 30
0.0
 40
2.0
 50
0.0
 51
90.0
  0
ARC
  5
121
  8
DATA
  6
CONTINUOUS
 62
     7
 10
16.0
 20
376.0
 30
0.0
 40
2.0
 50
270.0
 51
0.0
  0
LINE
  5
122
  8
DATA
  6
CONTINUOUS
 62
     7
 10
-0.3884387633061124
 20
427.5
 30
0.0
 11
13.111561236693889
 21
427.5
 31
0.0
  0
LINE
  5
123
  8
DATA
  6
CONTINUOUS
 62
     7
 10
13.111561236693889
 20
427.5
 30
0.0
 11
13.111561236693889
 21
426.0
 31
0.0
  0
ARC
  5
124
  8
DATA
  6
CONTINUOUS
 62
     7
 10
-3.2768775266122239
 20
424.0
 30
0.0
 40
2.0
 50
90.0
 51
171.78678929826191
  0
LINE
  5
125
  8
DATA
  6
CONTINUOUS
 62
     7
 10
-0.3884387633061124
 20
427.5
 30
0.0
 11
-0.3884387633061124
 21
426.0
 31
0.0
  0
LINE
  5
126
  8
DATA
  6
CONTINUOUS
 62
     7
 10
197.0
 20
383.8890872965261
 30
0.0
 11
197.0
 21
421.0
 31
0.0
  0
LINE
  5
127
  8
DATA
  6
CONTINUOUS
 62
     7
 10
199.11091270347401
 20
374.0
 30
0.0
 11
181.0
 21
374.0
 31
0.0
  0
LINE
  5
128
  8
DATA
  6
CONTINUOUS
 62
     7
 10
179.0
 20
376.0
 30
0.0
 11
179.0
 21
379.0
 31
0.0
  0
LINE
  5
129
  8
DATA
  6
CONTINUOUS
 62
     7
 10
179.0
 20
421.0
 30
0.0
 11
179.0
 21
424.0
 31
0.0
  0
LINE
  5
12A
  8
DATA
  6
CONTINUOUS
 62
     7
 10
181.0
 20
426.0
 30
0.0
 11
200.2768775266122
 21
426.0
 31
0.0
  0
ARC
  5
12B
  8
DATA
  6
CONTINUOUS
 62
     7
 10
34.00000000000005
 20
400.0
 30
0.0
 40
169.99999999999989
 50
352.66025650807558
 51
8.2132107017382072
  0
ARC
  5
12C
  8
DATA
  6
CONTINUOUS
 62
     7
 10
181.0
 20
424.0
 30
0.0
 40
2.0
 50
90.0
 51
180.0
  0
ARC
  5
12D
  8
DATA
  6
CONTINUOUS
 62
     7
 10
181.0
 20
376.0
 30
0.0
 40
2.0
 50
180.0
 51
270.0
  0
LINE
  5
12E
  8
DATA
  6
CONTINUOUS
 62
     7
 10
197.38843876330611
 20
427.5
 30
0.0
 11
183.88843876330611
 21
427.5
 31
0.0
  0
LINE
  5
12F
  8
DATA
  6
CONTINUOUS
 62
     7
 10
183.88843876330611
 20
427.5
 30
0.0
 11
183.88843876330611
 21
426.0
 31
0.0
  0
ARC
  5
130
  8
DATA
  6
CONTINUOUS
 62
     7
 10
200.2768775266122
 20
424.0
 30
0.0
 40
1.99999999999998
 50
8.2132107017380331
 51
90.0
  0
LINE
  5
131
  8
DATA
  6
CONTINUOUS
 62
     7
 10
197.38843876330611
 20
427.5
 30
0.0
 11
197.38843876330611
 21
426.0
 31
0.0
  0
CIRCLE
  5
132
  8
DATA
  6
CONTINUOUS
 62
     7
 10
60.0
 20
405.0
 30
0.0
 40
2.499999999999992
  0
CIRCLE
  5
133
  8
DATA
  6
CONTINUOUS
 62
     7
 10
73.5
 20
405.0
 30
0.0
 40
5.25
  0
CIRCLE
  5
134
  8
DATA
  6
CONTINUOUS
 62
     7
 10
99.0
 20
400.0
 30
0.0
 40
11.0
  0
CIRCLE
  5
135
  8
DATA
  6
CONTINUOUS
 62
     7
 10
89.0
 20
410.0
 30
0.0
 40
2.5000000000000071
  0
CIRCLE
  5
136
  8
DATA
  6
CONTINUOUS
 62
     7
 10
109.0
 20
390.0
 30
0.0
 40
2.499999999999996
  0
LINE
  5
137
  8
DATA
  6
CONTINUOUS
 62
     7
 10
89.0
 20
411.5
 30
0.0
 11
89.0
 21
408.49999999999989
 31
0.0
  0
LINE
  5
138
  8
DATA
  6
CONTINUOUS
 62
     7
 10
87.5
 20
410.0
 30
0.0
 11
90.5
 21
410.0
 31
0.0
  0
LINE
  5
139
  8
DATA
  6
CONTINUOUS
 62
     7
 10
109.0
 20
388.5
 30
0.0
 11
109.0
 21
391.5
 31
0.0
  0
LINE
  5
13A
  8
DATA
  6
CONTINUOUS
 62
     7
 10
110.5
 20
390.0
 30
0.0
 11
107.5
 21
390.0
 31
0.0
  0
CIRCLE
  5
13B
  8
DATA
  6
CONTINUOUS
 62
     7
 10
103.0
 20
400.0
 30
0.0
 40
1.0
  0
CIRCLE
  5
13C
  8
DATA
  6
CONTINUOUS
 62
     7
 10
99.0
 20
404.0
 30
0.0
 40
1.0
  0
CIRCLE
  5
13D
  8
DATA
  6
CONTINUOUS
 62
     7
 10
95.0
 20
400.0
 30
0.0
 40
1.0
  0
ARC
  5
13E
  8
DATA
  6
CONTINUOUS
 62
     7
 10
98.999999999999957
 20
400.0
 30
0.0
 40
8.0000000000000213
 50
232.16664339694429
 51
217.8333566030565
  0
ARC
  5
13F
  8
DATA
  6
CONTINUOUS
 62
     7
 10
93.343145750507645
 20
394.34314575050769
 30
0.0
 40
0.9999999999999965
 50
131.41667830152861
 51
318.58332169847142
  0
LINE
  5
140
  8
DATA
  6
CONTINUOUS
 62
     7
 10
130.0
 20
410.0
 30
0.0
 11
130.0
 21
395.0
 31
0.0
  0
LINE
  5
141
  8
DATA
  6
CONTINUOUS
 62
     7
 10
130.0
 20
410.0
 30
0.0
 11
136.0
 21
410.0
 31
0.0
  0
LINE
  5
142
  8
DATA
  6
CONTINUOUS
 62
     7
 10
136.0
 20
410.0
 30
0.0
 11
136.0
 21
395.0
 31
0.0
  0
LINE
  5
143
  8
DATA
  6
CONTINUOUS
 62
     7
 10
136.0
 20
395.0
 30
0.0
 11
130.0
 21
395.0
 31
0.0
  0
LINE
  5
144
  8
DATA
  6
CONTINUOUS
 62
     7
 10
0.0
 20
419.5
 30
0.0
 11
197.0
 21
419.5
 31
0.0
  0
LINE
  5
145
  8
DATA
  6
CONTINUOUS
 62
     7
 10
14.0
 20
421.0
 30
0.0
 11
14.0
 21
419.5
 31
0.0
  0
LINE
  5
146
  8
DATA
  6
CONTINUOUS
 62
     7
 10
7.0
 20
419.5
 30
0.0
 11
7.0
 21
390.88908729652599
 31
0.0
  0
LINE
  5
147
  8
DATA
  6
CONTINUOUS
 62
     7
 10
5.8890872965260144
 20
382.0
 30
0.0
 11
10.0
 21
382.0
 31
0.0
  0
LINE
  5
148
  8
DATA
  6
CONTINUOUS
 62
     7
 10
10.0
 20
379.0
 30
0.0
 11
10.0
 21
382.0
 31
0.0
  0
LINE
  5
149
  8
DATA
  6
CONTINUOUS
 62
     7
 10
10.889087296526011
 20
387.0
 30
0.0
 11
20.0
 21
387.0
 31
0.0
  0
LINE
  5
14A
  8
DATA
  6
CONTINUOUS
 62
     7
 10
10.0
 20
379.0
 30
0.0
 11
10.0
 21
386.1109127034739
 31
0.0
  0
LINE
  5
14B
  8
DATA
  6
CONTINUOUS
 62
     7
 10
20.0
 20
387.0
 30
0.0
 11
20.0
 21
384.0
 31
0.0
  0
LINE
  5
14C
  8
DATA
  6
CONTINUOUS
 62
     7
 10
20.0
 20
384.0
 30
0.0
 11
177.0
 21
384.0
 31
0.0
  0
LINE
  5
14D
  8
DATA
  6
CONTINUOUS
 62
     7
 10
191.11091270347401
 20
382.0
 30
0.0
 11
187.0
 21
382.0
 31
0.0
  0
LINE
  5
14E
  8
DATA
  6
CONTINUOUS
 62
     7
 10
187.0
 20
379.0
 30
0.0
 11
187.0
 21
382.0
 31
0.0
  0
LINE
  5
14F
  8
DATA
  6
CONTINUOUS
 62
     7
 10
186.11091270347401
 20
387.0
 30
0.0
 11
177.0
 21
387.0
 31
0.0
  0
LINE
  5
150
  8
DATA
  6
CONTINUOUS
 62
     7
 10
187.0
 20
379.0
 30
0.0
 11
187.0
 21
386.1109127034739
 31
0.0
  0
LINE
  5
151
  8
DATA
  6
CONTINUOUS
 62
     7
 10
177.0
 20
387.0
 30
0.0
 11
177.0
 21
384.0
 31
0.0
  0
LINE
  5
152
  8
DATA
  6
CONTINUOUS
 62
     7
 10
197.0
 20
421.0
 30
0.0
 11
179.0
 21
421.0
 31
0.0
  0
LINE
  5
153
  8
DATA
  6
CONTINUOUS
 62
     7
 10
183.0
 20
421.0
 30
0.0
 11
183.0
 21
419.5
 31
0.0
  0
LINE
  5
154
  8
DATA
  6
CONTINUOUS
 62
     7
 10
190.0
 20
419.5
 30
0.0
 11
190.0
 21
390.88908729652599
 31
0.0
  0
LINE
  5
155
  8
DATA
  6
CONTINUOUS
 62
     7
 10
145.5
 20
411.5
 30
0.0
 11
145.5
 21
400.49999999999989
 31
0.0
  0
LINE
  5
156
  8
DATA
  6
CONTINUOUS
 62
     7
 10
145.5
 20
411.5
 30
0.0
 11
154.5
 21
411.5
 31
0.0
  0
LINE
  5
157
  8
DATA
  6
CONTINUOUS
 62
     7
 10
154.5
 20
411.5
 30
0.0
 11
154.5
 21
400.49999999999989
 31
0.0
  0
LINE
  5
158
  8
DATA
  6
CONTINUOUS
 62
     7
 10
154.5
 20
400.49999999999989
 30
0.0
 11
145.5
 21
400.49999999999989
 31
0.0
  0
CIRCLE
  5
159
  8
DATA
  6
CONTINUOUS
 62
     7
 10
150.0
 20
405.0
 30
0.0
 40
3.0000000000000049
  0
CIRCLE
  5
15A
  8
DATA
  6
CONTINUOUS
 62
     7
 10
150.0
 20
405.0
 30
0.0
 40
0.75
  0
CIRCLE
  5
15B
  8
DATA
  6
CONTINUOUS
 62
     7
 10
73.5
 20
405.0
 30
0.0
 40
3.0
  0
CIRCLE
  5
15C
  8
DATA
  6
CONTINUOUS
 62
     7
 10
60.0
 20
405.0
 30
0.0
 40
1.5
  0
LINE
  5
15D
  8
DATA
  6
CONTINUOUS
 62
     7
 10
59.999999999999972
 20
405.0
 30
0.0
 11
60.707106781186539
 21
404.2928932188135
 31
0.0
  0
LINE
  5
15E
  8
DATA
  6
CONTINUOUS
 62
     7
 10
59.646446609406709
 20
404.64644660940672
 30
0.0
 11
60.353553390593291
 21
405.35355339059322
 31
0.0
  0
LINE
  5
15F
  8
DATA
  6
CONTINUOUS
 62
     7
 10
59.292893218813461
 20
405.7071067811865
 30
0.0
 11
59.646446609406709
 21
404.64644660940672
 31
0.0
  0
LINE
  5
160
  8
DATA
  6
CONTINUOUS
 62
     7
 10
59.292893218813461
 20
405.7071067811865
 30
0.0
 11
60.353553390593291
 21
405.35355339059322
 31
0.0
  0
ARC
  5
161
  8
DATA
  6
CONTINUOUS
 62
     7
 10
20.0
 20
400.0
 30
0.0
 40
6.2499999999999876
 50
259.05579774256302
 51
190.94420225742729
  0
ARC
  5
162
  8
DATA
  6
CONTINUOUS
 62
     7
 10
20.000000000000028
 20
400.0
 30
0.0
 40
3.500000000000008
 50
241.60154959906961
 51
208.40696035554299
  0
ARC
  5
163
  8
DATA
  6
CONTINUOUS
 62
     7
 10
20.000000000000028
 20
400.0
 30
0.0
 40
7.9999999999999822
 50
250.94447977236959
 51
199.0555202276314
  0
POLYLINE
  5
164
  8
DATA
  6
CONTINUOUS
 62
     7
 66
     1
 10
0.0
 20
0.0
 30
0.0
  0
VERTEX
  5
33A
  8
DATA
  6
CONTINUOUS
 62
     7
 10
18.06621738286367
 20
393.11646991455802
 30
0.0
  0
VERTEX
  5
33B
  8
DATA
  6
CONTINUOUS
 62
     7
 10
20.0
 20
392.0
 30
0.0
  0
VERTEX
  5
33C
  8
DATA
  6
CONTINUOUS
 62
     7
 10
26.928203230275511
 20
396.0
 30
0.0
  0
VERTEX
  5
33D
  8
DATA
  6
CONTINUOUS
 62
     7
 10
26.928203230275511
 20
404.0
 30
0.0
  0
VERTEX
  5
33E
  8
DATA
  6
CONTINUOUS
 62
     7
 10
20.0
 20
408.0
 30
0.0
  0
VERTEX
  5
33F
  8
DATA
  6
CONTINUOUS
 62
     7
 10
13.0717967697245
 20
404.0
 30
0.0
  0
VERTEX
  5
340
  8
DATA
  6
CONTINUOUS
 62
     7
 10
13.0717967697245
 20
398.02154423803029
 30
0.0
  0
SEQEND
  5
341
  8
DATA
  6
CONTINUOUS
 62
     7
  0
LINE
  5
16D
  8
DATA
  6
CONTINUOUS
 62
     7
 10
14.696699141100909
 20
399.64644660940672
 30
0.0
 11
19.64644660940672
 21
394.69669914110091
 31
0.0
  0
LINE
  5
16E
  8
DATA
  6
CONTINUOUS
 62
     7
 10
14.696699141100909
 20
399.64644660940672
 30
0.0
 11
9.7469516727950634
 21
394.69669914110091
 31
0.0
  0
LINE
  5
16F
  8
DATA
  6
CONTINUOUS
 62
     7
 10
9.7469516727950634
 20
394.69669914110091
 30
0.0
 11
14.696699141100909
 21
389.74695167279498
 31
0.0
  0
LINE
  5
170
  8
DATA
  6
CONTINUOUS
 62
     7
 10
14.696699141100909
 20
389.74695167279498
 30
0.0
 11
19.64644660940672
 21
394.69669914110091
 31
0.0
  0
ARC
  5
171
  8
DATA
  6
CONTINUOUS
 62
     7
 10
20.0
 20
400.0
 30
0.0
 40
4.99999999999996
 50
261.86989764584359
 51
188.13010235415561
  0
LINE
  5
172
  8
DATA
  6
CONTINUOUS
 62
     7
 10
16.464466094064701
 20
397.8786796564429
 30
0.0
 11
21.66980687260914
 21
403.07599496231552
 31
0.0
  0
LINE
  5
173
  8
DATA
  6
CONTINUOUS
 62
     7
 10
17.87867965644293
 20
396.46446609406468
 30
0.0
 11
23.07881502630886
 21
401.66460146394951
 31
0.0
  0
CIRCLE
  5
174
  8
DATA
  6
STYLE_01
 62
     7
 10
20.0
 20
400.0
 30
0.0
 40
68.500000000001961
  0
ARC
  5
175
  8
DATA
  6
CONTINUOUS
 62
     7
 10
177.0
 20
400.0
 30
0.0
 40
6.2499999999999831
 50
349.05579774256807
 51
280.94420225743221
  0
ARC
  5
176
  8
DATA
  6
CONTINUOUS
 62
     7
 10
177.0
 20
400.0
 30
0.0
 40
3.5
 50
331.59303964445093
 51
298.3984504009378
  0
ARC
  5
177
  8
DATA
  6
CONTINUOUS
 62
     7
 10
177.0
 20
400.0
 30
0.0
 40
8.0
 50
340.94447977236979
 51
289.05552022762981
  0
POLYLINE
  5
178
  8
DATA
  6
CONTINUOUS
 62
     7
 66
     1
 10
0.0
 20
0.0
 30
0.0
  0
VERTEX
  5
342
  8
DATA
  6
CONTINUOUS
 62
     7
 10
178.9337826171363
 20
393.1164699145578
 30
0.0
  0
VERTEX
  5
343
  8
DATA
  6
CONTINUOUS
 62
     7
 10
177.0
 20
392.0
 30
0.0
  0
VERTEX
  5
344
  8
DATA
  6
CONTINUOUS
 62
     7
 10
170.0717967697245
 20
396.0
 30
0.0
  0
VERTEX
  5
345
  8
DATA
  6
CONTINUOUS
 62
     7
 10
170.0717967697245
 20
404.0
 30
0.0
  0
VERTEX
  5
346
  8
DATA
  6
CONTINUOUS
 62
     7
 10
177.0
 20
408.0
 30
0.0
  0
VERTEX
  5
347
  8
DATA
  6
CONTINUOUS
 62
     7
 10
183.9282032302755
 20
404.0
 30
0.0
  0
VERTEX
  5
348
  8
DATA
  6
CONTINUOUS
 62
     7
 10
183.9282032302755
 20
398.0215442380304
 30
0.0
  0
SEQEND
  5
349
  8
DATA
  6
CONTINUOUS
 62
     7
  0
LINE
  5
181
  8
DATA
  6
CONTINUOUS
 62
     7
 10
182.30330085889909
 20
399.64644660940672
 30
0.0
 11
177.35355339059331
 21
394.69669914110091
 31
0.0
  0
LINE
  5
182
  8
DATA
  6
CONTINUOUS
 62
     7
 10
182.30330085889909
 20
399.64644660940672
 30
0.0
 11
187.25304832720491
 21
394.69669914110091
 31
0.0
  0
LINE
  5
183
  8
DATA
  6
CONTINUOUS
 62
     7
 10
187.25304832720491
 20
394.69669914110091
 30
0.0
 11
182.30330085889909
 21
389.74695167279498
 31
0.0
  0
LINE
  5
184
  8
DATA
  6
CONTINUOUS
 62
     7
 10
182.30330085889909
 20
389.74695167279498
 30
0.0
 11
177.35355339059331
 21
394.69669914110091
 31
0.0
  0
LINE
  5
185
  8
DATA
  6
CONTINUOUS
 62
     7
 10
186.72271824131499
 20
394.16636905521102
 30
0.0
 11
216.77475644174331
 21
364.11433085478268
 31
0.0
  0
LINE
  5
186
  8
DATA
  6
CONTINUOUS
 62
     7
 10
182.83363094478901
 20
390.27728175868492
 30
0.0
 11
212.88566914521729
 21
360.22524355825669
 31
0.0
  0
LINE
  5
187
  8
DATA
  6
CONTINUOUS
 62
     7
 10
217.4818632229298
 20
364.82143763596918
 30
0.0
 11
212.1785623640308
 21
359.5181367770702
 31
0.0
  0
LINE
  5
188
  8
DATA
  6
CONTINUOUS
 62
     7
 10
212.1785623640308
 20
359.5181367770702
 30
0.0
 11
221.2745132301649
 21
351.48577965275319
 31
0.0
  0
ARC
  5
189
  8
DATA
  6
CONTINUOUS
 62
     7
 10
177.0
 20
400.0
 30
0.0
 40
4.999999999999992
 50
351.86989764584399
 51
278.13010235415589
  0
LINE
  5
18A
  8
DATA
  6
CONTINUOUS
 62
     7
 10
180.5355339059353
 20
397.8786796564429
 30
0.0
 11
175.3301931273908
 21
403.07599496231552
 31
0.0
  0
LINE
  5
18B
  8
DATA
  6
CONTINUOUS
 62
     7
 10
179.1213203435571
 20
396.46446609406468
 30
0.0
 11
173.92118497369111
 21
401.66460146394951
 31
0.0
  0
ARC
  5
18C
  8
DATA
  6
CONTINUOUS
 62
     7
 10
223.3154941677189
 20
353.6845058322811
 30
0.0
 40
3.0000000000000111
 50
227.13080036314491
 51
42.869199636855029
  0
LINE
  5
18D
  8
DATA
  6
CONTINUOUS
 62
     7
 10
221.27451323016621
 20
351.48577965275462
 30
0.0
 11
221.02818815909711
 21
351.23945458168538
 31
0.0
  0
LINE
  5
18E
  8
DATA
  6
CONTINUOUS
 62
     7
 10
217.4818632229298
 20
364.82143763596918
 30
0.0
 11
225.5142203472482
 21
355.72548676983649
 31
0.0
  0
LINE
  5
18F
  8
DATA
  6
CONTINUOUS
 62
     7
 10
274.0
 20
0.0
 30
0.0
 11
291.0
 21
0.0
 31
0.0
  0
LINE
  5
190
  8
DATA
  6
CONTINUOUS
 62
     7
 10
317.0
 20
0.0
 30
0.0
 11
391.0
 21
0.0
 31
0.0
  0
LINE
  5
191
  8
DATA
  6
CONTINUOUS
 62
     7
 10
417.0
 20
0.0
 30
0.0
 11
420.0
 21
0.0
 31
0.0
  0
LINE
  5
192
  8
DATA
  6
CONTINUOUS
 62
     7
 10
274.0
 20
42.0
 30
0.0
 11
291.0
 21
42.0
 31
0.0
  0
LINE
  5
193
  8
DATA
  6
CONTINUOUS
 62
     7
 10
317.0
 20
42.0
 30
0.0
 11
391.0
 21
42.0
 31
0.0
  0
LINE
  5
194
  8
DATA
  6
CONTINUOUS
 62
     7
 10
417.0
 20
42.0
 30
0.0
 11
420.0
 21
42.0
 31
0.0
  0
LINE
  5
195
  8
DATA
  6
CONTINUOUS
 62
     7
 10
0.0
 20
100.0
 30
0.0
 11
0.0
 21
119.0
 31
0.0
  0
LINE
  5
196
  8
DATA
  6
CONTINUOUS
 62
     7
 10
0.0
 20
145.0
 30
0.0
 11
0.0
 21
219.0
 31
0.0
  0
LINE
  5
197
  8
DATA
  6
CONTINUOUS
 62
     7
 10
0.0
 20
245.0
 30
0.0
 11
0.0
 21
248.0
 31
0.0
  0
LINE
  5
198
  8
DATA
  6
CONTINUOUS
 62
     7
 10
0.0
 20
100.0
 30
0.0
 11
197.0
 21
100.0
 31
0.0
  0
LINE
  5
199
  8
DATA
  6
CONTINUOUS
 62
     7
 10
197.0
 20
100.0
 30
0.0
 11
197.0
 21
119.0
 31
0.0
  0
LINE
  5
19A
  8
DATA
  6
CONTINUOUS
 62
     7
 10
197.0
 20
145.0
 30
0.0
 11
197.0
 21
219.0
 31
0.0
  0
LINE
  5
19B
  8
DATA
  6
CONTINUOUS
 62
     7
 10
197.0
 20
245.0
 30
0.0
 11
197.0
 21
248.0
 31
0.0
  0
LINE
  5
19C
  8
DATA
  6
CONTINUOUS
 62
     7
 10
0.0
 20
248.0
 30
0.0
 11
197.0
 21
248.0
 31
0.0
  0
LINE
  5
19D
  8
DATA
  6
CONTINUOUS
 62
     7
 10
0.0
 20
102.0
 30
0.0
 11
197.0
 21
102.0
 31
0.0
  0
LINE
  5
19E
  8
DATA
  6
CONTINUOUS
 62
     7
 10
161.5
 20
99.0
 30
0.0
 11
161.5
 21
100.0
 31
0.0
  0
LINE
  5
19F
  8
DATA
  6
CONTINUOUS
 62
     7
 10
146.5
 20
99.0
 30
0.0
 11
146.5
 21
100.0
 31
0.0
  0
LINE
  5
1A0
  8
DATA
  6
CONTINUOUS
 62
     7
 10
146.5
 20
99.0
 30
0.0
 11
161.5
 21
99.0
 31
0.0
  0
LINE
  5
1A1
  8
DATA
  6
CONTINUOUS
 62
     7
 10
176.5
 20
99.500000000000014
 30
0.0
 11
176.5
 21
100.0
 31
0.0
  0
LINE
  5
1A2
  8
DATA
  6
CONTINUOUS
 62
     7
 10
183.5
 20
99.500000000000014
 30
0.0
 11
183.5
 21
100.0
 31
0.0
  0
LINE
  5
1A3
  8
DATA
  6
CONTINUOUS
 62
     7
 10
176.5
 20
99.500000000000014
 30
0.0
 11
183.5
 21
99.500000000000014
 31
0.0
  0
LINE
  5
1A4
  8
DATA
  6
CONTINUOUS
 62
     7
 10
107.5
 20
98.500000000000014
 30
0.0
 11
107.5
 21
100.0
 31
0.0
  0
LINE
  5
1A5
  8
DATA
  6
CONTINUOUS
 62
     7
 10
97.5
 20
98.500000000000014
 30
0.0
 11
97.5
 21
100.0
 31
0.0
  0
LINE
  5
1A6
  8
DATA
  6
CONTINUOUS
 62
     7
 10
97.5
 20
98.500000000000014
 30
0.0
 11
107.5
 21
98.500000000000014
 31
0.0
  0
LINE
  5
1A7
  8
DATA
  6
CONTINUOUS
 62
     7
 10
0.0
 20
105.0
 30
0.0
 11
10.0
 21
105.0
 31
0.0
  0
LINE
  5
1A8
  8
DATA
  6
CONTINUOUS
 62
     7
 10
0.0
 20
114.0
 30
0.0
 11
197.0
 21
114.0
 31
0.0
  0
LINE
  5
1A9
  8
DATA
  6
CONTINUOUS
 62
     7
 10
10.0
 20
248.0
 30
0.0
 11
10.0
 21
244.0
 31
0.0
  0
LINE
  5
1AA
  8
DATA
  6
CONTINUOUS
 62
     7
 10
10.0
 20
220.00000000000011
 30
0.0
 11
10.0
 21
144.0
 31
0.0
  0
LINE
  5
1AB
  8
DATA
  6
CONTINUOUS
 62
     7
 10
10.0
 20
120.0
 30
0.0
 11
10.0
 21
105.0
 31
0.0
  0
LINE
  5
1AC
  8
DATA
  6
CONTINUOUS
 62
     7
 10
197.0
 20
105.0
 30
0.0
 11
187.0
 21
105.0
 31
0.0
  0
LINE
  5
1AD
  8
DATA
  6
CONTINUOUS
 62
     7
 10
187.0
 20
248.0
 30
0.0
 11
187.0
 21
244.0
 31
0.0
  0
LINE
  5
1AE
  8
DATA
  6
CONTINUOUS
 62
     7
 10
187.0
 20
220.00000000000011
 30
0.0
 11
187.0
 21
144.0
 31
0.0
  0
LINE
  5
1AF
  8
DATA
  6
CONTINUOUS
 62
     7
 10
187.0
 20
120.0
 30
0.0
 11
187.0
 21
105.0
 31
0.0
  0
CIRCLE
  5
1B0
  8
DATA
  6
CONTINUOUS
 62
     7
 10
5.0
 20
132.0
 30
0.0
 40
7.5
  0
ARC
  5
1B1
  8
DATA
  6
CONTINUOUS
 62
     7
 10
5.0000000000000284
 20
132.0
 30
0.0
 40
12.99999999999997
 50
270.0
 51
90.0
  0
LINE
  5
1B2
  8
DATA
  6
CONTINUOUS
 62
     7
 10
-7.0000000000000284
 20
121.0
 30
0.0
 11
-7.0000000000000284
 21
143.0
 31
0.0
  0
LINE
  5
1B3
  8
DATA
  6
CONTINUOUS
 62
     7
 10
5.0
 20
119.0
 30
0.0
 11
-5.0000000000000284
 21
119.0
 31
0.0
  0
LINE
  5
1B4
  8
DATA
  6
CONTINUOUS
 62
     7
 10
5.0
 20
145.0
 30
0.0
 11
-5.0000000000000284
 21
145.0
 31
0.0
  0
ARC
  5
1B5
  8
DATA
  6
CONTINUOUS
 62
     7
 10
-5.0000000000000284
 20
143.0
 30
0.0
 40
2.0
 50
90.0
 51
180.0
  0
ARC
  5
1B6
  8
DATA
  6
CONTINUOUS
 62
     7
 10
-5.0000000000000284
 20
121.0
 30
0.0
 40
2.0
 50
180.0
 51
270.0
  0
CIRCLE
  5
1B7
  8
DATA
  6
CONTINUOUS
 62
     7
 10
5.0
 20
132.0
 30
0.0
 40
3.0
  0
LINE
  5
1B8
  8
DATA
  6
CONTINUOUS
 62
     7
 10
3.0
 20
132.0
 30
0.0
 11
7.0
 21
132.0
 31
0.0
  0
LINE
  5
1B9
  8
DATA
  6
CONTINUOUS
 62
     7
 10
5.0
 20
134.0
 30
0.0
 11
5.0
 21
130.0
 31
0.0
  0
CIRCLE
  5
1BA
  8
DATA
  6
CONTINUOUS
 62
     7
 10
192.0
 20
132.0
 30
0.0
 40
7.5
  0
ARC
  5
1BB
  8
DATA
  6
CONTINUOUS
 62
     7
 10
192.0
 20
132.0
 30
0.0
 40
12.99999999999997
 50
90.0
 51
270.0
  0
LINE
  5
1BC
  8
DATA
  6
CONTINUOUS
 62
     7
 10
204.0
 20
121.0
 30
0.0
 11
204.0
 21
143.0
 31
0.0
  0
LINE
  5
1BD
  8
DATA
  6
CONTINUOUS
 62
     7
 10
192.0
 20
119.0
 30
0.0
 11
202.0
 21
119.0
 31
0.0
  0
LINE
  5
1BE
  8
DATA
  6
CONTINUOUS
 62
     7
 10
192.0
 20
145.0
 30
0.0
 11
202.0
 21
145.0
 31
0.0
  0
ARC
  5
1BF
  8
DATA
  6
CONTINUOUS
 62
     7
 10
202.0
 20
143.0
 30
0.0
 40
2.0
 50
0.0
 51
90.0
  0
ARC
  5
1C0
  8
DATA
  6
CONTINUOUS
 62
     7
 10
202.0
 20
121.0
 30
0.0
 40
2.0
 50
270.0
 51
0.0
  0
CIRCLE
  5
1C1
  8
DATA
  6
CONTINUOUS
 62
     7
 10
192.0
 20
132.0
 30
0.0
 40
3.0
  0
LINE
  5
1C2
  8
DATA
  6
CONTINUOUS
 62
     7
 10
194.0
 20
132.0
 30
0.0
 11
190.0
 21
132.0
 31
0.0
  0
LINE
  5
1C3
  8
DATA
  6
CONTINUOUS
 62
     7
 10
192.0
 20
134.0
 30
0.0
 11
192.0
 21
130.0
 31
0.0
  0
CIRCLE
  5
1C4
  8
DATA
  6
CONTINUOUS
 62
     7
 10
5.0
 20
232.0
 30
0.0
 40
7.5
  0
ARC
  5
1C5
  8
DATA
  6
CONTINUOUS
 62
     7
 10
5.0000000000000284
 20
232.00000000000011
 30
0.0
 40
12.99999999999997
 50
270.0
 51
90.0
  0
LINE
  5
1C6
  8
DATA
  6
CONTINUOUS
 62
     7
 10
-7.0000000000000284
 20
221.0
 30
0.0
 11
-7.0000000000000284
 21
243.0
 31
0.0
  0
LINE
  5
1C7
  8
DATA
  6
CONTINUOUS
 62
     7
 10
5.0
 20
219.0
 30
0.0
 11
-5.0000000000000284
 21
219.0
 31
0.0
  0
LINE
  5
1C8
  8
DATA
  6
CONTINUOUS
 62
     7
 10
5.0
 20
245.0
 30
0.0
 11
-5.0000000000000284
 21
245.0
 31
0.0
  0
ARC
  5
1C9
  8
DATA
  6
CONTINUOUS
 62
     7
 10
-5.0000000000000284
 20
243.0
 30
0.0
 40
2.0
 50
90.0
 51
180.0
  0
ARC
  5
1CA
  8
DATA
  6
CONTINUOUS
 62
     7
 10
-5.0000000000000284
 20
221.0
 30
0.0
 40
2.0
 50
180.0
 51
270.0
  0
CIRCLE
  5
1CB
  8
DATA
  6
CONTINUOUS
 62
     7
 10
5.0
 20
232.0
 30
0.0
 40
3.0
  0
LINE
  5
1CC
  8
DATA
  6
CONTINUOUS
 62
     7
 10
3.0
 20
232.00000000000011
 30
0.0
 11
7.0
 21
232.00000000000011
 31
0.0
  0
LINE
  5
1CD
  8
DATA
  6
CONTINUOUS
 62
     7
 10
5.0
 20
234.0
 30
0.0
 11
5.0
 21
230.0
 31
0.0
  0
CIRCLE
  5
1CE
  8
DATA
  6
CONTINUOUS
 62
     7
 10
192.0
 20
232.0
 30
0.0
 40
7.5
  0
ARC
  5
1CF
  8
DATA
  6
CONTINUOUS
 62
     7
 10
192.0
 20
232.00000000000011
 30
0.0
 40
12.99999999999997
 50
90.0
 51
270.0
  0
LINE
  5
1D0
  8
DATA
  6
CONTINUOUS
 62
     7
 10
204.0
 20
221.0
 30
0.0
 11
204.0
 21
243.0
 31
0.0
  0
LINE
  5
1D1
  8
DATA
  6
CONTINUOUS
 62
     7
 10
192.0
 20
219.0
 30
0.0
 11
202.0
 21
219.0
 31
0.0
  0
LINE
  5
1D2
  8
DATA
  6
CONTINUOUS
 62
     7
 10
192.0
 20
245.0
 30
0.0
 11
202.0
 21
245.0
 31
0.0
  0
ARC
  5
1D3
  8
DATA
  6
CONTINUOUS
 62
     7
 10
202.0
 20
243.0
 30
0.0
 40
2.0
 50
0.0
 51
90.0
  0
ARC
  5
1D4
  8
DATA
  6
CONTINUOUS
 62
     7
 10
202.0
 20
221.0
 30
0.0
 40
2.0
 50
270.0
 51
0.0
  0
CIRCLE
  5
1D5
  8
DATA
  6
CONTINUOUS
 62
     7
 10
192.0
 20
232.0
 30
0.0
 40
3.0
  0
LINE
  5
1D6
  8
DATA
  6
CONTINUOUS
 62
     7
 10
194.0
 20
232.00000000000011
 30
0.0
 11
190.0
 21
232.00000000000011
 31
0.0
  0
LINE
  5
1D7
  8
DATA
  6
CONTINUOUS
 62
     7
 10
192.0
 20
234.0
 30
0.0
 11
192.0
 21
230.0
 31
0.0
  0
LINE
  5
1D8
  8
DATA
  6
CONTINUOUS
 62
     7
 10
130.0
 20
262.0
 30
0.0
 11
130.0
 21
248.0
 31
0.0
  0
LINE
  5
1D9
  8
DATA
  6
CONTINUOUS
 62
     7
 10
136.0
 20
262.0
 30
0.0
 11
136.0
 21
248.0
 31
0.0
  0
LINE
  5
1DA
  8
DATA
  6
CONTINUOUS
 62
     7
 10
136.0
 20
262.0
 30
0.0
 11
130.0
 21
262.0
 31
0.0
  0
LINE
  5
1DB
  8
DATA
  6
CONTINUOUS
 62
     7
 10
13.0717967697245
 20
250.0
 30
0.0
 11
13.0717967697245
 21
248.0
 31
0.0
  0
LINE
  5
1DC
  8
DATA
  6
CONTINUOUS
 62
     7
 10
26.928203230275511
 20
250.0
 30
0.0
 11
26.928203230275511
 21
248.0
 31
0.0
  0
LINE
  5
1DD
  8
DATA
  6
CONTINUOUS
 62
     7
 10
13.0717967697245
 20
250.0
 30
0.0
 11
26.928203230275511
 21
250.0
 31
0.0
  0
LINE
  5
1DE
  8
DATA
  6
CONTINUOUS
 62
     7
 10
20.0
 20
250.0
 30
0.0
 11
20.0
 21
248.0
 31
0.0
  0
LINE
  5
1DF
  8
DATA
  6
CONTINUOUS
 62
     7
 10
13.75
 20
255.5
 30
0.0
 11
13.75
 21
250.0
 31
0.0
  0
LINE
  5
1E0
  8
DATA
  6
CONTINUOUS
 62
     7
 10
26.25
 20
255.5
 30
0.0
 11
26.25
 21
250.0
 31
0.0
  0
LINE
  5
1E1
  8
DATA
  6
CONTINUOUS
 62
     7
 10
13.75
 20
255.5
 30
0.0
 11
26.25
 21
255.5
 31
0.0
  0
LINE
  5
1E2
  8
DATA
  6
CONTINUOUS
 62
     7
 10
15.25
 20
257.0
 30
0.0
 11
15.25
 21
255.5
 31
0.0
  0
LINE
  5
1E3
  8
DATA
  6
CONTINUOUS
 62
     7
 10
24.75
 20
257.0
 30
0.0
 11
24.75
 21
255.5
 31
0.0
  0
LINE
  5
1E4
  8
DATA
  6
CONTINUOUS
 62
     7
 10
15.25
 20
257.0
 30
0.0
 11
24.75
 21
257.0
 31
0.0
  0
LINE
  5
1E5
  8
DATA
  6
CONTINUOUS
 62
     7
 10
13.75
 20
250.0
 30
0.0
 11
26.25
 21
251.0
 31
0.0
  0
LINE
  5
1E6
  8
DATA
  6
CONTINUOUS
 62
     7
 10
13.75
 20
251.0
 30
0.0
 11
26.25
 21
252.0
 31
0.0
  0
LINE
  5
1E7
  8
DATA
  6
CONTINUOUS
 62
     7
 10
13.75
 20
252.0
 30
0.0
 11
26.25
 21
253.0
 31
0.0
  0
LINE
  5
1E8
  8
DATA
  6
CONTINUOUS
 62
     7
 10
13.75
 20
253.0
 30
0.0
 11
26.25
 21
254.0
 31
0.0
  0
LINE
  5
1E9
  8
DATA
  6
CONTINUOUS
 62
     7
 10
13.75
 20
254.0
 30
0.0
 11
26.25
 21
255.0
 31
0.0
  0
LINE
  5
1EA
  8
DATA
  6
CONTINUOUS
 62
     7
 10
13.0
 20
257.0
 30
0.0
 11
27.0
 21
257.0
 31
0.0
  0
LINE
  5
1EB
  8
DATA
  6
CONTINUOUS
 62
     7
 10
13.0
 20
257.0
 30
0.0
 11
13.0
 21
259.0
 31
0.0
  0
LINE
  5
1EC
  8
DATA
  6
CONTINUOUS
 62
     7
 10
13.0
 20
259.0
 30
0.0
 11
27.0
 21
259.0
 31
0.0
  0
LINE
  5
1ED
  8
DATA
  6
CONTINUOUS
 62
     7
 10
27.0
 20
259.0
 30
0.0
 11
27.0
 21
257.0
 31
0.0
  0
LINE
  5
1EE
  8
DATA
  6
CONTINUOUS
 62
     7
 10
14.5
 20
259.0
 30
0.0
 11
14.5
 21
265.0
 31
0.0
  0
LINE
  5
1EF
  8
DATA
  6
CONTINUOUS
 62
     7
 10
25.5
 20
265.0
 30
0.0
 11
25.5
 21
259.0
 31
0.0
  0
LINE
  5
1F0
  8
DATA
  6
CONTINUOUS
 62
     7
 10
13.25
 20
265.0
 30
0.0
 11
26.75
 21
265.0
 31
0.0
  0
LINE
  5
1F1
  8
DATA
  6
CONTINUOUS
 62
     7
 10
12.75
 20
265.5
 30
0.0
 11
27.25
 21
265.5
 31
0.0
  0
LINE
  5
1F2
  8
DATA
  6
CONTINUOUS
 62
     7
 10
12.75
 20
265.5
 30
0.0
 11
12.75
 21
269.5
 31
0.0
  0
LINE
  5
1F3
  8
DATA
  6
CONTINUOUS
 62
     7
 10
12.75
 20
269.5
 30
0.0
 11
27.25
 21
269.5
 31
0.0
  0
LINE
  5
1F4
  8
DATA
  6
CONTINUOUS
 62
     7
 10
27.25
 20
269.5
 30
0.0
 11
27.25
 21
265.5
 31
0.0
  0
LINE
  5
1F5
  8
DATA
  6
CONTINUOUS
 62
     7
 10
14.25
 20
271.0
 30
0.0
 11
25.75
 21
271.0
 31
0.0
  0
LINE
  5
1F6
  8
DATA
  6
CONTINUOUS
 62
     7
 10
14.5
 20
271.0
 30
0.0
 11
14.5
 21
283.0
 31
0.0
  0
LINE
  5
1F7
  8
DATA
  6
CONTINUOUS
 62
     7
 10
25.5
 20
271.0
 30
0.0
 11
25.5
 21
283.0
 31
0.0
  0
LINE
  5
1F8
  8
DATA
  6
CONTINUOUS
 62
     7
 10
14.5
 20
283.0
 30
0.0
 11
25.5
 21
283.0
 31
0.0
  0
LINE
  5
1F9
  8
DATA
  6
CONTINUOUS
 62
     7
 10
15.0
 20
284.5
 30
0.0
 11
15.0
 21
283.0
 31
0.0
  0
LINE
  5
1FA
  8
DATA
  6
CONTINUOUS
 62
     7
 10
15.0
 20
284.5
 30
0.0
 11
25.0
 21
284.5
 31
0.0
  0
LINE
  5
1FB
  8
DATA
  6
CONTINUOUS
 62
     7
 10
25.0
 20
284.5
 30
0.0
 11
25.0
 21
283.0
 31
0.0
  0
LINE
  5
1FC
  8
DATA
  6
CONTINUOUS
 62
     7
 10
23.5
 20
289.5
 30
0.0
 11
23.5
 21
284.5
 31
0.0
  0
LINE
  5
1FD
  8
DATA
  6
CONTINUOUS
 62
     7
 10
16.5
 20
286.00000000000068
 30
0.0
 11
16.5
 21
284.5
 31
0.0
  0
ARC
  5
1FE
  8
DATA
  6
CONTINUOUS
 62
     7
 10
20.0
 20
289.5
 30
0.0
 40
3.5
 50
0.0
 51
114.2946070649059
  0
ARC
  5
1FF
  8
DATA
  6
CONTINUOUS
 62
     7
 10
14.25
 20
269.5
 30
0.0
 40
1.5
 50
90.0
 51
180.0
  0
ARC
  5
200
  8
DATA
  6
CONTINUOUS
 62
     7
 10
25.75
 20
269.5
 30
0.0
 40
1.5
 50
0.0
 51
90.0
  0
ARC
  5
201
  8
DATA
  6
CONTINUOUS
 62
     7
 10
13.25
 20
265.5
 30
0.0
 40
0.5
 50
180.0
 51
270.0
  0
ARC
  5
202
  8
DATA
  6
CONTINUOUS
 62
     7
 10
26.75
 20
265.5
 30
0.0
 40
0.5
 50
270.0
 51
0.0
  0
LINE
  5
203
  8
DATA
  6
CONTINUOUS
 62
     7
 10
13.25
 20
265.5
 30
0.0
 11
13.25
 21
269.5
 31
0.0
  0
LINE
  5
204
  8
DATA
  6
CONTINUOUS
 62
     7
 10
13.75
 20
265.5
 30
0.0
 11
13.75
 21
269.5
 31
0.0
  0
LINE
  5
205
  8
DATA
  6
CONTINUOUS
 62
     7
 10
14.25
 20
265.5
 30
0.0
 11
14.25
 21
269.5
 31
0.0
  0
LINE
  5
206
  8
DATA
  6
CONTINUOUS
 62
     7
 10
14.75
 20
265.5
 30
0.0
 11
14.75
 21
269.5
 31
0.0
  0
LINE
  5
207
  8
DATA
  6
CONTINUOUS
 62
     7
 10
15.25
 20
265.5
 30
0.0
 11
15.25
 21
269.5
 31
0.0
  0
LINE
  5
208
  8
DATA
  6
CONTINUOUS
 62
     7
 10
15.75
 20
265.5
 30
0.0
 11
15.75
 21
269.5
 31
0.0
  0
LINE
  5
209
  8
DATA
  6
CONTINUOUS
 62
     7
 10
16.25
 20
265.5
 30
0.0
 11
16.25
 21
269.5
 31
0.0
  0
LINE
  5
20A
  8
DATA
  6
CONTINUOUS
 62
     7
 10
16.75
 20
265.5
 30
0.0
 11
16.75
 21
269.5
 31
0.0
  0
LINE
  5
20B
  8
DATA
  6
CONTINUOUS
 62
     7
 10
17.25
 20
265.5
 30
0.0
 11
17.25
 21
269.5
 31
0.0
  0
LINE
  5
20C
  8
DATA
  6
CONTINUOUS
 62
     7
 10
17.75
 20
265.5
 30
0.0
 11
17.75
 21
269.5
 31
0.0
  0
LINE
  5
20D
  8
DATA
  6
CONTINUOUS
 62
     7
 10
18.25
 20
265.5
 30
0.0
 11
18.25
 21
269.5
 31
0.0
  0
LINE
  5
20E
  8
DATA
  6
CONTINUOUS
 62
     7
 10
18.75
 20
265.5
 30
0.0
 11
18.75
 21
269.5
 31
0.0
  0
LINE
  5
20F
  8
DATA
  6
CONTINUOUS
 62
     7
 10
19.25
 20
265.5
 30
0.0
 11
19.25
 21
269.5
 31
0.0
  0
LINE
  5
210
  8
DATA
  6
CONTINUOUS
 62
     7
 10
19.75
 20
265.5
 30
0.0
 11
19.75
 21
269.5
 31
0.0
  0
LINE
  5
211
  8
DATA
  6
CONTINUOUS
 62
     7
 10
20.25
 20
265.5
 30
0.0
 11
20.25
 21
269.5
 31
0.0
  0
LINE
  5
212
  8
DATA
  6
CONTINUOUS
 62
     7
 10
20.75
 20
265.5
 30
0.0
 11
20.75
 21
269.5
 31
0.0
  0
LINE
  5
213
  8
DATA
  6
CONTINUOUS
 62
     7
 10
21.25
 20
265.5
 30
0.0
 11
21.25
 21
269.5
 31
0.0
  0
LINE
  5
214
  8
DATA
  6
CONTINUOUS
 62
     7
 10
21.75
 20
265.5
 30
0.0
 11
21.75
 21
269.5
 31
0.0
  0
LINE
  5
215
  8
DATA
  6
CONTINUOUS
 62
     7
 10
22.25
 20
265.5
 30
0.0
 11
22.25
 21
269.5
 31
0.0
  0
LINE
  5
216
  8
DATA
  6
CONTINUOUS
 62
     7
 10
22.75
 20
265.5
 30
0.0
 11
22.75
 21
269.5
 31
0.0
  0
LINE
  5
217
  8
DATA
  6
CONTINUOUS
 62
     7
 10
23.25
 20
265.5
 30
0.0
 11
23.25
 21
269.5
 31
0.0
  0
LINE
  5
218
  8
DATA
  6
CONTINUOUS
 62
     7
 10
23.75
 20
265.5
 30
0.0
 11
23.75
 21
269.5
 31
0.0
  0
LINE
  5
219
  8
DATA
  6
CONTINUOUS
 62
     7
 10
24.25
 20
265.5
 30
0.0
 11
24.25
 21
269.5
 31
0.0
  0
LINE
  5
21A
  8
DATA
  6
CONTINUOUS
 62
     7
 10
24.75
 20
265.5
 30
0.0
 11
24.75
 21
269.5
 31
0.0
  0
LINE
  5
21B
  8
DATA
  6
CONTINUOUS
 62
     7
 10
25.25
 20
265.5
 30
0.0
 11
25.25
 21
269.5
 31
0.0
  0
LINE
  5
21C
  8
DATA
  6
CONTINUOUS
 62
     7
 10
25.75
 20
265.5
 30
0.0
 11
25.75
 21
269.5
 31
0.0
  0
LINE
  5
21D
  8
DATA
  6
CONTINUOUS
 62
     7
 10
26.25
 20
265.5
 30
0.0
 11
26.25
 21
269.5
 31
0.0
  0
LINE
  5
21E
  8
DATA
  6
CONTINUOUS
 62
     7
 10
26.75
 20
265.5
 30
0.0
 11
26.75
 21
269.5
 31
0.0
  0
LINE
  5
21F
  8
DATA
  6
CONTINUOUS
 62
     7
 10
27.25
 20
265.5
 30
0.0
 11
27.25
 21
269.5
 31
0.0
  0
ARC
  5
220
  8
DATA
  6
CONTINUOUS
 62
     7
 10
20.000000000000028
 20
263.0
 30
0.0
 40
1.500000000000028
 50
216.88254111414631
 51
120.5102374062362
  0
LINE
  5
221
  8
DATA
  6
CONTINUOUS
 62
     7
 10
14.5
 20
263.0
 30
0.0
 11
19.238461538458399
 21
264.29230769230679
 31
0.0
  0
LINE
  5
222
  8
DATA
  6
CONTINUOUS
 62
     7
 10
14.5
 20
260.92695377254688
 30
0.0
 11
18.80019863235043
 21
262.0997352177335
 31
0.0
  0
CIRCLE
  5
223
  8
DATA
  6
CONTINUOUS
 62
     7
 10
20.0
 20
262.5
 30
0.0
 40
1.0
  0
LINE
  5
224
  8
DATA
  6
CONTINUOUS
 62
     7
 10
16.5
 20
284.5
 30
0.0
 11
16.5
 21
286.00000000000068
 31
0.0
  0
LINE
  5
225
  8
DATA
  6
CONTINUOUS
 62
     7
 10
23.5
 20
284.5
 30
0.0
 11
23.5
 21
289.5
 31
0.0
  0
LINE
  5
226
  8
DATA
  6
CONTINUOUS
 62
     7
 10
16.0
 20
293.0
 30
0.0
 11
17.120000000000029
 21
293.0
 31
0.0
  0
LINE
  5
227
  8
DATA
  6
CONTINUOUS
 62
     7
 10
16.0
 20
286.0
 30
0.0
 11
16.5
 21
286.0
 31
0.0
  0
LINE
  5
228
  8
DATA
  6
CONTINUOUS
 62
     7
 10
17.120002491230849
 20
286.00000000000091
 30
0.0
 11
12.80000000000001
 21
286.0
 31
0.0
  0
LINE
  5
229
  8
DATA
  6
CONTINUOUS
 62
     7
 10
12.80000000000001
 20
293.0
 30
0.0
 11
17.120000000000001
 21
293.0
 31
0.0
  0
LINE
  5
22A
  8
DATA
  6
CONTINUOUS
 62
     7
 10
12.800002853446131
 20
286.75
 30
0.0
 11
-15.970490243201739
 21
286.75
 31
0.0
  0
LINE
  5
22B
  8
DATA
  6
CONTINUOUS
 62
     7
 10
12.800002853446131
 20
292.25
 30
0.0
 11
-15.970490243201739
 21
292.25
 31
0.0
  0
LINE
  5
22C
  8
DATA
  6
CONTINUOUS
 62
     7
 10
-18.52000000000001
 20
285.75
 30
0.0
 11
-27.16
 21
286.5
 31
0.0
  0
LINE
  5
22D
  8
DATA
  6
CONTINUOUS
 62
     7
 10
-18.52000000000001
 20
293.25
 30
0.0
 11
-27.16
 21
292.5
 31
0.0
  0
LINE
  5
22E
  8
DATA
  6
CONTINUOUS
 62
     7
 10
183.9282032302755
 20
250.0
 30
0.0
 11
183.9282032302755
 21
248.0
 31
0.0
  0
LINE
  5
22F
  8
DATA
  6
CONTINUOUS
 62
     7
 10
170.0717967697245
 20
250.0
 30
0.0
 11
170.0717967697245
 21
248.0
 31
0.0
  0
LINE
  5
230
  8
DATA
  6
CONTINUOUS
 62
     7
 10
183.9282032302755
 20
250.0
 30
0.0
 11
170.0717967697245
 21
250.0
 31
0.0
  0
LINE
  5
231
  8
DATA
  6
CONTINUOUS
 62
     7
 10
177.0
 20
250.0
 30
0.0
 11
177.0
 21
248.0
 31
0.0
  0
LINE
  5
232
  8
DATA
  6
CONTINUOUS
 62
     7
 10
183.25
 20
255.5
 30
0.0
 11
183.25
 21
250.0
 31
0.0
  0
LINE
  5
233
  8
DATA
  6
CONTINUOUS
 62
     7
 10
170.75
 20
255.5
 30
0.0
 11
170.75
 21
250.0
 31
0.0
  0
LINE
  5
234
  8
DATA
  6
CONTINUOUS
 62
     7
 10
183.25
 20
255.5
 30
0.0
 11
170.75
 21
255.5
 31
0.0
  0
LINE
  5
235
  8
DATA
  6
CONTINUOUS
 62
     7
 10
181.75
 20
257.0
 30
0.0
 11
181.75
 21
255.5
 31
0.0
  0
LINE
  5
236
  8
DATA
  6
CONTINUOUS
 62
     7
 10
172.25
 20
257.0
 30
0.0
 11
172.25
 21
255.5
 31
0.0
  0
LINE
  5
237
  8
DATA
  6
CONTINUOUS
 62
     7
 10
181.75
 20
257.0
 30
0.0
 11
172.25
 21
257.0
 31
0.0
  0
LINE
  5
238
  8
DATA
  6
CONTINUOUS
 62
     7
 10
170.75
 20
250.0
 30
0.0
 11
183.25
 21
251.0
 31
0.0
  0
LINE
  5
239
  8
DATA
  6
CONTINUOUS
 62
     7
 10
170.75
 20
251.0
 30
0.0
 11
183.25
 21
252.0
 31
0.0
  0
LINE
  5
23A
  8
DATA
  6
CONTINUOUS
 62
     7
 10
170.75
 20
252.0
 30
0.0
 11
183.25
 21
253.0
 31
0.0
  0
LINE
  5
23B
  8
DATA
  6
CONTINUOUS
 62
     7
 10
170.75
 20
253.0
 30
0.0
 11
183.25
 21
254.0
 31
0.0
  0
LINE
  5
23C
  8
DATA
  6
CONTINUOUS
 62
     7
 10
170.75
 20
254.0
 30
0.0
 11
183.25
 21
255.0
 31
0.0
  0
LINE
  5
23D
  8
DATA
  6
CONTINUOUS
 62
     7
 10
184.0
 20
257.0
 30
0.0
 11
170.0
 21
257.0
 31
0.0
  0
LINE
  5
23E
  8
DATA
  6
CONTINUOUS
 62
     7
 10
184.0
 20
257.0
 30
0.0
 11
184.0
 21
259.0
 31
0.0
  0
LINE
  5
23F
  8
DATA
  6
CONTINUOUS
 62
     7
 10
184.0
 20
259.0
 30
0.0
 11
170.0
 21
259.0
 31
0.0
  0
LINE
  5
240
  8
DATA
  6
CONTINUOUS
 62
     7
 10
170.0
 20
259.0
 30
0.0
 11
170.0
 21
257.0
 31
0.0
  0
LINE
  5
241
  8
DATA
  6
CONTINUOUS
 62
     7
 10
182.5
 20
259.0
 30
0.0
 11
182.5
 21
265.0
 31
0.0
  0
LINE
  5
242
  8
DATA
  6
CONTINUOUS
 62
     7
 10
171.5
 20
265.0
 30
0.0
 11
171.5
 21
259.0
 31
0.0
  0
LINE
  5
243
  8
DATA
  6
CONTINUOUS
 62
     7
 10
183.75
 20
265.0
 30
0.0
 11
170.25
 21
265.0
 31
0.0
  0
LINE
  5
244
  8
DATA
  6
CONTINUOUS
 62
     7
 10
184.25
 20
265.5
 30
0.0
 11
169.75
 21
265.5
 31
0.0
  0
LINE
  5
245
  8
DATA
  6
CONTINUOUS
 62
     7
 10
184.25
 20
265.5
 30
0.0
 11
184.25
 21
269.5
 31
0.0
  0
LINE
  5
246
  8
DATA
  6
CONTINUOUS
 62
     7
 10
184.25
 20
269.5
 30
0.0
 11
169.75
 21
269.5
 31
0.0
  0
LINE
  5
247
  8
DATA
  6
CONTINUOUS
 62
     7
 10
169.75
 20
269.5
 30
0.0
 11
169.75
 21
265.5
 31
0.0
  0
LINE
  5
248
  8
DATA
  6
CONTINUOUS
 62
     7
 10
182.75
 20
271.0
 30
0.0
 11
171.25
 21
271.0
 31
0.0
  0
LINE
  5
249
  8
DATA
  6
CONTINUOUS
 62
     7
 10
182.5
 20
271.0
 30
0.0
 11
182.5
 21
283.0
 31
0.0
  0
LINE
  5
24A
  8
DATA
  6
CONTINUOUS
 62
     7
 10
171.5
 20
271.0
 30
0.0
 11
171.5
 21
283.0
 31
0.0
  0
LINE
  5
24B
  8
DATA
  6
CONTINUOUS
 62
     7
 10
182.5
 20
283.0
 30
0.0
 11
171.5
 21
283.0
 31
0.0
  0
LINE
  5
24C
  8
DATA
  6
CONTINUOUS
 62
     7
 10
182.0
 20
284.5
 30
0.0
 11
182.0
 21
283.0
 31
0.0
  0
LINE
  5
24D
  8
DATA
  6
CONTINUOUS
 62
     7
 10
182.0
 20
284.5
 30
0.0
 11
172.0
 21
284.5
 31
0.0
  0
LINE
  5
24E
  8
DATA
  6
CONTINUOUS
 62
     7
 10
172.0
 20
284.5
 30
0.0
 11
172.0
 21
283.0
 31
0.0
  0
LINE
  5
24F
  8
DATA
  6
CONTINUOUS
 62
     7
 10
173.5
 20
289.5
 30
0.0
 11
173.5
 21
284.5
 31
0.0
  0
LINE
  5
250
  8
DATA
  6
CONTINUOUS
 62
     7
 10
180.5
 20
286.00000000000068
 30
0.0
 11
180.5
 21
284.5
 31
0.0
  0
ARC
  5
251
  8
DATA
  6
CONTINUOUS
 62
     7
 10
177.0
 20
289.5
 30
0.0
 40
3.4999999999999991
 50
65.705392935093926
 51
180.0
  0
ARC
  5
252
  8
DATA
  6
CONTINUOUS
 62
     7
 10
182.75
 20
269.5
 30
0.0
 40
1.5
 50
0.0
 51
90.0
  0
ARC
  5
253
  8
DATA
  6
CONTINUOUS
 62
     7
 10
171.25
 20
269.5
 30
0.0
 40
1.5
 50
90.0
 51
180.0
  0
ARC
  5
254
  8
DATA
  6
CONTINUOUS
 62
     7
 10
183.75
 20
265.5
 30
0.0
 40
0.5
 50
270.0
 51
0.0
  0
ARC
  5
255
  8
DATA
  6
CONTINUOUS
 62
     7
 10
170.25
 20
265.5
 30
0.0
 40
0.5
 50
180.0
 51
270.0
  0
LINE
  5
256
  8
DATA
  6
CONTINUOUS
 62
     7
 10
183.75
 20
265.5
 30
0.0
 11
183.75
 21
269.5
 31
0.0
  0
LINE
  5
257
  8
DATA
  6
CONTINUOUS
 62
     7
 10
183.25
 20
265.5
 30
0.0
 11
183.25
 21
269.5
 31
0.0
  0
LINE
  5
258
  8
DATA
  6
CONTINUOUS
 62
     7
 10
182.75
 20
265.5
 30
0.0
 11
182.75
 21
269.5
 31
0.0
  0
LINE
  5
259
  8
DATA
  6
CONTINUOUS
 62
     7
 10
182.25
 20
265.5
 30
0.0
 11
182.25
 21
269.5
 31
0.0
  0
LINE
  5
25A
  8
DATA
  6
CONTINUOUS
 62
     7
 10
181.75
 20
265.5
 30
0.0
 11
181.75
 21
269.5
 31
0.0
  0
LINE
  5
25B
  8
DATA
  6
CONTINUOUS
 62
     7
 10
181.25
 20
265.5
 30
0.0
 11
181.25
 21
269.5
 31
0.0
  0
LINE
  5
25C
  8
DATA
  6
CONTINUOUS
 62
     7
 10
180.75
 20
265.5
 30
0.0
 11
180.75
 21
269.5
 31
0.0
  0
LINE
  5
25D
  8
DATA
  6
CONTINUOUS
 62
     7
 10
180.25
 20
265.5
 30
0.0
 11
180.25
 21
269.5
 31
0.0
  0
LINE
  5
25E
  8
DATA
  6
CONTINUOUS
 62
     7
 10
179.75
 20
265.5
 30
0.0
 11
179.75
 21
269.5
 31
0.0
  0
LINE
  5
25F
  8
DATA
  6
CONTINUOUS
 62
     7
 10
179.25
 20
265.5
 30
0.0
 11
179.25
 21
269.5
 31
0.0
  0
LINE
  5
260
  8
DATA
  6
CONTINUOUS
 62
     7
 10
178.75
 20
265.5
 30
0.0
 11
178.75
 21
269.5
 31
0.0
  0
LINE
  5
261
  8
DATA
  6
CONTINUOUS
 62
     7
 10
178.25
 20
265.5
 30
0.0
 11
178.25
 21
269.5
 31
0.0
  0
LINE
  5
262
  8
DATA
  6
CONTINUOUS
 62
     7
 10
177.75
 20
265.5
 30
0.0
 11
177.75
 21
269.5
 31
0.0
  0
LINE
  5
263
  8
DATA
  6
CONTINUOUS
 62
     7
 10
177.25
 20
265.5
 30
0.0
 11
177.25
 21
269.5
 31
0.0
  0
LINE
  5
264
  8
DATA
  6
CONTINUOUS
 62
     7
 10
176.75
 20
265.5
 30
0.0
 11
176.75
 21
269.5
 31
0.0
  0
LINE
  5
265
  8
DATA
  6
CONTINUOUS
 62
     7
 10
176.25
 20
265.5
 30
0.0
 11
176.25
 21
269.5
 31
0.0
  0
LINE
  5
266
  8
DATA
  6
CONTINUOUS
 62
     7
 10
175.75
 20
265.5
 30
0.0
 11
175.75
 21
269.5
 31
0.0
  0
LINE
  5
267
  8
DATA
  6
CONTINUOUS
 62
     7
 10
175.25
 20
265.5
 30
0.0
 11
175.25
 21
269.5
 31
0.0
  0
LINE
  5
268
  8
DATA
  6
CONTINUOUS
 62
     7
 10
174.75
 20
265.5
 30
0.0
 11
174.75
 21
269.5
 31
0.0
  0
LINE
  5
269
  8
DATA
  6
CONTINUOUS
 62
     7
 10
174.25
 20
265.5
 30
0.0
 11
174.25
 21
269.5
 31
0.0
  0
LINE
  5
26A
  8
DATA
  6
CONTINUOUS
 62
     7
 10
173.75
 20
265.5
 30
0.0
 11
173.75
 21
269.5
 31
0.0
  0
LINE
  5
26B
  8
DATA
  6
CONTINUOUS
 62
     7
 10
173.25
 20
265.5
 30
0.0
 11
173.25
 21
269.5
 31
0.0
  0
LINE
  5
26C
  8
DATA
  6
CONTINUOUS
 62
     7
 10
172.75
 20
265.5
 30
0.0
 11
172.75
 21
269.5
 31
0.0
  0
LINE
  5
26D
  8
DATA
  6
CONTINUOUS
 62
     7
 10
172.25
 20
265.5
 30
0.0
 11
172.25
 21
269.5
 31
0.0
  0
LINE
  5
26E
  8
DATA
  6
CONTINUOUS
 62
     7
 10
171.75
 20
265.5
 30
0.0
 11
171.75
 21
269.5
 31
0.0
  0
LINE
  5
26F
  8
DATA
  6
CONTINUOUS
 62
     7
 10
171.25
 20
265.5
 30
0.0
 11
171.25
 21
269.5
 31
0.0
  0
LINE
  5
270
  8
DATA
  6
CONTINUOUS
 62
     7
 10
170.75
 20
265.5
 30
0.0
 11
170.75
 21
269.5
 31
0.0
  0
LINE
  5
271
  8
DATA
  6
CONTINUOUS
 62
     7
 10
170.25
 20
265.5
 30
0.0
 11
170.25
 21
269.5
 31
0.0
  0
LINE
  5
272
  8
DATA
  6
CONTINUOUS
 62
     7
 10
169.75
 20
265.5
 30
0.0
 11
169.75
 21
269.5
 31
0.0
  0
ARC
  5
273
  8
DATA
  6
CONTINUOUS
 62
     7
 10
177.0
 20
263.0
 30
0.0
 40
1.500000000000028
 50
216.88254111414631
 51
120.5102374062362
  0
LINE
  5
274
  8
DATA
  6
CONTINUOUS
 62
     7
 10
180.5
 20
284.5
 30
0.0
 11
180.5
 21
286.00000000000068
 31
0.0
  0
LINE
  5
275
  8
DATA
  6
CONTINUOUS
 62
     7
 10
173.5
 20
284.5
 30
0.0
 11
173.5
 21
289.5
 31
0.0
  0
LINE
  5
276
  8
DATA
  6
CONTINUOUS
 62
     7
 10
171.5
 20
263.0
 30
0.0
 11
176.23846153845841
 21
264.29230769230679
 31
0.0
  0
LINE
  5
277
  8
DATA
  6
CONTINUOUS
 62
     7
 10
171.5
 20
260.92695377254688
 30
0.0
 11
175.8001986323504
 21
262.0997352177335
 31
0.0
  0
CIRCLE
  5
278
  8
DATA
  6
CONTINUOUS
 62
     7
 10
177.0
 20
262.5
 30
0.0
 40
1.0
  0
LINE
  5
279
  8
DATA
  6
CONTINUOUS
 62
     7
 10
277.0
 20
42.0
 30
0.0
 11
277.0
 21
0.0
 31
0.0
  0
LINE
  5
27A
  8
DATA
  6
CONTINUOUS
 62
     7
 10
420.0
 20
42.0
 30
0.0
 11
420.0
 21
0.0
 31
0.0
  0
LINE
  5
27B
  8
DATA
  6
CONTINUOUS
 62
     7
 10
277.0
 20
39.0
 30
0.0
 11
291.0
 21
39.0
 31
0.0
  0
LINE
  5
27C
  8
DATA
  6
CONTINUOUS
 62
     7
 10
317.0
 20
39.0
 30
0.0
 11
391.0
 21
39.0
 31
0.0
  0
LINE
  5
27D
  8
DATA
  6
CONTINUOUS
 62
     7
 10
417.0
 20
39.0
 30
0.0
 11
420.0
 21
39.0
 31
0.0
  0
ARC
  5
27E
  8
DATA
  6
CONTINUOUS
 62
     7
 10
383.25
 20
21.0
 30
0.0
 40
111.25
 50
169.11933593798901
 51
190.88066406201091
  0
LINE
  5
27F
  8
DATA
  6
CONTINUOUS
 62
     7
 10
286.0
 20
42.0
 30
0.0
 11
286.0
 21
0.0
 31
0.0
  0
LINE
  5
280
  8
DATA
  6
CONTINUOUS
 62
     7
 10
291.0
 20
-5.0
 30
0.0
 11
317.0
 21
-5.0
 31
0.0
  0
LINE
  5
281
  8
DATA
  6
CONTINUOUS
 62
     7
 10
391.0
 20
-5.0
 30
0.0
 11
417.0
 21
-5.0
 31
0.0
  0
LINE
  5
282
  8
DATA
  6
CONTINUOUS
 62
     7
 10
296.5
 20
-6.5
 30
0.0
 11
311.5
 21
-6.5
 31
0.0
  0
LINE
  5
283
  8
DATA
  6
CONTINUOUS
 62
     7
 10
396.5
 20
-6.5
 30
0.0
 11
411.5
 21
-6.5
 31
0.0
  0
LINE
  5
284
  8
DATA
  6
CONTINUOUS
 62
     7
 10
291.0
 20
47.0
 30
0.0
 11
317.0
 21
47.0
 31
0.0
  0
LINE
  5
285
  8
DATA
  6
CONTINUOUS
 62
     7
 10
391.0
 20
47.0
 30
0.0
 11
417.0
 21
47.0
 31
0.0
  0
LINE
  5
286
  8
DATA
  6
CONTINUOUS
 62
     7
 10
291.0
 20
47.0
 30
0.0
 11
291.0
 21
-5.0
 31
0.0
  0
LINE
  5
287
  8
DATA
  6
CONTINUOUS
 62
     7
 10
317.0
 20
47.0
 30
0.0
 11
317.0
 21
-5.0
 31
0.0
  0
LINE
  5
288
  8
DATA
  6
CONTINUOUS
 62
     7
 10
391.0
 20
47.0
 30
0.0
 11
391.0
 21
-5.0
 31
0.0
  0
LINE
  5
289
  8
DATA
  6
CONTINUOUS
 62
     7
 10
417.0
 20
47.0
 30
0.0
 11
417.0
 21
-5.0
 31
0.0
  0
LINE
  5
28A
  8
DATA
  6
CONTINUOUS
 62
     7
 10
296.5
 20
-5.0
 30
0.0
 11
296.5
 21
-6.5
 31
0.0
  0
LINE
  5
28B
  8
DATA
  6
CONTINUOUS
 62
     7
 10
311.5
 20
-5.0
 30
0.0
 11
311.5
 21
-6.5
 31
0.0
  0
LINE
  5
28C
  8
DATA
  6
CONTINUOUS
 62
     7
 10
396.5
 20
-5.0
 30
0.0
 11
396.5
 21
-6.5
 31
0.0
  0
LINE
  5
28D
  8
DATA
  6
CONTINUOUS
 62
     7
 10
411.5
 20
-5.0
 30
0.0
 11
411.5
 21
-6.5
 31
0.0
  0
LINE
  5
28E
  8
DATA
  6
CONTINUOUS
 62
     7
 10
422.0
 20
14.046796769724549
 30
0.0
 11
420.0
 21
14.046796769724549
 31
0.0
  0
LINE
  5
28F
  8
DATA
  6
CONTINUOUS
 62
     7
 10
422.0
 20
27.903203230275469
 30
0.0
 11
420.0
 21
27.903203230275469
 31
0.0
  0
LINE
  5
290
  8
DATA
  6
CONTINUOUS
 62
     7
 10
422.0
 20
14.046796769724549
 30
0.0
 11
422.0
 21
27.903203230275469
 31
0.0
  0
LINE
  5
291
  8
DATA
  6
CONTINUOUS
 62
     7
 10
427.5
 20
14.725000000000019
 30
0.0
 11
422.0
 21
14.725000000000019
 31
0.0
  0
LINE
  5
292
  8
DATA
  6
CONTINUOUS
 62
     7
 10
427.5
 20
27.225000000000001
 30
0.0
 11
422.0
 21
27.225000000000001
 31
0.0
  0
LINE
  5
293
  8
DATA
  6
CONTINUOUS
 62
     7
 10
427.5
 20
14.725000000000019
 30
0.0
 11
427.5
 21
27.225000000000001
 31
0.0
  0
LINE
  5
294
  8
DATA
  6
CONTINUOUS
 62
     7
 10
438.49999999999989
 20
16.225000000000019
 30
0.0
 11
427.5
 21
16.225000000000019
 31
0.0
  0
LINE
  5
295
  8
DATA
  6
CONTINUOUS
 62
     7
 10
438.49999999999989
 20
25.725000000000019
 30
0.0
 11
427.5
 21
25.725000000000019
 31
0.0
  0
LINE
  5
296
  8
DATA
  6
CONTINUOUS
 62
     7
 10
422.0
 20
27.225000000000001
 30
0.0
 11
423.0
 21
14.725000000000019
 31
0.0
  0
LINE
  5
297
  8
DATA
  6
CONTINUOUS
 62
     7
 10
423.0
 20
27.225000000000001
 30
0.0
 11
424.0
 21
14.725000000000019
 31
0.0
  0
LINE
  5
298
  8
DATA
  6
CONTINUOUS
 62
     7
 10
424.0
 20
27.225000000000001
 30
0.0
 11
425.0
 21
14.725000000000019
 31
0.0
  0
LINE
  5
299
  8
DATA
  6
CONTINUOUS
 62
     7
 10
425.0
 20
27.225000000000001
 30
0.0
 11
426.0
 21
14.725000000000019
 31
0.0
  0
LINE
  5
29A
  8
DATA
  6
CONTINUOUS
 62
     7
 10
426.0
 20
27.225000000000001
 30
0.0
 11
427.0
 21
14.725000000000019
 31
0.0
  0
CIRCLE
  5
29B
  8
DATA
  6
CONTINUOUS
 62
     7
 10
434.49999999999989
 20
20.975000000000019
 30
0.0
 40
1.0
  0
LINE
  5
29C
  8
DATA
  6
CONTINUOUS
 62
     7
 10
438.49999999999989
 20
25.725000000000019
 30
0.0
 11
438.49999999999989
 21
16.225000000000019
 31
0.0
  0
LINE
  5
29D
  8
DATA
  6
CONTINUOUS
 62
     7
 10
426.8700000000045
 20
8.0
 30
0.0
 11
420.0
 21
8.0
 31
0.0
  0
ARC
  5
29E
  8
DATA
  6
CONTINUOUS
 62
     7
 10
426.25
 20
15.749999999999879
 30
0.0
 40
7.7747604464702569
 50
274.5739212599334
 51
3.5026744277334951
  0
ARC
  5
29F
  8
DATA
  6
CONTINUOUS
 62
     7
 10
426.24999999999841
 20
15.749999999998749
 30
0.0
 40
4.2747604464720359
 50
276.16979630403142
 51
6.37972918707686
  0
LINE
  5
2A0
  8
DATA
  6
CONTINUOUS
 62
     7
 10
426.70943103368342
 20
11.5
 30
0.0
 11
426.25
 21
11.5
 31
0.0
  0
LINE
  5
2A1
  8
DATA
  6
CONTINUOUS
 62
     7
 10
426.25
 20
11.5
 30
0.0
 11
421.0
 21
11.5
 31
0.0
  0
LINE
  5
2A2
  8
DATA
  6
CONTINUOUS
 62
     7
 10
421.0
 20
11.5
 30
0.0
 11
421.0
 21
14.046796769724549
 31
0.0
  0
LINE
  5
2A3
  8
DATA
  6
CONTINUOUS
 62
     7
 10
271.0
 20
28.5
 30
0.0
 11
271.0
 21
13.5
 31
0.0
  0
LINE
  5
2A4
  8
DATA
  6
CONTINUOUS
 62
     7
 10
271.0
 20
28.5
 30
0.0
 11
272.25309689004831
 21
28.5
 31
0.0
  0
LINE
  5
2A5
  8
DATA
  6
CONTINUOUS
 62
     7
 10
271.0
 20
13.5
 30
0.0
 11
272.25309689004831
 21
13.5
 31
0.0
  0
LINE
  5
2A6
  8
DATA
  6
CONTINUOUS
 62
     7
 10
271.55506980981551
 20
24.5
 30
0.0
 11
272.05506980981551
 21
24.5
 31
0.0
  0
LINE
  5
2A7
  8
DATA
  6
CONTINUOUS
 62
     7
 10
271.55506980981551
 20
17.5
 30
0.0
 11
272.05506980981551
 21
17.5
 31
0.0
  0
LINE
  5
2A8
  8
DATA
  6
CONTINUOUS
 62
     7
 10
271.55506980981551
 20
24.5
 30
0.0
 11
271.55506980981551
 21
17.5
 31
0.0
  0
LINE
  5
2A9
  8
DATA
  6
CONTINUOUS
 62
     7
 10
270.01011281918699
 20
27.5
 30
0.0
 11
271.0
 21
27.5
 31
0.0
  0
LINE
  5
2AA
  8
DATA
  6
CONTINUOUS
 62
     7
 10
270.01011281918699
 20
22.5
 30
0.0
 11
271.0
 21
22.5
 31
0.0
  0
LINE
  5
2AB
  8
DATA
  6
CONTINUOUS
 62
     7
 10
270.01011281918699
 20
19.5
 30
0.0
 11
271.0
 21
19.5
 31
0.0
  0
LINE
  5
2AC
  8
DATA
  6
CONTINUOUS
 62
     7
 10
270.01011281918699
 20
14.5
 30
0.0
 11
271.0
 21
14.5
 31
0.0
  0
LINE
  5
2AD
  8
DATA
  6
CONTINUOUS
 62
     7
 10
270.01011281918699
 20
22.5
 30
0.0
 11
270.01011281918699
 21
27.5
 31
0.0
  0
LINE
  5
2AE
  8
DATA
  6
CONTINUOUS
 62
     7
 10
270.01011281918699
 20
19.5
 30
0.0
 11
270.01011281918699
 21
14.5
 31
0.0
  0
LINE
  5
2AF
  8
DATA
  6
STYLE_01
 62
     7
 10
173.5
 20
293.5
 30
0.0
 11
180.5
 21
293.5
 31
0.0
  0
LINE
  5
2B0
  8
DATA
  6
STYLE_01
 62
     7
 10
173.5
 20
293.5
 30
0.0
 11
173.5
 21
300.5
 31
0.0
  0
LINE
  5
2B1
  8
DATA
  6
STYLE_01
 62
     7
 10
173.5
 20
300.5
 30
0.0
 11
180.5
 21
300.5
 31
0.0
  0
LINE
  5
2B2
  8
DATA
  6
STYLE_01
 62
     7
 10
180.5
 20
300.5
 30
0.0
 11
180.5
 21
293.5
 31
0.0
  0
LINE
  5
2B3
  8
DATA
  6
STYLE_01
 62
     7
 10
174.25
 20
300.5
 30
0.0
 11
174.25
 21
343.0
 31
0.0
  0
LINE
  5
2B4
  8
DATA
  6
STYLE_01
 62
     7
 10
179.75
 20
300.5
 30
0.0
 11
179.75
 21
343.0
 31
0.0
  0
LINE
  5
2B5
  8
DATA
  6
STYLE_01
 62
     7
 10
173.25
 20
343.0
 30
0.0
 11
180.75
 21
343.0
 31
0.0
  0
LINE
  5
2B6
  8
DATA
  6
STYLE_01
 62
     7
 10
180.75
 20
343.0
 30
0.0
 11
179.99792565273339
 21
355.11154273029967
 31
0.0
  0
ARC
  5
2B7
  8
DATA
  6
STYLE_01
 62
     7
 10
176.99999999999989
 20
355.0
 30
0.0
 40
3.00000000000002
 50
2.130800363144977
 51
177.869199636855
  0
LINE
  5
2B8
  8
DATA
  6
STYLE_01
 62
     7
 10
179.9979256527316
 20
355.11154273029967
 30
0.0
 11
180.34628190898999
 21
355.11154273029967
 31
0.0
  0
LINE
  5
2B9
  8
DATA
  6
STYLE_01
 62
     7
 10
173.25
 20
343.0
 30
0.0
 11
174.0020743472646
 21
355.11154273029967
 31
0.0
  0
ARC
  5
2BA
  8
DATA
  6
STYLE_01
 62
     7
 10
177.0
 20
289.5
 30
0.0
 40
68.500000000000014
 50
0.0
 51
180.0
  0
LINE
  5
2BB
  8
DATA
  6
CONTINUOUS
 62
     7
 10
10.277281758684969
 20
394.16636905521102
 30
0.0
 11
-19.77475644174331
 21
364.11433085478268
 31
0.0
  0
LINE
  5
2BC
  8
DATA
  6
CONTINUOUS
 62
     7
 10
14.166369055210961
 20
390.27728175868492
 30
0.0
 11
-15.88566914521726
 21
360.22524355825669
 31
0.0
  0
LINE
  5
2BD
  8
DATA
  6
CONTINUOUS
 62
     7
 10
-20.481863222929832
 20
364.82143763596918
 30
0.0
 11
-15.178562364030739
 21
359.5181367770702
 31
0.0
  0
LINE
  5
2BE
  8
DATA
  6
CONTINUOUS
 62
     7
 10
-15.178562364030739
 20
359.5181367770702
 30
0.0
 11
-24.274513230164899
 21
351.48577965275319
 31
0.0
  0
ARC
  5
2BF
  8
DATA
  6
CONTINUOUS
 62
     7
 10
-26.315494167718899
 20
353.6845058322811
 30
0.0
 40
2.9999999999999711
 50
137.13080036314491
 51
312.86919963685511
  0
LINE
  5
2C0
  8
DATA
  6
CONTINUOUS
 62
     7
 10
-24.27451323016621
 20
351.48577965275462
 30
0.0
 11
-24.028188159097141
 21
351.23945458168538
 31
0.0
  0
LINE
  5
2C1
  8
DATA
  6
CONTINUOUS
 62
     7
 10
-20.481863222929832
 20
364.82143763596918
 30
0.0
 11
-28.514220347248202
 21
355.72548676983649
 31
0.0
  0
LINE
  5
2C2
  8
DATA
  6
CONTINUOUS
 62
     7
 10
-5.6070310490155446
 20
42.717943752489532
 30
0.0
 11
-19.77475644174331
 21
56.88566914521725
 31
0.0
  0
LINE
  5
2C3
  8
DATA
  6
CONTINUOUS
 62
     7
 10
-2.1109127034739559
 20
47.0
 30
0.0
 11
-15.88566914521726
 21
60.7747564417433
 31
0.0
  0
LINE
  5
2C4
  8
DATA
  6
CONTINUOUS
 62
     7
 10
-20.481863222929832
 20
56.178562364030739
 30
0.0
 11
-15.178562364030739
 21
61.481863222929832
 31
0.0
  0
LINE
  5
2C5
  8
DATA
  6
CONTINUOUS
 62
     7
 10
-15.178562364030739
 20
61.481863222929832
 30
0.0
 11
-24.274513230164899
 21
69.514220347246777
 31
0.0
  0
ARC
  5
2C6
  8
DATA
  6
CONTINUOUS
 62
     7
 10
-26.315494167718899
 20
67.315494167718825
 30
0.0
 40
3.0000000000000111
 50
47.130800363144942
 51
222.8691996368546
  0
LINE
  5
2C7
  8
DATA
  6
CONTINUOUS
 62
     7
 10
-24.27451323016621
 20
69.51422034724547
 30
0.0
 11
-24.028188159097141
 21
69.76054541831455
 31
0.0
  0
LINE
  5
2C8
  8
DATA
  6
CONTINUOUS
 62
     7
 10
-20.481863222929832
 20
56.178562364030739
 30
0.0
 11
-28.514220347248202
 21
65.274513230163507
 31
0.0
  0
LINE
  5
2C9
  8
DATA
  6
CONTINUOUS
 62
     7
 10
202.6070310490156
 20
42.717943752489532
 30
0.0
 11
216.77475644174331
 21
56.88566914521725
 31
0.0
  0
LINE
  5
2CA
  8
DATA
  6
CONTINUOUS
 62
     7
 10
199.11091270347401
 20
47.0
 30
0.0
 11
212.88566914521729
 21
60.7747564417433
 31
0.0
  0
LINE
  5
2CB
  8
DATA
  6
CONTINUOUS
 62
     7
 10
217.4818632229298
 20
56.178562364030739
 30
0.0
 11
212.1785623640308
 21
61.481863222929832
 31
0.0
  0
LINE
  5
2CC
  8
DATA
  6
CONTINUOUS
 62
     7
 10
212.1785623640308
 20
61.481863222929832
 30
0.0
 11
221.2745132301649
 21
69.514220347246777
 31
0.0
  0
ARC
  5
2CD
  8
DATA
  6
CONTINUOUS
 62
     7
 10
223.3154941677189
 20
67.315494167718825
 30
0.0
 40
2.999999999999952
 50
317.1308003631454
 51
132.86919963685509
  0
LINE
  5
2CE
  8
DATA
  6
CONTINUOUS
 62
     7
 10
221.27451323016621
 20
69.51422034724547
 30
0.0
 11
221.02818815909711
 21
69.76054541831455
 31
0.0
  0
LINE
  5
2CF
  8
DATA
  6
CONTINUOUS
 62
     7
 10
217.4818632229298
 20
56.178562364030739
 30
0.0
 11
225.5142203472482
 21
65.274513230163507
 31
0.0
  0
TEXT
  5
2D0
  8
DATA
 62
     7
 10
376.50001500000002
 20
-21.07343666666668
 30
0.0
 40
5.7009440104166647
  1
アンテナ非装着状態
 41
0.8
 11
376.50001500000002
 21
-15.372492656250021
 31
0.0
 73
     3
  0
TEXT
  5
2D1
  8
DATA
 62
     7
 10
232.1998679750568
 20
193.33489666666659
 30
0.0
 40
5.7009440104166647
  1
保護用ダンパー×4
 41
0.8
 11
232.1998679750568
 21
199.03584067708331
 31
0.0
 73
     3
  0
LINE
  5
2D2
  8
DATA
  6
CONTINUOUS
 62
     7
 10
202.0
 20
221.0
 30
0.0
 11
224.50001499999999
 21
198.49998500000009
 31
0.0
  0
TEXT
  5
2D3
  8
DATA
 62
     7
 10
29.650014999999929
 20
417.02399999999989
 30
0.0
 40
3.2576822916666659
  1
ANTENNA A
 50
180.0
 41
0.8
 11
29.650014999999929
 21
413.76631770833319
 31
0.0
 73
     3
  0
TEXT
  5
2D4
  8
DATA
 62
     7
 10
65.482291666666654
 20
417.02399999999989
 30
0.0
 40
3.2576822916666659
  1
VOLUME
 50
180.0
 41
0.8
 11
65.482291666666654
 21
413.76631770833319
 31
0.0
 73
     3
  0
TEXT
  5
2D5
  8
DATA
 62
     7
 10
82.96875
 20
417.02399999999989
 30
0.0
 40
3.2576822916666659
  1
LINE OUT
 50
180.0
 41
0.8
 11
82.96875
 21
413.76631770833319
 31
0.0
 73
     3
  0
TEXT
  5
2D6
  8
DATA
 62
     7
 10
84.968750000000014
 20
393.02399999999989
 30
0.0
 40
3.2576822916666659
  1
UNBALANCED
 50
180.0
 41
0.8
 11
84.968750000000014
 21
389.7663177083333
 31
0.0
 73
     3
  0
TEXT
  5
2D7
  8
DATA
 62
     7
 10
79.96875
 20
398.02399999999989
 30
0.0
 40
3.2576822916666659
  1
HIGH Z
 50
180.0
 41
0.8
 11
79.96875
 21
394.7663177083333
 31
0.0
 73
     3
  0
TEXT
  5
2D8
  8
DATA
 62
     7
 10
107.23333333333331
 20
417.02399999999989
 30
0.0
 40
3.2576822916666659
  1
MIC OUT
 50
180.0
 41
0.8
 11
107.23333333333331
 21
413.76631770833319
 31
0.0
 73
     3
  0
TEXT
  5
2D9
  8
DATA
 62
     7
 10
127.2916666666666
 20
406.58351155206361
 30
0.0
 40
3.2576822916666659
  1
BALANCED
 50
180.0
 41
0.8
 11
127.2916666666666
 21
403.32582926039697
 31
0.0
 73
     3
  0
TEXT
  5
2DA
  8
DATA
 62
     7
 10
124.34999999999989
 20
411.58351155206373
 30
0.0
 40
3.2576822916666659
  1
LOW Z
 50
180.0
 41
0.8
 11
124.34999999999989
 21
408.32582926039697
 31
0.0
 73
     3
  0
TEXT
  5
2DB
  8
DATA
 62
     7
 10
155.34999999999991
 20
416.58351155206373
 30
0.0
 40
3.2576822916666659
  1
POWER
 50
180.0
 41
0.8
 11
155.34999999999991
 21
413.32582926039697
 31
0.0
 73
     3
  0
TEXT
  5
2DC
  8
DATA
 62
     7
 10
186.34999999999999
 20
416.58351155206373
 30
0.0
 40
3.2576822916666659
  1
ANTENNA B
 50
180.0
 41
0.8
 11
186.34999999999999
 21
413.32582926039697
 31
0.0
 73
     3
  0
ARC
  5
2DD
  8
DATA
  6
CONTINUOUS
 62
     7
 10
60.500000000000057
 20
405.0
 30
0.0
 40
4.0000000000000249
 50
136.21942734547611
 51
137.4942709877788
  0
ARC
  5
2DE
  8
DATA
  6
CONTINUOUS
 62
     7
 10
59.0
 20
405.0
 30
0.0
 40
5.0
 50
180.0
 51
0.0
  0
ARC
  5
2DF
  8
DATA
  6
CONTINUOUS
 62
     7
 10
59.500000000000057
 20
405.0
 30
0.0
 40
4.0000000000000284
 50
180.00000000000099
 51
359.99999999999892
  0
LINE
  5
2E0
  8
DATA
  6
CONTINUOUS
 62
     7
 10
55.500000000000021
 20
405.0
 30
0.0
 11
54.0
 21
405.0
 31
0.0
  0
LINE
  5
2E1
  8
DATA
  6
CONTINUOUS
 62
     7
 10
64.0
 20
405.0
 30
0.0
 11
63.500000000000092
 21
405.0
 31
0.0
  0
ARC
  5
2E2
  8
DATA
  6
CONTINUOUS
 62
     7
 10
-18.519999999999978
 20
289.5
 30
0.0
 40
3.7500000000000031
 50
260.07768839089169
 51
99.92231160910822
  0
ARC
  5
2E3
  8
DATA
  6
CONTINUOUS
 62
     7
 10
-27.16
 20
289.5
 30
0.0
 40
3.0
 50
90.0
 51
270.0
  0
ARC
  5
2E4
  8
DATA
  6
CONTINUOUS
 62
     7
 10
12.799999999999979
 20
289.5
 30
0.0
 40
3.4999999999999911
 50
231.78678929826211
 51
128.21321070173801
  0
ARC
  5
2E5
  8
DATA
  6
CONTINUOUS
 62
     7
 10
17.120000000000001
 20
289.5
 30
0.0
 40
3.4999999999999969
 50
231.78678929828061
 51
231.89221035564279
  0
ARC
  5
2E6
  8
DATA
  6
CONTINUOUS
 62
     7
 10
17.120000000000001
 20
289.5
 30
0.0
 40
3.499999999999996
 50
270.00004078200368
 51
89.999999999999545
  0
ARC
  5
2E7
  8
DATA
  6
CONTINUOUS
 62
     7
 10
17.120000000000001
 20
289.5
 30
0.0
 40
3.5
 50
128.1077896443613
 51
128.21321070171939
  0
ARC
  5
2E8
  8
DATA
  6
CONTINUOUS
 62
     7
 10
12.799999999999979
 20
289.5
 30
0.0
 40
2.7500000000000071
 50
270.0
 51
89.999940553806454
  0
LINE
  5
2E9
  8
DATA
  6
CONTINUOUS
 62
     7
 10
181.0
 20
293.0
 30
0.0
 11
179.87999999999991
 21
293.0
 31
0.0
  0
LINE
  5
2EA
  8
DATA
  6
CONTINUOUS
 62
     7
 10
181.0
 20
286.0
 30
0.0
 11
180.5
 21
286.0
 31
0.0
  0
LINE
  5
2EB
  8
DATA
  6
CONTINUOUS
 62
     7
 10
179.87999750876909
 20
286.00000000000091
 30
0.0
 11
184.19999999999999
 21
286.0
 31
0.0
  0
LINE
  5
2EC
  8
DATA
  6
CONTINUOUS
 62
     7
 10
184.19999999999999
 20
293.0
 30
0.0
 11
179.88
 21
293.0
 31
0.0
  0
LINE
  5
2ED
  8
DATA
  6
CONTINUOUS
 62
     7
 10
184.19999714655381
 20
286.75
 30
0.0
 11
212.97049024320171
 21
286.75
 31
0.0
  0
LINE
  5
2EE
  8
DATA
  6
CONTINUOUS
 62
     7
 10
184.19999714655381
 20
292.25
 30
0.0
 11
212.97049024320171
 21
292.25
 31
0.0
  0
LINE
  5
2EF
  8
DATA
  6
CONTINUOUS
 62
     7
 10
215.52000000000001
 20
285.75
 30
0.0
 11
224.16
 21
286.5
 31
0.0
  0
LINE
  5
2F0
  8
DATA
  6
CONTINUOUS
 62
     7
 10
215.52000000000001
 20
293.25
 30
0.0
 11
224.16
 21
292.5
 31
0.0
  0
ARC
  5
2F1
  8
DATA
  6
CONTINUOUS
 62
     7
 10
215.52000000000001
 20
289.5
 30
0.0
 40
3.7500000000000102
 50
80.077688390891794
 51
279.92231160910808
  0
ARC
  5
2F2
  8
DATA
  6
CONTINUOUS
 62
     7
 10
224.16
 20
289.5
 30
0.0
 40
3.0
 50
270.0
 51
90.0
  0
ARC
  5
2F3
  8
DATA
  6
CONTINUOUS
 62
     7
 10
184.19999999999999
 20
289.5
 30
0.0
 40
3.4999999999999778
 50
51.78678929826193
 51
308.21321070173792
  0
ARC
  5
2F4
  8
DATA
  6
CONTINUOUS
 62
     7
 10
179.88
 20
289.5
 30
0.0
 40
3.4999999999999929
 50
308.1077896443573
 51
308.2132107017195
  0
ARC
  5
2F5
  8
DATA
  6
CONTINUOUS
 62
     7
 10
179.88
 20
289.5
 30
0.0
 40
3.499999999999996
 50
90.000000000000469
 51
269.99995921799609
  0
ARC
  5
2F6
  8
DATA
  6
CONTINUOUS
 62
     7
 10
179.88
 20
289.5
 30
0.0
 40
3.5000000000000009
 50
51.786789298280581
 51
51.892210355638703
  0
ARC
  5
2F7
  8
DATA
  6
CONTINUOUS
 62
     7
 10
184.19999999999999
 20
289.5
 30
0.0
 40
2.7500000000000071
 50
90.000059446193546
 51
270.0
  0
ENDSEC
  0
EOF
