  0
SECTION
  2
HEADER
  9
$ACADVER
  1
AC1009
  9
$INSBASE
 10
0.0
 20
0.0
 30
0.0
  9
$EXTMIN
 10
9.9968889302169242
 20
2.6231598890211671
 30
-0.0015258207003583
  9
$EXTMAX
 10
191.37074277098731
 20
270.0045525228777
 30
0.0000000349246037
  9
$LIMMIN
 10
0.0
 20
0.0
  9
$LIMMAX
 10
0.0
 20
0.0
  9
$ORTHOMODE
 70
     0
  9
$REGENMODE
 70
     1
  9
$FILLMODE
 70
     1
  9
$QTEXTMODE
 70
     0
  9
$MIRRTEXT
 70
     1
  9
$DRAGMODE
 70
     2
  9
$LTSCALE
 40
1.0
  9
$OSMODE
 70
    37
  9
$ATTMODE
 70
     1
  9
$TEXTSIZE
 40
0.0
  9
$TRACEWID
 40
0.05
  9
$TEXTSTYLE
  7
STANDARD
  9
$CLAYER
  8
0
  9
$CELTYPE
  6
CONTINUOUS
  9
$CECOLOR
 62
   256
  9
$DIMSCALE
 40
1.0
  9
$DIMASZ
 40
0.18
  9
$DIMEXO
 40
0.0625
  9
$DIMDLI
 40
0.38
  9
$DIMRND
 40
0.0
  9
$DIMDLE
 40
0.0
  9
$DIMEXE
 40
0.18
  9
$DIMTP
 40
0.0
  9
$DIMTM
 40
0.0
  9
$DIMTXT
 40
0.18
  9
$DIMCEN
 40
0.09
  9
$DIMTSZ
 40
0.0
  9
$DIMTOL
 70
     0
  9
$DIMLIM
 70
     0
  9
$DIMTIH
 70
     1
  9
$DIMTOH
 70
     1
  9
$DIMSE1
 70
     0
  9
$DIMSE2
 70
     0
  9
$DIMTAD
 70
     0
  9
$DIMZIN
 70
     0
  9
$DIMBLK
  1

  9
$DIMASO
 70
     1
  9
$DIMSHO
 70
     1
  9
$DIMPOST
  1

  9
$DIMAPOST
  1

  9
$DIMALT
 70
     0
  9
$DIMALTD
 70
     2
  9
$DIMALTF
 40
25.399999999999999
  9
$DIMLFAC
 40
1.0
  9
$DIMTOFL
 70
     0
  9
$DIMTVP
 40
0.0
  9
$DIMTIX
 70
     0
  9
$DIMSOXD
 70
     0
  9
$DIMSAH
 70
     0
  9
$DIMBLK1
  1

  9
$DIMBLK2
  1

  9
$DIMSTYLE
  2
STANDARD
  9
$DIMCLRD
 70
     0
  9
$DIMCLRE
 70
     0
  9
$DIMCLRT
 70
     0
  9
$DIMTFAC
 40
1.0
  9
$DIMGAP
 40
0.09
  9
$LUNITS
 70
     2
  9
$LUPREC
 70
     4
  9
$SKETCHINC
 40
0.1
  9
$FILLETRAD
 40
0.0
  9
$AUNITS
 70
     0
  9
$AUPREC
 70
     0
  9
$MENU
  1
acad
  9
$ELEVATION
 40
0.0
  9
$PELEVATION
 40
0.0
  9
$THICKNESS
 40
0.0
  9
$LIMCHECK
 70
     0
  9
$BLIPMODE
 70
     0
  9
$CHAMFERA
 40
0.0
  9
$CHAMFERB
 40
0.0
  9
$SKPOLY
 70
     0
  9
$TDCREATE
 40
2451926.6507523139
  9
$TDUPDATE
 40
2451926.6516
  9
$TDINDWG
 40
0.0001061343
  9
$TDUSRTIMER
 40
0.0001061343
  9
$USRTIMER
 70
     1
  9
$ANGBASE
 50
0.0
  9
$ANGDIR
 70
     0
  9
$PDMODE
 70
     0
  9
$PDSIZE
 40
0.0
  9
$PLINEWID
 40
0.0
  9
$COORDS
 70
     1
  9
$SPLFRAME
 70
     0
  9
$SPLINETYPE
 70
     6
  9
$SPLINESEGS
 70
     8
  9
$ATTDIA
 70
     0
  9
$ATTREQ
 70
     1
  9
$HANDLING
 70
-16383
  9
$HANDSEED
  5
F4
  9
$SURFTAB1
 70
     6
  9
$SURFTAB2
 70
     6
  9
$SURFTYPE
 70
     6
  9
$SURFU
 70
     6
  9
$SURFV
 70
     6
  9
$UCSNAME
  2

  9
$UCSORG
 10
0.0
 20
0.0
 30
0.0
  9
$UCSXDIR
 10
1.0
 20
0.0
 30
0.0
  9
$UCSYDIR
 10
0.0
 20
1.0
 30
0.0
  9
$PUCSNAME
  2

  9
$PUCSORG
 10
0.0
 20
0.0
 30
0.0
  9
$PUCSXDIR
 10
1.0
 20
0.0
 30
0.0
  9
$PUCSYDIR
 10
0.0
 20
1.0
 30
0.0
  9
$USERI1
 70
     0
  9
$USERI2
 70
     0
  9
$USERI3
 70
     0
  9
$USERI4
 70
     0
  9
$USERI5
 70
     0
  9
$USERR1
 40
0.0
  9
$USERR2
 40
0.0
  9
$USERR3
 40
0.0
  9
$USERR4
 40
0.0
  9
$USERR5
 40
0.0
  9
$WORLDVIEW
 70
     1
  9
$SHADEDGE
 70
     3
  9
$SHADEDIF
 70
    70
  9
$TILEMODE
 70
     1
  9
$MAXACTVP
 70
    16
  9
$PLIMCHECK
 70
     0
  9
$PEXTMIN
 10
1.0000000000000000E+020
 20
1.0000000000000000E+020
 30
1.0000000000000000E+020
  9
$PEXTMAX
 10
-1.0000000000000000E+020
 20
-1.0000000000000000E+020
 30
-1.0000000000000000E+020
  9
$PLIMMIN
 10
0.0
 20
0.0
  9
$PLIMMAX
 10
12.0
 20
9.0
  9
$UNITMODE
 70
     0
  9
$VISRETAIN
 70
     0
  9
$PLINEGEN
 70
     1
  9
$PSLTSCALE
 70
     0
  0
ENDSEC
  0
SECTION
  2
TABLES
  0
TABLE
  2
VPORT
 70
     2
  0
VPORT
  2
*ACTIVE
 70
     0
 10
0.0
 20
0.0
 11
1.0
 21
1.0
 12
95.685371385493639
 22
135.00227626143879
 13
0.0
 23
0.0
 14
1.0
 24
1.0
 15
0.0
 25
0.0
 16
0.0
 26
0.0
 36
1.0
 17
0.0
 27
0.0
 37
0.0
 40
273.0269915436561
 41
1.743925233644859
 42
50.0
 43
0.0
 44
0.0
 50
0.0
 51
0.0
 71
     0
 72
   100
 73
     1
 74
     1
 75
     0
 76
     0
 77
     0
 78
     0
  0
ENDTAB
  0
TABLE
  2
LTYPE
 70
    11
  0
LTYPE
  2
CONTINUOUS
 70
     0
  3
Solid line
 72
    65
 73
     0
 40
0.0
  0
LTYPE
  2
VECTORWORKS_DASH_01
 70
     0
  3
(unavailable)
 72
    65
 73
     2
 40
2.116537475585937
 49
1.058074951171875
 49
-1.058462524414062
  0
LTYPE
  2
VECTORWORKS_DASH_02
 70
     0
  3
(unavailable)
 72
    65
 73
     2
 40
3.5276916503906239
 49
2.469229125976562
 49
-1.058462524414062
  0
LTYPE
  2
VECTORWORKS_DASH_03
 70
     0
  3
(unavailable)
 72
    65
 73
     2
 40
6.3499999999999988
 49
5.2915374755859359
 49
-1.058462524414062
  0
LTYPE
  2
VECTORWORKS_DASH_04
 70
     0
  3
(unavailable)
 72
    65
 73
     2
 40
7.7607666015624988
 49
6.7026916503906238
 49
-1.058074951171875
  0
LTYPE
  2
VECTORWORKS_DASH_05
 70
     0
  3
(unavailable)
 72
    65
 73
     2
 40
1.058074951171875
 49
0.352691650390625
 49
-0.70538330078125
  0
LTYPE
  2
VECTORWORKS_DASH_06
 70
     0
  3
(unavailable)
 72
    65
 73
     4
 40
5.2915374755859359
 49
3.1749999999999989
 49
-1.058074951171875
 49
0.352691650390625
 49
-0.7057708740234375
  0
LTYPE
  2
VECTORWORKS_DASH_07
 70
     0
  3
(unavailable)
 72
    65
 73
     6
 40
9.5249999999999986
 49
3.1749999999999989
 49
-1.058074951171875
 49
3.1749999999999989
 49
-1.058462524414062
 49
0.352691650390625
 49
-0.7057708740234375
  0
LTYPE
  2
VECTORWORKS_DASH_08
 70
     0
  3
(unavailable)
 72
    65
 73
     6
 40
6.3499999999999988
 49
3.1749999999999989
 49
-1.058074951171875
 49
0.352691650390625
 49
-0.7057708740234375
 49
0.352691650390625
 49
-0.7057708740234375
  0
LTYPE
  2
VECTORWORKS_DASH_09
 70
     0
  3
(unavailable)
 72
    65
 73
     4
 40
25.399999999999999
 49
19.04999999999999
 49
-1.411154174804687
 49
3.5276916503906239
 49
-1.411154174804687
  0
LTYPE
  2
VECTORWORKS_DASH_10
 70
     0
  3
(unavailable)
 72
    65
 73
     6
 40
30.162499999999991
 49
19.04999999999999
 49
-1.411154174804687
 49
3.5276916503906239
 49
-1.411154174804687
 49
3.1749999999999989
 49
-1.587499999999999
  0
ENDTAB
  0
TABLE
  2
LAYER
 70
     5
  0
LAYER
  2
0
 70
     0
 62
     7
  6
CONTINUOUS
  0
LAYER
  2
HIBINO-BASE
 70
     0
 62
     7
  6
CONTINUOUS
  0
LAYER
  2
SPEC
 70
     0
 62
     7
  6
CONTINUOUS
  0
LAYER
  2
DIMNSIONS
 70
     0
 62
     7
  6
CONTINUOUS
  0
LAYER
  2
DATA
 70
     0
 62
     7
  6
CONTINUOUS
  0
ENDTAB
  0
TABLE
  2
STYLE
 70
     1
  0
STYLE
  2
STANDARD
 70
     0
 40
0.0
 41
1.0
 50
0.0
 71
     0
 42
0.0
  3
txt
  4
BIGFONT.SHX
  0
ENDTAB
  0
TABLE
  2
VIEW
 70
     0
  0
ENDTAB
  0
TABLE
  2
UCS
 70
     0
  0
ENDTAB
  0
TABLE
  2
APPID
 70
     1
  0
APPID
  2
ACAD
 70
     0
  0
ENDTAB
  0
TABLE
  2
DIMSTYLE
 70
     1
  0
DIMSTYLE
  2
STANDARD
 70
     0
  3

  4

  5

  6

  7

 40
1.0
 41
0.18
 42
0.0625
 43
0.38
 44
0.18
 45
0.0
 46
0.0
 47
0.0
 48
0.0
140
0.18
141
0.09
142
0.0
143
25.399999999999999
144
1.0
145
0.0
146
1.0
147
0.09
 71
     0
 72
     0
 73
     1
 74
     1
 75
     0
 76
     0
 77
     0
 78
     0
170
     0
171
     2
172
     0
173
     0
174
     0
175
     0
176
     0
177
     0
178
     0
  0
ENDTAB
  0
ENDSEC
  0
SECTION
  2
BLOCKS
  0
BLOCK
  8
0
  2
$MODEL_SPACE
 70
     0
 10
0.0
 20
0.0
 30
0.0
  3
$MODEL_SPACE
  1

  0
ENDBLK
  5
EB
  8
0
  0
BLOCK
 67
     1
  8
0
  2
$PAPER_SPACE
 70
     0
 10
0.0
 20
0.0
 30
0.0
  3
$PAPER_SPACE
  1

  0
ENDBLK
  5
E9
 67
     1
  8
0
  0
BLOCK
  8
DIMNSIONS
  2
*G0
 70
     1
 10
0.0
 20
0.0
 30
0.0
  3
*G0
  1

  0
TEXT
  5
2F
  8
DIMNSIONS
 62
     7
 10
3.5860899999999991
 20
-44.544449999999998
 30
0.0
 40
2.8222200000000002
  1
36
 11
3.5860899999999991
 21
-41.722230000000003
 31
0.0
 73
     3
  0
ENDBLK
  5
30
  8
DIMNSIONS
  0
BLOCK
  8
DIMNSIONS
  2
*G1
 70
     1
 10
0.0
 20
0.0
 30
0.0
  3
*G1
  1

  0
TEXT
  5
32
  8
DIMNSIONS
 62
     7
 10
-70.455560000000006
 20
-67.265410000000003
 30
0.0
 40
2.8222200000000002
  1
24
 50
90.0
 11
-73.277780000000007
 21
-67.265410000000003
 31
0.0
 73
     3
  0
ENDBLK
  5
33
  8
DIMNSIONS
  0
BLOCK
  8
DIMNSIONS
  2
*G2
 70
     1
 10
0.0
 20
0.0
 30
0.0
  3
*G2
  1

  0
TEXT
  5
35
  8
DIMNSIONS
 62
     7
 10
-60.719450000000002
 20
-68.902959999999993
 30
0.0
 40
2.8222200000000002
  1
11.5
 50
90.0
 11
-63.541670000000003
 21
-68.902959999999993
 31
0.0
 73
     3
  0
ENDBLK
  5
36
  8
DIMNSIONS
  0
ENDSEC
  0
SECTION
  2
ENTITIES
  0
LINE
  5
37
  8
HIBINO-BASE
  6
CONTINUOUS
 62
     7
 10
10.0
 20
270.00000999999997
 30
0.0
 11
190.0
 21
270.00000999999997
 31
0.0
  0
LINE
  5
38
  8
HIBINO-BASE
  6
CONTINUOUS
 62
     7
 10
190.0
 20
10.0
 30
0.0
 11
10.0
 21
10.0
 31
0.0
  0
LINE
  5
39
  8
HIBINO-BASE
  6
CONTINUOUS
 62
     7
 10
10.0
 20
10.0
 30
0.0
 11
10.0
 21
270.00000999999997
 31
0.0
  0
TEXT
  5
3A
  8
HIBINO-BASE
 62
     7
 10
17.18399999999999
 20
3.8720199999999951
 30
0.0
 40
3.7425799999999989
  1
Hibino Corporation
 11
17.18399999999999
 21
7.6145999999999949
 31
0.0
 73
     3
  0
LINE
  5
3B
  8
HIBINO-BASE
  6
CONTINUOUS
 62
     7
 10
190.0
 20
270.00000999999997
 30
0.0
 11
190.0
 21
10.0
 31
0.0
  0
LINE
  5
3C
  8
HIBINO-BASE
  6
CONTINUOUS
 62
     7
 10
100.0
 20
32.5
 30
0.0
 11
190.0
 21
32.5
 31
0.0
  0
LINE
  5
3D
  8
HIBINO-BASE
  6
CONTINUOUS
 62
     7
 10
100.0
 20
10.0
 30
0.0
 11
100.0
 21
32.5
 31
0.0
  0
TEXT
  5
3E
  8
HIBINO-BASE
 62
     7
 10
100.90000000000001
 20
29.940339999999988
 30
0.0
 40
1.8712999999999991
  1
NOTE
 11
100.90000000000001
 21
31.81163999999999
 31
0.0
 73
     3
  0
LINE
  5
3F
  8
HIBINO-BASE
  6
CONTINUOUS
 62
     7
 10
135.0
 20
10.0
 30
0.0
 11
135.0
 21
32.5
 31
0.0
  0
TEXT
  5
40
  8
HIBINO-BASE
 62
     7
 10
135.89999999999989
 20
29.940339999999988
 30
0.0
 40
1.8712999999999991
  1
TITLE
 11
135.89999999999989
 21
31.81163999999999
 31
0.0
 73
     3
  0
TEXT
  5
41
  8
HIBINO-BASE
 62
     7
 10
150.06838999999999
 20
3.8720199999999951
 30
0.0
 40
3.7425799999999989
  1
ヒビノ株式会社
 11
150.06838999999999
 21
7.6145999999999949
 31
0.0
 73
     3
  0
LINE
  5
42
  8
HIBINO-BASE
  6
CONTINUOUS
 62
     7
 10
100.0
 20
20.0
 30
0.0
 11
190.0
 21
20.0
 31
0.0
  0
TEXT
  5
43
  8
HIBINO-BASE
 62
     7
 10
148.39999999999989
 20
17.496659999999991
 30
0.0
 40
1.8712999999999991
  1
DRAWN
 11
148.39999999999989
 21
19.367959999999989
 31
0.0
 73
     3
  0
TEXT
  5
44
  8
HIBINO-BASE
 62
     7
 10
123.39999999999991
 20
17.496659999999991
 30
0.0
 40
1.8712999999999991
  1
DATE
 11
123.39999999999991
 21
19.367959999999989
 31
0.0
 73
     3
  0
TEXT
  5
45
  8
HIBINO-BASE
 62
     7
 10
101.09999999999989
 20
17.507539999999992
 30
0.0
 40
1.6933400000000001
  1
図面サイズ
 11
101.09999999999989
 21
19.200879999999991
 31
0.0
 73
     3
  0
TEXT
  5
46
  8
HIBINO-BASE
 62
     7
 10
113.40000000000001
 20
17.496659999999991
 30
0.0
 40
1.8712999999999991
  1
SCALE
 11
113.40000000000001
 21
19.367959999999989
 31
0.0
 73
     3
  0
TEXT
  5
47
  8
HIBINO-BASE
 62
     7
 10
135.89999999999989
 20
17.496659999999991
 30
0.0
 40
1.8712999999999991
  1
DESIGN
 11
135.89999999999989
 21
19.367959999999989
 31
0.0
 73
     3
  0
TEXT
  5
48
  8
HIBINO-BASE
 62
     7
 10
173.39999999999989
 20
17.496659999999991
 30
0.0
 40
1.8712999999999991
  1
DRAWING NO.
 11
173.39999999999989
 21
19.367959999999989
 31
0.0
 73
     3
  0
TEXT
  5
49
  8
HIBINO-BASE
 62
     7
 10
160.89999999999989
 20
17.496659999999991
 30
0.0
 40
1.8712999999999991
  1
CHECK
 11
160.89999999999989
 21
19.367959999999989
 31
0.0
 73
     3
  0
LINE
  5
4A
  8
HIBINO-BASE
  6
CONTINUOUS
 62
     7
 10
114.375
 20
11.25
 30
0.0
 11
118.125
 21
15.0
 31
0.0
  0
TEXT
  5
4B
  8
HIBINO-BASE
 62
     7
 10
113.7499999999999
 20
13.453609999999991
 30
0.0
 40
2.257779999999999
  1
1
 11
113.7499999999999
 21
15.711389999999991
 31
0.0
 73
     3
  0
LINE
  5
4C
  8
HIBINO-BASE
  6
CONTINUOUS
 62
     7
 10
112.5
 20
10.0
 30
0.0
 11
112.5
 21
20.0
 31
0.0
  0
LINE
  5
4D
  8
HIBINO-BASE
  6
CONTINUOUS
 62
     7
 10
122.5
 20
10.0
 30
0.0
 11
122.5
 21
20.0
 31
0.0
  0
LINE
  5
4E
  8
HIBINO-BASE
  6
CONTINUOUS
 62
     7
 10
147.5
 20
20.0
 30
0.0
 11
147.5
 21
10.0
 31
0.0
  0
LINE
  5
4F
  8
HIBINO-BASE
  6
CONTINUOUS
 62
     7
 10
172.5
 20
20.0
 30
0.0
 11
172.5
 21
10.0
 31
0.0
  0
LINE
  5
50
  8
HIBINO-BASE
  6
CONTINUOUS
 62
     7
 10
160.0
 20
10.0
 30
0.0
 11
160.0
 21
20.0
 31
0.0
  0
TEXT
  5
51
  8
HIBINO-BASE
 62
     7
 10
103.91088999999999
 20
12.752459999999999
 30
0.0
 40
3.38666
  1
A4
 11
103.91088999999999
 21
16.139119999999998
 31
0.0
 73
     3
  0
TEXT
  5
52
  8
HIBINO-BASE
 62
     7
 10
122.8565399999999
 20
12.81268
 30
0.0
 40
1.8712999999999991
  1
'01.01.15.
 11
122.8565399999999
 21
14.68398
 31
0.0
 73
     3
  0
TEXT
  5
53
  8
HIBINO-BASE
 62
     7
 10
117.5
 20
11.578609999999991
 30
0.0
 40
2.257779999999999
  1
1
 11
117.5
 21
13.836389999999991
 31
0.0
 73
     3
  0
LINE
  5
54
  8
SPEC
  6
CONTINUOUS
 62
     7
 10
17.5
 20
260.00000999999992
 30
0.0
 11
165.0
 21
260.00000999999992
 31
0.0
  0
TEXT
  5
55
  8
SPEC
 62
     7
 10
50.899999999999991
 20
257.18610000000001
 30
0.0
 40
1.975549999999999
  1
フロントマウント・アンテナキット(FRONT MOUNT ANTENNA KIT)
 11
50.899999999999991
 21
259.16165000000001
 31
0.0
 73
     3
  0
LINE
  5
56
  8
SPEC
  6
CONTINUOUS
 62
     7
 10
17.5
 20
260.00000999999992
 30
0.0
 11
17.5
 21
245.00001
 31
0.0
  0
TEXT
  5
57
  8
SPEC
 62
     7
 10
18.75
 20
261.58377999999988
 30
0.0
 40
2.54
  1
仕様
 11
18.75
 21
264.12378000000001
 31
0.0
 73
     3
  0
LINE
  5
58
  8
SPEC
  6
CONTINUOUS
 62
     7
 10
50.0
 20
260.00000999999992
 30
0.0
 11
50.0
 21
245.00001
 31
0.0
  0
LINE
  5
59
  8
SPEC
  6
CONTINUOUS
 62
     7
 10
165.0
 20
260.00000999999992
 30
0.0
 11
165.0
 21
245.00001
 31
0.0
  0
TEXT
  5
5A
  8
SPEC
 62
     7
 10
18.399999999999999
 20
257.18610000000001
 30
0.0
 40
1.975549999999999
  1
形式
 11
18.399999999999999
 21
259.16165000000001
 31
0.0
 73
     3
  0
LINE
  5
5B
  8
SPEC
  6
CONTINUOUS
 62
     7
 10
17.5
 20
256.25000999999992
 30
0.0
 11
165.0
 21
256.25000999999992
 31
0.0
  0
LINE
  5
5C
  8
SPEC
  6
CONTINUOUS
 62
     7
 10
17.5
 20
248.75001
 30
0.0
 11
165.0
 21
248.75001
 31
0.0
  0
LINE
  5
5D
  8
SPEC
  6
CONTINUOUS
 62
     7
 10
17.5
 20
252.50001
 30
0.0
 11
165.0
 21
252.50001
 31
0.0
  0
TEXT
  5
5E
  8
SPEC
 62
     7
 10
18.399999999999999
 20
249.63609999999991
 30
0.0
 40
1.975549999999999
  1
重量
 11
18.399999999999999
 21
251.61164999999991
 31
0.0
 73
     3
  0
TEXT
  5
5F
  8
SPEC
 62
     7
 10
50.899999999999991
 20
253.43610000000001
 30
0.0
 40
1.975549999999999
  1
24×36(L)mm
 11
50.899999999999991
 21
255.41165000000001
 31
0.0
 73
     3
  0
TEXT
  5
60
  8
SPEC
 62
     7
 10
50.899999999999991
 20
249.63609999999991
 30
0.0
 40
1.975549999999999
  1
約12g(1個、ケーブル含まず)
 11
50.899999999999991
 21
251.61164999999991
 31
0.0
 73
     3
  0
TEXT
  5
61
  8
SPEC
 62
     7
 10
18.399999999999999
 20
253.54390000000001
 30
0.0
 40
1.975549999999999
  1
寸法
 11
18.399999999999999
 21
255.51945000000001
 31
0.0
 73
     3
  0
TEXT
  5
62
  8
SPEC
 62
     7
 10
18.399999999999999
 20
245.8861
 30
0.0
 40
1.975549999999999
  1
機器構成
 11
18.399999999999999
 21
247.86165
 31
0.0
 73
     3
  0
TEXT
  5
63
  8
SPEC
 62
     7
 10
50.899999999999991
 20
245.8861
 30
0.0
 40
1.975549999999999
  1
BNCオス-オス変換コネクタ×2、50Ω同軸アンテナケーブル(60cm)×2
 11
50.899999999999991
 21
247.86165
 31
0.0
 73
     3
  0
LINE
  5
64
  8
SPEC
  6
CONTINUOUS
 62
     7
 10
17.5
 20
245.00001
 30
0.0
 11
165.0
 21
245.00001
 31
0.0
  0
TEXT
  5
65
  8
DIMNSIONS
 62
     7
 10
80.0
 20
22.459989999999991
 30
0.0
 40
2.54
  1
(単位：mm)
 11
80.0
 21
24.99998999999999
 31
0.0
 73
     3
  0
LINE
  5
66
  8
DIMNSIONS
  6
CONTINUOUS
 62
     7
 10
123.1999999999999
 20
81.25
 30
0.0
 11
123.1999999999999
 21
95.750000000000014
 31
0.0
  0
LINE
  5
67
  8
DIMNSIONS
  6
CONTINUOUS
 62
     7
 10
87.5
 20
81.25
 30
0.0
 11
87.5
 21
95.750000000000014
 31
0.0
  0
LINE
  5
69
  8
DIMNSIONS
 62
     7
 10
123.1999999999999
 20
93.75
 30
0.0
 11
120.02500000000001
 21
92.899259999999984
 31
0.0
  0
LINE
  5
6A
  8
DIMNSIONS
 62
     7
 10
123.1999999999999
 20
93.75
 30
0.0
 11
120.02500000000001
 21
94.600729999999984
 31
0.0
  0
LINE
  5
6B
  8
DIMNSIONS
 62
     7
 10
87.5
 20
93.75
 30
0.0
 11
90.674989999999994
 21
94.600729999999984
 31
0.0
  0
LINE
  5
6C
  8
DIMNSIONS
 62
     7
 10
87.5
 20
93.75
 30
0.0
 11
90.674989999999994
 21
92.899259999999984
 31
0.0
  0
LINE
  5
68
  8
DIMNSIONS
  6
CONTINUOUS
 62
     7
 10
123.1999999999999
 20
93.75
 30
0.0
 11
87.5
 21
93.75
 31
0.0
  0
INSERT
  5
6D
  8
DIMNSIONS
  2
*G0
 10
100.0
 20
140.0
 30
0.0
  0
LINE
  5
6E
  8
DIMNSIONS
  6
CONTINUOUS
 62
     7
 10
58.39265000000001
 20
86.498480000000001
 30
0.0
 11
29.25
 21
86.498480000000001
 31
0.0
  0
LINE
  5
6F
  8
DIMNSIONS
  6
CONTINUOUS
 62
     7
 10
58.392099999999999
 20
62.498480000000001
 30
0.0
 11
29.25
 21
62.498480000000001
 31
0.0
  0
LINE
  5
71
  8
DIMNSIONS
 62
     7
 10
31.25
 20
86.498480000000001
 30
0.0
 11
32.100729999999992
 21
83.323480000000004
 31
0.0
  0
LINE
  5
72
  8
DIMNSIONS
 62
     7
 10
31.25
 20
86.498480000000001
 30
0.0
 11
30.399259999999991
 21
83.323480000000004
 31
0.0
  0
LINE
  5
73
  8
DIMNSIONS
 62
     7
 10
31.25
 20
62.498480000000001
 30
0.0
 11
30.399259999999991
 21
65.673469999999995
 31
0.0
  0
LINE
  5
74
  8
DIMNSIONS
 62
     7
 10
31.25
 20
62.498480000000001
 30
0.0
 11
32.100729999999992
 21
65.673469999999995
 31
0.0
  0
LINE
  5
70
  8
DIMNSIONS
  6
CONTINUOUS
 62
     7
 10
31.25
 20
86.498480000000001
 30
0.0
 11
31.25
 21
62.498480000000001
 31
0.0
  0
INSERT
  5
75
  8
DIMNSIONS
  2
*G1
 10
100.0
 20
140.0
 30
0.0
  0
LINE
  5
76
  8
DIMNSIONS
  6
CONTINUOUS
 62
     7
 10
58.392470000000003
 20
80.398480000000006
 30
0.0
 11
38.986109999999989
 21
80.398480000000006
 31
0.0
  0
LINE
  5
77
  8
DIMNSIONS
  6
CONTINUOUS
 62
     7
 10
58.39246
 20
68.851169999999996
 30
0.0
 11
38.986109999999989
 21
68.851169999999996
 31
0.0
  0
LINE
  5
79
  8
DIMNSIONS
 62
     7
 10
40.986109999999996
 20
80.398480000000006
 30
0.0
 11
41.836840000000002
 21
77.223479999999995
 31
0.0
  0
LINE
  5
7A
  8
DIMNSIONS
 62
     7
 10
40.986109999999996
 20
80.398480000000006
 30
0.0
 11
40.135370000000002
 21
77.223479999999995
 31
0.0
  0
LINE
  5
7B
  8
DIMNSIONS
 62
     7
 10
40.986109999999996
 20
68.851169999999996
 30
0.0
 11
40.135370000000002
 21
72.026160000000004
 31
0.0
  0
LINE
  5
7C
  8
DIMNSIONS
 62
     7
 10
40.986109999999996
 20
68.851169999999996
 30
0.0
 11
41.836840000000002
 21
72.026160000000004
 31
0.0
  0
LINE
  5
78
  8
DIMNSIONS
  6
CONTINUOUS
 62
     7
 10
40.986109999999996
 20
80.398480000000006
 30
0.0
 11
40.986109999999996
 21
68.851169999999996
 31
0.0
  0
INSERT
  5
7D
  8
DIMNSIONS
  2
*G2
 10
100.0
 20
140.0
 30
0.0
  0
TEXT
  5
7E
  8
DATA
 62
     7
 10
147.09999999999991
 20
28.571390000000001
 30
0.0
 40
2.54
  1
SHURE
 11
147.09999999999991
 21
31.11139
 31
0.0
 73
     3
  0
TEXT
  5
7F
  8
DATA
 62
     7
 10
147.09999999999991
 20
25.630929999999999
 30
0.0
 40
1.6933400000000001
  1
フロントマウント・アンテナキット
 11
147.09999999999991
 21
27.324269999999991
 31
0.0
 73
     3
  0
TEXT
  5
80
  8
DATA
 62
     7
 10
147.09999999999991
 20
21.57667
 30
0.0
 40
2.54
  1
UA600
 11
147.09999999999991
 21
24.116669999999999
 31
0.0
 73
     3
  0
LINE
  5
81
  8
DATA
  6
CONTINUOUS
 62
     7
 10
111.4999999999999
 20
79.25
 30
0.0
 11
123.1999999999999
 21
79.25
 31
0.0
  0
LINE
  5
82
  8
DATA
  6
CONTINUOUS
 62
     7
 10
87.5
 20
79.25
 30
0.0
 11
98.500000000000014
 21
79.25
 31
0.0
  0
LINE
  5
83
  8
DATA
  6
CONTINUOUS
 62
     7
 10
87.5
 20
69.75
 30
0.0
 11
87.5
 21
79.25
 31
0.0
  0
LINE
  5
84
  8
DATA
  6
CONTINUOUS
 62
     7
 10
98.500000000000014
 20
69.75
 30
0.0
 11
87.5
 21
69.75
 31
0.0
  0
LINE
  5
85
  8
DATA
  6
CONTINUOUS
 62
     7
 10
123.1999999999999
 20
69.75
 30
0.0
 11
111.4999999999999
 21
69.75
 31
0.0
  0
LINE
  5
86
  8
DATA
  6
CONTINUOUS
 62
     7
 10
123.1999999999999
 20
79.25
 30
0.0
 11
123.1999999999999
 21
69.75
 31
0.0
  0
LINE
  5
87
  8
DATA
  6
CONTINUOUS
 62
     7
 10
111.4999999999999
 20
86.5
 30
0.0
 11
111.4999999999999
 21
62.5
 31
0.0
  0
LINE
  5
88
  8
DATA
  6
CONTINUOUS
 62
     7
 10
109.0
 20
86.5
 30
0.0
 11
109.0
 21
62.5
 31
0.0
  0
LINE
  5
89
  8
DATA
  6
CONTINUOUS
 62
     7
 10
111.4999999999999
 20
86.5
 30
0.0
 11
109.0
 21
86.5
 31
0.0
  0
LINE
  5
8A
  8
DATA
  6
CONTINUOUS
 62
     7
 10
111.4999999999999
 20
62.5
 30
0.0
 11
109.0
 21
62.5
 31
0.0
  0
LINE
  5
8B
  8
DATA
  6
CONTINUOUS
 62
     7
 10
98.500000000000014
 20
68.599999999999994
 30
0.0
 11
98.500000000000014
 21
80.400000000000006
 31
0.0
  0
LINE
  5
8C
  8
DATA
  6
CONTINUOUS
 62
     7
 10
109.0
 20
68.599999999999994
 30
0.0
 11
98.500000000000014
 21
68.599999999999994
 31
0.0
  0
LINE
  5
8D
  8
DATA
  6
CONTINUOUS
 62
     7
 10
109.0
 20
80.400000000000006
 30
0.0
 11
98.500000000000014
 21
80.400000000000006
 31
0.0
  0
LINE
  5
8E
  8
DATA
  6
CONTINUOUS
 62
     7
 10
99.513050000000007
 20
68.599999999999994
 30
0.0
 11
98.500000000000014
 21
80.25
 31
0.0
  0
LINE
  5
8F
  8
DATA
  6
CONTINUOUS
 62
     7
 10
100.5
 20
68.599999999999994
 30
0.0
 11
99.500000000000014
 21
80.25
 31
0.0
  0
LINE
  5
90
  8
DATA
  6
CONTINUOUS
 62
     7
 10
101.51305000000001
 20
68.599999999999994
 30
0.0
 11
100.5
 21
80.25
 31
0.0
  0
LINE
  5
91
  8
DATA
  6
CONTINUOUS
 62
     7
 10
102.51304999999989
 20
68.599999999999994
 30
0.0
 11
101.5
 21
80.25
 31
0.0
  0
LINE
  5
92
  8
DATA
  6
CONTINUOUS
 62
     7
 10
103.51304999999989
 20
68.599999999999994
 30
0.0
 11
102.4999999999999
 21
80.25
 31
0.0
  0
LINE
  5
93
  8
DATA
  6
CONTINUOUS
 62
     7
 10
104.51304999999989
 20
68.599999999999994
 30
0.0
 11
103.4999999999999
 21
80.25
 31
0.0
  0
LINE
  5
94
  8
DATA
  6
CONTINUOUS
 62
     7
 10
105.51304999999989
 20
68.599999999999994
 30
0.0
 11
104.4999999999999
 21
80.25
 31
0.0
  0
LINE
  5
95
  8
DATA
  6
CONTINUOUS
 62
     7
 10
106.51304999999989
 20
68.599999999999994
 30
0.0
 11
105.4999999999999
 21
80.25
 31
0.0
  0
LINE
  5
96
  8
DATA
  6
CONTINUOUS
 62
     7
 10
107.4999999999999
 20
68.599999999999994
 30
0.0
 11
106.4999999999999
 21
80.25
 31
0.0
  0
LINE
  5
97
  8
DATA
  6
CONTINUOUS
 62
     7
 10
108.51304999999989
 20
68.599999999999994
 30
0.0
 11
107.4999999999999
 21
80.25
 31
0.0
  0
LINE
  5
98
  8
DATA
  6
CONTINUOUS
 62
     7
 10
109.0
 20
74.5
 30
0.0
 11
108.4999999999999
 21
80.25
 31
0.0
  0
CIRCLE
  5
99
  8
DATA
  6
CONTINUOUS
 62
     7
 10
119.1999999999999
 20
74.5
 30
0.0
 40
1.0
  0
CIRCLE
  5
9A
  8
DATA
  6
CONTINUOUS
 62
     7
 10
89.799999999999997
 20
74.5
 30
0.0
 40
1.0
  0
CIRCLE
  5
9B
  8
DATA
  6
CONTINUOUS
 62
     7
 10
60.392470000000003
 20
74.498480000000001
 30
0.0
 40
4.75
  0
LINE
  5
9C
  8
DATA
  6
CONTINUOUS
 62
     7
 10
70.785070000000005
 20
80.498230000000007
 30
0.0
 11
60.392650000000003
 21
86.498480000000001
 31
0.0
  0
LINE
  5
9D
  8
DATA
  6
CONTINUOUS
 62
     7
 10
70.784790000000001
 20
68.498249999999999
 30
0.0
 11
70.785070000000005
 21
80.498230000000007
 31
0.0
  0
LINE
  5
9E
  8
DATA
  6
CONTINUOUS
 62
     7
 10
60.392099999999999
 20
62.498480000000001
 30
0.0
 11
70.784790000000001
 21
68.498249999999999
 31
0.0
  0
LINE
  5
9F
  8
DATA
  6
CONTINUOUS
 62
     7
 10
49.999859999999991
 20
68.498720000000006
 30
0.0
 11
60.392099999999999
 21
62.498480000000001
 31
0.0
  0
LINE
  5
A0
  8
DATA
  6
CONTINUOUS
 62
     7
 10
50.000140000000002
 20
80.498699999999999
 30
0.0
 11
49.999859999999991
 21
68.498720000000006
 31
0.0
  0
LINE
  5
A1
  8
DATA
  6
CONTINUOUS
 62
     7
 10
60.392650000000003
 20
86.498480000000001
 30
0.0
 11
50.000140000000002
 21
80.498699999999999
 31
0.0
  0
LINE
  5
A2
  8
DATA
  6
CONTINUOUS
 62
     7
 10
111.50002000000001
 20
80.500219999999999
 30
0.0
 11
109.0
 21
80.500219999999999
 31
0.0
  0
LINE
  5
A3
  8
DATA
  6
CONTINUOUS
 62
     7
 10
111.4999999999999
 20
68.500240000000005
 30
0.0
 11
109.0
 21
68.500240000000005
 31
0.0
  0
LINE
  5
A4
  8
DATA
  6
CONTINUOUS
 62
     7
 10
55.048929999999999
 20
75.498480000000001
 30
0.0
 11
55.748930000000001
 21
75.498480000000001
 31
0.0
  0
LINE
  5
A5
  8
DATA
  6
CONTINUOUS
 62
     7
 10
55.048929999999999
 20
73.498480000000001
 30
0.0
 11
55.748930000000001
 21
73.498480000000001
 31
0.0
  0
LINE
  5
A6
  8
DATA
  6
CONTINUOUS
 62
     7
 10
55.048929999999999
 20
75.498480000000001
 30
0.0
 11
55.048929999999999
 21
73.498480000000001
 31
0.0
  0
LINE
  5
A7
  8
DATA
  6
CONTINUOUS
 62
     7
 10
65.736009999999993
 20
75.498480000000001
 30
0.0
 11
65.036010000000005
 21
75.498480000000001
 31
0.0
  0
LINE
  5
A8
  8
DATA
  6
CONTINUOUS
 62
     7
 10
65.736009999999993
 20
73.498480000000001
 30
0.0
 11
65.036010000000005
 21
73.498480000000001
 31
0.0
  0
LINE
  5
A9
  8
DATA
  6
CONTINUOUS
 62
     7
 10
65.736009999999993
 20
75.498480000000001
 30
0.0
 11
65.736009999999993
 21
73.498480000000001
 31
0.0
  0
CIRCLE
  5
AA
  8
DATA
  6
CONTINUOUS
 62
     7
 10
60.392470000000003
 20
74.498480000000001
 30
0.0
 40
1.0
  0
CIRCLE
  5
AB
  8
DATA
  6
CONTINUOUS
 62
     7
 10
60.392470000000003
 20
74.498480000000001
 30
0.0
 40
2.25
  0
LINE
  5
AC
  8
DATA
  6
CONTINUOUS
 62
     7
 10
54.642470000000003
 20
73.498480000000001
 30
0.0
 11
54.683529999999998
 21
75.987769999999998
 31
0.0
  0
ARC
  5
AD
  8
DATA
  6
CONTINUOUS
 62
     7
 10
60.392470000000003
 20
74.498480000000001
 30
0.0
 40
5.9000000000000004
 50
14.620886245168419
 51
165.37911375483151
  0
LINE
  5
AE
  8
DATA
  6
CONTINUOUS
 62
     7
 10
66.142470000000003
 20
73.498480000000001
 30
0.0
 11
66.101410000000001
 21
75.987769999999998
 31
0.0
  0
LINE
  5
AF
  8
DATA
  6
CONTINUOUS
 62
     7
 10
58.919249999999998
 20
68.851179999999999
 30
0.0
 11
61.865670000000001
 21
68.851159999999993
 31
0.0
  0
ARC
  5
B0
  8
DATA
  6
CONTINUOUS
 62
     7
 10
60.392470000000003
 20
74.498480000000001
 30
0.0
 40
5.8363100000000001
 50
284.6207418256393
 51
350.13419305691559
  0
ARC
  5
B1
  8
DATA
  6
CONTINUOUS
 62
     7
 10
60.39246
 20
74.498480000000001
 30
0.0
 40
5.8362999999999987
 50
189.865823763892
 51
255.37911362105211
  0
ENDSEC
  0
EOF
