  0
SECTION
  2
HEADER
  9
$ACADVER
  1
AC1009
  9
$INSBASE
 10
0.0
 20
0.0
 30
0.0
  9
$EXTMIN
 10
-115.0109854893372
 20
-145.24380723730241
 30
-0.0015258207003583
  9
$EXTMAX
 10
245.01096716571769
 20
390.01630151340601
 30
0.0000000349246037
  9
$LIMMIN
 10
0.0
 20
0.0
  9
$LIMMAX
 10
0.0
 20
0.0
  9
$ORTHOMODE
 70
     0
  9
$REGENMODE
 70
     1
  9
$FILLMODE
 70
     1
  9
$QTEXTMODE
 70
     0
  9
$MIRRTEXT
 70
     1
  9
$DRAGMODE
 70
     2
  9
$LTSCALE
 40
10.16
  9
$OSMODE
 70
   231
  9
$ATTMODE
 70
     1
  9
$TEXTSIZE
 40
0.0
  9
$TRACEWID
 40
1.0
  9
$TEXTSTYLE
  7
STANDARD
  9
$CLAYER
  8
DATA
  9
$CELTYPE
  6
CONTINUOUS
  9
$CECOLOR
 62
   256
  9
$DIMSCALE
 40
1.0
  9
$DIMASZ
 40
0.18
  9
$DIMEXO
 40
0.0625
  9
$DIMDLI
 40
0.38
  9
$DIMRND
 40
0.0
  9
$DIMDLE
 40
0.0
  9
$DIMEXE
 40
0.18
  9
$DIMTP
 40
0.0
  9
$DIMTM
 40
0.0
  9
$DIMTXT
 40
0.18
  9
$DIMCEN
 40
0.09
  9
$DIMTSZ
 40
0.0
  9
$DIMTOL
 70
     0
  9
$DIMLIM
 70
     0
  9
$DIMTIH
 70
     1
  9
$DIMTOH
 70
     1
  9
$DIMSE1
 70
     0
  9
$DIMSE2
 70
     0
  9
$DIMTAD
 70
     0
  9
$DIMZIN
 70
     0
  9
$DIMBLK
  1

  9
$DIMASO
 70
     1
  9
$DIMSHO
 70
     1
  9
$DIMPOST
  1

  9
$DIMAPOST
  1

  9
$DIMALT
 70
     0
  9
$DIMALTD
 70
     2
  9
$DIMALTF
 40
25.399999999999999
  9
$DIMLFAC
 40
1.0
  9
$DIMTOFL
 70
     0
  9
$DIMTVP
 40
0.0
  9
$DIMTIX
 70
     0
  9
$DIMSOXD
 70
     0
  9
$DIMSAH
 70
     0
  9
$DIMBLK1
  1

  9
$DIMBLK2
  1

  9
$DIMSTYLE
  2
STANDARD
  9
$DIMCLRD
 70
     0
  9
$DIMCLRE
 70
     0
  9
$DIMCLRT
 70
     0
  9
$DIMTFAC
 40
1.0
  9
$DIMGAP
 40
0.09
  9
$LUNITS
 70
     2
  9
$LUPREC
 70
     4
  9
$SKETCHINC
 40
0.1
  9
$FILLETRAD
 40
0.0
  9
$AUNITS
 70
     0
  9
$AUPREC
 70
     0
  9
$MENU
  1
acad
  9
$ELEVATION
 40
0.0
  9
$PELEVATION
 40
0.0
  9
$THICKNESS
 40
0.0
  9
$LIMCHECK
 70
     0
  9
$BLIPMODE
 70
     0
  9
$CHAMFERA
 40
0.0
  9
$CHAMFERB
 40
0.0
  9
$SKPOLY
 70
     0
  9
$TDCREATE
 40
2453780.7085763891
  9
$TDUPDATE
 40
2453780.7179883909
  9
$TDINDWG
 40
0.0002669329
  9
$TDUSRTIMER
 40
0.0002669329
  9
$USRTIMER
 70
     1
  9
$ANGBASE
 50
0.0
  9
$ANGDIR
 70
     0
  9
$PDMODE
 70
     1
  9
$PDSIZE
 40
-2.0
  9
$PLINEWID
 40
0.0
  9
$COORDS
 70
     2
  9
$SPLFRAME
 70
     0
  9
$SPLINETYPE
 70
     6
  9
$SPLINESEGS
 70
     8
  9
$ATTDIA
 70
     0
  9
$ATTREQ
 70
     1
  9
$HANDLING
 70
     1
  9
$HANDSEED
  5
1E2
  9
$SURFTAB1
 70
     6
  9
$SURFTAB2
 70
     6
  9
$SURFTYPE
 70
     6
  9
$SURFU
 70
     6
  9
$SURFV
 70
     6
  9
$UCSNAME
  2

  9
$UCSORG
 10
0.0
 20
0.0
 30
0.0
  9
$UCSXDIR
 10
1.0
 20
0.0
 30
0.0
  9
$UCSYDIR
 10
0.0
 20
1.0
 30
0.0
  9
$PUCSNAME
  2

  9
$PUCSORG
 10
0.0
 20
0.0
 30
0.0
  9
$PUCSXDIR
 10
1.0
 20
0.0
 30
0.0
  9
$PUCSYDIR
 10
0.0
 20
1.0
 30
0.0
  9
$USERI1
 70
     0
  9
$USERI2
 70
     0
  9
$USERI3
 70
     0
  9
$USERI4
 70
     0
  9
$USERI5
 70
     0
  9
$USERR1
 40
0.0
  9
$USERR2
 40
0.0
  9
$USERR3
 40
0.0
  9
$USERR4
 40
0.0
  9
$USERR5
 40
0.0
  9
$WORLDVIEW
 70
     1
  9
$SHADEDGE
 70
     3
  9
$SHADEDIF
 70
    70
  9
$TILEMODE
 70
     1
  9
$MAXACTVP
 70
    64
  9
$PLIMCHECK
 70
     0
  9
$PEXTMIN
 10
1.0000000000000000E+020
 20
1.0000000000000000E+020
 30
1.0000000000000000E+020
  9
$PEXTMAX
 10
-1.0000000000000000E+020
 20
-1.0000000000000000E+020
 30
-1.0000000000000000E+020
  9
$PLIMMIN
 10
0.0
 20
0.0
  9
$PLIMMAX
 10
12.0
 20
9.0
  9
$UNITMODE
 70
     0
  9
$VISRETAIN
 70
     0
  9
$PLINEGEN
 70
     1
  9
$PSLTSCALE
 70
     0
  0
ENDSEC
  0
SECTION
  2
TABLES
  0
TABLE
  2
VPORT
 70
     2
  0
VPORT
  2
*ACTIVE
 70
     0
 10
0.0
 20
0.0
 11
1.0
 21
1.0
 12
64.999990838190229
 22
122.3862471380517
 13
0.0
 23
0.0
 14
1.0
 24
1.0
 15
0.0
 25
0.0
 16
0.0
 26
0.0
 36
1.0
 17
0.0
 27
0.0
 37
0.0
 40
539.68984758174884
 41
1.665745856353591
 42
50.0
 43
0.0
 44
0.0
 50
0.0
 51
0.0
 71
     0
 72
  2000
 73
     1
 74
     1
 75
     0
 76
     0
 77
     0
 78
     0
  0
ENDTAB
  0
TABLE
  2
LTYPE
 70
    11
  0
LTYPE
  2
CONTINUOUS
 70
     0
  3
Solid line
 72
    65
 73
     0
 40
0.0
  0
ENDTAB
  0
TABLE
  2
LAYER
 70
     5
  0
LAYER
  2
0
 70
     0
 62
     7
  6
CONTINUOUS
  0
LAYER
  2
DATA
 70
     0
 62
     7
  6
CONTINUOUS
  0
LAYER
  2
HIBINO-BASE
 70
     0
 62
     7
  6
CONTINUOUS
  0
LAYER
  2
SPEC
 70
     0
 62
     7
  6
CONTINUOUS
  0
LAYER
  2
DIMNSIONS
 70
     0
 62
     7
  6
CONTINUOUS
  0
ENDTAB
  0
TABLE
  2
STYLE
 70
     2
  0
STYLE
  2
STANDARD
 70
     0
 40
0.0
 41
1.0
 50
0.0
 71
     0
 42
0.0
  3
txt
  4
BIGFONT.SHX
  0
ENDTAB
  0
TABLE
  2
VIEW
 70
     0
  0
ENDTAB
  0
TABLE
  2
UCS
 70
     0
  0
ENDTAB
  0
TABLE
  2
APPID
 70
     1
  0
APPID
  2
ACAD
 70
     0
  0
ENDTAB
  0
TABLE
  2
DIMSTYLE
 70
     1
  0
DIMSTYLE
  2
STANDARD
 70
     0
  3

  4

  5

  6

  7

 40
1.0
 41
0.18
 42
0.0625
 43
0.38
 44
0.18
 45
0.0
 46
0.0
 47
0.0
 48
0.0
140
0.18
141
0.09
142
0.0
143
25.399999999999999
144
1.0
145
0.0
146
1.0
147
0.09
 71
     0
 72
     0
 73
     1
 74
     1
 75
     0
 76
     0
 77
     0
 78
     0
170
     0
171
     2
172
     0
173
     0
174
     0
175
     0
176
     0
177
     0
178
     0
  0
ENDTAB
  0
ENDSEC
  0
SECTION
  2
BLOCKS
  0
BLOCK
  8
0
  2
$MODEL_SPACE
 70
     0
 10
0.0
 20
0.0
 30
0.0
  3
$MODEL_SPACE
  1

  0
ENDBLK
  5
1BD
  8
0
  0
BLOCK
 67
     1
  8
0
  2
$PAPER_SPACE
 70
     0
 10
0.0
 20
0.0
 30
0.0
  3
$PAPER_SPACE
  1

  0
ENDBLK
  5
1B9
 67
     1
  8
0
  0
ENDSEC
  0
SECTION
  2
ENTITIES
  0
LINE
  5
2C
  8
HIBINO-BASE
  6
CONTINUOUS
 62
     7
 10
-115.0
 20
390.0
 30
0.0
 11
244.99997999999999
 21
390.0
 31
0.0
  0
LINE
  5
2D
  8
HIBINO-BASE
  6
CONTINUOUS
 62
     7
 10
244.99997999999999
 20
-129.99998999999991
 30
0.0
 11
-115.0
 21
-129.99998999999991
 31
0.0
  0
LINE
  5
2E
  8
HIBINO-BASE
  6
CONTINUOUS
 62
     7
 10
-115.0
 20
-129.99998999999991
 30
0.0
 11
-115.0
 21
390.0
 31
0.0
  0
TEXT
  5
2F
  8
HIBINO-BASE
 62
     7
 10
-100.63200000000001
 20
-142.81733700000001
 30
0.0
 40
7.200080664062499
  1
Hibino Corporation
 41
0.8
 11
-100.63200000000001
 21
-135.6172563359375
 31
0.0
 73
     3
  0
LINE
  5
30
  8
HIBINO-BASE
  6
CONTINUOUS
 62
     7
 10
244.99997999999999
 20
390.0
 30
0.0
 11
244.99997999999999
 21
-129.99998999999991
 31
0.0
  0
LINE
  5
31
  8
HIBINO-BASE
  6
CONTINUOUS
 62
     7
 10
64.999989999999997
 20
-84.999999999999986
 30
0.0
 11
244.99997999999999
 21
-84.999999999999986
 31
0.0
  0
LINE
  5
32
  8
HIBINO-BASE
  6
CONTINUOUS
 62
     7
 10
64.999989999999997
 20
-129.99998999999991
 30
0.0
 11
64.999989999999997
 21
-84.999999999999986
 31
0.0
  0
TEXT
  5
33
  8
HIBINO-BASE
 62
     7
 10
66.799979999999991
 20
-90.400006399999967
 30
0.0
 40
3.6000518750000001
  1
NOTE
 41
0.8
 11
66.799979999999991
 21
-86.799954524999961
 31
0.0
 73
     3
  0
LINE
  5
34
  8
HIBINO-BASE
  6
CONTINUOUS
 62
     7
 10
134.99999
 20
-129.99998999999991
 30
0.0
 11
134.99999
 21
-84.999999999999986
 31
0.0
  0
TEXT
  5
35
  8
HIBINO-BASE
 62
     7
 10
136.79999000000001
 20
-90.400006399999967
 30
0.0
 40
3.6000518750000001
  1
TITLE
 41
0.8
 11
136.79999000000001
 21
-86.799954524999961
 31
0.0
 73
     3
  0
TEXT
  5
36
  8
HIBINO-BASE
 62
     7
 10
165.1367599999999
 20
-142.81733700000001
 30
0.0
 40
7.200080664062499
  1
ヒビノ株式会社
 41
0.8
 11
165.1367599999999
 21
-135.6172563359375
 31
0.0
 73
     3
  0
LINE
  5
37
  8
HIBINO-BASE
  6
CONTINUOUS
 62
     7
 10
64.999989999999997
 20
-109.9999999999999
 30
0.0
 11
244.99997999999999
 21
-109.9999999999999
 31
0.0
  0
TEXT
  5
38
  8
HIBINO-BASE
 62
     7
 10
161.79998999999989
 20
-115.28735639999989
 30
0.0
 40
3.6000518750000001
  1
DRAWN
 41
0.8
 11
161.79998999999989
 21
-111.6873045249999
 31
0.0
 73
     3
  0
TEXT
  5
39
  8
HIBINO-BASE
 62
     7
 10
111.79998999999999
 20
-115.28735639999989
 30
0.0
 40
3.6000518750000001
  1
DATE
 41
0.8
 11
111.79998999999999
 21
-111.6873045249999
 31
0.0
 73
     3
  0
TEXT
  5
3A
  8
HIBINO-BASE
 62
     7
 10
67.199979999999996
 20
-115.2388938
 30
0.0
 40
3.257679726562499
  1
図面サイズ
 41
0.8
 11
67.199979999999996
 21
-111.9812140734375
 31
0.0
 73
     3
  0
TEXT
  5
3B
  8
HIBINO-BASE
 62
     7
 10
91.799980000000005
 20
-115.28735639999989
 30
0.0
 40
3.6000518750000001
  1
SCALE
 41
0.8
 11
91.799980000000005
 21
-111.6873045249999
 31
0.0
 73
     3
  0
TEXT
  5
3C
  8
HIBINO-BASE
 62
     7
 10
136.79999000000001
 20
-115.28735639999989
 30
0.0
 40
3.6000518750000001
  1
DESIGN
 41
0.8
 11
136.79999000000001
 21
-111.6873045249999
 31
0.0
 73
     3
  0
TEXT
  5
3D
  8
HIBINO-BASE
 62
     7
 10
211.79998000000001
 20
-115.28735639999989
 30
0.0
 40
3.6000518750000001
  1
DRAWING NO.
 41
0.8
 11
211.79998000000001
 21
-111.6873045249999
 31
0.0
 73
     3
  0
TEXT
  5
3E
  8
HIBINO-BASE
 62
     7
 10
186.79998000000001
 20
-115.28735639999989
 30
0.0
 40
3.6000518750000001
  1
CHECK
 41
0.8
 11
186.79998000000001
 21
-111.6873045249999
 31
0.0
 73
     3
  0
LINE
  5
3F
  8
HIBINO-BASE
  6
CONTINUOUS
 62
     7
 10
93.749979999999994
 20
-127.4999999999999
 30
0.0
 11
101.24999
 21
-119.9999999999999
 31
0.0
  0
TEXT
  5
40
  8
HIBINO-BASE
 62
     7
 10
92.499979999999994
 20
-123.4314283999999
 30
0.0
 40
4.3435729687500002
  1
1
 41
0.8
 11
92.499979999999994
 21
-119.08785543124991
 31
0.0
 73
     3
  0
LINE
  5
41
  8
HIBINO-BASE
  6
CONTINUOUS
 62
     7
 10
89.999979999999965
 20
-129.99998999999991
 30
0.0
 11
89.999979999999965
 21
-109.9999999999999
 31
0.0
  0
LINE
  5
42
  8
HIBINO-BASE
  6
CONTINUOUS
 62
     7
 10
109.99997999999999
 20
-129.99998999999991
 30
0.0
 11
109.99997999999999
 21
-109.9999999999999
 31
0.0
  0
LINE
  5
43
  8
HIBINO-BASE
  6
CONTINUOUS
 62
     7
 10
159.99997999999999
 20
-109.9999999999999
 30
0.0
 11
159.99997999999999
 21
-129.99998999999991
 31
0.0
  0
LINE
  5
44
  8
HIBINO-BASE
  6
CONTINUOUS
 62
     7
 10
209.99999
 20
-109.9999999999999
 30
0.0
 11
209.99999
 21
-129.99998999999991
 31
0.0
  0
LINE
  5
45
  8
HIBINO-BASE
  6
CONTINUOUS
 62
     7
 10
184.99997999999999
 20
-129.99998999999991
 30
0.0
 11
184.99997999999999
 21
-109.9999999999999
 31
0.0
  0
TEXT
  5
46
  8
HIBINO-BASE
 62
     7
 10
72.821770000000001
 20
-125.0030689999999
 30
0.0
 40
6.5153517578124989
  1
A4
 41
0.8
 11
72.821770000000001
 21
-118.4877172421874
 31
0.0
 73
     3
  0
TEXT
  5
47
  8
HIBINO-BASE
 62
     7
 10
111.71307
 20
-124.6553163999999
 30
0.0
 40
3.6000518750000001
  1
'05.12.
 41
0.8
 11
111.71307
 21
-121.0552645249999
 31
0.0
 73
     3
  0
TEXT
  5
48
  8
HIBINO-BASE
 62
     7
 10
99.999989999999997
 20
-127.1814283999999
 30
0.0
 40
4.3435729687500002
  1
2
 41
0.8
 11
99.999989999999997
 21
-122.83785543124991
 31
0.0
 73
     3
  0
LINE
  5
49
  8
SPEC
  6
CONTINUOUS
 62
     7
 10
-100.0
 20
370.0
 30
0.0
 11
100.0
 21
370.0
 31
0.0
  0
LINE
  5
4A
  8
SPEC
  6
CONTINUOUS
 62
     7
 10
-100.0
 20
362.5
 30
0.0
 11
100.0
 21
362.5
 31
0.0
  0
LINE
  5
4B
  8
SPEC
  6
CONTINUOUS
 62
     7
 10
-100.0
 20
340.0
 30
0.0
 11
100.0
 21
340.0
 31
0.0
  0
LINE
  5
4C
  8
SPEC
  6
CONTINUOUS
 62
     7
 10
-100.0
 20
347.5
 30
0.0
 11
100.0
 21
347.5
 31
0.0
  0
LINE
  5
4D
  8
SPEC
  6
CONTINUOUS
 62
     7
 10
-100.0
 20
355.0
 30
0.0
 11
100.0
 21
355.0
 31
0.0
  0
TEXT
  5
4E
  8
SPEC
 62
     7
 10
-38.199999999999989
 20
364.07582555555558
 30
0.0
 40
3.8006293402777769
  1
1/2波長ダイポール・アンテナ
 41
0.8
 11
-38.199999999999989
 21
367.87645489583338
 31
0.0
 73
     3
  0
LINE
  5
4F
  8
SPEC
  6
CONTINUOUS
 62
     7
 10
-100.0
 20
370.0
 30
0.0
 11
-100.0
 21
332.5
 31
0.0
  0
TEXT
  5
50
  8
SPEC
 62
     7
 10
-97.5
 20
372.78653000000003
 30
0.0
 40
4.8865234375000002
  1
仕様
 41
0.8
 11
-97.5
 21
377.67305343750002
 31
0.0
 73
     3
  0
LINE
  5
51
  8
SPEC
  6
CONTINUOUS
 62
     7
 10
-40.0
 20
370.0
 30
0.0
 11
-40.0
 21
332.5
 31
0.0
  0
LINE
  5
52
  8
SPEC
  6
CONTINUOUS
 62
     7
 10
100.0
 20
370.0
 30
0.0
 11
100.0
 21
332.5
 31
0.0
  0
TEXT
  5
53
  8
SPEC
 62
     7
 10
-98.200000000000003
 20
364.07582555555558
 30
0.0
 40
3.8006293402777769
  1
形式
 41
0.8
 11
-98.200000000000003
 21
367.87645489583338
 31
0.0
 73
     3
  0
TEXT
  5
54
  8
SPEC
 62
     7
 10
-98.200000000000003
 20
341.5758355555555
 30
0.0
 40
3.8006293402777769
  1
寸法
 41
0.8
 11
-98.200000000000003
 21
345.37646489583329
 31
0.0
 73
     3
  0
TEXT
  5
55
  8
SPEC
 62
     7
 10
-98.200000000000003
 20
356.5758355555555
 30
0.0
 40
3.8006293402777769
  1
適応周波数
 41
0.8
 11
-98.200000000000003
 21
360.37646489583341
 31
0.0
 73
     3
  0
TEXT
  5
56
  8
SPEC
 62
     7
 10
-98.200000000000003
 20
349.0758355555555
 30
0.0
 40
3.8006293402777769
  1
コネクタ 
 41
0.8
 11
-98.200000000000003
 21
352.87646489583329
 31
0.0
 73
     3
  0
TEXT
  5
57
  8
SPEC
 62
     7
 10
-38.199999999999989
 20
341.5758355555555
 30
0.0
 40
3.8006293402777769
  1
φ16×312mm
 41
0.8
 11
-38.199999999999989
 21
345.37646489583329
 31
0.0
 73
     3
  0
TEXT
  5
58
  8
SPEC
 62
     7
 10
-38.199999999999989
 20
349.0758355555555
 30
0.0
 40
3.8006293402777769
  1
BNC
 41
0.8
 11
-38.199999999999989
 21
352.87646489583329
 31
0.0
 73
     3
  0
TEXT
  5
59
  8
SPEC
 62
     7
 10
-38.199999999999989
 20
356.5758355555555
 30
0.0
 40
3.8006293402777769
  1
774～865MHz
 41
0.8
 11
-38.199999999999989
 21
360.37646489583341
 31
0.0
 73
     3
  0
LINE
  5
5A
  8
SPEC
  6
CONTINUOUS
 62
     7
 10
-100.0
 20
332.5
 30
0.0
 11
100.0
 21
332.5
 31
0.0
  0
TEXT
  5
5B
  8
SPEC
 62
     7
 10
-98.200000000000003
 20
334.0758355555555
 30
0.0
 40
3.8006293402777769
  1
重量
 41
0.8
 11
-98.200000000000003
 21
337.87646489583329
 31
0.0
 73
     3
  0
TEXT
  5
5C
  8
SPEC
 62
     7
 10
-38.199999999999989
 20
334.0758355555555
 30
0.0
 40
3.8006293402777769
  1
約38g
 41
0.8
 11
-38.199999999999989
 21
337.87646489583329
 31
0.0
 73
     3
  0
TEXT
  5
5D
  8
DIMNSIONS
 62
     7
 10
24.99999
 20
-105.4610099999999
 30
0.0
 40
4.8865234375000002
  1
(単位：mm)
 41
0.8
 11
24.99999
 21
-100.5744865624999
 31
0.0
 73
     3
  0
LINE
  5
5E
  8
DIMNSIONS
  6
CONTINUOUS
 62
     7
 10
-6.7499999850988379
 20
312.0
 30
0.0
 11
-43.999999985098839
 21
312.0
 31
0.0
  0
LINE
  5
5F
  8
DIMNSIONS
  6
CONTINUOUS
 62
     7
 10
-6.7499999850988379
 20
0.0
 30
0.0
 11
-43.999999985098839
 21
0.0
 31
0.0
  0
LINE
  5
60
  8
DIMNSIONS
  6
CONTINUOUS
 62
     7
 10
-40.0
 20
312.0
 30
0.0
 11
-40.0
 21
0.0
 31
0.0
  0
LINE
  5
61
  8
DIMNSIONS
  6
CONTINUOUS
 62
     7
 10
-40.0
 20
312.0
 30
0.0
 11
-38.298522628062372
 21
305.64999999999998
 31
0.0
  0
LINE
  5
62
  8
DIMNSIONS
  6
CONTINUOUS
 62
     7
 10
-40.0
 20
312.0
 30
0.0
 11
-41.701477371937621
 21
305.64999999999998
 31
0.0
  0
LINE
  5
63
  8
DIMNSIONS
  6
CONTINUOUS
 62
     7
 10
-40.0
 20
0.0
 30
0.0
 11
-41.701477371937621
 21
6.3499999999999934
 31
0.0
  0
LINE
  5
64
  8
DIMNSIONS
  6
CONTINUOUS
 62
     7
 10
-40.0
 20
0.0
 30
0.0
 11
-38.298522628062372
 21
6.3499999999999934
 31
0.0
  0
TEXT
  5
65
  8
DIMNSIONS
 62
     7
 10
-42.987777770327199
 20
150.70833333333329
 30
0.0
 40
5.4294704861111107
  1
312
 50
90.0
 41
0.8
 11
-48.417248256438313
 21
150.70833333333329
 31
0.0
 73
     3
  0
LINE
  5
66
  8
DIMNSIONS
  6
CONTINUOUS
 62
     7
 10
107.75
 20
29.000000014901161
 30
0.0
 11
107.75
 21
-3.9999999850988388
 31
0.0
  0
LINE
  5
67
  8
DIMNSIONS
  6
CONTINUOUS
 62
     7
 10
60.0
 20
29.000000014901161
 30
0.0
 11
60.0
 21
-3.9999999850988388
 31
0.0
  0
LINE
  5
68
  8
DIMNSIONS
  6
CONTINUOUS
 62
     7
 10
107.75
 20
0.0
 30
0.0
 11
60.0
 21
0.0
 31
0.0
  0
LINE
  5
69
  8
DIMNSIONS
  6
CONTINUOUS
 62
     7
 10
107.75
 20
0.0
 30
0.0
 11
101.40000000000001
 21
-1.701477371937641
 31
0.0
  0
LINE
  5
6A
  8
DIMNSIONS
  6
CONTINUOUS
 62
     7
 10
107.75
 20
0.0
 30
0.0
 11
101.40000000000001
 21
1.701477371937627
 31
0.0
  0
LINE
  5
6B
  8
DIMNSIONS
  6
CONTINUOUS
 62
     7
 10
60.0
 20
0.0
 30
0.0
 11
66.349999999999994
 21
1.701477371937627
 31
0.0
  0
LINE
  5
6C
  8
DIMNSIONS
  6
CONTINUOUS
 62
     7
 10
60.0
 20
0.0
 30
0.0
 11
66.349999999999994
 21
-1.701477371937641
 31
0.0
  0
TEXT
  5
6D
  8
DIMNSIONS
 62
     7
 10
80.347222222222229
 20
2.987777770327201
 30
0.0
 40
5.4294704861111107
  1
48
 41
0.8
 11
80.347222222222229
 21
8.4172482564383131
 31
0.0
 73
     3
  0
LINE
  5
6E
  8
DIMNSIONS
  6
CONTINUOUS
 62
     7
 10
106.7499999850988
 20
312.0
 30
0.0
 11
143.99999998509881
 21
312.0
 31
0.0
  0
LINE
  5
6F
  8
DIMNSIONS
  6
CONTINUOUS
 62
     7
 10
106.7499999850988
 20
32.0
 30
0.0
 11
143.99999998509881
 21
32.0
 31
0.0
  0
LINE
  5
70
  8
DIMNSIONS
  6
CONTINUOUS
 62
     7
 10
140.0
 20
312.0
 30
0.0
 11
140.0
 21
32.0
 31
0.0
  0
LINE
  5
71
  8
DIMNSIONS
  6
CONTINUOUS
 62
     7
 10
140.0
 20
312.0
 30
0.0
 11
141.70147737193761
 21
305.64999999999998
 31
0.0
  0
LINE
  5
72
  8
DIMNSIONS
  6
CONTINUOUS
 62
     7
 10
140.0
 20
312.0
 30
0.0
 11
138.2985226280623
 21
305.64999999999998
 31
0.0
  0
LINE
  5
73
  8
DIMNSIONS
  6
CONTINUOUS
 62
     7
 10
140.0
 20
32.0
 30
0.0
 11
138.2985226280623
 21
38.350000000000001
 31
0.0
  0
LINE
  5
74
  8
DIMNSIONS
  6
CONTINUOUS
 62
     7
 10
140.0
 20
32.0
 30
0.0
 11
141.70147737193761
 21
38.350000000000001
 31
0.0
  0
TEXT
  5
75
  8
DIMNSIONS
 62
     7
 10
137.0122222296728
 20
166.70833333333329
 30
0.0
 40
5.4294704861111107
  1
280
 50
90.0
 41
0.8
 11
131.58275174356169
 21
166.70833333333329
 31
0.0
 73
     3
  0
LINE
  5
76
  8
DIMNSIONS
  6
CONTINUOUS
 62
     7
 10
-7.75
 20
-46.000000014901147
 30
0.0
 11
-7.75
 21
-26.000000014901161
 31
0.0
  0
LINE
  5
77
  8
DIMNSIONS
  6
CONTINUOUS
 62
     7
 10
7.75
 20
-46.000000014901147
 30
0.0
 11
7.75
 21
-26.000000014901161
 31
0.0
  0
LINE
  5
78
  8
DIMNSIONS
  6
CONTINUOUS
 62
     7
 10
7.75
 20
-30.0
 30
0.0
 11
-7.75
 21
-30.0
 31
0.0
  0
LINE
  5
79
  8
DIMNSIONS
  6
CONTINUOUS
 62
     7
 10
-7.75
 20
-30.0
 30
0.0
 11
-17.75000001005829
 21
-30.0
 31
0.0
  0
LINE
  5
7A
  8
DIMNSIONS
  6
CONTINUOUS
 62
     7
 10
-7.75
 20
-30.0
 30
0.0
 11
-14.099999999999991
 21
-31.701477371937639
 31
0.0
  0
LINE
  5
7B
  8
DIMNSIONS
  6
CONTINUOUS
 62
     7
 10
-7.75
 20
-30.0
 30
0.0
 11
-14.099999999999991
 21
-28.298522628062361
 31
0.0
  0
LINE
  5
7C
  8
DIMNSIONS
  6
CONTINUOUS
 62
     7
 10
7.75
 20
-30.0
 30
0.0
 11
17.75000001005829
 21
-30.0
 31
0.0
  0
LINE
  5
7D
  8
DIMNSIONS
  6
CONTINUOUS
 62
     7
 10
7.75
 20
-30.0
 30
0.0
 11
14.1
 21
-28.298522628062361
 31
0.0
  0
LINE
  5
7E
  8
DIMNSIONS
  6
CONTINUOUS
 62
     7
 10
7.75
 20
-30.0
 30
0.0
 11
14.1
 21
-31.701477371937639
 31
0.0
  0
TEXT
  5
7F
  8
DIMNSIONS
 62
     7
 10
-3.527777777777771
 20
-27.01222222967283
 30
0.0
 40
5.4294704861111107
  1
16
 41
0.8
 11
-3.527777777777771
 21
-21.582751743561708
 31
0.0
 73
     3
  0
TEXT
  5
80
  8
DATA
 62
     7
 10
159.99997999999999
 20
-107.7382199999999
 30
0.0
 40
4.8865234375000002
  1
UA820A
 41
0.8
 11
159.99997999999999
 21
-102.8516965624999
 31
0.0
 73
     3
  0
TEXT
  5
81
  8
DATA
 62
     7
 10
159.99997999999999
 20
-93.238219999999984
 30
0.0
 40
4.8865234375000002
  1
SHURE
 41
0.8
 11
159.99997999999999
 21
-88.351696562499967
 31
0.0
 73
     3
  0
TEXT
  5
82
  8
DATA
 62
     7
 10
159.99997999999999
 20
-99.905438304093494
 30
0.0
 40
4.3435763888888879
  1
1/2波長アンテナ
 41
0.8
 11
159.99997999999999
 21
-95.561861915204602
 31
0.0
 73
     3
  0
LINE
  5
83
  8
DATA
  6
CONTINUOUS
 62
     7
 10
-2.75
 20
312.0
 30
0.0
 11
2.75
 21
312.0
 31
0.0
  0
LINE
  5
84
  8
DATA
  6
CONTINUOUS
 62
     7
 10
-3.75
 20
311.0
 30
0.0
 11
-3.75
 21
309.5
 31
0.0
  0
LINE
  5
85
  8
DATA
  6
CONTINUOUS
 62
     7
 10
-3.75
 20
308.5
 30
0.0
 11
-3.75
 21
307.0
 31
0.0
  0
LINE
  5
86
  8
DATA
  6
CONTINUOUS
 62
     7
 10
-3.75
 20
306.0
 30
0.0
 11
-3.75
 21
299.0
 31
0.0
  0
LINE
  5
87
  8
DATA
  6
CONTINUOUS
 62
     7
 10
3.75
 20
311.0
 30
0.0
 11
3.75
 21
309.5
 31
0.0
  0
LINE
  5
88
  8
DATA
  6
CONTINUOUS
 62
     7
 10
3.75
 20
308.5
 30
0.0
 11
3.75
 21
307.0
 31
0.0
  0
LINE
  5
89
  8
DATA
  6
CONTINUOUS
 62
     7
 10
3.75
 20
306.0
 30
0.0
 11
3.75
 21
299.0
 31
0.0
  0
LINE
  5
8A
  8
DATA
  6
CONTINUOUS
 62
     7
 10
-2.75
 20
312.0
 30
0.0
 11
-3.75
 21
311.0
 31
0.0
  0
LINE
  5
8B
  8
DATA
  6
CONTINUOUS
 62
     7
 10
2.75
 20
312.0
 30
0.0
 11
3.75
 21
311.0
 31
0.0
  0
LINE
  5
8C
  8
DATA
  6
CONTINUOUS
 62
     7
 10
-3.75
 20
299.0
 30
0.0
 11
3.75
 21
299.0
 31
0.0
  0
LINE
  5
8D
  8
DATA
  6
CONTINUOUS
 62
     7
 10
-3.75
 20
306.0
 30
0.0
 11
3.75
 21
306.0
 31
0.0
  0
LINE
  5
8E
  8
DATA
  6
CONTINUOUS
 62
     7
 10
-3.75
 20
307.0
 30
0.0
 11
3.75
 21
307.0
 31
0.0
  0
LINE
  5
8F
  8
DATA
  6
CONTINUOUS
 62
     7
 10
-3.75
 20
308.5
 30
0.0
 11
3.75
 21
308.5
 31
0.0
  0
LINE
  5
90
  8
DATA
  6
CONTINUOUS
 62
     7
 10
-3.75
 20
309.5
 30
0.0
 11
3.75
 21
309.5
 31
0.0
  0
LINE
  5
91
  8
DATA
  6
CONTINUOUS
 62
     7
 10
-3.75
 20
311.0
 30
0.0
 11
3.75
 21
311.0
 31
0.0
  0
LINE
  5
92
  8
DATA
  6
CONTINUOUS
 62
     7
 10
-3.5
 20
306.0
 30
0.0
 11
-3.5
 21
307.0
 31
0.0
  0
LINE
  5
93
  8
DATA
  6
CONTINUOUS
 62
     7
 10
-3.5
 20
308.5
 30
0.0
 11
-3.5
 21
309.5
 31
0.0
  0
LINE
  5
94
  8
DATA
  6
CONTINUOUS
 62
     7
 10
3.5
 20
306.0
 30
0.0
 11
3.5
 21
307.0
 31
0.0
  0
LINE
  5
95
  8
DATA
  6
CONTINUOUS
 62
     7
 10
3.5
 20
308.5
 30
0.0
 11
3.5
 21
309.5
 31
0.0
  0
LINE
  5
96
  8
DATA
  6
CONTINUOUS
 62
     7
 10
-3.0
 20
299.0
 30
0.0
 11
-3.0
 21
200.0
 31
0.0
  0
LINE
  5
97
  8
DATA
  6
CONTINUOUS
 62
     7
 10
3.0
 20
200.0
 30
0.0
 11
3.0
 21
299.0
 31
0.0
  0
LINE
  5
98
  8
DATA
  6
CONTINUOUS
 62
     7
 10
-3.0
 20
200.0
 30
0.0
 11
-6.5
 21
182.0
 31
0.0
  0
LINE
  5
99
  8
DATA
  6
CONTINUOUS
 62
     7
 10
3.0
 20
200.0
 30
0.0
 11
6.5
 21
182.0
 31
0.0
  0
LINE
  5
9A
  8
DATA
  6
CONTINUOUS
 62
     7
 10
-7.7500000000000284
 20
44.9999999999986
 30
0.0
 11
7.7499999999999707
 21
44.999999999999133
 31
0.0
  0
LINE
  5
9B
  8
DATA
  6
CONTINUOUS
 62
     7
 10
-6.0
 20
43.9999999999986
 30
0.0
 11
-6.0
 21
34.0
 31
0.0
  0
LINE
  5
9C
  8
DATA
  6
CONTINUOUS
 62
     7
 10
-6.5
 20
182.0
 30
0.0
 11
-6.5
 21
91.0
 31
0.0
  0
LINE
  5
9D
  8
DATA
  6
CONTINUOUS
 62
     7
 10
6.5
 20
91.0
 30
0.0
 11
6.5
 21
182.0
 31
0.0
  0
ARC
  5
9E
  8
DATA
  6
CONTINUOUS
 62
     7
 10
839.27499999998054
 20
45.0
 30
0.0
 40
847.02499999998065
 50
176.88686505732011
 51
178.10563542771209
  0
ARC
  5
9F
  8
DATA
  6
CONTINUOUS
 62
     7
 10
839.27499999998054
 20
45.0
 30
0.0
 40
847.02499999998065
 50
178.1733146625316
 51
178.2748287639829
  0
ARC
  5
A0
  8
DATA
  6
CONTINUOUS
 62
     7
 10
839.27499999998054
 20
45.0
 30
0.0
 40
847.02499999998065
 50
178.30666793210381
 51
178.3086534999733
  0
ARC
  5
A1
  8
DATA
  6
CONTINUOUS
 62
     7
 10
839.27499999998054
 20
45.0
 30
0.0
 40
847.02499999998042
 50
178.34250180252479
 51
178.4440070533322
  0
ARC
  5
A2
  8
DATA
  6
CONTINUOUS
 62
     7
 10
839.27499999998054
 20
45.0
 30
0.0
 40
847.02499999998065
 50
178.47604312607641
 51
178.4778368402275
  0
ARC
  5
A3
  8
DATA
  6
CONTINUOUS
 62
     7
 10
839.27499999998054
 20
45.0
 30
0.0
 40
847.02499999998065
 50
178.511674487184
 51
178.61317177439011
  0
ARC
  5
A4
  8
DATA
  6
CONTINUOUS
 62
     7
 10
839.27499999998054
 20
45.0
 30
0.0
 40
847.02499999998042
 50
178.64540496103021
 51
178.64702219019489
  0
ARC
  5
A5
  8
DATA
  6
CONTINUOUS
 62
     7
 10
839.27499999998054
 20
45.0
 30
0.0
 40
847.02499999998042
 50
178.6808341946936
 51
179.99999999999989
  0
ARC
  5
A6
  8
DATA
  6
CONTINUOUS
 62
     7
 10
-839.27499999998054
 20
45.000000000000092
 30
0.0
 40
847.02499999998065
 50
360.0
 51
1.319165805300258
  0
ARC
  5
A7
  8
DATA
  6
CONTINUOUS
 62
     7
 10
-839.27499999998054
 20
45.000000000000092
 30
0.0
 40
847.02499999998065
 50
1.353015578765018
 51
1.354594815397079
  0
ARC
  5
A8
  8
DATA
  6
CONTINUOUS
 62
     7
 10
-839.27499999998054
 20
45.000000000000092
 30
0.0
 40
847.02499999998065
 50
1.3868282256190889
 51
1.488325512817575
  0
ARC
  5
A9
  8
DATA
  6
CONTINUOUS
 62
     7
 10
-839.27499999998054
 20
45.000000000000092
 30
0.0
 40
847.02499999998065
 50
1.555992946662667
 51
1.6574981974742791
  0
ARC
  5
AA
  8
DATA
  6
CONTINUOUS
 62
     7
 10
-839.27499999998054
 20
45.000000000000092
 30
0.0
 40
847.02499999998065
 50
1.7251712360318019
 51
1.826685337469887
  0
ARC
  5
AB
  8
DATA
  6
CONTINUOUS
 62
     7
 10
-839.27499999998054
 20
45.000000000000092
 30
0.0
 40
847.02499999998065
 50
1.8943645722900559
 51
3.1131349426798578
  0
LINE
  5
AC
  8
DATA
  6
CONTINUOUS
 62
     7
 10
-7.5255081629321978
 20
64.5
 30
0.0
 11
7.5255081629320051
 21
64.5
 31
0.0
  0
LINE
  5
AD
  8
DATA
  6
CONTINUOUS
 62
     7
 10
7.5018895199018862
 20
65.5
 30
0.0
 11
-7.5018895199019067
 21
65.5
 31
0.0
  0
LINE
  5
AE
  8
DATA
  6
CONTINUOUS
 62
     7
 10
-7.4642459458816148
 20
67.0
 30
0.0
 11
7.4642459458814221
 21
67.0
 31
0.0
  0
LINE
  5
AF
  8
DATA
  6
CONTINUOUS
 62
     7
 10
7.4376730036582259
 20
68.0
 30
0.0
 11
-7.4376730036584187
 21
68.0
 31
0.0
  0
LINE
  5
B0
  8
DATA
  6
CONTINUOUS
 62
     7
 10
-7.3955974728307146
 20
69.5
 30
0.0
 11
7.395597472830687
 21
69.5
 31
0.0
  0
LINE
  5
B1
  8
DATA
  6
CONTINUOUS
 62
     7
 10
7.3660695359634039
 20
70.5
 30
0.0
 11
-7.3660695359634181
 21
70.5
 31
0.0
  0
ARC
  5
B2
  8
DATA
  6
CONTINUOUS
 62
     7
 10
553.58333333333348
 20
57.5
 30
0.0
 40
561.08333333333337
 50
178.4647578742223
 51
178.46865417254139
  0
ARC
  5
B3
  8
DATA
  6
CONTINUOUS
 62
     7
 10
-553.58333333333348
 20
57.5
 30
0.0
 40
561.08333333333337
 50
1.5313458395347279
 51
1.535242127897694
  0
LINE
  5
B4
  8
DATA
  6
CONTINUOUS
 62
     7
 10
-7.3195609469743053
 20
72.0
 30
0.0
 11
7.3195609469741134
 21
72.0
 31
0.0
  0
LINE
  5
B5
  8
DATA
  6
CONTINUOUS
 62
     7
 10
7.2870772424192438
 20
73.0
 30
0.0
 11
-7.2870772424194259
 21
73.0
 31
0.0
  0
ARC
  5
B6
  8
DATA
  6
CONTINUOUS
 62
     7
 10
-553.58333333333348
 20
57.500000000000092
 30
0.0
 40
561.08333333333337
 50
1.5313458274586409
 51
1.5352421257777349
  0
ARC
  5
B7
  8
DATA
  6
CONTINUOUS
 62
     7
 10
-7.0138465402694399
 20
65.0
 30
0.0
 40
0.5
 50
90.000000000001606
 51
269.99999999999841
  0
ARC
  5
B8
  8
DATA
  6
CONTINUOUS
 62
     7
 10
-6.9511072064567827
 20
67.5
 30
0.0
 40
0.5
 50
90.000000000001606
 51
269.99999999999841
  0
ARC
  5
B9
  8
DATA
  6
CONTINUOUS
 62
     7
 10
-6.8809812727953101
 20
70.0
 30
0.0
 40
0.5
 50
90.000000000001606
 51
269.99999999999841
  0
ARC
  5
BA
  8
DATA
  6
CONTINUOUS
 62
     7
 10
-6.8034669036887294
 20
72.500000000000028
 30
0.0
 40
0.4961855838236957
 50
90.000000000003283
 51
269.99999999999682
  0
ARC
  5
BB
  8
DATA
  6
CONTINUOUS
 62
     7
 10
-553.58333333333348
 20
57.5
 30
0.0
 40
561.0833333333336
 50
1.5313458274586409
 51
1.535242125777734
  0
ARC
  5
BC
  8
DATA
  6
CONTINUOUS
 62
     7
 10
7.0138465402694399
 20
65.0
 30
0.0
 40
0.5
 50
270.00000000000171
 51
89.99999999999838
  0
ARC
  5
BD
  8
DATA
  6
CONTINUOUS
 62
     7
 10
6.9511072064567827
 20
67.5
 30
0.0
 40
0.5
 50
270.00000000000171
 51
89.99999999999838
  0
ARC
  5
BE
  8
DATA
  6
CONTINUOUS
 62
     7
 10
6.8809812727953101
 20
70.0
 30
0.0
 40
0.5
 50
270.00000000000171
 51
89.99999999999838
  0
ARC
  5
BF
  8
DATA
  6
CONTINUOUS
 62
     7
 10
6.8034669036887294
 20
72.500000000000028
 30
0.0
 40
0.4961855838237527
 50
270.0000000000033
 51
89.999999999996703
  0
LINE
  5
C0
  8
DATA
  6
CONTINUOUS
 62
     7
 10
7.7499999999999707
 20
43.9999999999986
 30
0.0
 11
7.7499999999999929
 21
32.999999999999972
 31
0.0
  0
ARC
  5
C1
  8
DATA
  6
CONTINUOUS
 62
     7
 10
6.7499999999999707
 20
43.9999999999986
 30
0.0
 40
1.0
 50
0.0
 51
90.0
  0
ARC
  5
C2
  8
DATA
  6
CONTINUOUS
 62
     7
 10
-6.7499999999999707
 20
43.9999999999986
 30
0.0
 40
1.0
 50
90.0
 51
180.0
  0
LINE
  5
C3
  8
DATA
  6
CONTINUOUS
 62
     7
 10
-7.7499999999999707
 20
43.9999999999986
 30
0.0
 11
-6.0
 21
43.9999999999986
 31
0.0
  0
CIRCLE
  5
C4
  8
DATA
  6
CONTINUOUS
 62
     7
 10
0.0
 20
40.0
 30
0.0
 40
1.0
  0
LINE
  5
C5
  8
DATA
  6
CONTINUOUS
 62
     7
 10
-3.0
 20
32.0
 30
0.0
 11
6.4999999999999707
 21
32.0
 31
0.0
  0
LINE
  5
C6
  8
DATA
  6
CONTINUOUS
 62
     7
 10
-6.0
 20
34.0
 30
0.0
 11
-3.0
 21
32.0
 31
0.0
  0
LINE
  5
C7
  8
DATA
  6
CONTINUOUS
 62
     7
 10
-7.25
 20
15.5
 30
0.0
 11
7.25
 21
15.5
 31
0.0
  0
LINE
  5
C8
  8
DATA
  6
CONTINUOUS
 62
     7
 10
-6.7500000000000142
 20
32.0
 30
0.0
 11
6.75
 21
32.0
 31
0.0
  0
LINE
  5
C9
  8
DATA
  6
CONTINUOUS
 62
     7
 10
-7.75
 20
31.0
 30
0.0
 11
7.75
 21
31.0
 31
0.0
  0
LINE
  5
CA
  8
DATA
  6
CONTINUOUS
 62
     7
 10
-6.7500000000000142
 20
32.0
 30
0.0
 11
-7.75
 21
31.0
 31
0.0
  0
LINE
  5
CB
  8
DATA
  6
CONTINUOUS
 62
     7
 10
6.7499999999999849
 20
32.0
 30
0.0
 11
7.75
 21
31.0
 31
0.0
  0
LINE
  5
CC
  8
DATA
  6
CONTINUOUS
 62
     7
 10
6.7499999999999849
 20
32.0
 30
0.0
 11
7.75
 21
33.0
 31
0.0
  0
LINE
  5
CD
  8
DATA
  6
CONTINUOUS
 62
     7
 10
7.75
 20
31.0
 30
0.0
 11
7.75
 21
16.0
 31
0.0
  0
LINE
  5
CE
  8
DATA
  6
CONTINUOUS
 62
     7
 10
-7.75
 20
31.0
 30
0.0
 11
-7.75
 21
16.0
 31
0.0
  0
LINE
  5
CF
  8
DATA
  6
CONTINUOUS
 62
     7
 10
-6.25
 20
15.0
 30
0.0
 11
6.25
 21
15.0
 31
0.0
  0
LINE
  5
D0
  8
DATA
  6
CONTINUOUS
 62
     7
 10
-7.25
 20
14.0
 30
0.0
 11
7.25
 21
14.0
 31
0.0
  0
LINE
  5
D1
  8
DATA
  6
CONTINUOUS
 62
     7
 10
-7.25
 20
14.0
 30
0.0
 11
-7.25
 21
10.0
 31
0.0
  0
LINE
  5
D2
  8
DATA
  6
CONTINUOUS
 62
     7
 10
7.25
 20
14.0
 30
0.0
 11
7.25
 21
10.0
 31
0.0
  0
LINE
  5
D3
  8
DATA
  6
CONTINUOUS
 62
     7
 10
-7.25
 20
10.0
 30
0.0
 11
7.25
 21
10.0
 31
0.0
  0
ARC
  5
D4
  8
DATA
  6
CONTINUOUS
 62
     7
 10
-6.25
 20
14.0
 30
0.0
 40
1.0
 50
90.0
 51
180.0
  0
ARC
  5
D5
  8
DATA
  6
CONTINUOUS
 62
     7
 10
6.25
 20
14.0
 30
0.0
 40
1.0
 50
0.0
 51
90.0
  0
ARC
  5
D6
  8
DATA
  6
CONTINUOUS
 62
     7
 10
-7.25
 20
16.0
 30
0.0
 40
0.5
 50
180.0
 51
270.0
  0
ARC
  5
D7
  8
DATA
  6
CONTINUOUS
 62
     7
 10
7.25
 20
16.0
 30
0.0
 40
0.5
 50
270.0
 51
0.0
  0
LINE
  5
D8
  8
DATA
  6
CONTINUOUS
 62
     7
 10
-6.75
 20
0.0
 30
0.0
 11
6.75
 21
0.0
 31
0.0
  0
LINE
  5
D9
  8
DATA
  6
CONTINUOUS
 62
     7
 10
-6.75
 20
0.0
 30
0.0
 11
-6.75
 21
2.5
 31
0.0
  0
LINE
  5
DA
  8
DATA
  6
CONTINUOUS
 62
     7
 10
-6.75
 20
2.5
 30
0.0
 11
6.75
 21
2.5
 31
0.0
  0
LINE
  5
DB
  8
DATA
  6
CONTINUOUS
 62
     7
 10
6.75
 20
0.0
 30
0.0
 11
6.75
 21
2.5
 31
0.0
  0
LINE
  5
DC
  8
DATA
  6
CONTINUOUS
 62
     7
 10
-5.75
 20
2.5
 30
0.0
 11
-5.75
 21
3.1905989232414949
 31
0.0
  0
LINE
  5
DD
  8
DATA
  6
CONTINUOUS
 62
     7
 10
-5.75
 20
5.5
 30
0.0
 11
-5.75
 21
10.0
 31
0.0
  0
LINE
  5
DE
  8
DATA
  6
CONTINUOUS
 62
     7
 10
5.75
 20
2.5
 30
0.0
 11
5.75
 21
10.0
 31
0.0
  0
LINE
  5
DF
  8
DATA
  6
CONTINUOUS
 62
     7
 10
-1.0
 20
14.0
 30
0.0
 11
-1.0
 21
10.0
 31
0.0
  0
LINE
  5
E0
  8
DATA
  6
CONTINUOUS
 62
     7
 10
-0.5
 20
14.0
 30
0.0
 11
-0.5
 21
10.0
 31
0.0
  0
LINE
  5
E1
  8
DATA
  6
CONTINUOUS
 62
     7
 10
0.0
 20
14.0
 30
0.0
 11
0.0
 21
10.0
 31
0.0
  0
LINE
  5
E2
  8
DATA
  6
CONTINUOUS
 62
     7
 10
0.5
 20
14.0
 30
0.0
 11
0.5
 21
10.0
 31
0.0
  0
LINE
  5
E3
  8
DATA
  6
CONTINUOUS
 62
     7
 10
1.0
 20
14.0
 30
0.0
 11
1.0
 21
10.0
 31
0.0
  0
LINE
  5
E4
  8
DATA
  6
CONTINUOUS
 62
     7
 10
1.5
 20
14.0
 30
0.0
 11
1.5
 21
10.0
 31
0.0
  0
LINE
  5
E5
  8
DATA
  6
CONTINUOUS
 62
     7
 10
2.0
 20
14.0
 30
0.0
 11
2.0
 21
10.0
 31
0.0
  0
LINE
  5
E6
  8
DATA
  6
CONTINUOUS
 62
     7
 10
2.5
 20
14.0
 30
0.0
 11
2.5
 21
10.0
 31
0.0
  0
LINE
  5
E7
  8
DATA
  6
CONTINUOUS
 62
     7
 10
3.0
 20
14.0
 30
0.0
 11
3.0
 21
10.0
 31
0.0
  0
LINE
  5
E8
  8
DATA
  6
CONTINUOUS
 62
     7
 10
3.5
 20
14.0
 30
0.0
 11
3.5
 21
10.0
 31
0.0
  0
LINE
  5
E9
  8
DATA
  6
CONTINUOUS
 62
     7
 10
4.0
 20
14.0
 30
0.0
 11
4.0
 21
10.0
 31
0.0
  0
LINE
  5
EA
  8
DATA
  6
CONTINUOUS
 62
     7
 10
4.5
 20
14.0
 30
0.0
 11
4.5
 21
10.0
 31
0.0
  0
LINE
  5
EB
  8
DATA
  6
CONTINUOUS
 62
     7
 10
5.0
 20
14.0
 30
0.0
 11
5.0
 21
10.0
 31
0.0
  0
LINE
  5
EC
  8
DATA
  6
CONTINUOUS
 62
     7
 10
5.5
 20
14.0
 30
0.0
 11
5.5
 21
10.0
 31
0.0
  0
LINE
  5
ED
  8
DATA
  6
CONTINUOUS
 62
     7
 10
6.0
 20
14.0
 30
0.0
 11
6.0
 21
10.0
 31
0.0
  0
LINE
  5
EE
  8
DATA
  6
CONTINUOUS
 62
     7
 10
6.5
 20
14.0
 30
0.0
 11
6.5
 21
10.0
 31
0.0
  0
LINE
  5
EF
  8
DATA
  6
CONTINUOUS
 62
     7
 10
7.0
 20
14.0
 30
0.0
 11
7.0
 21
10.0
 31
0.0
  0
LINE
  5
F0
  8
DATA
  6
CONTINUOUS
 62
     7
 10
-1.5
 20
14.0
 30
0.0
 11
-1.5
 21
10.0
 31
0.0
  0
LINE
  5
F1
  8
DATA
  6
CONTINUOUS
 62
     7
 10
-2.0
 20
14.0
 30
0.0
 11
-2.0
 21
10.0
 31
0.0
  0
LINE
  5
F2
  8
DATA
  6
CONTINUOUS
 62
     7
 10
-2.5
 20
14.0
 30
0.0
 11
-2.5
 21
10.0
 31
0.0
  0
LINE
  5
F3
  8
DATA
  6
CONTINUOUS
 62
     7
 10
-3.0
 20
14.0
 30
0.0
 11
-3.0
 21
10.0
 31
0.0
  0
LINE
  5
F4
  8
DATA
  6
CONTINUOUS
 62
     7
 10
-3.5
 20
14.0
 30
0.0
 11
-3.5
 21
10.0
 31
0.0
  0
LINE
  5
F5
  8
DATA
  6
CONTINUOUS
 62
     7
 10
-4.0
 20
14.0
 30
0.0
 11
-4.0
 21
10.0
 31
0.0
  0
LINE
  5
F6
  8
DATA
  6
CONTINUOUS
 62
     7
 10
-4.5
 20
14.0
 30
0.0
 11
-4.5
 21
10.0
 31
0.0
  0
LINE
  5
F7
  8
DATA
  6
CONTINUOUS
 62
     7
 10
-5.0
 20
14.0
 30
0.0
 11
-5.0
 21
10.0
 31
0.0
  0
LINE
  5
F8
  8
DATA
  6
CONTINUOUS
 62
     7
 10
-5.5
 20
14.0
 30
0.0
 11
-5.5
 21
10.0
 31
0.0
  0
LINE
  5
F9
  8
DATA
  6
CONTINUOUS
 62
     7
 10
-6.0
 20
14.0
 30
0.0
 11
-6.0
 21
10.0
 31
0.0
  0
LINE
  5
FA
  8
DATA
  6
CONTINUOUS
 62
     7
 10
-6.5
 20
14.0
 30
0.0
 11
-6.5
 21
10.0
 31
0.0
  0
LINE
  5
FB
  8
DATA
  6
CONTINUOUS
 62
     7
 10
-7.0
 20
14.0
 30
0.0
 11
-7.0
 21
10.0
 31
0.0
  0
LINE
  5
FC
  8
DATA
  6
CONTINUOUS
 62
     7
 10
-5.75
 20
15.0
 30
0.0
 11
-5.75
 21
15.5
 31
0.0
  0
LINE
  5
FD
  8
DATA
  6
CONTINUOUS
 62
     7
 10
5.75
 20
15.0
 30
0.0
 11
5.75
 21
15.5
 31
0.0
  0
ARC
  5
FE
  8
DATA
  6
CONTINUOUS
 62
     7
 10
-0.0000000000000142
 20
6.9999999999999707
 30
0.0
 40
1.4999999999999669
 50
226.42094179959059
 51
119.99999999999901
  0
LINE
  5
FF
  8
DATA
  6
CONTINUOUS
 62
     7
 10
-5.75
 20
2.5
 30
0.0
 11
-5.75
 21
3.1905989232414949
 31
0.0
  0
LINE
  5
100
  8
DATA
  6
CONTINUOUS
 62
     7
 10
-5.75
 20
5.5
 30
0.0
 11
-0.75
 21
8.2990381056766562
 31
0.0
  0
LINE
  5
101
  8
DATA
  6
CONTINUOUS
 62
     7
 10
-5.75
 20
3.1905989232414949
 30
0.0
 11
-1.0340322156501709
 21
5.9133641930254717
 31
0.0
  0
LINE
  5
102
  8
DATA
  6
CONTINUOUS
 62
     7
 10
-4.25
 20
4.0566243270259292
 30
0.0
 11
-4.25
 21
6.3397114317029937
 31
0.0
  0
LINE
  5
103
  8
DATA
  6
CONTINUOUS
 62
     7
 10
-4.0
 20
32.666666666666657
 30
0.0
 11
-4.0
 21
32.0
 31
0.0
  0
LINE
  5
104
  8
DATA
  6
CONTINUOUS
 62
     7
 10
97.250000000000014
 20
312.0
 30
0.0
 11
102.75
 21
312.0
 31
0.0
  0
LINE
  5
105
  8
DATA
  6
CONTINUOUS
 62
     7
 10
96.25
 20
311.0
 30
0.0
 11
96.25
 21
309.5
 31
0.0
  0
LINE
  5
106
  8
DATA
  6
CONTINUOUS
 62
     7
 10
96.25
 20
308.5
 30
0.0
 11
96.25
 21
307.0
 31
0.0
  0
LINE
  5
107
  8
DATA
  6
CONTINUOUS
 62
     7
 10
96.25
 20
306.0
 30
0.0
 11
96.25
 21
299.0
 31
0.0
  0
LINE
  5
108
  8
DATA
  6
CONTINUOUS
 62
     7
 10
103.75
 20
311.0
 30
0.0
 11
103.75
 21
309.5
 31
0.0
  0
LINE
  5
109
  8
DATA
  6
CONTINUOUS
 62
     7
 10
103.75
 20
308.5
 30
0.0
 11
103.75
 21
307.0
 31
0.0
  0
LINE
  5
10A
  8
DATA
  6
CONTINUOUS
 62
     7
 10
103.75
 20
306.0
 30
0.0
 11
103.75
 21
299.0
 31
0.0
  0
LINE
  5
10B
  8
DATA
  6
CONTINUOUS
 62
     7
 10
97.250000000000014
 20
312.0
 30
0.0
 11
96.25
 21
311.0
 31
0.0
  0
LINE
  5
10C
  8
DATA
  6
CONTINUOUS
 62
     7
 10
102.75
 20
312.0
 30
0.0
 11
103.75
 21
311.0
 31
0.0
  0
LINE
  5
10D
  8
DATA
  6
CONTINUOUS
 62
     7
 10
96.25
 20
299.0
 30
0.0
 11
103.75
 21
299.0
 31
0.0
  0
LINE
  5
10E
  8
DATA
  6
CONTINUOUS
 62
     7
 10
96.25
 20
306.0
 30
0.0
 11
103.75
 21
306.0
 31
0.0
  0
LINE
  5
10F
  8
DATA
  6
CONTINUOUS
 62
     7
 10
96.25
 20
307.0
 30
0.0
 11
103.75
 21
307.0
 31
0.0
  0
LINE
  5
110
  8
DATA
  6
CONTINUOUS
 62
     7
 10
96.25
 20
308.5
 30
0.0
 11
103.75
 21
308.5
 31
0.0
  0
LINE
  5
111
  8
DATA
  6
CONTINUOUS
 62
     7
 10
96.25
 20
309.5
 30
0.0
 11
103.75
 21
309.5
 31
0.0
  0
LINE
  5
112
  8
DATA
  6
CONTINUOUS
 62
     7
 10
96.25
 20
311.0
 30
0.0
 11
103.75
 21
311.0
 31
0.0
  0
LINE
  5
113
  8
DATA
  6
CONTINUOUS
 62
     7
 10
96.5
 20
306.0
 30
0.0
 11
96.5
 21
307.0
 31
0.0
  0
LINE
  5
114
  8
DATA
  6
CONTINUOUS
 62
     7
 10
96.5
 20
308.5
 30
0.0
 11
96.5
 21
309.5
 31
0.0
  0
LINE
  5
115
  8
DATA
  6
CONTINUOUS
 62
     7
 10
103.5
 20
306.0
 30
0.0
 11
103.5
 21
307.0
 31
0.0
  0
LINE
  5
116
  8
DATA
  6
CONTINUOUS
 62
     7
 10
103.5
 20
308.5
 30
0.0
 11
103.5
 21
309.5
 31
0.0
  0
LINE
  5
117
  8
DATA
  6
CONTINUOUS
 62
     7
 10
97.0
 20
299.0
 30
0.0
 11
97.0
 21
200.0
 31
0.0
  0
LINE
  5
118
  8
DATA
  6
CONTINUOUS
 62
     7
 10
103.0
 20
200.0
 30
0.0
 11
103.0
 21
299.0
 31
0.0
  0
LINE
  5
119
  8
DATA
  6
CONTINUOUS
 62
     7
 10
97.0
 20
200.0
 30
0.0
 11
93.499999999999986
 21
182.0
 31
0.0
  0
LINE
  5
11A
  8
DATA
  6
CONTINUOUS
 62
     7
 10
103.0
 20
200.0
 30
0.0
 11
106.5
 21
182.0
 31
0.0
  0
LINE
  5
11B
  8
DATA
  6
CONTINUOUS
 62
     7
 10
92.249999999999957
 20
44.9999999999986
 30
0.0
 11
107.7499999999999
 21
44.999999999999133
 31
0.0
  0
LINE
  5
11C
  8
DATA
  6
CONTINUOUS
 62
     7
 10
94.0
 20
43.9999999999986
 30
0.0
 11
94.0
 21
34.0
 31
0.0
  0
LINE
  5
11D
  8
DATA
  6
CONTINUOUS
 62
     7
 10
93.499999999999986
 20
182.0
 30
0.0
 11
93.499999999999986
 21
91.0
 31
0.0
  0
LINE
  5
11E
  8
DATA
  6
CONTINUOUS
 62
     7
 10
106.5
 20
91.0
 30
0.0
 11
106.5
 21
182.0
 31
0.0
  0
ARC
  5
11F
  8
DATA
  6
CONTINUOUS
 62
     7
 10
939.27499999998054
 20
45.0
 30
0.0
 40
847.02499999998065
 50
176.88686505732011
 51
178.10563542771209
  0
ARC
  5
120
  8
DATA
  6
CONTINUOUS
 62
     7
 10
939.27499999998054
 20
45.0
 30
0.0
 40
847.02499999998065
 50
178.1733146625316
 51
178.2748287639829
  0
ARC
  5
121
  8
DATA
  6
CONTINUOUS
 62
     7
 10
939.27499999998054
 20
45.0
 30
0.0
 40
847.02499999998065
 50
178.30666793210381
 51
178.3086534999733
  0
ARC
  5
122
  8
DATA
  6
CONTINUOUS
 62
     7
 10
939.27499999998054
 20
45.0
 30
0.0
 40
847.02499999998042
 50
178.34250180252479
 51
178.4440070533322
  0
ARC
  5
123
  8
DATA
  6
CONTINUOUS
 62
     7
 10
939.27499999998054
 20
45.0
 30
0.0
 40
847.02499999998065
 50
178.47604312607641
 51
178.4778368402275
  0
ARC
  5
124
  8
DATA
  6
CONTINUOUS
 62
     7
 10
939.27499999998054
 20
45.0
 30
0.0
 40
847.02499999998065
 50
178.511674487184
 51
178.61317177439011
  0
ARC
  5
125
  8
DATA
  6
CONTINUOUS
 62
     7
 10
939.27499999998054
 20
45.0
 30
0.0
 40
847.02499999998042
 50
178.64540496103021
 51
178.64702219019489
  0
ARC
  5
126
  8
DATA
  6
CONTINUOUS
 62
     7
 10
939.27499999998054
 20
45.0
 30
0.0
 40
847.02499999998042
 50
178.6808341946936
 51
179.99999999999989
  0
ARC
  5
127
  8
DATA
  6
CONTINUOUS
 62
     7
 10
-739.27499999998065
 20
45.000000000000092
 30
0.0
 40
847.02499999998065
 50
360.0
 51
1.319165805300258
  0
ARC
  5
128
  8
DATA
  6
CONTINUOUS
 62
     7
 10
-739.27499999998065
 20
45.000000000000092
 30
0.0
 40
847.02499999998065
 50
1.353015578765018
 51
1.354594815397079
  0
ARC
  5
129
  8
DATA
  6
CONTINUOUS
 62
     7
 10
-739.27499999998065
 20
45.000000000000092
 30
0.0
 40
847.02499999998065
 50
1.3868282256190889
 51
1.488325512817575
  0
ARC
  5
12A
  8
DATA
  6
CONTINUOUS
 62
     7
 10
-739.27499999998065
 20
45.000000000000092
 30
0.0
 40
847.02499999998065
 50
1.555992946662667
 51
1.6574981974742791
  0
ARC
  5
12B
  8
DATA
  6
CONTINUOUS
 62
     7
 10
-739.27499999998065
 20
45.000000000000092
 30
0.0
 40
847.02499999998065
 50
1.7251712360318019
 51
1.826685337469887
  0
ARC
  5
12C
  8
DATA
  6
CONTINUOUS
 62
     7
 10
-739.27499999998065
 20
45.000000000000092
 30
0.0
 40
847.02499999998065
 50
1.8943645722900559
 51
3.1131349426798578
  0
LINE
  5
12D
  8
DATA
  6
CONTINUOUS
 62
     7
 10
92.474491837067788
 20
64.5
 30
0.0
 11
107.525508162932
 21
64.5
 31
0.0
  0
LINE
  5
12E
  8
DATA
  6
CONTINUOUS
 62
     7
 10
107.50188951990179
 20
65.5
 30
0.0
 11
92.498110480098077
 21
65.5
 31
0.0
  0
LINE
  5
12F
  8
DATA
  6
CONTINUOUS
 62
     7
 10
92.535754054118371
 20
67.0
 30
0.0
 11
107.4642459458814
 21
67.0
 31
0.0
  0
LINE
  5
130
  8
DATA
  6
CONTINUOUS
 62
     7
 10
107.4376730036582
 20
68.0
 30
0.0
 11
92.562326996341568
 21
68.0
 31
0.0
  0
LINE
  5
131
  8
DATA
  6
CONTINUOUS
 62
     7
 10
92.604402527169299
 20
69.5
 30
0.0
 11
107.3955974728307
 21
69.5
 31
0.0
  0
LINE
  5
132
  8
DATA
  6
CONTINUOUS
 62
     7
 10
107.3660695359634
 20
70.5
 30
0.0
 11
92.633930464036581
 21
70.5
 31
0.0
  0
ARC
  5
133
  8
DATA
  6
CONTINUOUS
 62
     7
 10
653.58333333333348
 20
57.5
 30
0.0
 40
561.08333333333337
 50
178.4647578742223
 51
178.46865417254139
  0
ARC
  5
134
  8
DATA
  6
CONTINUOUS
 62
     7
 10
-453.58333333333348
 20
57.5
 30
0.0
 40
561.08333333333337
 50
1.5313458395347279
 51
1.535242127897694
  0
LINE
  5
135
  8
DATA
  6
CONTINUOUS
 62
     7
 10
92.680439053025708
 20
72.0
 30
0.0
 11
107.31956094697409
 21
72.0
 31
0.0
  0
LINE
  5
136
  8
DATA
  6
CONTINUOUS
 62
     7
 10
107.2870772424192
 20
73.0
 30
0.0
 11
92.712922757580571
 21
73.0
 31
0.0
  0
ARC
  5
137
  8
DATA
  6
CONTINUOUS
 62
     7
 10
-453.58333333333348
 20
57.500000000000092
 30
0.0
 40
561.08333333333337
 50
1.5313458274586409
 51
1.5352421257777349
  0
ARC
  5
138
  8
DATA
  6
CONTINUOUS
 62
     7
 10
92.986153459730588
 20
65.0
 30
0.0
 40
0.5
 50
90.0
 51
270.0
  0
ARC
  5
139
  8
DATA
  6
CONTINUOUS
 62
     7
 10
93.048892793543203
 20
67.5
 30
0.0
 40
0.5
 50
90.0
 51
270.0
  0
ARC
  5
13A
  8
DATA
  6
CONTINUOUS
 62
     7
 10
93.119018727204676
 20
70.0
 30
0.0
 40
0.5
 50
90.0
 51
270.0
  0
ARC
  5
13B
  8
DATA
  6
CONTINUOUS
 62
     7
 10
93.196533096311285
 20
72.500000000000028
 30
0.0
 40
0.4961855838236957
 50
90.000000000003283
 51
269.99999999999682
  0
ARC
  5
13C
  8
DATA
  6
CONTINUOUS
 62
     7
 10
-453.58333333333348
 20
57.5
 30
0.0
 40
561.0833333333336
 50
1.5313458274586409
 51
1.535242125777734
  0
ARC
  5
13D
  8
DATA
  6
CONTINUOUS
 62
     7
 10
107.0138465402694
 20
65.0
 30
0.0
 40
0.5
 50
270.0
 51
90.0
  0
ARC
  5
13E
  8
DATA
  6
CONTINUOUS
 62
     7
 10
106.9511072064567
 20
67.5
 30
0.0
 40
0.5
 50
270.0
 51
90.0
  0
ARC
  5
13F
  8
DATA
  6
CONTINUOUS
 62
     7
 10
106.8809812727953
 20
70.0
 30
0.0
 40
0.5
 50
270.0
 51
90.0
  0
ARC
  5
140
  8
DATA
  6
CONTINUOUS
 62
     7
 10
106.8034669036887
 20
72.500000000000028
 30
0.0
 40
0.4961855838237527
 50
270.0000000000033
 51
89.999999999996703
  0
LINE
  5
141
  8
DATA
  6
CONTINUOUS
 62
     7
 10
107.7499999999999
 20
43.9999999999986
 30
0.0
 11
107.75
 21
32.999999999999972
 31
0.0
  0
ARC
  5
142
  8
DATA
  6
CONTINUOUS
 62
     7
 10
106.7499999999999
 20
43.9999999999986
 30
0.0
 40
1.0
 50
0.0
 51
90.0
  0
ARC
  5
143
  8
DATA
  6
CONTINUOUS
 62
     7
 10
93.250000000000043
 20
43.9999999999986
 30
0.0
 40
1.0
 50
90.0
 51
180.0
  0
LINE
  5
144
  8
DATA
  6
CONTINUOUS
 62
     7
 10
92.250000000000043
 20
43.9999999999986
 30
0.0
 11
94.0
 21
43.9999999999986
 31
0.0
  0
CIRCLE
  5
145
  8
DATA
  6
CONTINUOUS
 62
     7
 10
100.0
 20
40.0
 30
0.0
 40
1.0
  0
LINE
  5
146
  8
DATA
  6
CONTINUOUS
 62
     7
 10
92.0
 20
46.750000000000021
 30
0.0
 11
92.0
 21
33.250000000000043
 31
0.0
  0
LINE
  5
147
  8
DATA
  6
CONTINUOUS
 62
     7
 10
75.5
 20
47.25
 30
0.0
 11
75.5
 21
32.75
 31
0.0
  0
LINE
  5
148
  8
DATA
  6
CONTINUOUS
 62
     7
 10
91.0
 20
47.75
 30
0.0
 11
91.0
 21
32.25
 31
0.0
  0
LINE
  5
149
  8
DATA
  6
CONTINUOUS
 62
     7
 10
92.0
 20
46.750000000000021
 30
0.0
 11
91.0
 21
47.75
 31
0.0
  0
LINE
  5
14A
  8
DATA
  6
CONTINUOUS
 62
     7
 10
92.0
 20
33.250000000000043
 30
0.0
 11
91.0
 21
32.25
 31
0.0
  0
LINE
  5
14B
  8
DATA
  6
CONTINUOUS
 62
     7
 10
91.0
 20
32.25
 30
0.0
 11
76.0
 21
32.25
 31
0.0
  0
LINE
  5
14C
  8
DATA
  6
CONTINUOUS
 62
     7
 10
91.0
 20
47.75
 30
0.0
 11
76.0
 21
47.75
 31
0.0
  0
LINE
  5
14D
  8
DATA
  6
CONTINUOUS
 62
     7
 10
75.0
 20
46.25
 30
0.0
 11
75.0
 21
33.75
 31
0.0
  0
LINE
  5
14E
  8
DATA
  6
CONTINUOUS
 62
     7
 10
74.0
 20
47.25
 30
0.0
 11
74.0
 21
32.75
 31
0.0
  0
LINE
  5
14F
  8
DATA
  6
CONTINUOUS
 62
     7
 10
74.0
 20
47.25
 30
0.0
 11
70.0
 21
47.25
 31
0.0
  0
LINE
  5
150
  8
DATA
  6
CONTINUOUS
 62
     7
 10
74.0
 20
32.75
 30
0.0
 11
70.0
 21
32.75
 31
0.0
  0
LINE
  5
151
  8
DATA
  6
CONTINUOUS
 62
     7
 10
70.0
 20
47.25
 30
0.0
 11
70.0
 21
32.75
 31
0.0
  0
ARC
  5
152
  8
DATA
  6
CONTINUOUS
 62
     7
 10
74.0
 20
46.25
 30
0.0
 40
1.0
 50
0.0
 51
90.0
  0
ARC
  5
153
  8
DATA
  6
CONTINUOUS
 62
     7
 10
74.0
 20
33.75
 30
0.0
 40
1.0
 50
270.0
 51
0.0
  0
ARC
  5
154
  8
DATA
  6
CONTINUOUS
 62
     7
 10
76.0
 20
47.25
 30
0.0
 40
0.5
 50
90.0
 51
180.0
  0
ARC
  5
155
  8
DATA
  6
CONTINUOUS
 62
     7
 10
76.0
 20
32.75
 30
0.0
 40
0.5
 50
180.0
 51
270.0
  0
LINE
  5
156
  8
DATA
  6
CONTINUOUS
 62
     7
 10
60.0
 20
46.749999999999993
 30
0.0
 11
60.0
 21
33.25
 31
0.0
  0
LINE
  5
157
  8
DATA
  6
CONTINUOUS
 62
     7
 10
60.0
 20
46.749999999999993
 30
0.0
 11
62.5
 21
46.749999999999993
 31
0.0
  0
LINE
  5
158
  8
DATA
  6
CONTINUOUS
 62
     7
 10
62.5
 20
46.749999999999993
 30
0.0
 11
62.5
 21
33.25
 31
0.0
  0
LINE
  5
159
  8
DATA
  6
CONTINUOUS
 62
     7
 10
60.0
 20
33.25
 30
0.0
 11
62.5
 21
33.25
 31
0.0
  0
LINE
  5
15A
  8
DATA
  6
CONTINUOUS
 62
     7
 10
62.5
 20
45.75
 30
0.0
 11
63.190598923241502
 21
45.75
 31
0.0
  0
LINE
  5
15B
  8
DATA
  6
CONTINUOUS
 62
     7
 10
65.5
 20
45.75
 30
0.0
 11
70.0
 21
45.75
 31
0.0
  0
LINE
  5
15C
  8
DATA
  6
CONTINUOUS
 62
     7
 10
62.5
 20
34.25
 30
0.0
 11
70.0
 21
34.25
 31
0.0
  0
LINE
  5
15D
  8
DATA
  6
CONTINUOUS
 62
     7
 10
74.0
 20
41.0
 30
0.0
 11
70.0
 21
41.0
 31
0.0
  0
LINE
  5
15E
  8
DATA
  6
CONTINUOUS
 62
     7
 10
74.0
 20
40.499999999999993
 30
0.0
 11
70.0
 21
40.499999999999993
 31
0.0
  0
LINE
  5
15F
  8
DATA
  6
CONTINUOUS
 62
     7
 10
74.0
 20
40.0
 30
0.0
 11
70.0
 21
40.0
 31
0.0
  0
LINE
  5
160
  8
DATA
  6
CONTINUOUS
 62
     7
 10
74.0
 20
39.5
 30
0.0
 11
70.0
 21
39.5
 31
0.0
  0
LINE
  5
161
  8
DATA
  6
CONTINUOUS
 62
     7
 10
74.0
 20
39.0
 30
0.0
 11
70.0
 21
39.0
 31
0.0
  0
LINE
  5
162
  8
DATA
  6
CONTINUOUS
 62
     7
 10
74.0
 20
38.5
 30
0.0
 11
70.0
 21
38.5
 31
0.0
  0
LINE
  5
163
  8
DATA
  6
CONTINUOUS
 62
     7
 10
74.0
 20
38.0
 30
0.0
 11
70.0
 21
38.0
 31
0.0
  0
LINE
  5
164
  8
DATA
  6
CONTINUOUS
 62
     7
 10
74.0
 20
37.5
 30
0.0
 11
70.0
 21
37.5
 31
0.0
  0
LINE
  5
165
  8
DATA
  6
CONTINUOUS
 62
     7
 10
74.0
 20
37.0
 30
0.0
 11
70.0
 21
37.0
 31
0.0
  0
LINE
  5
166
  8
DATA
  6
CONTINUOUS
 62
     7
 10
74.0
 20
36.5
 30
0.0
 11
70.0
 21
36.5
 31
0.0
  0
LINE
  5
167
  8
DATA
  6
CONTINUOUS
 62
     7
 10
74.0
 20
36.0
 30
0.0
 11
70.0
 21
36.0
 31
0.0
  0
LINE
  5
168
  8
DATA
  6
CONTINUOUS
 62
     7
 10
74.0
 20
35.5
 30
0.0
 11
70.0
 21
35.5
 31
0.0
  0
LINE
  5
169
  8
DATA
  6
CONTINUOUS
 62
     7
 10
74.0
 20
35.0
 30
0.0
 11
70.0
 21
35.0
 31
0.0
  0
LINE
  5
16A
  8
DATA
  6
CONTINUOUS
 62
     7
 10
74.0
 20
34.5
 30
0.0
 11
70.0
 21
34.5
 31
0.0
  0
LINE
  5
16B
  8
DATA
  6
CONTINUOUS
 62
     7
 10
74.0
 20
34.0
 30
0.0
 11
70.0
 21
34.0
 31
0.0
  0
LINE
  5
16C
  8
DATA
  6
CONTINUOUS
 62
     7
 10
74.0
 20
33.5
 30
0.0
 11
70.0
 21
33.5
 31
0.0
  0
LINE
  5
16D
  8
DATA
  6
CONTINUOUS
 62
     7
 10
74.0
 20
33.0
 30
0.0
 11
70.0
 21
33.0
 31
0.0
  0
LINE
  5
16E
  8
DATA
  6
CONTINUOUS
 62
     7
 10
74.0
 20
41.5
 30
0.0
 11
70.0
 21
41.5
 31
0.0
  0
LINE
  5
16F
  8
DATA
  6
CONTINUOUS
 62
     7
 10
74.0
 20
42.0
 30
0.0
 11
70.0
 21
42.0
 31
0.0
  0
LINE
  5
170
  8
DATA
  6
CONTINUOUS
 62
     7
 10
74.0
 20
42.5
 30
0.0
 11
70.0
 21
42.5
 31
0.0
  0
LINE
  5
171
  8
DATA
  6
CONTINUOUS
 62
     7
 10
74.0
 20
43.0
 30
0.0
 11
70.0
 21
43.0
 31
0.0
  0
LINE
  5
172
  8
DATA
  6
CONTINUOUS
 62
     7
 10
74.0
 20
43.5
 30
0.0
 11
70.0
 21
43.5
 31
0.0
  0
LINE
  5
173
  8
DATA
  6
CONTINUOUS
 62
     7
 10
74.0
 20
44.0
 30
0.0
 11
70.0
 21
44.0
 31
0.0
  0
LINE
  5
174
  8
DATA
  6
CONTINUOUS
 62
     7
 10
74.0
 20
44.5
 30
0.0
 11
70.0
 21
44.5
 31
0.0
  0
LINE
  5
175
  8
DATA
  6
CONTINUOUS
 62
     7
 10
74.0
 20
45.0
 30
0.0
 11
70.0
 21
45.0
 31
0.0
  0
LINE
  5
176
  8
DATA
  6
CONTINUOUS
 62
     7
 10
74.0
 20
45.499999999999993
 30
0.0
 11
70.0
 21
45.499999999999993
 31
0.0
  0
LINE
  5
177
  8
DATA
  6
CONTINUOUS
 62
     7
 10
74.0
 20
46.0
 30
0.0
 11
70.0
 21
46.0
 31
0.0
  0
LINE
  5
178
  8
DATA
  6
CONTINUOUS
 62
     7
 10
74.0
 20
46.5
 30
0.0
 11
70.0
 21
46.5
 31
0.0
  0
LINE
  5
179
  8
DATA
  6
CONTINUOUS
 62
     7
 10
74.0
 20
47.0
 30
0.0
 11
70.0
 21
47.0
 31
0.0
  0
LINE
  5
17A
  8
DATA
  6
CONTINUOUS
 62
     7
 10
75.0
 20
45.75
 30
0.0
 11
75.5
 21
45.75
 31
0.0
  0
LINE
  5
17B
  8
DATA
  6
CONTINUOUS
 62
     7
 10
75.0
 20
34.25
 30
0.0
 11
75.5
 21
34.25
 31
0.0
  0
ARC
  5
17C
  8
DATA
  6
CONTINUOUS
 62
     7
 10
66.999999999999972
 20
40.000000000000021
 30
0.0
 40
1.499999999999948
 50
136.42094179959139
 51
29.999999999998519
  0
LINE
  5
17D
  8
DATA
  6
CONTINUOUS
 62
     7
 10
62.5
 20
45.75
 30
0.0
 11
63.190598923241502
 21
45.75
 31
0.0
  0
LINE
  5
17E
  8
DATA
  6
CONTINUOUS
 62
     7
 10
65.5
 20
45.75
 30
0.0
 11
68.299038105676658
 21
40.75
 31
0.0
  0
LINE
  5
17F
  8
DATA
  6
CONTINUOUS
 62
     7
 10
63.190598923241502
 20
45.75
 30
0.0
 11
65.913364193025458
 21
41.034032215650171
 31
0.0
  0
LINE
  5
180
  8
DATA
  6
CONTINUOUS
 62
     7
 10
64.056624327025929
 20
44.249999999999993
 30
0.0
 11
66.339711431702995
 21
44.249999999999993
 31
0.0
  0
LINE
  5
181
  8
DATA
  6
CONTINUOUS
 62
     7
 10
92.666666666666629
 20
44.0
 30
0.0
 11
92.0
 21
44.0
 31
0.0
  0
LINE
  5
182
  8
DATA
  6
CONTINUOUS
 62
     7
 10
94.0
 20
34.0
 30
0.0
 11
97.0
 21
32.0
 31
0.0
  0
LINE
  5
183
  8
DATA
  6
CONTINUOUS
 62
     7
 10
97.0
 20
32.0
 30
0.0
 11
106.75
 21
32.0
 31
0.0
  0
LINE
  5
184
  8
DATA
  6
CONTINUOUS
 62
     7
 10
106.75
 20
32.0
 30
0.0
 11
107.75
 21
33.0
 31
0.0
  0
LINE
  5
185
  8
DATA
  6
CONTINUOUS
 62
     7
 10
94.0
 20
44.0
 30
0.0
 11
94.0
 21
36.0
 31
0.0
  0
LINE
  5
186
  8
DATA
  6
CONTINUOUS
 62
     7
 10
94.0
 20
36.0
 30
0.0
 11
92.0
 21
36.0
 31
0.0
  0
CIRCLE
  5
187
  8
DATA
  6
CONTINUOUS
 62
     7
 10
0.0
 20
-50.0
 30
0.0
 40
6.75
  0
CIRCLE
  5
188
  8
DATA
  6
CONTINUOUS
 62
     7
 10
0.0
 20
-50.0
 30
0.0
 40
4.25
  0
CIRCLE
  5
189
  8
DATA
  6
CONTINUOUS
 62
     7
 10
0.0
 20
-50.0
 30
0.0
 40
2.350000000000001
  0
CIRCLE
  5
18A
  8
DATA
  6
CONTINUOUS
 62
     7
 10
0.0
 20
-50.0
 30
0.0
 40
0.5
  0
ARC
  5
18B
  8
DATA
  6
CONTINUOUS
 62
     7
 10
0.0
 20
-49.999999999999929
 30
0.0
 40
4.8499999999999988
 50
191.83458950356871
 51
348.16541049643132
  0
ARC
  5
18C
  8
DATA
  6
CONTINUOUS
 62
     7
 10
0.0
 20
-49.999999999999929
 30
0.0
 40
4.8499999999999988
 50
11.83458950356872
 51
168.16541049643331
  0
ARC
  5
18D
  8
DATA
  6
CONTINUOUS
 62
     7
 10
-4.8499999999999801
 20
-50.000000000000021
 30
0.0
 40
1.0000000000000391
 50
84.082705248217863
 51
275.91729475178289
  0
ARC
  5
18E
  8
DATA
  6
CONTINUOUS
 62
     7
 10
4.8499999999999801
 20
-50.000000000000021
 30
0.0
 40
1.00000000000004
 50
264.082705248217
 51
95.917294751782137
  0
CIRCLE
  5
18F
  8
DATA
  6
CONTINUOUS
 62
     7
 10
0.0
 20
-50.0
 30
0.0
 40
3.5
  0
LINE
  5
190
  8
DATA
  6
CONTINUOUS
 62
     7
 10
-4.25
 20
-50.0
 30
0.0
 11
-3.5
 21
-50.0
 31
0.0
  0
LINE
  5
191
  8
DATA
  6
CONTINUOUS
 62
     7
 10
3.5000000000000071
 20
-50.0
 30
0.0
 11
4.25
 21
-50.0
 31
0.0
  0
LINE
  5
192
  8
DATA
  6
CONTINUOUS
 62
     7
 10
-2.125
 20
-53.680607966083862
 30
0.0
 11
-1.75
 21
-53.031088913245533
 31
0.0
  0
LINE
  5
193
  8
DATA
  6
CONTINUOUS
 62
     7
 10
1.75
 20
-46.968911086754467
 30
0.0
 11
2.125
 21
-46.319392033916117
 31
0.0
  0
LINE
  5
194
  8
DATA
  6
CONTINUOUS
 62
     7
 10
2.125000000000028
 20
-53.680607966083862
 30
0.0
 11
1.750000000000028
 21
-53.031088913245547
 31
0.0
  0
LINE
  5
195
  8
DATA
  6
CONTINUOUS
 62
     7
 10
-1.7499999999999709
 20
-46.968911086754467
 30
0.0
 11
-2.124999999999972
 21
-46.319392033916117
 31
0.0
  0
CIRCLE
  5
196
  8
DATA
  6
CONTINUOUS
 62
     7
 10
0.0
 20
-50.0
 30
0.0
 40
7.75
  0
TEXT
  5
197
  8
DATA
 62
     7
 10
58.600000000000001
 20
-22.286000000000001
 30
0.0
 40
5.5562500000000004
  1
(90度折り曲げ時)
 41
0.8
 11
58.600000000000001
 21
-16.729749999999989
 31
0.0
 73
     3
  0
ENDSEC
  0
EOF
