  0
SECTION
  2
HEADER
  9
$ACADVER
  1
AC1009
  9
$INSBASE
 10
0.0
 20
0.0
 30
0.0
  9
$EXTMIN
 10
-80.012748558621865
 20
-131.2306395013035
 30
-0.0015258207003583
  9
$EXTMAX
 10
282.7306077200144
 20
403.53214576640943
 30
0.0000000349246037
  9
$LIMMIN
 10
0.0
 20
0.0
  9
$LIMMAX
 10
0.0
 20
0.0
  9
$ORTHOMODE
 70
     0
  9
$REGENMODE
 70
     1
  9
$FILLMODE
 70
     1
  9
$QTEXTMODE
 70
     0
  9
$MIRRTEXT
 70
     1
  9
$DRAGMODE
 70
     2
  9
$LTSCALE
 40
2.0
  9
$OSMODE
 70
    37
  9
$ATTMODE
 70
     1
  9
$TEXTSIZE
 40
0.0
  9
$TRACEWID
 40
0.05
  9
$TEXTSTYLE
  7
STANDARD
  9
$CLAYER
  8
0
  9
$CELTYPE
  6
CONTINUOUS
  9
$CECOLOR
 62
   256
  9
$DIMSCALE
 40
1.0
  9
$DIMASZ
 40
0.18
  9
$DIMEXO
 40
0.0625
  9
$DIMDLI
 40
0.38
  9
$DIMRND
 40
0.0
  9
$DIMDLE
 40
0.0
  9
$DIMEXE
 40
0.18
  9
$DIMTP
 40
0.0
  9
$DIMTM
 40
0.0
  9
$DIMTXT
 40
0.18
  9
$DIMCEN
 40
0.09
  9
$DIMTSZ
 40
0.0
  9
$DIMTOL
 70
     0
  9
$DIMLIM
 70
     0
  9
$DIMTIH
 70
     1
  9
$DIMTOH
 70
     1
  9
$DIMSE1
 70
     0
  9
$DIMSE2
 70
     0
  9
$DIMTAD
 70
     0
  9
$DIMZIN
 70
     0
  9
$DIMBLK
  1

  9
$DIMASO
 70
     1
  9
$DIMSHO
 70
     1
  9
$DIMPOST
  1

  9
$DIMAPOST
  1

  9
$DIMALT
 70
     0
  9
$DIMALTD
 70
     2
  9
$DIMALTF
 40
25.399999999999999
  9
$DIMLFAC
 40
1.0
  9
$DIMTOFL
 70
     0
  9
$DIMTVP
 40
0.0
  9
$DIMTIX
 70
     0
  9
$DIMSOXD
 70
     0
  9
$DIMSAH
 70
     0
  9
$DIMBLK1
  1

  9
$DIMBLK2
  1

  9
$DIMSTYLE
  2
STANDARD
  9
$DIMCLRD
 70
     0
  9
$DIMCLRE
 70
     0
  9
$DIMCLRT
 70
     0
  9
$DIMTFAC
 40
1.0
  9
$DIMGAP
 40
0.09
  9
$LUNITS
 70
     2
  9
$LUPREC
 70
     4
  9
$SKETCHINC
 40
0.1
  9
$FILLETRAD
 40
0.0
  9
$AUNITS
 70
     0
  9
$AUPREC
 70
     0
  9
$MENU
  1
acad
  9
$ELEVATION
 40
0.0
  9
$PELEVATION
 40
0.0
  9
$THICKNESS
 40
0.0
  9
$LIMCHECK
 70
     0
  9
$BLIPMODE
 70
     0
  9
$CHAMFERA
 40
0.0
  9
$CHAMFERB
 40
0.0
  9
$SKPOLY
 70
     0
  9
$TDCREATE
 40
2451926.671759259
  9
$TDUPDATE
 40
2451926.67243993
  9
$TDINDWG
 40
0.0001112269
  9
$TDUSRTIMER
 40
0.0001112269
  9
$USRTIMER
 70
     1
  9
$ANGBASE
 50
0.0
  9
$ANGDIR
 70
     0
  9
$PDMODE
 70
     0
  9
$PDSIZE
 40
0.0
  9
$PLINEWID
 40
0.0
  9
$COORDS
 70
     1
  9
$SPLFRAME
 70
     0
  9
$SPLINETYPE
 70
     6
  9
$SPLINESEGS
 70
     8
  9
$ATTDIA
 70
     0
  9
$ATTREQ
 70
     1
  9
$HANDLING
 70
-16383
  9
$HANDSEED
  5
2A7
  9
$SURFTAB1
 70
     6
  9
$SURFTAB2
 70
     6
  9
$SURFTYPE
 70
     6
  9
$SURFU
 70
     6
  9
$SURFV
 70
     6
  9
$UCSNAME
  2

  9
$UCSORG
 10
0.0
 20
0.0
 30
0.0
  9
$UCSXDIR
 10
1.0
 20
0.0
 30
0.0
  9
$UCSYDIR
 10
0.0
 20
1.0
 30
0.0
  9
$PUCSNAME
  2

  9
$PUCSORG
 10
0.0
 20
0.0
 30
0.0
  9
$PUCSXDIR
 10
1.0
 20
0.0
 30
0.0
  9
$PUCSYDIR
 10
0.0
 20
1.0
 30
0.0
  9
$USERI1
 70
     0
  9
$USERI2
 70
     0
  9
$USERI3
 70
     0
  9
$USERI4
 70
     0
  9
$USERI5
 70
     0
  9
$USERR1
 40
0.0
  9
$USERR2
 40
0.0
  9
$USERR3
 40
0.0
  9
$USERR4
 40
0.0
  9
$USERR5
 40
0.0
  9
$WORLDVIEW
 70
     1
  9
$SHADEDGE
 70
     3
  9
$SHADEDIF
 70
    70
  9
$TILEMODE
 70
     1
  9
$MAXACTVP
 70
    16
  9
$PLIMCHECK
 70
     0
  9
$PEXTMIN
 10
1.0000000000000000E+020
 20
1.0000000000000000E+020
 30
1.0000000000000000E+020
  9
$PEXTMAX
 10
-1.0000000000000000E+020
 20
-1.0000000000000000E+020
 30
-1.0000000000000000E+020
  9
$PLIMMIN
 10
0.0
 20
0.0
  9
$PLIMMAX
 10
12.0
 20
9.0
  9
$UNITMODE
 70
     0
  9
$VISRETAIN
 70
     0
  9
$PLINEGEN
 70
     1
  9
$PSLTSCALE
 70
     0
  0
ENDSEC
  0
SECTION
  2
TABLES
  0
TABLE
  2
VPORT
 70
     2
  0
VPORT
  2
*ACTIVE
 70
     0
 10
0.0
 20
0.0
 11
1.0
 21
1.0
 12
101.3589295806962
 22
136.15075313255289
 13
0.0
 23
0.0
 14
1.0
 24
1.0
 15
0.0
 25
0.0
 16
0.0
 26
0.0
 36
1.0
 17
0.0
 27
0.0
 37
0.0
 40
540.74893584906795
 41
1.743925233644859
 42
50.0
 43
0.0
 44
0.0
 50
0.0
 51
0.0
 71
     0
 72
   100
 73
     1
 74
     1
 75
     0
 76
     0
 77
     0
 78
     0
  0
ENDTAB
  0
TABLE
  2
LTYPE
 70
    11
  0
LTYPE
  2
CONTINUOUS
 70
     0
  3
Solid line
 72
    65
 73
     0
 40
0.0
  0
LTYPE
  2
VECTORWORKS_DASH_01
 70
     0
  3
(unavailable)
 72
    65
 73
     2
 40
2.116537475585937
 49
1.058074951171875
 49
-1.058462524414062
  0
LTYPE
  2
VECTORWORKS_DASH_02
 70
     0
  3
(unavailable)
 72
    65
 73
     2
 40
3.5276916503906239
 49
2.469229125976562
 49
-1.058462524414062
  0
LTYPE
  2
VECTORWORKS_DASH_03
 70
     0
  3
(unavailable)
 72
    65
 73
     2
 40
6.3499999999999988
 49
5.2915374755859359
 49
-1.058462524414062
  0
LTYPE
  2
VECTORWORKS_DASH_04
 70
     0
  3
(unavailable)
 72
    65
 73
     2
 40
7.7607666015624988
 49
6.7026916503906238
 49
-1.058074951171875
  0
LTYPE
  2
VECTORWORKS_DASH_05
 70
     0
  3
(unavailable)
 72
    65
 73
     2
 40
1.058074951171875
 49
0.352691650390625
 49
-0.70538330078125
  0
LTYPE
  2
VECTORWORKS_DASH_06
 70
     0
  3
(unavailable)
 72
    65
 73
     4
 40
5.2915374755859359
 49
3.1749999999999989
 49
-1.058074951171875
 49
0.352691650390625
 49
-0.7057708740234375
  0
LTYPE
  2
VECTORWORKS_DASH_07
 70
     0
  3
(unavailable)
 72
    65
 73
     6
 40
9.5249999999999986
 49
3.1749999999999989
 49
-1.058074951171875
 49
3.1749999999999989
 49
-1.058462524414062
 49
0.352691650390625
 49
-0.7057708740234375
  0
LTYPE
  2
VECTORWORKS_DASH_08
 70
     0
  3
(unavailable)
 72
    65
 73
     6
 40
6.3499999999999988
 49
3.1749999999999989
 49
-1.058074951171875
 49
0.352691650390625
 49
-0.7057708740234375
 49
0.352691650390625
 49
-0.7057708740234375
  0
LTYPE
  2
VECTORWORKS_DASH_09
 70
     0
  3
(unavailable)
 72
    65
 73
     4
 40
25.399999999999999
 49
19.04999999999999
 49
-1.411154174804687
 49
3.5276916503906239
 49
-1.411154174804687
  0
LTYPE
  2
VECTORWORKS_DASH_10
 70
     0
  3
(unavailable)
 72
    65
 73
     6
 40
30.162499999999991
 49
19.04999999999999
 49
-1.411154174804687
 49
3.5276916503906239
 49
-1.411154174804687
 49
3.1749999999999989
 49
-1.587499999999999
  0
ENDTAB
  0
TABLE
  2
LAYER
 70
     5
  0
LAYER
  2
0
 70
     0
 62
     7
  6
CONTINUOUS
  0
LAYER
  2
HIBINO-BASE
 70
     0
 62
     7
  6
CONTINUOUS
  0
LAYER
  2
SPEC
 70
     0
 62
     7
  6
CONTINUOUS
  0
LAYER
  2
DIMNSIONS
 70
     0
 62
     7
  6
CONTINUOUS
  0
LAYER
  2
DATA
 70
     0
 62
     7
  6
CONTINUOUS
  0
ENDTAB
  0
TABLE
  2
STYLE
 70
     1
  0
STYLE
  2
STANDARD
 70
     0
 40
0.0
 41
1.0
 50
0.0
 71
     0
 42
0.0
  3
txt
  4
BIGFONT.SHX
  0
ENDTAB
  0
TABLE
  2
VIEW
 70
     0
  0
ENDTAB
  0
TABLE
  2
UCS
 70
     0
  0
ENDTAB
  0
TABLE
  2
APPID
 70
     1
  0
APPID
  2
ACAD
 70
     0
  0
ENDTAB
  0
TABLE
  2
DIMSTYLE
 70
     1
  0
DIMSTYLE
  2
STANDARD
 70
     0
  3

  4

  5

  6

  7

 40
1.0
 41
0.18
 42
0.0625
 43
0.38
 44
0.18
 45
0.0
 46
0.0
 47
0.0
 48
0.0
140
0.18
141
0.09
142
0.0
143
25.399999999999999
144
1.0
145
0.0
146
1.0
147
0.09
 71
     0
 72
     0
 73
     1
 74
     1
 75
     0
 76
     0
 77
     0
 78
     0
170
     0
171
     2
172
     0
173
     0
174
     0
175
     0
176
     0
177
     0
178
     0
  0
ENDTAB
  0
ENDSEC
  0
SECTION
  2
BLOCKS
  0
BLOCK
  8
0
  2
$MODEL_SPACE
 70
     0
 10
0.0
 20
0.0
 30
0.0
  3
$MODEL_SPACE
  1

  0
ENDBLK
  5
24B
  8
0
  0
BLOCK
 67
     1
  8
0
  2
$PAPER_SPACE
 70
     0
 10
0.0
 20
0.0
 30
0.0
  3
$PAPER_SPACE
  1

  0
ENDBLK
  5
249
 67
     1
  8
0
  0
BLOCK
  8
DIMNSIONS
  2
*G0
 70
     1
 10
0.0
 20
0.0
 30
0.0
  3
*G0
  1

  0
TEXT
  5
38
  8
DIMNSIONS
 62
     7
 10
-49.291670000000003
 20
-55.338889999999999
 30
0.0
 40
5.6444499999999991
  1
112
 11
-49.291670000000003
 21
-49.69444
 31
0.0
 73
     3
  0
ENDBLK
  5
39
  8
DIMNSIONS
  0
BLOCK
  8
DIMNSIONS
  2
*G1
 70
     1
 10
0.0
 20
0.0
 30
0.0
  3
*G1
  1

  0
TEXT
  5
3B
  8
DIMNSIONS
 62
     7
 10
-140.91111000000001
 20
-95.805559999999986
 30
0.0
 40
5.6444499999999991
  1
35.5
 50
90.0
 11
-146.55556000000001
 21
-95.805559999999986
 31
0.0
 73
     3
  0
ENDBLK
  5
3C
  8
DIMNSIONS
  0
BLOCK
  8
DIMNSIONS
  2
*G2
 70
     1
 10
0.0
 20
0.0
 30
0.0
  3
*G2
  1

  0
TEXT
  5
3E
  8
DIMNSIONS
 62
     7
 10
-140.91111000000001
 20
-145.52778000000001
 30
0.0
 40
5.6444499999999991
  1
71
 50
90.0
 11
-146.55556000000001
 21
-145.52778000000001
 31
0.0
 73
     3
  0
ENDBLK
  5
3F
  8
DIMNSIONS
  0
BLOCK
  8
DIMNSIONS
  2
*G3
 70
     1
 10
0.0
 20
0.0
 30
0.0
  3
*G3
  1

  0
TEXT
  5
41
  8
DIMNSIONS
 62
     7
 10
-153.41111000000001
 20
-133.0694499999999
 30
0.0
 40
5.6444499999999991
  1
106.5
 50
90.0
 11
-159.05556000000001
 21
-133.0694499999999
 31
0.0
 73
     3
  0
ENDBLK
  5
42
  8
DIMNSIONS
  0
BLOCK
  8
DIMNSIONS
  2
*G4
 70
     1
 10
0.0
 20
0.0
 30
0.0
  3
*G4
  1

  0
TEXT
  5
44
  8
DIMNSIONS
 62
     7
 10
-140.91111000000001
 20
-2.5277799999999999
 30
0.0
 40
5.6444499999999991
  1
32
 50
90.0
 11
-146.55556000000001
 21
-2.527779999999999
 31
0.0
 73
     3
  0
ENDBLK
  5
45
  8
DIMNSIONS
  0
BLOCK
  8
DIMNSIONS
  2
*G5
 70
     1
 10
0.0
 20
0.0
 30
0.0
  3
*G5
  1

  0
TEXT
  5
47
  8
DIMNSIONS
 62
     7
 10
-51.055559999999993
 20
-199.08888999999999
 30
0.0
 40
5.6444499999999991
  1
75.5
 11
-51.055559999999993
 21
-193.4444399999999
 31
0.0
 73
     3
  0
ENDBLK
  5
48
  8
DIMNSIONS
  0
BLOCK
  8
DIMNSIONS
  2
*G6
 70
     1
 10
0.0
 20
0.0
 30
0.0
  3
*G6
  1

  0
TEXT
  5
4A
  8
DIMNSIONS
 62
     7
 10
-153.41111000000001
 20
-6.0555599999999998
 30
0.0
 40
5.6444499999999991
  1
75.5
 50
90.0
 11
-159.05556000000001
 21
-6.0555599999999989
 31
0.0
 73
     3
  0
ENDBLK
  5
4B
  8
DIMNSIONS
  0
BLOCK
  8
DIMNSIONS
  2
*G7
 70
     1
 10
0.0
 20
0.0
 30
0.0
  3
*G7
  1

  0
TEXT
  5
4D
  8
DIMNSIONS
 62
     7
 10
136.99999
 20
120.38332
 30
0.0
 40
5.6444499999999991
  1
φ50.8
 11
136.99999
 21
126.02777
 31
0.0
 73
     3
  0
ENDBLK
  5
4E
  8
DIMNSIONS
  0
BLOCK
  8
DIMNSIONS
  2
*G8
 70
     1
 10
0.0
 20
0.0
 30
0.0
  3
*G8
  1

  0
TEXT
  5
50
  8
DIMNSIONS
 62
     7
 10
78.611041537039029
 20
27.664508446390109
 30
0.0
 40
5.6444499999999991
  1
120°
 50
358.0000000122032
 11
78.808030000000002
 21
33.305520000000001
 31
0.0
 73
     3
  0
ENDBLK
  5
51
  8
DIMNSIONS
  0
BLOCK
  8
DIMNSIONS
  2
*G9
 70
     1
 10
0.0
 20
0.0
 30
0.0
  3
*G9
  1

  0
TEXT
  5
53
  8
DIMNSIONS
 62
     7
 10
124.49999
 20
132.88333
 30
0.0
 40
5.6444499999999991
  1
3-M6サラ
 11
124.49999
 21
138.52778000000001
 31
0.0
 73
     3
  0
ENDBLK
  5
54
  8
DIMNSIONS
  0
BLOCK
  8
DIMNSIONS
  2
*G10
 70
     1
 10
0.0
 20
0.0
 30
0.0
  3
*G10
  1

  0
TEXT
  5
56
  8
DIMNSIONS
 62
     7
 10
149.5
 20
107.88332
 30
0.0
 40
5.6444499999999991
  1
φ75.5
 11
149.5
 21
113.52777
 31
0.0
 73
     3
  0
ENDBLK
  5
57
  8
DIMNSIONS
  0
BLOCK
  8
DIMNSIONS
  2
*G11
 70
     1
 10
0.0
 20
0.0
 30
0.0
  3
*G11
  1

  0
TEXT
  5
59
  8
DIMNSIONS
 62
     7
 10
-128.41111000000001
 20
-129.38049000000001
 30
0.0
 40
5.6444499999999991
  1
83.5
 50
90.0
 11
-134.05556000000001
 21
-129.38049000000001
 31
0.0
 73
     3
  0
ENDBLK
  5
5A
  8
DIMNSIONS
  0
ENDSEC
  0
SECTION
  2
ENTITIES
  0
LINE
  5
5B
  8
HIBINO-BASE
  6
CONTINUOUS
 62
     7
 10
-80.0
 20
403.53181999999993
 30
0.0
 11
280.0
 21
403.53181999999993
 31
0.0
  0
LINE
  5
5C
  8
HIBINO-BASE
  6
CONTINUOUS
 62
     7
 10
280.0
 20
-116.46818
 30
0.0
 11
-80.0
 21
-116.46818
 31
0.0
  0
LINE
  5
5D
  8
HIBINO-BASE
  6
CONTINUOUS
 62
     7
 10
-80.0
 20
-116.46818
 30
0.0
 11
-80.0
 21
403.53181999999993
 31
0.0
  0
TEXT
  5
5E
  8
HIBINO-BASE
 62
     7
 10
-65.632000000000005
 20
-128.72415000000001
 30
0.0
 40
7.4851700000000001
  1
Hibino Corporation
 11
-65.632000000000005
 21
-121.23898
 31
0.0
 73
     3
  0
LINE
  5
5F
  8
HIBINO-BASE
  6
CONTINUOUS
 62
     7
 10
280.0
 20
403.53181999999993
 30
0.0
 11
280.0
 21
-116.46818
 31
0.0
  0
LINE
  5
60
  8
HIBINO-BASE
  6
CONTINUOUS
 62
     7
 10
100.0
 20
-71.46817999999999
 30
0.0
 11
280.0
 21
-71.46817999999999
 31
0.0
  0
LINE
  5
61
  8
HIBINO-BASE
  6
CONTINUOUS
 62
     7
 10
100.0
 20
-116.46818
 30
0.0
 11
100.0
 21
-71.46817999999999
 31
0.0
  0
TEXT
  5
62
  8
HIBINO-BASE
 62
     7
 10
101.8
 20
-76.587490000000003
 30
0.0
 40
3.742589999999999
  1
NOTE
 11
101.8
 21
-72.844899999999996
 31
0.0
 73
     3
  0
LINE
  5
63
  8
HIBINO-BASE
  6
CONTINUOUS
 62
     7
 10
170.0
 20
-116.46818
 30
0.0
 11
170.0
 21
-71.46817999999999
 31
0.0
  0
TEXT
  5
64
  8
HIBINO-BASE
 62
     7
 10
171.80000000000001
 20
-76.587490000000003
 30
0.0
 40
3.742589999999999
  1
TITLE
 11
171.80000000000001
 21
-72.844899999999996
 31
0.0
 73
     3
  0
TEXT
  5
65
  8
HIBINO-BASE
 62
     7
 10
200.1367799999999
 20
-128.72415000000001
 30
0.0
 40
7.4851700000000001
  1
ヒビノ株式会社
 11
200.1367799999999
 21
-121.23898
 31
0.0
 73
     3
  0
LINE
  5
66
  8
HIBINO-BASE
  6
CONTINUOUS
 62
     7
 10
100.0
 20
-96.46817999999999
 30
0.0
 11
280.0
 21
-96.46817999999999
 31
0.0
  0
TEXT
  5
67
  8
HIBINO-BASE
 62
     7
 10
196.80000000000001
 20
-101.47485
 30
0.0
 40
3.742589999999999
  1
DRAWN
 11
196.80000000000001
 21
-97.732260000000011
 31
0.0
 73
     3
  0
TEXT
  5
68
  8
HIBINO-BASE
 62
     7
 10
146.80000000000001
 20
-101.47485
 30
0.0
 40
3.742589999999999
  1
DATE
 11
146.80000000000001
 21
-97.732260000000011
 31
0.0
 73
     3
  0
TEXT
  5
69
  8
HIBINO-BASE
 62
     7
 10
102.2
 20
-101.45309
 30
0.0
 40
3.3866700000000001
  1
図面サイズ
 11
102.2
 21
-98.066419999999994
 31
0.0
 73
     3
  0
TEXT
  5
6A
  8
HIBINO-BASE
 62
     7
 10
126.8
 20
-101.47485
 30
0.0
 40
3.742589999999999
  1
SCALE
 11
126.8
 21
-97.732260000000011
 31
0.0
 73
     3
  0
TEXT
  5
6B
  8
HIBINO-BASE
 62
     7
 10
171.80000000000001
 20
-101.47485
 30
0.0
 40
3.742589999999999
  1
DESIGN
 11
171.80000000000001
 21
-97.732260000000011
 31
0.0
 73
     3
  0
TEXT
  5
6C
  8
HIBINO-BASE
 62
     7
 10
246.7999999999999
 20
-101.47485
 30
0.0
 40
3.742589999999999
  1
DRAWING NO.
 11
246.7999999999999
 21
-97.732260000000011
 31
0.0
 73
     3
  0
TEXT
  5
6D
  8
HIBINO-BASE
 62
     7
 10
221.7999999999999
 20
-101.47485
 30
0.0
 40
3.742589999999999
  1
CHECK
 11
221.7999999999999
 21
-97.732260000000011
 31
0.0
 73
     3
  0
LINE
  5
6E
  8
HIBINO-BASE
  6
CONTINUOUS
 62
     7
 10
128.75
 20
-113.9681799999999
 30
0.0
 11
136.25
 21
-106.46818
 31
0.0
  0
TEXT
  5
6F
  8
HIBINO-BASE
 62
     7
 10
127.5
 20
-109.56095000000001
 30
0.0
 40
4.5155500000000002
  1
1
 11
127.5
 21
-105.0453999999999
 31
0.0
 73
     3
  0
LINE
  5
70
  8
HIBINO-BASE
  6
CONTINUOUS
 62
     7
 10
125.0
 20
-116.46818
 30
0.0
 11
125.0
 21
-96.46817999999999
 31
0.0
  0
LINE
  5
71
  8
HIBINO-BASE
  6
CONTINUOUS
 62
     7
 10
145.0
 20
-116.46818
 30
0.0
 11
145.0
 21
-96.46817999999999
 31
0.0
  0
LINE
  5
72
  8
HIBINO-BASE
  6
CONTINUOUS
 62
     7
 10
195.0
 20
-96.46817999999999
 30
0.0
 11
195.0
 21
-116.46818
 31
0.0
  0
LINE
  5
73
  8
HIBINO-BASE
  6
CONTINUOUS
 62
     7
 10
245.0
 20
-96.46817999999999
 30
0.0
 11
245.0
 21
-116.46818
 31
0.0
  0
LINE
  5
74
  8
HIBINO-BASE
  6
CONTINUOUS
 62
     7
 10
220.0
 20
-116.46818
 30
0.0
 11
220.0
 21
-96.46817999999999
 31
0.0
  0
TEXT
  5
75
  8
HIBINO-BASE
 62
     7
 10
107.82178
 20
-110.96326999999999
 30
0.0
 40
6.7733299999999987
  1
A4
 11
107.82178
 21
-104.18994000000001
 31
0.0
 73
     3
  0
TEXT
  5
76
  8
HIBINO-BASE
 62
     7
 10
145.71307999999991
 20
-110.84281
 30
0.0
 40
3.742589999999999
  1
'01.01.15.
 11
145.71307999999991
 21
-107.10021999999999
 31
0.0
 73
     3
  0
TEXT
  5
77
  8
HIBINO-BASE
 62
     7
 10
135.0
 20
-113.31094999999991
 30
0.0
 40
4.5155500000000002
  1
2
 11
135.0
 21
-108.7954
 31
0.0
 73
     3
  0
LINE
  5
78
  8
SPEC
  6
CONTINUOUS
 62
     7
 10
-65.0
 20
383.53181999999998
 30
0.0
 11
200.0
 21
383.53181999999998
 31
0.0
  0
LINE
  5
79
  8
SPEC
  6
CONTINUOUS
 62
     7
 10
-65.0
 20
376.03181999999998
 30
0.0
 11
200.0
 21
376.03181999999998
 31
0.0
  0
TEXT
  5
7A
  8
SPEC
 62
     7
 10
1.799999999999996
 20
377.904
 30
0.0
 40
3.9510999999999989
  1
アクティブ・リモート･アンテナ･キット(UHF ACTIVE REMOTE ANTENNA KIT)
 11
1.7999999999999969
 21
381.85509999999988
 31
0.0
 73
     3
  0
LINE
  5
7B
  8
SPEC
  6
CONTINUOUS
 62
     7
 10
-65.0
 20
383.53181999999998
 30
0.0
 11
-65.0
 21
301.03181999999998
 31
0.0
  0
TEXT
  5
7C
  8
SPEC
 62
     7
 10
-62.5
 20
386.69936000000001
 30
0.0
 40
5.0800000000000001
  1
仕様
 11
-62.5
 21
391.77935999999988
 31
0.0
 73
     3
  0
LINE
  5
7D
  8
SPEC
  6
CONTINUOUS
 62
     7
 10
0.0
 20
383.53181999999998
 30
0.0
 11
0.0
 21
301.03181999999998
 31
0.0
  0
LINE
  5
7E
  8
SPEC
  6
CONTINUOUS
 62
     7
 10
200.0
 20
383.53181999999998
 30
0.0
 11
200.0
 21
301.03181999999998
 31
0.0
  0
TEXT
  5
7F
  8
SPEC
 62
     7
 10
-63.199999999999989
 20
377.904
 30
0.0
 40
3.9510999999999989
  1
形式
 11
-63.199999999999989
 21
381.85509999999988
 31
0.0
 73
     3
  0
TEXT
  5
80
  8
SPEC
 62
     7
 10
-63.199999999999989
 20
370.40399999999988
 30
0.0
 40
3.9510999999999989
  1
周波数
 11
-63.199999999999989
 21
374.35509999999999
 31
0.0
 73
     3
  0
TEXT
  5
81
  8
SPEC
 62
     7
 10
1.799999999999996
 20
370.40399999999988
 30
0.0
 40
3.9510999999999989
  1
A帯:797～806MHz
 11
1.7999999999999969
 21
374.35509999999999
 31
0.0
 73
     3
  0
LINE
  5
82
  8
SPEC
  6
CONTINUOUS
 62
     7
 10
-65.0
 20
361.03181999999998
 30
0.0
 11
200.0
 21
361.03181999999998
 31
0.0
  0
TEXT
  5
83
  8
SPEC
 62
     7
 10
-63.199999999999989
 20
355.404
 30
0.0
 40
3.9510999999999989
  1
利得
 11
-63.199999999999989
 21
359.35509999999999
 31
0.0
 73
     3
  0
TEXT
  5
84
  8
SPEC
 62
     7
 10
1.799999999999996
 20
355.404
 30
0.0
 40
3.9510999999999989
  1
ゲイン　スイッチ3dB:3.5dB±2.0dB
 11
1.7999999999999969
 21
359.35509999999999
 31
0.0
 73
     3
  0
TEXT
  5
85
  8
SPEC
 62
     7
 10
1.799999999999996
 20
349.404
 30
0.0
 40
3.9510999999999989
  1
ゲイン　スイッチ10dB:10dB±2.0dB
 11
1.7999999999999969
 21
353.35509999999999
 31
0.0
 73
     3
  0
LINE
  5
86
  8
SPEC
  6
CONTINUOUS
 62
     7
 10
-65.0
 20
346.03181999999998
 30
0.0
 11
200.0
 21
346.03181999999998
 31
0.0
  0
TEXT
  5
87
  8
SPEC
 62
     7
 10
-63.199999999999989
 20
340.404
 30
0.0
 40
3.9510999999999989
  1
外装
 11
-63.199999999999989
 21
344.35509999999988
 31
0.0
 73
     3
  0
TEXT
  5
88
  8
SPEC
 62
     7
 10
1.799999999999996
 20
340.404
 30
0.0
 40
3.9510999999999989
  1
黒
 11
1.7999999999999969
 21
344.35509999999988
 31
0.0
 73
     3
  0
LINE
  5
89
  8
SPEC
  6
CONTINUOUS
 62
     7
 10
-65.0
 20
338.53181999999998
 30
0.0
 11
200.0
 21
338.53181999999998
 31
0.0
  0
TEXT
  5
8A
  8
SPEC
 62
     7
 10
1.799999999999996
 20
332.90399999999988
 30
0.0
 40
3.9510999999999989
  1
BNC 50Ω
 11
1.7999999999999969
 21
336.85509999999999
 31
0.0
 73
     3
  0
TEXT
  5
8B
  8
SPEC
 62
     7
 10
-63.199999999999989
 20
333.11959999999988
 30
0.0
 40
3.9510999999999989
  1
コネクター
 11
-63.199999999999989
 21
337.07069999999987
 31
0.0
 73
     3
  0
TEXT
  5
8C
  8
SPEC
 62
     7
 10
1.799999999999996
 20
325.40399999999988
 30
0.0
 40
3.9510999999999989
  1
DC12V 1W±0.3W(入力同軸ケーブルに重畳)
 11
1.7999999999999969
 21
329.35509999999988
 31
0.0
 73
     3
  0
TEXT
  5
8D
  8
SPEC
 62
     7
 10
-63.199999999999989
 20
325.61959999999999
 30
0.0
 40
3.9510999999999989
  1
電源
 11
-63.199999999999989
 21
329.57069999999999
 31
0.0
 73
     3
  0
LINE
  5
8E
  8
SPEC
  6
CONTINUOUS
 62
     7
 10
-65.0
 20
331.03181999999998
 30
0.0
 11
200.0
 21
331.03181999999998
 31
0.0
  0
TEXT
  5
8F
  8
SPEC
 62
     7
 10
1.799999999999996
 20
317.904
 30
0.0
 40
3.9510999999999989
  1
U4S-II,U4D-II,UA840A-JB,UA845A-JB
 11
1.7999999999999969
 21
321.85509999999999
 31
0.0
 73
     3
  0
TEXT
  5
90
  8
SPEC
 62
     7
 10
-63.199999999999989
 20
318.11959999999988
 30
0.0
 40
3.9510999999999989
  1
適応機種
 11
-63.199999999999989
 21
322.07069999999987
 31
0.0
 73
     3
  0
LINE
  5
91
  8
SPEC
  6
CONTINUOUS
 62
     7
 10
-65.0
 20
316.03181999999998
 30
0.0
 11
200.0
 21
316.03181999999998
 31
0.0
  0
LINE
  5
92
  8
SPEC
  6
CONTINUOUS
 62
     7
 10
-65.0
 20
301.03181999999998
 30
0.0
 11
200.0
 21
301.03181999999998
 31
0.0
  0
LINE
  5
93
  8
SPEC
  6
CONTINUOUS
 62
     7
 10
-65.0
 20
308.53181999999998
 30
0.0
 11
200.0
 21
308.53181999999998
 31
0.0
  0
TEXT
  5
94
  8
SPEC
 62
     7
 10
-63.199999999999989
 20
302.80399999999992
 30
0.0
 40
3.9510999999999989
  1
重量
 11
-63.199999999999989
 21
306.75509999999991
 31
0.0
 73
     3
  0
TEXT
  5
95
  8
SPEC
 62
     7
 10
1.799999999999996
 20
310.40399999999988
 30
0.0
 40
3.9510999999999989
  1
112(W)×106.5(H)×75.5(D)mm
 11
1.7999999999999969
 21
314.35509999999988
 31
0.0
 73
     3
  0
TEXT
  5
96
  8
SPEC
 62
     7
 10
1.799999999999996
 20
302.80399999999992
 30
0.0
 40
3.9510999999999989
  1
約425g
 11
1.7999999999999969
 21
306.75509999999991
 31
0.0
 73
     3
  0
TEXT
  5
97
  8
SPEC
 62
     7
 10
-63.199999999999989
 20
310.61959999999999
 30
0.0
 40
3.9510999999999989
  1
寸法
 11
-63.199999999999989
 21
314.57069999999987
 31
0.0
 73
     3
  0
LINE
  5
98
  8
SPEC
  6
CONTINUOUS
 62
     7
 10
-65.0
 20
323.53181999999998
 30
0.0
 11
200.0
 21
323.53181999999998
 31
0.0
  0
TEXT
  5
99
  8
SPEC
 62
     7
 10
1.799999999999996
 20
364.40399999999988
 30
0.0
 40
3.9510999999999989
  1
B帯:806～810MHz
 11
1.7999999999999969
 21
368.35509999999999
 31
0.0
 73
     3
  0
TEXT
  5
9A
  8
DIMNSIONS
 62
     7
 10
60.0
 20
-91.548199999999994
 30
0.0
 40
5.0800000000000001
  1
(単位：mm)
 11
60.0
 21
-86.468199999999996
 31
0.0
 73
     3
  0
LINE
  5
9B
  8
DIMNSIONS
  6
CONTINUOUS
 62
     7
 10
0.0
 20
73.0
 30
0.0
 11
0.0
 21
85.25
 31
0.0
  0
LINE
  5
9C
  8
DIMNSIONS
  6
CONTINUOUS
 62
     7
 10
112.0
 20
73.0
 30
0.0
 11
112.0
 21
85.25
 31
0.0
  0
LINE
  5
9E
  8
DIMNSIONS
 62
     7
 10
0.0
 20
81.25
 30
0.0
 11
6.3499900000000054
 21
82.95147
 31
0.0
  0
LINE
  5
9F
  8
DIMNSIONS
 62
     7
 10
0.0
 20
81.25
 30
0.0
 11
6.3499900000000054
 21
79.548519999999996
 31
0.0
  0
LINE
  5
A0
  8
DIMNSIONS
 62
     7
 10
112.0
 20
81.25
 30
0.0
 11
105.64999999999991
 21
79.548519999999996
 31
0.0
  0
LINE
  5
A1
  8
DIMNSIONS
 62
     7
 10
112.0
 20
81.25
 30
0.0
 11
105.64999999999991
 21
82.95147
 31
0.0
  0
LINE
  5
9D
  8
DIMNSIONS
  6
CONTINUOUS
 62
     7
 10
0.0
 20
81.25
 30
0.0
 11
112.0
 21
81.25
 31
0.0
  0
INSERT
  5
A2
  8
DIMNSIONS
  2
*G0
 10
100.0
 20
140.0
 30
0.0
  0
LINE
  5
A3
  8
DIMNSIONS
  6
CONTINUOUS
 62
     7
 10
-4.0
 20
69.0
 30
0.0
 11
-41.5
 21
69.0
 31
0.0
  0
LINE
  5
A4
  8
DIMNSIONS
  6
CONTINUOUS
 62
     7
 10
-4.0
 20
33.5
 30
0.0
 11
-41.5
 21
33.5
 31
0.0
  0
LINE
  5
A6
  8
DIMNSIONS
 62
     7
 10
-37.5
 20
69.0
 30
0.0
 11
-35.798529999999992
 21
62.649999999999999
 31
0.0
  0
LINE
  5
A7
  8
DIMNSIONS
 62
     7
 10
-37.5
 20
69.0
 30
0.0
 11
-39.201479999999997
 21
62.649999999999999
 31
0.0
  0
LINE
  5
A8
  8
DIMNSIONS
 62
     7
 10
-37.5
 20
33.5
 30
0.0
 11
-39.201479999999997
 21
39.849989999999998
 31
0.0
  0
LINE
  5
A9
  8
DIMNSIONS
 62
     7
 10
-37.5
 20
33.5
 30
0.0
 11
-35.798529999999992
 21
39.849989999999998
 31
0.0
  0
LINE
  5
A5
  8
DIMNSIONS
  6
CONTINUOUS
 62
     7
 10
-37.5
 20
69.0
 30
0.0
 11
-37.5
 21
33.5
 31
0.0
  0
INSERT
  5
AA
  8
DIMNSIONS
  2
*G1
 10
100.0
 20
140.0
 30
0.0
  0
LINE
  5
AB
  8
DIMNSIONS
  6
CONTINUOUS
 62
     7
 10
-4.0
 20
33.5
 30
0.0
 11
-41.5
 21
33.5
 31
0.0
  0
LINE
  5
AC
  8
DIMNSIONS
  6
CONTINUOUS
 62
     7
 10
14.25
 20
-37.5
 30
0.0
 11
-41.5
 21
-37.5
 31
0.0
  0
LINE
  5
AE
  8
DIMNSIONS
 62
     7
 10
-37.5
 20
33.5
 30
0.0
 11
-35.798529999999992
 21
27.149999999999999
 31
0.0
  0
LINE
  5
AF
  8
DIMNSIONS
 62
     7
 10
-37.5
 20
33.5
 30
0.0
 11
-39.201479999999997
 21
27.149999999999999
 31
0.0
  0
LINE
  5
B0
  8
DIMNSIONS
 62
     7
 10
-37.5
 20
-37.5
 30
0.0
 11
-39.201479999999997
 21
-31.150010000000009
 31
0.0
  0
LINE
  5
B1
  8
DIMNSIONS
 62
     7
 10
-37.5
 20
-37.5
 30
0.0
 11
-35.798529999999992
 21
-31.150010000000009
 31
0.0
  0
LINE
  5
AD
  8
DIMNSIONS
  6
CONTINUOUS
 62
     7
 10
-37.5
 20
33.5
 30
0.0
 11
-37.5
 21
-37.5
 31
0.0
  0
INSERT
  5
B2
  8
DIMNSIONS
  2
*G2
 10
100.0
 20
140.0
 30
0.0
  0
LINE
  5
B3
  8
DIMNSIONS
  6
CONTINUOUS
 62
     7
 10
-4.0
 20
69.0
 30
0.0
 11
-54.0
 21
69.0
 31
0.0
  0
LINE
  5
B4
  8
DIMNSIONS
  6
CONTINUOUS
 62
     7
 10
14.25
 20
-37.5
 30
0.0
 11
-54.0
 21
-37.5
 31
0.0
  0
LINE
  5
B6
  8
DIMNSIONS
 62
     7
 10
-50.0
 20
69.0
 30
0.0
 11
-48.298529999999992
 21
62.649999999999999
 31
0.0
  0
LINE
  5
B7
  8
DIMNSIONS
 62
     7
 10
-50.0
 20
69.0
 30
0.0
 11
-51.701480000000011
 21
62.649999999999999
 31
0.0
  0
LINE
  5
B8
  8
DIMNSIONS
 62
     7
 10
-50.0
 20
-37.5
 30
0.0
 11
-51.701480000000011
 21
-31.150010000000009
 31
0.0
  0
LINE
  5
B9
  8
DIMNSIONS
 62
     7
 10
-50.0
 20
-37.5
 30
0.0
 11
-48.298529999999992
 21
-31.150010000000009
 31
0.0
  0
LINE
  5
B5
  8
DIMNSIONS
  6
CONTINUOUS
 62
     7
 10
-50.0
 20
69.0
 30
0.0
 11
-50.0
 21
-37.5
 31
0.0
  0
INSERT
  5
BA
  8
DIMNSIONS
  2
*G3
 10
100.0
 20
140.0
 30
0.0
  0
LINE
  5
BB
  8
DIMNSIONS
  6
CONTINUOUS
 62
     7
 10
-4.0
 20
157.0
 30
0.0
 11
-41.5
 21
157.0
 31
0.0
  0
LINE
  5
BC
  8
DIMNSIONS
  6
CONTINUOUS
 62
     7
 10
-4.0
 20
125.0
 30
0.0
 11
-41.5
 21
125.0
 31
0.0
  0
LINE
  5
BE
  8
DIMNSIONS
 62
     7
 10
-37.5
 20
157.0
 30
0.0
 11
-35.798529999999992
 21
150.65000000000001
 31
0.0
  0
LINE
  5
BF
  8
DIMNSIONS
 62
     7
 10
-37.5
 20
157.0
 30
0.0
 11
-39.201479999999997
 21
150.65000000000001
 31
0.0
  0
LINE
  5
C0
  8
DIMNSIONS
 62
     7
 10
-37.5
 20
125.0
 30
0.0
 11
-39.201479999999997
 21
131.34998999999991
 31
0.0
  0
LINE
  5
C1
  8
DIMNSIONS
 62
     7
 10
-37.5
 20
125.0
 30
0.0
 11
-35.798529999999992
 21
131.34998999999991
 31
0.0
  0
LINE
  5
BD
  8
DIMNSIONS
  6
CONTINUOUS
 62
     7
 10
-37.5
 20
157.0
 30
0.0
 11
-37.5
 21
125.0
 31
0.0
  0
INSERT
  5
C2
  8
DIMNSIONS
  2
*G4
 10
100.0
 20
140.0
 30
0.0
  0
LINE
  5
C3
  8
DIMNSIONS
  6
CONTINUOUS
 62
     7
 10
18.25
 20
-41.5
 30
0.0
 11
18.25
 21
-66.5
 31
0.0
  0
LINE
  5
C4
  8
DIMNSIONS
  6
CONTINUOUS
 62
     7
 10
93.75
 20
-41.5
 30
0.0
 11
93.75
 21
-66.5
 31
0.0
  0
LINE
  5
C6
  8
DIMNSIONS
 62
     7
 10
18.25
 20
-62.5
 30
0.0
 11
24.599989999999998
 21
-60.798529999999992
 31
0.0
  0
LINE
  5
C7
  8
DIMNSIONS
 62
     7
 10
18.25
 20
-62.5
 30
0.0
 11
24.599989999999998
 21
-64.201480000000004
 31
0.0
  0
LINE
  5
C8
  8
DIMNSIONS
 62
     7
 10
93.75
 20
-62.5
 30
0.0
 11
87.400000000000006
 21
-64.201480000000004
 31
0.0
  0
LINE
  5
C9
  8
DIMNSIONS
 62
     7
 10
93.75
 20
-62.5
 30
0.0
 11
87.400000000000006
 21
-60.798529999999992
 31
0.0
  0
LINE
  5
C5
  8
DIMNSIONS
  6
CONTINUOUS
 62
     7
 10
18.25
 20
-62.5
 30
0.0
 11
93.75
 21
-62.5
 31
0.0
  0
INSERT
  5
CA
  8
DIMNSIONS
  2
*G5
 10
100.0
 20
140.0
 30
0.0
  0
LINE
  5
CB
  8
DIMNSIONS
  6
CONTINUOUS
 62
     7
 10
52.0
 20
103.2499999999999
 30
0.0
 11
-54.0
 21
103.2499999999999
 31
0.0
  0
LINE
  5
CC
  8
DIMNSIONS
  6
CONTINUOUS
 62
     7
 10
52.0
 20
178.75
 30
0.0
 11
-54.0
 21
178.75
 31
0.0
  0
LINE
  5
CE
  8
DIMNSIONS
 62
     7
 10
-50.0
 20
103.2499999999999
 30
0.0
 11
-51.701480000000011
 21
109.59999000000001
 31
0.0
  0
LINE
  5
CF
  8
DIMNSIONS
 62
     7
 10
-50.0
 20
103.2499999999999
 30
0.0
 11
-48.298529999999992
 21
109.59999000000001
 31
0.0
  0
LINE
  5
D0
  8
DIMNSIONS
 62
     7
 10
-50.0
 20
178.75
 30
0.0
 11
-48.298529999999992
 21
172.40000000000001
 31
0.0
  0
LINE
  5
D1
  8
DIMNSIONS
 62
     7
 10
-50.0
 20
178.75
 30
0.0
 11
-51.701480000000011
 21
172.40000000000001
 31
0.0
  0
LINE
  5
CD
  8
DIMNSIONS
  6
CONTINUOUS
 62
     7
 10
-50.0
 20
103.2499999999999
 30
0.0
 11
-50.0
 21
178.75
 31
0.0
  0
INSERT
  5
D2
  8
DIMNSIONS
  2
*G6
 10
100.0
 20
140.0
 30
0.0
  0
LINE
  5
D4
  8
DIMNSIONS
 62
     7
 10
205.46050999999991
 20
242.96050999999991
 30
0.0
 11
208.74751000000001
 21
248.65376000000001
 31
0.0
  0
LINE
  5
D5
  8
DIMNSIONS
 62
     7
 10
205.46050999999991
 20
242.96050999999991
 30
0.0
 11
211.15376000000001
 21
246.24751000000001
 31
0.0
  0
LINE
  5
D3
  8
DIMNSIONS
  6
CONTINUOUS
 62
     7
 10
205.46050999999991
 20
242.96050999999991
 30
0.0
 11
224.99999
 21
262.49999000000003
 31
0.0
  0
LINE
  5
D6
  8
DIMNSIONS
  6
CONTINUOUS
 62
     7
 10
224.99999
 20
262.49999000000003
 30
0.0
 11
236.99998999999991
 21
262.49999000000003
 31
0.0
  0
INSERT
  5
D7
  8
DIMNSIONS
  2
*G7
 10
100.0
 20
140.0
 30
0.0
  0
LINE
  5
D8
  8
DIMNSIONS
  6
CONTINUOUS
 62
     7
 10
162.03883999999991
 20
210.30000000000001
 30
0.0
 11
140.73460999999989
 21
198.0
 31
0.0
  0
LINE
  5
D9
  8
DIMNSIONS
  6
CONTINUOUS
 62
     7
 10
212.96115
 20
210.30000000000001
 30
0.0
 11
234.26537999999991
 21
198.0
 31
0.0
  0
SOLID
  5
DA
  8
DIMNSIONS
 62
     7
 10
230.8012699999999
 20
200.0
 30
0.0
 11
228.98922999999991
 21
193.6806599999999
 31
0.0
 12
226.07232999999991
 22
195.43331000000001
 32
0.0
 13
226.07232999999991
 23
195.43331000000001
 33
0.0
  0
SOLID
  5
DB
  8
DIMNSIONS
 62
     7
 10
144.19873000000001
 20
200.0
 30
0.0
 11
148.92765999999989
 21
195.43331000000001
 31
0.0
 12
146.01076
 22
193.6806599999999
 32
0.0
 13
146.01076
 23
193.6806599999999
 33
0.0
  0
ARC
  5
DC
  8
DIMNSIONS
  6
CONTINUOUS
 62
     7
 10
187.5
 20
225.0
 30
0.0
 40
50.0
 50
210.00000010841609
 51
329.9999998915838
  0
INSERT
  5
DD
  8
DIMNSIONS
  2
*G8
 10
100.0
 20
140.0
 30
0.0
  0
LINE
  5
DF
  8
DIMNSIONS
 62
     7
 10
189.85219000000001
 20
252.71456000000001
 30
0.0
 11
193.2380499999999
 21
258.34956999999991
 31
0.0
  0
LINE
  5
E0
  8
DIMNSIONS
 62
     7
 10
189.85219000000001
 20
252.71456000000001
 30
0.0
 11
195.6019299999999
 21
255.90169
 31
0.0
  0
LINE
  5
DE
  8
DIMNSIONS
  6
CONTINUOUS
 62
     7
 10
189.85219000000001
 20
252.71456000000001
 30
0.0
 11
212.49999
 21
275.0
 31
0.0
  0
LINE
  5
E1
  8
DIMNSIONS
  6
CONTINUOUS
 62
     7
 10
212.49999
 20
275.0
 30
0.0
 11
224.49998999999991
 21
275.0
 31
0.0
  0
INSERT
  5
E2
  8
DIMNSIONS
  2
*G9
 10
100.0
 20
140.0
 30
0.0
  0
LINE
  5
E4
  8
DIMNSIONS
 62
     7
 10
221.26463000000001
 20
241.88230999999999
 30
0.0
 11
226.22609
 21
246.19524000000001
 31
0.0
  0
LINE
  5
E5
  8
DIMNSIONS
 62
     7
 10
221.26463000000001
 20
241.88230999999999
 30
0.0
 11
227.71783999999991
 21
243.13668000000001
 31
0.0
  0
LINE
  5
E3
  8
DIMNSIONS
  6
CONTINUOUS
 62
     7
 10
221.26463000000001
 20
241.88230999999999
 30
0.0
 11
237.5
 21
249.99999
 31
0.0
  0
LINE
  5
E6
  8
DIMNSIONS
  6
CONTINUOUS
 62
     7
 10
237.5
 20
249.99999
 30
0.0
 11
249.5
 21
249.99999
 31
0.0
  0
INSERT
  5
E7
  8
DIMNSIONS
  2
*G10
 10
100.0
 20
140.0
 30
0.0
  0
LINE
  5
E8
  8
DIMNSIONS
  6
CONTINUOUS
 62
     7
 10
38.25
 20
-14.5
 30
0.0
 11
-29.0
 21
-14.5
 31
0.0
  0
LINE
  5
E9
  8
DIMNSIONS
  6
CONTINUOUS
 62
     7
 10
-4.0
 20
69.0
 30
0.0
 11
-29.0
 21
69.0
 31
0.0
  0
LINE
  5
EB
  8
DIMNSIONS
 62
     7
 10
-25.0
 20
-14.5
 30
0.0
 11
-26.70148
 21
-8.1500100000000089
 31
0.0
  0
LINE
  5
EC
  8
DIMNSIONS
 62
     7
 10
-25.0
 20
-14.5
 30
0.0
 11
-23.298529999999989
 21
-8.1500100000000089
 31
0.0
  0
LINE
  5
ED
  8
DIMNSIONS
 62
     7
 10
-25.0
 20
69.0
 30
0.0
 11
-23.298529999999989
 21
62.649999999999999
 31
0.0
  0
LINE
  5
EE
  8
DIMNSIONS
 62
     7
 10
-25.0
 20
69.0
 30
0.0
 11
-26.70148
 21
62.649999999999999
 31
0.0
  0
LINE
  5
EA
  8
DIMNSIONS
  6
CONTINUOUS
 62
     7
 10
-25.0
 20
-14.5
 30
0.0
 11
-25.0
 21
69.0
 31
0.0
  0
INSERT
  5
EF
  8
DIMNSIONS
  2
*G11
 10
100.0
 20
140.0
 30
0.0
  0
ARC
  5
F0
  8
DATA
  6
CONTINUOUS
 62
     7
 10
192.30018000000001
 20
14.474449999999999
 30
0.0
 40
14.68261
 50
153.9589392094089
 51
200.01121504968461
  0
ARC
  5
F1
  8
DATA
  6
CONTINUOUS
 62
     7
 10
56.74358999999999
 20
16.23824999999999
 30
0.0
 40
10.289770000000001
 50
94.143141154000631
 51
162.3601430939041
  0
ARC
  5
F2
  8
DATA
  6
CONTINUOUS
 62
     7
 10
162.15825000000001
 20
-13.84936999999999
 30
0.0
 40
119.91001
 50
163.92339494288461
 51
180.31088759263019
  0
TEXT
  5
F3
  8
DATA
 62
     7
 10
194.1999999999999
 20
-79.325399999999988
 30
0.0
 40
5.0800000000000001
  1
SHURE
 11
194.1999999999999
 21
-74.245399999999989
 31
0.0
 73
     3
  0
TEXT
  5
F4
  8
DATA
 62
     7
 10
194.1999999999999
 20
-85.206309999999988
 30
0.0
 40
3.3866700000000001
  1
アクティブ・リモート･アンテナ･キット
 11
194.1999999999999
 21
-81.819639999999978
 31
0.0
 73
     3
  0
TEXT
  5
F5
  8
DATA
 62
     7
 10
194.1999999999999
 20
-93.31483999999999
 30
0.0
 40
5.0800000000000001
  1
UA830A
 11
194.1999999999999
 21
-88.234839999999977
 31
0.0
 73
     3
  0
LINE
  5
F6
  8
DATA
  6
CONTINUOUS
 62
     7
 10
0.0
 20
33.5
 30
0.0
 11
0.0
 21
69.0
 31
0.0
  0
LINE
  5
F7
  8
DATA
  6
CONTINUOUS
 62
     7
 10
18.25
 20
-37.5
 30
0.0
 11
93.75
 21
-37.5
 31
0.0
  0
LINE
  5
F8
  8
DATA
  6
CONTINUOUS
 62
     7
 10
112.0
 20
69.0
 30
0.0
 11
112.0
 21
33.5
 31
0.0
  0
LINE
  5
F9
  8
DATA
  6
CONTINUOUS
 62
     7
 10
0.0
 20
69.0
 30
0.0
 11
112.0
 21
69.0
 31
0.0
  0
LINE
  5
FA
  8
DATA
  6
CONTINUOUS
 62
     7
 10
75.472399999999993
 20
33.5
 30
0.0
 11
112.0
 21
33.5
 31
0.0
  0
LINE
  5
FB
  8
DATA
  6
CONTINUOUS
 62
     7
 10
19.5
 20
-30.5
 30
0.0
 11
92.5
 21
-30.5
 31
0.0
  0
LINE
  5
FC
  8
DATA
  6
CONTINUOUS
 62
     7
 10
43.25
 20
-26.5
 30
0.0
 11
68.75
 21
-26.5
 31
0.0
  0
LINE
  5
FD
  8
DATA
  6
CONTINUOUS
 62
     7
 10
43.25
 20
-26.5
 30
0.0
 11
43.25
 21
-30.5
 31
0.0
  0
LINE
  5
FE
  8
DATA
  6
CONTINUOUS
 62
     7
 10
68.75
 20
-26.5
 30
0.0
 11
68.75
 21
-30.5
 31
0.0
  0
LINE
  5
FF
  8
DATA
  6
CONTINUOUS
 62
     7
 10
18.25
 20
-37.5
 30
0.0
 11
19.5
 21
-30.5
 31
0.0
  0
LINE
  5
100
  8
DATA
  6
CONTINUOUS
 62
     7
 10
93.75
 20
-37.5
 30
0.0
 11
92.5
 21
-30.5
 31
0.0
  0
LINE
  5
101
  8
DATA
  6
CONTINUOUS
 62
     7
 10
48.149999999999999
 20
-18.5
 30
0.0
 11
48.149999999999999
 21
-26.5
 31
0.0
  0
LINE
  5
102
  8
DATA
  6
CONTINUOUS
 62
     7
 10
63.850000000000001
 20
-18.5
 30
0.0
 11
63.850000000000001
 21
-26.5
 31
0.0
  0
LINE
  5
103
  8
DATA
  6
CONTINUOUS
 62
     7
 10
42.25
 20
-14.5
 30
0.0
 11
71.75
 21
-14.5
 31
0.0
  0
LINE
  5
104
  8
DATA
  6
CONTINUOUS
 62
     7
 10
50.0
 20
15.449999999999999
 30
0.0
 11
62.0
 21
15.449999999999999
 31
0.0
  0
CIRCLE
  5
105
  8
DATA
  6
CONTINUOUS
 62
     7
 10
56.0
 20
15.449999999999999
 30
0.0
 40
6.0
  0
LINE
  5
106
  8
DATA
  6
CONTINUOUS
 62
     7
 10
64.0
 20
15.5
 30
0.0
 11
64.0
 21
4.5
 31
0.0
  0
LINE
  5
107
  8
DATA
  6
CONTINUOUS
 62
     7
 10
48.0
 20
15.5
 30
0.0
 11
48.0
 21
4.5
 31
0.0
  0
ARC
  5
108
  8
DATA
  6
CONTINUOUS
 62
     7
 10
56.0
 20
15.5
 30
0.0
 40
8.0
 50
0.0
 51
180.0
  0
ARC
  5
109
  8
DATA
  6
CONTINUOUS
 62
     7
 10
56.0
 20
4.5
 30
0.0
 40
8.0
 50
180.0
 51
0.0
  0
LINE
  5
10A
  8
DATA
  6
CONTINUOUS
 62
     7
 10
38.437339999999992
 20
32.094040000000007
 30
0.0
 11
44.911289999999987
 21
11.281489999999989
 31
0.0
  0
LINE
  5
10B
  8
DATA
  6
CONTINUOUS
 62
     7
 10
0.0
 20
60.75
 30
0.0
 11
112.0
 21
60.75
 31
0.0
  0
LINE
  5
10C
  8
DATA
  6
CONTINUOUS
 62
     7
 10
0.0
 20
41.749999999999993
 30
0.0
 11
112.0
 21
41.749999999999993
 31
0.0
  0
LINE
  5
10D
  8
DATA
  6
CONTINUOUS
 62
     7
 10
94.299999999999983
 20
58.75
 30
0.0
 11
94.299999999999983
 21
43.75
 31
0.0
  0
LINE
  5
10E
  8
DATA
  6
CONTINUOUS
 62
     7
 10
17.699999999999999
 20
43.75
 30
0.0
 11
17.699999999999999
 21
58.75
 31
0.0
  0
LINE
  5
10F
  8
DATA
  6
CONTINUOUS
 62
     7
 10
79.799999999999997
 20
47.75
 30
0.0
 11
79.799999999999997
 21
52.75
 31
0.0
  0
LINE
  5
110
  8
DATA
  6
CONTINUOUS
 62
     7
 10
69.799999999999997
 20
47.75
 30
0.0
 11
69.799999999999997
 21
52.75
 31
0.0
  0
LINE
  5
111
  8
DATA
  6
CONTINUOUS
 62
     7
 10
69.799999999999997
 20
52.75
 30
0.0
 11
79.799999999999997
 21
52.75
 31
0.0
  0
LINE
  5
112
  8
DATA
  6
CONTINUOUS
 62
     7
 10
69.799999999999997
 20
47.75
 30
0.0
 11
79.799999999999997
 21
47.75
 31
0.0
  0
LINE
  5
113
  8
DATA
  6
CONTINUOUS
 62
     7
 10
75.799999999999997
 20
48.25
 30
0.0
 11
75.799999999999997
 21
52.25
 31
0.0
  0
LINE
  5
114
  8
DATA
  6
CONTINUOUS
 62
     7
 10
70.799999999999997
 20
48.25
 30
0.0
 11
70.799999999999997
 21
52.25
 31
0.0
  0
LINE
  5
115
  8
DATA
  6
CONTINUOUS
 62
     7
 10
70.799999999999997
 20
52.25
 30
0.0
 11
75.799999999999997
 21
52.25
 31
0.0
  0
LINE
  5
116
  8
DATA
  6
CONTINUOUS
 62
     7
 10
70.799999999999997
 20
48.25
 30
0.0
 11
75.799999999999997
 21
48.25
 31
0.0
  0
LINE
  5
117
  8
DATA
  6
CONTINUOUS
 62
     7
 10
74.799999999999997
 20
48.25
 30
0.0
 11
74.799999999999997
 21
52.25
 31
0.0
  0
LINE
  5
118
  8
DATA
  6
CONTINUOUS
 62
     7
 10
73.799999999999983
 20
48.25
 30
0.0
 11
73.799999999999983
 21
52.25
 31
0.0
  0
LINE
  5
119
  8
DATA
  6
CONTINUOUS
 62
     7
 10
72.799999999999997
 20
48.25
 30
0.0
 11
72.799999999999997
 21
52.25
 31
0.0
  0
LINE
  5
11A
  8
DATA
  6
CONTINUOUS
 62
     7
 10
71.799999999999983
 20
48.25
 30
0.0
 11
71.799999999999983
 21
52.25
 31
0.0
  0
CIRCLE
  5
11B
  8
DATA
  6
CONTINUOUS
 62
     7
 10
56.0
 20
50.25
 30
0.0
 40
2.5
  0
LINE
  5
11C
  8
DATA
  6
CONTINUOUS
 62
     7
 10
0.0
 20
33.5
 30
0.0
 11
36.5276
 21
33.5
 31
0.0
  0
LINE
  5
11D
  8
DATA
  6
CONTINUOUS
 62
     7
 10
46.5
 20
-18.5
 30
0.0
 11
65.5
 21
-18.5
 31
0.0
  0
LINE
  5
11E
  8
DATA
  6
CONTINUOUS
 62
     7
 10
46.5
 20
-18.5
 30
0.0
 11
46.5
 21
-14.5
 31
0.0
  0
LINE
  5
11F
  8
DATA
  6
CONTINUOUS
 62
     7
 10
65.5
 20
-18.5
 30
0.0
 11
65.5
 21
-14.5
 31
0.0
  0
LINE
  5
120
  8
DATA
  6
CONTINUOUS
 62
     7
 10
61.75
 20
-14.5
 30
0.0
 11
61.75
 21
-18.5
 31
0.0
  0
LINE
  5
121
  8
DATA
  6
CONTINUOUS
 62
     7
 10
50.25
 20
-14.5
 30
0.0
 11
50.25
 21
-18.5
 31
0.0
  0
LINE
  5
122
  8
DATA
  6
CONTINUOUS
 62
     7
 10
71.75
 20
-12.0
 30
0.0
 11
71.75
 21
-14.5
 31
0.0
  0
LINE
  5
123
  8
DATA
  6
CONTINUOUS
 62
     7
 10
71.75
 20
-12.0
 30
0.0
 11
69.707520000000002
 21
-10.59194999999999
 31
0.0
  0
TEXT
  5
124
  8
DATA
 62
     7
 10
48.095999999999989
 20
44.969999999999992
 30
0.0
 40
2.0800000000000001
  1
DC POWER
 72
     1
 11
56.0
 21
47.049999999999997
 31
0.0
 73
     3
  0
TEXT
  5
125
  8
DATA
 62
     7
 10
71.333333333333314
 20
44.969999999999992
 30
0.0
 40
2.0800000000000001
  1
GAIN
 72
     1
 11
74.799999999999997
 21
47.049999999999997
 31
0.0
 73
     3
  0
TEXT
  5
126
  8
DATA
 62
     7
 10
64.286666666666662
 20
54.219999999999999
 30
0.0
 40
2.0800000000000001
  1
+3dB
 72
     1
 11
68.099999999999994
 21
56.29999999999999
 31
0.0
 73
     3
  0
TEXT
  5
127
  8
DATA
 62
     7
 10
78.466666666666669
 20
54.170000000000002
 30
0.0
 40
2.0800000000000001
  1
+10dB
 72
     1
 11
82.799999999999983
 21
56.25
 31
0.0
 73
     3
  0
TEXT
  5
128
  8
DATA
 62
     7
 10
90.299999999999983
 20
49.516666666666673
 30
0.0
 40
2.0800000000000001
  1
TO
 50
90.0
 72
     1
 11
90.299999999999983
 21
51.25
 31
0.0
  0
TEXT
  5
129
  8
DATA
 62
     7
 10
92.900000000000006
 20
43.276666666666671
 30
0.0
 40
2.0800000000000001
  1
RECEIVER
 50
90.0
 72
     1
 11
92.900000000000006
 21
51.25
 31
0.0
  0
LINE
  5
12A
  8
DATA
  6
CONTINUOUS
 62
     7
 10
17.699999999999999
 20
58.75
 30
0.0
 11
94.299999999999983
 21
58.75
 31
0.0
  0
LINE
  5
12B
  8
DATA
  6
CONTINUOUS
 62
     7
 10
17.699999999999999
 20
43.75
 30
0.0
 11
94.299999999999983
 21
43.75
 31
0.0
  0
TEXT
  5
12C
  8
DATA
 62
     7
 10
30.599999999999991
 20
53.849999999999987
 30
0.0
 40
2.0800000000000001
  1
ATTENTION
  0
TEXT
  5
12D
  8
DATA
 62
     7
 10
30.599999999999991
 20
51.25
 30
0.0
 40
2.0800000000000001
  1
USE ONLY 50 OHMS
  0
TEXT
  5
12E
  8
DATA
 62
     7
 10
30.599999999999991
 20
48.650000000000013
 30
0.0
 40
2.0800000000000001
  1
CABLE.[RG-8/X OR
  0
TEXT
  5
12F
  8
DATA
 62
     7
 10
30.599999999999991
 20
46.04999999999999
 30
0.0
 40
2.0800000000000001
  1
EQUIVALENT.]
  0
TEXT
  5
130
  8
DATA
 62
     7
 10
21.399999999999999
 20
49.516666666666673
 30
0.0
 40
2.0800000000000001
  1
TO
 50
90.0
 72
     1
 11
21.399999999999999
 21
51.25
 31
0.0
  0
TEXT
  5
131
  8
DATA
 62
     7
 10
24.0
 20
44.316666666666663
 30
0.0
 40
2.0800000000000001
  1
ANTENNA
 50
90.0
 72
     1
 11
24.0
 21
51.25
 31
0.0
  0
TEXT
  5
132
  8
DATA
 62
     7
 10
10.349999999999991
 20
41.947916666666657
 30
0.0
 40
4.0
  1
SHURE
 50
90.0
 72
     1
 11
6.3499999999999943
 21
51.28125
 31
0.0
 73
     3
  0
TEXT
  5
133
  8
DATA
 62
     7
 10
101.65000000000001
 20
60.614583333333343
 30
0.0
 40
4.0
  1
SHURE
 50
270.0
 72
     1
 11
105.64999999999991
 21
51.28125
 31
0.0
 73
     3
  0
LINE
  5
134
  8
DATA
  6
CONTINUOUS
 62
     7
 10
0.0
 20
125.0
 30
0.0
 11
0.0
 21
157.0
 31
0.0
  0
LINE
  5
135
  8
DATA
  6
CONTINUOUS
 62
     7
 10
112.0
 20
125.0
 30
0.0
 11
112.0
 21
157.0
 31
0.0
  0
LINE
  5
136
  8
DATA
  6
CONTINUOUS
 62
     7
 10
0.0
 20
141.0
 30
0.0
 11
112.0
 21
141.0
 31
0.0
  0
LINE
  5
137
  8
DATA
  6
CONTINUOUS
 62
     7
 10
0.0
 20
157.0
 30
0.0
 11
112.0
 21
157.0
 31
0.0
  0
LINE
  5
138
  8
DATA
  6
CONTINUOUS
 62
     7
 10
0.0
 20
125.0
 30
0.0
 11
112.0
 21
125.0
 31
0.0
  0
LINE
  5
139
  8
DATA
  6
CONTINUOUS
 62
     7
 10
0.0
 20
142.5
 30
0.0
 11
112.0
 21
142.5
 31
0.0
  0
LINE
  5
13A
  8
DATA
  6
CONTINUOUS
 62
     7
 10
0.0
 20
139.5
 30
0.0
 11
112.0
 21
139.5
 31
0.0
  0
LINE
  5
13B
  8
DATA
  6
CONTINUOUS
 62
     7
 10
203.75
 20
60.75
 30
0.0
 11
203.75
 21
41.749999999999993
 31
0.0
  0
LINE
  5
13C
  8
DATA
  6
CONTINUOUS
 62
     7
 10
171.75
 20
60.75
 30
0.0
 11
171.75
 21
41.749999999999993
 31
0.0
  0
LINE
  5
13D
  8
DATA
  6
CONTINUOUS
 62
     7
 10
186.03941
 20
69.0
 30
0.0
 11
171.75
 21
60.75
 31
0.0
  0
LINE
  5
13E
  8
DATA
  6
CONTINUOUS
 62
     7
 10
189.3015199999999
 20
69.0
 30
0.0
 11
203.75
 21
60.75
 31
0.0
  0
LINE
  5
13F
  8
DATA
  6
CONTINUOUS
 62
     7
 10
203.75
 20
41.749999999999993
 30
0.0
 11
189.3015199999999
 21
33.5
 31
0.0
  0
LINE
  5
140
  8
DATA
  6
CONTINUOUS
 62
     7
 10
186.19847999999999
 20
33.5
 30
0.0
 11
171.75
 21
41.749999999999993
 31
0.0
  0
LINE
  5
141
  8
DATA
  6
CONTINUOUS
 62
     7
 10
174.4499999999999
 20
59.442189999999997
 30
0.0
 11
174.4499999999999
 21
43.057810000000003
 31
0.0
  0
LINE
  5
142
  8
DATA
  6
CONTINUOUS
 62
     7
 10
201.0499999999999
 20
59.442189999999997
 30
0.0
 11
201.0499999999999
 21
43.057810000000003
 31
0.0
  0
LINE
  5
143
  8
DATA
  6
CONTINUOUS
 62
     7
 10
186.19847999999999
 20
66.299999999999983
 30
0.0
 11
174.4499999999999
 21
59.442189999999997
 31
0.0
  0
LINE
  5
144
  8
DATA
  6
CONTINUOUS
 62
     7
 10
189.3015199999999
 20
66.299999999999983
 30
0.0
 11
201.0499999999999
 21
59.442189999999997
 31
0.0
  0
LINE
  5
145
  8
DATA
  6
CONTINUOUS
 62
     7
 10
201.0499999999999
 20
43.057810000000003
 30
0.0
 11
189.3015199999999
 21
36.200000000000003
 31
0.0
  0
LINE
  5
146
  8
DATA
  6
CONTINUOUS
 62
     7
 10
186.19847999999999
 20
36.200000000000003
 30
0.0
 11
174.4499999999999
 21
43.057810000000003
 31
0.0
  0
CIRCLE
  5
147
  8
DATA
  6
CONTINUOUS
 62
     7
 10
187.74999999999989
 20
51.25
 30
0.0
 40
4.8499999999999988
  0
LINE
  5
148
  8
DATA
  6
CONTINUOUS
 62
     7
 10
188.69999999999999
 20
56.099999999999987
 30
0.0
 11
188.69999999999999
 21
57.099999999999987
 31
0.0
  0
LINE
  5
149
  8
DATA
  6
CONTINUOUS
 62
     7
 10
186.80000000000001
 20
56.099999999999987
 30
0.0
 11
186.80000000000001
 21
57.099999999999987
 31
0.0
  0
LINE
  5
14A
  8
DATA
  6
CONTINUOUS
 62
     7
 10
188.69999999999999
 20
46.399999999999999
 30
0.0
 11
188.69999999999999
 21
45.399999999999999
 31
0.0
  0
LINE
  5
14B
  8
DATA
  6
CONTINUOUS
 62
     7
 10
186.80000000000001
 20
46.399999999999999
 30
0.0
 11
186.80000000000001
 21
45.399999999999999
 31
0.0
  0
CIRCLE
  5
14C
  8
DATA
  6
CONTINUOUS
 62
     7
 10
187.74999999999989
 20
51.25
 30
0.0
 40
2.25
  0
CIRCLE
  5
14D
  8
DATA
  6
CONTINUOUS
 62
     7
 10
187.74999999999989
 20
51.25
 30
0.0
 40
1.0
  0
CIRCLE
  5
14E
  8
DATA
  6
CONTINUOUS
 62
     7
 10
187.74999999999989
 20
51.25
 30
0.0
 40
5.9266300000000003
  0
POLYLINE
  5
14F
  8
DATA
  6
CONTINUOUS
 62
     7
 66
     1
 10
0.0
 20
0.0
 30
0.0
 70
     1
  0
VERTEX
  5
250
  8
DATA
  6
CONTINUOUS
 62
     7
 10
195.74999999999989
 20
51.25
 30
0.0
  0
VERTEX
  5
251
  8
DATA
  6
CONTINUOUS
 62
     7
 10
191.75004000000001
 20
58.178269999999998
 30
0.0
  0
VERTEX
  5
252
  8
DATA
  6
CONTINUOUS
 62
     7
 10
183.75005999999999
 20
58.178340000000013
 30
0.0
  0
VERTEX
  5
253
  8
DATA
  6
CONTINUOUS
 62
     7
 10
179.75
 20
51.250119999999988
 30
0.0
  0
VERTEX
  5
254
  8
DATA
  6
CONTINUOUS
 62
     7
 10
183.74995000000001
 20
44.321719999999999
 30
0.0
  0
VERTEX
  5
255
  8
DATA
  6
CONTINUOUS
 62
     7
 10
191.74993000000001
 20
44.321649999999998
 30
0.0
  0
SEQEND
  5
256
  8
DATA
  6
CONTINUOUS
 62
     7
  0
LINE
  5
157
  8
DATA
  6
CONTINUOUS
 62
     7
 10
187.74999999999989
 20
33.5
 30
0.0
 11
187.74999999999989
 21
2.0
 31
0.0
  0
LINE
  5
158
  8
DATA
  6
CONTINUOUS
 62
     7
 10
187.74999999999989
 20
69.0
 30
0.0
 11
187.74999999999989
 21
66.299999999999983
 31
0.0
  0
LINE
  5
159
  8
DATA
  6
CONTINUOUS
 62
     7
 10
187.74999999999989
 20
36.200000000000003
 30
0.0
 11
187.74999999999989
 21
33.5
 31
0.0
  0
LINE
  5
15A
  8
DATA
  6
CONTINUOUS
 62
     7
 10
187.74999999999989
 20
34.29999999999999
 30
0.0
 11
187.74999999999989
 21
33.5
 31
0.0
  0
LINE
  5
15B
  8
DATA
  6
CONTINUOUS
 62
     7
 10
186.19847999999999
 20
36.200000000000003
 30
0.0
 11
189.3015199999999
 21
36.200000000000003
 31
0.0
  0
LINE
  5
15C
  8
DATA
  6
CONTINUOUS
 62
     7
 10
186.19847999999999
 20
69.0
 30
0.0
 11
189.3015199999999
 21
69.0
 31
0.0
  0
LINE
  5
15D
  8
DATA
  6
CONTINUOUS
 62
     7
 10
186.19847999999999
 20
66.299999999999983
 30
0.0
 11
189.3015199999999
 21
66.299999999999983
 31
0.0
  0
LINE
  5
15E
  8
DATA
  6
CONTINUOUS
 62
     7
 10
190.25
 20
32.880499999999998
 30
0.0
 11
190.25
 21
0.6999999999999887
 31
0.0
  0
LINE
  5
15F
  8
DATA
  6
CONTINUOUS
 62
     7
 10
185.25
 20
32.880499999999998
 30
0.0
 11
185.25
 21
0.6999999999999887
 31
0.0
  0
ARC
  5
160
  8
DATA
  6
CONTINUOUS
 62
     7
 10
187.74999999999989
 20
4.1999999999999877
 30
0.0
 40
2.5
 50
180.0
 51
0.0
  0
ARC
  5
161
  8
DATA
  6
CONTINUOUS
 62
     7
 10
183.24999999999989
 20
32.880499999999998
 30
0.0
 40
2.0
 50
0.0
 51
60.273844775805557
  0
ARC
  5
162
  8
DATA
  6
CONTINUOUS
 62
     7
 10
192.25
 20
32.880499999999998
 30
0.0
 40
2.0
 50
119.7261552241944
 51
180.0
  0
LINE
  5
163
  8
DATA
  6
CONTINUOUS
 62
     7
 10
174.24999999999989
 20
-14.5
 30
0.0
 11
201.25
 21
-14.5
 31
0.0
  0
LINE
  5
164
  8
DATA
  6
CONTINUOUS
 62
     7
 10
174.24999999999989
 20
-14.5
 30
0.0
 11
174.24999999999989
 21
-3.1999999999999882
 31
0.0
  0
LINE
  5
165
  8
DATA
  6
CONTINUOUS
 62
     7
 10
201.25
 20
-14.5
 30
0.0
 11
201.25
 21
-3.0
 31
0.0
  0
LINE
  5
166
  8
DATA
  6
CONTINUOUS
 62
     7
 10
185.25
 20
26.5
 30
0.0
 11
185.0934
 21
26.5
 31
0.0
  0
ARC
  5
167
  8
DATA
  6
CONTINUOUS
 62
     7
 10
185.09341000000001
 20
20.5
 30
0.0
 40
6.0
 50
90.000095492965855
 51
175.98275931515201
  0
LINE
  5
168
  8
DATA
  6
CONTINUOUS
 62
     7
 10
190.25
 20
26.5
 30
0.0
 11
190.4066
 21
26.5
 31
0.0
  0
ARC
  5
169
  8
DATA
  6
CONTINUOUS
 62
     7
 10
190.40658999999991
 20
20.5
 30
0.0
 40
6.0
 50
4.017240684848022
 51
89.999904507034145
  0
ARC
  5
16A
  8
DATA
  6
CONTINUOUS
 62
     7
 10
187.74999999999989
 20
0.6999999999999887
 30
0.0
 40
2.5
 50
180.0
 51
0.0
  0
LINE
  5
16B
  8
DATA
  6
CONTINUOUS
 62
     7
 10
190.74999999999989
 20
-14.5
 30
0.0
 11
190.74999999999989
 21
-10.5
 31
0.0
  0
LINE
  5
16C
  8
DATA
  6
CONTINUOUS
 62
     7
 10
184.75
 20
-14.5
 30
0.0
 11
184.75
 21
-10.5
 31
0.0
  0
LINE
  5
16D
  8
DATA
  6
CONTINUOUS
 62
     7
 10
184.75
 20
-10.5
 30
0.0
 11
190.74999999999989
 21
-10.5
 31
0.0
  0
LINE
  5
16E
  8
DATA
  6
CONTINUOUS
 62
     7
 10
184.75
 20
-12.0
 30
0.0
 11
190.74999999999989
 21
-12.0
 31
0.0
  0
LINE
  5
16F
  8
DATA
  6
CONTINUOUS
 62
     7
 10
195.59999999999991
 20
-18.5
 30
0.0
 11
195.59999999999991
 21
-26.5
 31
0.0
  0
LINE
  5
170
  8
DATA
  6
CONTINUOUS
 62
     7
 10
179.90000000000001
 20
-18.5
 30
0.0
 11
179.90000000000001
 21
-26.5
 31
0.0
  0
LINE
  5
171
  8
DATA
  6
CONTINUOUS
 62
     7
 10
200.49999999999989
 20
-26.5
 30
0.0
 11
200.49999999999989
 21
-30.5
 31
0.0
  0
LINE
  5
172
  8
DATA
  6
CONTINUOUS
 62
     7
 10
175.0
 20
-26.5
 30
0.0
 11
175.0
 21
-30.5
 31
0.0
  0
LINE
  5
173
  8
DATA
  6
CONTINUOUS
 62
     7
 10
175.0
 20
-26.5
 30
0.0
 11
200.49999999999989
 21
-26.5
 31
0.0
  0
LINE
  5
174
  8
DATA
  6
CONTINUOUS
 62
     7
 10
150.0
 20
-37.5
 30
0.0
 11
225.49999999999989
 21
-37.5
 31
0.0
  0
LINE
  5
175
  8
DATA
  6
CONTINUOUS
 62
     7
 10
151.25
 20
-30.5
 30
0.0
 11
224.25
 21
-30.5
 31
0.0
  0
LINE
  5
176
  8
DATA
  6
CONTINUOUS
 62
     7
 10
150.0
 20
-37.5
 30
0.0
 11
151.25
 21
-30.5
 31
0.0
  0
LINE
  5
177
  8
DATA
  6
CONTINUOUS
 62
     7
 10
225.49999999999989
 20
-37.5
 30
0.0
 11
224.25
 21
-30.5
 31
0.0
  0
LINE
  5
178
  8
DATA
  6
CONTINUOUS
 62
     7
 10
186.19847999999999
 20
33.5
 30
0.0
 11
189.3015199999999
 21
33.5
 31
0.0
  0
LINE
  5
179
  8
DATA
  6
CONTINUOUS
 62
     7
 10
178.24999999999989
 20
-18.5
 30
0.0
 11
197.25
 21
-18.5
 31
0.0
  0
LINE
  5
17A
  8
DATA
  6
CONTINUOUS
 62
     7
 10
178.24999999999989
 20
-18.5
 30
0.0
 11
178.24999999999989
 21
-14.5
 31
0.0
  0
LINE
  5
17B
  8
DATA
  6
CONTINUOUS
 62
     7
 10
197.25
 20
-18.5
 30
0.0
 11
197.25
 21
-14.5
 31
0.0
  0
LINE
  5
17C
  8
DATA
  6
CONTINUOUS
 62
     7
 10
193.5
 20
-14.5
 30
0.0
 11
193.5
 21
-18.5
 31
0.0
  0
LINE
  5
17D
  8
DATA
  6
CONTINUOUS
 62
     7
 10
182.0
 20
-14.5
 30
0.0
 11
182.0
 21
-18.5
 31
0.0
  0
LINE
  5
17E
  8
DATA
  6
CONTINUOUS
 62
     7
 10
125.0
 20
268.75
 30
0.0
 11
125.0
 21
175.0
 31
0.0
  0
LINE
  5
17F
  8
DATA
  6
CONTINUOUS
 62
     7
 10
125.0
 20
175.0
 30
0.0
 11
176.0
 21
124.0
 31
0.0
  0
CIRCLE
  5
180
  8
DATA
  6
CONTINUOUS
 62
     7
 10
187.5
 20
250.40000000000001
 30
0.0
 40
3.2999999999999989
  0
CIRCLE
  5
181
  8
DATA
  6
CONTINUOUS
 62
     7
 10
187.5
 20
250.40000000000001
 30
0.0
 40
6.0
  0
LINE
  5
182
  8
DATA
  6
CONTINUOUS
 62
     7
 10
176.75
 20
193.50119000000001
 30
0.0
 11
198.25
 21
193.50119000000001
 31
0.0
  0
LINE
  5
183
  8
DATA
  6
CONTINUOUS
 62
     7
 10
176.75
 20
198.50119000000001
 30
0.0
 11
198.25
 21
198.50119000000001
 31
0.0
  0
LINE
  5
184
  8
DATA
  6
CONTINUOUS
 62
     7
 10
176.75
 20
198.50119000000001
 30
0.0
 11
176.75
 21
193.50119000000001
 31
0.0
  0
LINE
  5
185
  8
DATA
  6
CONTINUOUS
 62
     7
 10
198.25
 20
198.50119000000001
 30
0.0
 11
198.25
 21
193.50119000000001
 31
0.0
  0
TEXT
  5
186
  8
DATA
 62
     7
 10
177.46000000000001
 20
194.38119
 30
0.0
 40
4.3200000000000003
  1
S
 72
     1
 11
178.90000000000001
 21
198.70118999999991
 31
0.0
 73
     3
  0
TEXT
  5
187
  8
DATA
 62
     7
 10
181.75999999999991
 20
194.38119
 30
0.0
 40
4.3200000000000003
  1
H
 72
     1
 11
183.1999999999999
 21
198.70118999999991
 31
0.0
 73
     3
  0
TEXT
  5
188
  8
DATA
 62
     7
 10
186.05999999999989
 20
194.38119
 30
0.0
 40
4.3200000000000003
  1
U
 72
     1
 11
187.5
 21
198.70118999999991
 31
0.0
 73
     3
  0
TEXT
  5
189
  8
DATA
 62
     7
 10
190.36000000000001
 20
194.38119
 30
0.0
 40
4.3200000000000003
  1
R
 72
     1
 11
191.80000000000001
 21
198.70118999999991
 31
0.0
 73
     3
  0
TEXT
  5
18A
  8
DATA
 62
     7
 10
194.75999999999991
 20
194.38119
 30
0.0
 40
4.3200000000000003
  1
E
 72
     1
 11
196.1999999999999
 21
198.70118999999991
 31
0.0
 73
     3
  0
CIRCLE
  5
18B
  8
DATA
  6
CONTINUOUS
 62
     7
 10
187.5
 20
225.0
 30
0.0
 40
36.5
  0
CIRCLE
  5
18C
  8
DATA
  6
CONTINUOUS
 62
     7
 10
187.5
 20
225.0
 30
0.0
 40
37.75
  0
CIRCLE
  5
18D
  8
DATA
  6
CONTINUOUS
 62
     7
 10
187.5
 20
225.0
 30
0.0
 40
12.75
  0
CIRCLE
  5
18E
  8
DATA
  6
CONTINUOUS
 62
     7
 10
187.5
 20
225.0
 30
0.0
 40
7.8499999999999988
  0
LINE
  5
18F
  8
DATA
  6
CONTINUOUS
 62
     7
 10
195.7274699999999
 20
229.74979999999999
 30
0.0
 11
187.50013999999999
 21
234.5
 31
0.0
  0
LINE
  5
190
  8
DATA
  6
CONTINUOUS
 62
     7
 10
195.72725
 20
220.24981999999989
 30
0.0
 11
195.7274699999999
 21
229.74979999999999
 31
0.0
  0
LINE
  5
191
  8
DATA
  6
CONTINUOUS
 62
     7
 10
187.49970999999991
 20
215.5
 30
0.0
 11
195.72725
 21
220.24981999999989
 31
0.0
  0
LINE
  5
192
  8
DATA
  6
CONTINUOUS
 62
     7
 10
179.2725199999999
 20
220.25019
 30
0.0
 11
187.49970999999991
 21
215.5
 31
0.0
  0
LINE
  5
193
  8
DATA
  6
CONTINUOUS
 62
     7
 10
179.27273999999991
 20
229.75017
 30
0.0
 11
179.2725199999999
 21
220.25019
 31
0.0
  0
LINE
  5
194
  8
DATA
  6
CONTINUOUS
 62
     7
 10
187.50013999999999
 20
234.5
 30
0.0
 11
179.27273999999991
 21
229.75017
 31
0.0
  0
CIRCLE
  5
195
  8
DATA
  6
CONTINUOUS
 62
     7
 10
187.5
 20
225.0
 30
0.0
 40
4.5
  0
CIRCLE
  5
196
  8
DATA
  6
CONTINUOUS
 62
     7
 10
187.5
 20
225.0
 30
0.0
 40
13.0
  0
CIRCLE
  5
197
  8
DATA
  6
CONTINUOUS
 62
     7
 10
56.0
 20
165.50076000000001
 30
0.0
 40
3.2999999999999989
  0
CIRCLE
  5
198
  8
DATA
  6
CONTINUOUS
 62
     7
 10
56.0
 20
165.50076000000001
 30
0.0
 40
6.0
  0
LINE
  5
199
  8
DATA
  6
CONTINUOUS
 62
     7
 10
45.25
 20
109.50118999999999
 30
0.0
 11
66.75
 21
109.50118999999999
 31
0.0
  0
LINE
  5
19A
  8
DATA
  6
CONTINUOUS
 62
     7
 10
45.25
 20
114.50118999999999
 30
0.0
 11
66.75
 21
114.50118999999999
 31
0.0
  0
LINE
  5
19B
  8
DATA
  6
CONTINUOUS
 62
     7
 10
45.25
 20
114.50118999999999
 30
0.0
 11
45.25
 21
109.50118999999999
 31
0.0
  0
LINE
  5
19C
  8
DATA
  6
CONTINUOUS
 62
     7
 10
66.75
 20
114.50118999999999
 30
0.0
 11
66.75
 21
109.50118999999999
 31
0.0
  0
TEXT
  5
19D
  8
DATA
 62
     7
 10
45.960000000000001
 20
110.3811899999999
 30
0.0
 40
4.3200000000000003
  1
S
 72
     1
 11
47.399999999999999
 21
114.70119
 31
0.0
 73
     3
  0
TEXT
  5
19E
  8
DATA
 62
     7
 10
50.259999999999998
 20
110.3811899999999
 30
0.0
 40
4.3200000000000003
  1
H
 72
     1
 11
51.700000000000003
 21
114.70119
 31
0.0
 73
     3
  0
TEXT
  5
19F
  8
DATA
 62
     7
 10
54.560000000000002
 20
110.3811899999999
 30
0.0
 40
4.3200000000000003
  1
U
 72
     1
 11
56.0
 21
114.70119
 31
0.0
 73
     3
  0
TEXT
  5
1A0
  8
DATA
 62
     7
 10
58.859999999999999
 20
110.3811899999999
 30
0.0
 40
4.3200000000000003
  1
R
 72
     1
 11
60.299999999999997
 21
114.70119
 31
0.0
 73
     3
  0
TEXT
  5
1A1
  8
DATA
 62
     7
 10
63.259999999999998
 20
110.3811899999999
 30
0.0
 40
4.3200000000000003
  1
E
 72
     1
 11
64.700000000000003
 21
114.70119
 31
0.0
 73
     3
  0
ARC
  5
1A2
  8
DATA
  6
CONTINUOUS
 62
     7
 10
56.0
 20
141.0
 30
0.0
 40
36.5
 50
25.999044504886619
 51
154.0009554951134
  0
ARC
  5
1A3
  8
DATA
  6
CONTINUOUS
 62
     7
 10
56.0
 20
141.0
 30
0.0
 40
37.75
 50
24.802864209042379
 51
154.9226742993759
  0
ARC
  5
1A4
  8
DATA
  6
CONTINUOUS
 62
     7
 10
56.0
 20
141.0
 30
0.0
 40
36.5
 50
205.9990445048866
 51
334.00095549511332
  0
ARC
  5
1A5
  8
DATA
  6
CONTINUOUS
 62
     7
 10
56.0
 20
141.0
 30
0.0
 40
37.75
 50
205.07732570062399
 51
334.92267429937601
  0
ARC
  5
1A6
  8
DATA
  6
CONTINUOUS
 62
     7
 10
34.78172
 20
128.74961999999991
 30
0.0
 40
6.0
 50
218.6775553205444
 51
321.32244467945549
  0
ARC
  5
1A7
  8
DATA
  6
CONTINUOUS
 62
     7
 10
77.218279999999993
 20
128.74961999999991
 30
0.0
 40
6.0
 50
218.6775553205444
 51
321.32244467945549
  0
CIRCLE
  5
1A8
  8
DATA
  6
VECTORWORKS_DASH_01
 62
     7
 10
187.5
 20
225.0
 30
0.0
 40
25.399999999999999
  0
CIRCLE
  5
1A9
  8
DATA
  6
CONTINUOUS
 62
     7
 10
165.50294999999991
 20
212.30000000000001
 30
0.0
 40
3.2999999999999989
  0
CIRCLE
  5
1AA
  8
DATA
  6
CONTINUOUS
 62
     7
 10
165.50294999999991
 20
212.30000000000001
 30
0.0
 40
6.0
  0
CIRCLE
  5
1AB
  8
DATA
  6
CONTINUOUS
 62
     7
 10
209.49705
 20
212.30000000000001
 30
0.0
 40
3.2999999999999989
  0
CIRCLE
  5
1AC
  8
DATA
  6
CONTINUOUS
 62
     7
 10
209.49705
 20
212.30000000000001
 30
0.0
 40
6.0
  0
ARC
  5
1AD
  8
DATA
  6
CONTINUOUS
 62
     7
 10
55.256410000000002
 20
16.23824999999999
 30
0.0
 40
10.289770000000001
 50
17.639856906095851
 51
85.856858845999369
  0
ARC
  5
1AE
  8
DATA
  6
CONTINUOUS
 62
     7
 10
-50.15825000000001
 20
-13.84936999999999
 30
0.0
 40
119.9100199999999
 50
359.68911240736981
 51
16.07660505711533
  0
POLYLINE
  5
1AF
  8
DATA
  6
CONTINUOUS
 62
     7
 66
     1
 10
0.0
 20
0.0
 30
0.0
 70
   128
  0
VERTEX
  5
257
  8
DATA
  6
CONTINUOUS
 62
     7
 10
174.2474599999999
 20
-3.1999999999999882
 30
0.0
  0
VERTEX
  5
258
  8
DATA
  6
CONTINUOUS
 62
     7
 10
174.24746999999999
 20
-3.1999999999999882
 30
0.0
  0
VERTEX
  5
259
  8
DATA
  6
CONTINUOUS
 62
     7
 10
174.2475299999999
 20
-3.1999999999999882
 30
0.0
  0
VERTEX
  5
25A
  8
DATA
  6
CONTINUOUS
 62
     7
 10
174.24762999999999
 20
-3.1999999999999882
 30
0.0
  0
VERTEX
  5
25B
  8
DATA
  6
CONTINUOUS
 62
     7
 10
174.24777
 20
-3.1999999999999882
 30
0.0
  0
VERTEX
  5
25C
  8
DATA
  6
CONTINUOUS
 62
     7
 10
174.24794999999989
 20
-3.1999999999999882
 30
0.0
  0
VERTEX
  5
25D
  8
DATA
  6
CONTINUOUS
 62
     7
 10
174.24816999999999
 20
-3.1999999999999882
 30
0.0
  0
VERTEX
  5
25E
  8
DATA
  6
CONTINUOUS
 62
     7
 10
174.2484299999999
 20
-3.1999999999999882
 30
0.0
  0
VERTEX
  5
25F
  8
DATA
  6
CONTINUOUS
 62
     7
 10
174.24872999999999
 20
-3.1999999999999882
 30
0.0
  0
VERTEX
  5
260
  8
DATA
  6
CONTINUOUS
 62
     7
 10
174.24872999999999
 20
-3.1999999999999882
 30
0.0
  0
VERTEX
  5
261
  8
DATA
  6
CONTINUOUS
 62
     7
 10
174.57151999999999
 20
-3.1495099999999918
 30
0.0
  0
VERTEX
  5
262
  8
DATA
  6
CONTINUOUS
 62
     7
 10
174.88885999999991
 20
-2.9980400000000031
 30
0.0
  0
VERTEX
  5
263
  8
DATA
  6
CONTINUOUS
 62
     7
 10
175.20074999999991
 20
-2.7455799999999888
 30
0.0
  0
VERTEX
  5
264
  8
DATA
  6
CONTINUOUS
 62
     7
 10
175.50718999999989
 20
-2.3921300000000079
 30
0.0
  0
VERTEX
  5
265
  8
DATA
  6
CONTINUOUS
 62
     7
 10
175.80816999999999
 20
-1.937700000000006
 30
0.0
  0
VERTEX
  5
266
  8
DATA
  6
CONTINUOUS
 62
     7
 10
176.10371000000001
 20
-1.3822800000000079
 30
0.0
  0
VERTEX
  5
267
  8
DATA
  6
CONTINUOUS
 62
     7
 10
176.3938
 20
-0.7258799999999895
 30
0.0
  0
VERTEX
  5
268
  8
DATA
  6
CONTINUOUS
 62
     7
 10
176.67843999999991
 20
0.0315099999999973
 30
0.0
  0
VERTEX
  5
269
  8
DATA
  6
CONTINUOUS
 62
     7
 10
176.67843999999991
 20
0.0315099999999973
 30
0.0
  0
VERTEX
  5
26A
  8
DATA
  6
CONTINUOUS
 62
     7
 10
176.95289
 20
0.8763500000000021
 30
0.0
  0
VERTEX
  5
26B
  8
DATA
  6
CONTINUOUS
 62
     7
 10
177.21245999999991
 20
1.7951199999999969
 30
0.0
  0
VERTEX
  5
26C
  8
DATA
  6
CONTINUOUS
 62
     7
 10
177.45713000000001
 20
2.787810000000007
 30
0.0
  0
VERTEX
  5
26D
  8
DATA
  6
CONTINUOUS
 62
     7
 10
177.6869199999999
 20
3.8544300000000069
 30
0.0
  0
VERTEX
  5
26E
  8
DATA
  6
CONTINUOUS
 62
     7
 10
177.90179999999989
 20
4.994969999999995
 30
0.0
  0
VERTEX
  5
26F
  8
DATA
  6
CONTINUOUS
 62
     7
 10
178.10179999999991
 20
6.2094399999999998
 30
0.0
  0
VERTEX
  5
270
  8
DATA
  6
CONTINUOUS
 62
     7
 10
178.28689999999989
 20
7.4978399999999956
 30
0.0
  0
VERTEX
  5
271
  8
DATA
  6
CONTINUOUS
 62
     7
 10
178.45710999999989
 20
8.8601700000000108
 30
0.0
  0
VERTEX
  5
272
  8
DATA
  6
CONTINUOUS
 62
     7
 10
178.45710999999989
 20
8.8601700000000108
 30
0.0
  0
VERTEX
  5
273
  8
DATA
  6
CONTINUOUS
 62
     7
 10
178.60968999999989
 20
10.272979999999979
 30
0.0
  0
VERTEX
  5
274
  8
DATA
  6
CONTINUOUS
 62
     7
 10
178.74194
 20
11.71285
 30
0.0
  0
VERTEX
  5
275
  8
DATA
  6
CONTINUOUS
 62
     7
 10
178.85382999999999
 20
13.17977999999999
 30
0.0
  0
VERTEX
  5
276
  8
DATA
  6
CONTINUOUS
 62
     7
 10
178.94538999999989
 20
14.67377999999999
 30
0.0
  0
VERTEX
  5
277
  8
DATA
  6
CONTINUOUS
 62
     7
 10
179.01659000000001
 20
16.194829999999989
 30
0.0
  0
VERTEX
  5
278
  8
DATA
  6
CONTINUOUS
 62
     7
 10
179.0674599999999
 20
17.742940000000001
 30
0.0
  0
VERTEX
  5
279
  8
DATA
  6
CONTINUOUS
 62
     7
 10
179.09797
 20
19.318110000000001
 30
0.0
  0
VERTEX
  5
27A
  8
DATA
  6
CONTINUOUS
 62
     7
 10
179.10814999999991
 20
20.920339999999989
 30
0.0
  0
VERTEX
  5
27B
  8
DATA
  6
CONTINUOUS
 62
     7
 10
179.10814999999991
 20
20.920339999999989
 30
0.0
  0
SEQEND
  5
27C
  8
DATA
  6
CONTINUOUS
 62
     7
  0
ARC
  5
1D6
  8
DATA
  6
CONTINUOUS
 62
     7
 10
183.1998199999999
 20
14.474449999999999
 30
0.0
 40
14.68261
 50
339.98878495031528
 51
26.041060790591018
  0
POLYLINE
  5
1D7
  8
DATA
  6
CONTINUOUS
 62
     7
 66
     1
 10
0.0
 20
0.0
 30
0.0
 70
   128
  0
VERTEX
  5
27D
  8
DATA
  6
CONTINUOUS
 62
     7
 10
201.25254000000001
 20
-3.1999999999999882
 30
0.0
  0
VERTEX
  5
27E
  8
DATA
  6
CONTINUOUS
 62
     7
 10
201.25252
 20
-3.1999999999999882
 30
0.0
  0
VERTEX
  5
27F
  8
DATA
  6
CONTINUOUS
 62
     7
 10
201.2524599999999
 20
-3.1999999999999882
 30
0.0
  0
VERTEX
  5
280
  8
DATA
  6
CONTINUOUS
 62
     7
 10
201.25236000000001
 20
-3.1999999999999882
 30
0.0
  0
VERTEX
  5
281
  8
DATA
  6
CONTINUOUS
 62
     7
 10
201.25221999999991
 20
-3.1999999999999882
 30
0.0
  0
VERTEX
  5
282
  8
DATA
  6
CONTINUOUS
 62
     7
 10
201.25203999999999
 20
-3.1999999999999882
 30
0.0
  0
VERTEX
  5
283
  8
DATA
  6
CONTINUOUS
 62
     7
 10
201.25182000000001
 20
-3.1999999999999882
 30
0.0
  0
VERTEX
  5
284
  8
DATA
  6
CONTINUOUS
 62
     7
 10
201.2515599999999
 20
-3.1999999999999882
 30
0.0
  0
VERTEX
  5
285
  8
DATA
  6
CONTINUOUS
 62
     7
 10
201.25127000000001
 20
-3.1999999999999882
 30
0.0
  0
VERTEX
  5
286
  8
DATA
  6
CONTINUOUS
 62
     7
 10
201.25127000000001
 20
-3.1999999999999882
 30
0.0
  0
VERTEX
  5
287
  8
DATA
  6
CONTINUOUS
 62
     7
 10
200.92847
 20
-3.1495099999999918
 30
0.0
  0
VERTEX
  5
288
  8
DATA
  6
CONTINUOUS
 62
     7
 10
200.61113
 20
-2.9980400000000031
 30
0.0
  0
VERTEX
  5
289
  8
DATA
  6
CONTINUOUS
 62
     7
 10
200.29922999999991
 20
-2.7455799999999888
 30
0.0
  0
VERTEX
  5
28A
  8
DATA
  6
CONTINUOUS
 62
     7
 10
199.9927999999999
 20
-2.3921300000000079
 30
0.0
  0
VERTEX
  5
28B
  8
DATA
  6
CONTINUOUS
 62
     7
 10
199.69179999999989
 20
-1.937700000000006
 30
0.0
  0
VERTEX
  5
28C
  8
DATA
  6
CONTINUOUS
 62
     7
 10
199.39626999999999
 20
-1.3822800000000079
 30
0.0
  0
VERTEX
  5
28D
  8
DATA
  6
CONTINUOUS
 62
     7
 10
199.10617999999991
 20
-0.7258799999999895
 30
0.0
  0
VERTEX
  5
28E
  8
DATA
  6
CONTINUOUS
 62
     7
 10
198.82156000000001
 20
0.0315099999999973
 30
0.0
  0
VERTEX
  5
28F
  8
DATA
  6
CONTINUOUS
 62
     7
 10
198.82156000000001
 20
0.0315099999999973
 30
0.0
  0
VERTEX
  5
290
  8
DATA
  6
CONTINUOUS
 62
     7
 10
198.54708999999991
 20
0.8763500000000021
 30
0.0
  0
VERTEX
  5
291
  8
DATA
  6
CONTINUOUS
 62
     7
 10
198.28752
 20
1.7951199999999969
 30
0.0
  0
VERTEX
  5
292
  8
DATA
  6
CONTINUOUS
 62
     7
 10
198.04284000000001
 20
2.787810000000007
 30
0.0
  0
VERTEX
  5
293
  8
DATA
  6
CONTINUOUS
 62
     7
 10
197.8130699999999
 20
3.8544300000000069
 30
0.0
  0
VERTEX
  5
294
  8
DATA
  6
CONTINUOUS
 62
     7
 10
197.59818000000001
 20
4.994969999999995
 30
0.0
  0
VERTEX
  5
295
  8
DATA
  6
CONTINUOUS
 62
     7
 10
197.39819
 20
6.2094399999999998
 30
0.0
  0
VERTEX
  5
296
  8
DATA
  6
CONTINUOUS
 62
     7
 10
197.21308999999991
 20
7.4978399999999956
 30
0.0
  0
VERTEX
  5
297
  8
DATA
  6
CONTINUOUS
 62
     7
 10
197.04289
 20
8.8601700000000108
 30
0.0
  0
VERTEX
  5
298
  8
DATA
  6
CONTINUOUS
 62
     7
 10
197.04289
 20
8.8601700000000108
 30
0.0
  0
VERTEX
  5
299
  8
DATA
  6
CONTINUOUS
 62
     7
 10
196.8903
 20
10.272979999999979
 30
0.0
  0
VERTEX
  5
29A
  8
DATA
  6
CONTINUOUS
 62
     7
 10
196.75805999999989
 20
11.71285
 30
0.0
  0
VERTEX
  5
29B
  8
DATA
  6
CONTINUOUS
 62
     7
 10
196.64616000000001
 20
13.17977999999999
 30
0.0
  0
VERTEX
  5
29C
  8
DATA
  6
CONTINUOUS
 62
     7
 10
196.55461
 20
14.67377999999999
 30
0.0
  0
VERTEX
  5
29D
  8
DATA
  6
CONTINUOUS
 62
     7
 10
196.48339999999999
 20
16.194829999999989
 30
0.0
  0
VERTEX
  5
29E
  8
DATA
  6
CONTINUOUS
 62
     7
 10
196.43253999999999
 20
17.742940000000001
 30
0.0
  0
VERTEX
  5
29F
  8
DATA
  6
CONTINUOUS
 62
     7
 10
196.40201999999999
 20
19.318110000000001
 30
0.0
  0
VERTEX
  5
2A0
  8
DATA
  6
CONTINUOUS
 62
     7
 10
196.39185000000001
 20
20.920339999999989
 30
0.0
  0
VERTEX
  5
2A1
  8
DATA
  6
CONTINUOUS
 62
     7
 10
196.39185000000001
 20
20.920339999999989
 30
0.0
  0
SEQEND
  5
2A2
  8
DATA
  6
CONTINUOUS
 62
     7
  0
LINE
  5
1FE
  8
DATA
  6
CONTINUOUS
 62
     7
 10
73.562659999999994
 20
32.094040000000007
 30
0.0
 11
67.088709999999992
 21
11.281489999999989
 31
0.0
  0
ARC
  5
1FF
  8
DATA
  6
CONTINUOUS
 62
     7
 10
36.5276
 20
31.5
 30
0.0
 40
2.0
 50
17.278726432477111
 51
90.0
  0
ARC
  5
200
  8
DATA
  6
CONTINUOUS
 62
     7
 10
75.472399999999993
 20
31.5
 30
0.0
 40
2.0
 50
90.0
 51
162.7212735675229
  0
LINE
  5
201
  8
DATA
  6
CONTINUOUS
 62
     7
 10
-3.125
 20
51.25
 30
0.0
 11
-12.5
 21
51.25
 31
0.0
  0
TEXT
  5
202
  8
DATA
 62
     7
 10
-23.788879999999999
 20
54.556669999999997
 30
0.0
 40
4.5155500000000002
  1
アンテナ
 11
-23.788879999999999
 21
59.072220000000002
 31
0.0
 73
     3
  0
LINE
  5
203
  8
DATA
  6
CONTINUOUS
 62
     7
 10
-12.5
 20
51.25
 30
0.0
 11
-7.6703700000000046
 21
52.5441
 31
0.0
  0
LINE
  5
204
  8
DATA
  6
CONTINUOUS
 62
     7
 10
-12.5
 20
51.25
 30
0.0
 11
-7.6703700000000046
 21
49.955899999999993
 31
0.0
  0
LINE
  5
205
  8
DATA
  6
CONTINUOUS
 62
     7
 10
118.0
 20
51.25
 30
0.0
 11
127.3749999999999
 21
51.25
 31
0.0
  0
LINE
  5
206
  8
DATA
  6
CONTINUOUS
 62
     7
 10
127.3749999999999
 20
51.25
 30
0.0
 11
122.54536999999991
 21
52.5441
 31
0.0
  0
LINE
  5
207
  8
DATA
  6
CONTINUOUS
 62
     7
 10
127.3749999999999
 20
51.25
 30
0.0
 11
122.54536999999991
 21
49.955899999999993
 31
0.0
  0
TEXT
  5
208
  8
DATA
 62
     7
 10
117.13890000000001
 20
54.556669999999997
 30
0.0
 40
4.5155500000000002
  1
レシーバー
 11
117.13890000000001
 21
59.072220000000002
 31
0.0
 73
     3
  0
ENDSEC
  0
EOF
