  0
SECTION
  2
HEADER
  9
$ACADVER
  1
AC1009
  9
$INSBASE
 10
0.0
 20
0.0
 30
0.0
  9
$EXTMIN
 10
-80.010985489337244
 20
-94.211997237302526
 30
-0.0015258207003583
  9
$EXTMAX
 10
280.01096716571772
 20
441.0481115134059
 30
0.0000000349246037
  9
$LIMMIN
 10
0.0
 20
0.0
  9
$LIMMAX
 10
0.0
 20
0.0
  9
$ORTHOMODE
 70
     0
  9
$REGENMODE
 70
     1
  9
$FILLMODE
 70
     1
  9
$QTEXTMODE
 70
     0
  9
$MIRRTEXT
 70
     1
  9
$DRAGMODE
 70
     2
  9
$LTSCALE
 40
10.16
  9
$OSMODE
 70
   231
  9
$ATTMODE
 70
     1
  9
$TEXTSIZE
 40
0.0
  9
$TRACEWID
 40
1.0
  9
$TEXTSTYLE
  7
STANDARD
  9
$CLAYER
  8
DATA
  9
$CELTYPE
  6
CONTINUOUS
  9
$CECOLOR
 62
   256
  9
$DIMSCALE
 40
1.0
  9
$DIMASZ
 40
0.18
  9
$DIMEXO
 40
0.0625
  9
$DIMDLI
 40
0.38
  9
$DIMRND
 40
0.0
  9
$DIMDLE
 40
0.0
  9
$DIMEXE
 40
0.18
  9
$DIMTP
 40
0.0
  9
$DIMTM
 40
0.0
  9
$DIMTXT
 40
0.18
  9
$DIMCEN
 40
0.09
  9
$DIMTSZ
 40
0.0
  9
$DIMTOL
 70
     0
  9
$DIMLIM
 70
     0
  9
$DIMTIH
 70
     1
  9
$DIMTOH
 70
     1
  9
$DIMSE1
 70
     0
  9
$DIMSE2
 70
     0
  9
$DIMTAD
 70
     0
  9
$DIMZIN
 70
     0
  9
$DIMBLK
  1

  9
$DIMASO
 70
     1
  9
$DIMSHO
 70
     1
  9
$DIMPOST
  1

  9
$DIMAPOST
  1

  9
$DIMALT
 70
     0
  9
$DIMALTD
 70
     2
  9
$DIMALTF
 40
25.399999999999999
  9
$DIMLFAC
 40
1.0
  9
$DIMTOFL
 70
     0
  9
$DIMTVP
 40
0.0
  9
$DIMTIX
 70
     0
  9
$DIMSOXD
 70
     0
  9
$DIMSAH
 70
     0
  9
$DIMBLK1
  1

  9
$DIMBLK2
  1

  9
$DIMSTYLE
  2
STANDARD
  9
$DIMCLRD
 70
     0
  9
$DIMCLRE
 70
     0
  9
$DIMCLRT
 70
     0
  9
$DIMTFAC
 40
1.0
  9
$DIMGAP
 40
0.09
  9
$LUNITS
 70
     2
  9
$LUPREC
 70
     4
  9
$SKETCHINC
 40
0.1
  9
$FILLETRAD
 40
0.0
  9
$AUNITS
 70
     0
  9
$AUPREC
 70
     0
  9
$MENU
  1
acad
  9
$ELEVATION
 40
0.0
  9
$PELEVATION
 40
0.0
  9
$THICKNESS
 40
0.0
  9
$LIMCHECK
 70
     0
  9
$BLIPMODE
 70
     0
  9
$CHAMFERA
 40
0.0
  9
$CHAMFERB
 40
0.0
  9
$SKPOLY
 70
     0
  9
$TDCREATE
 40
2453780.721412037
  9
$TDUPDATE
 40
2453780.72182154
  9
$TDINDWG
 40
0.0003309375
  9
$TDUSRTIMER
 40
0.0003307639
  9
$USRTIMER
 70
     1
  9
$ANGBASE
 50
0.0
  9
$ANGDIR
 70
     0
  9
$PDMODE
 70
     1
  9
$PDSIZE
 40
-2.0
  9
$PLINEWID
 40
0.0
  9
$COORDS
 70
     2
  9
$SPLFRAME
 70
     0
  9
$SPLINETYPE
 70
     6
  9
$SPLINESEGS
 70
     8
  9
$ATTDIA
 70
     0
  9
$ATTREQ
 70
     1
  9
$HANDLING
 70
     1
  9
$HANDSEED
  5
27A
  9
$SURFTAB1
 70
     6
  9
$SURFTAB2
 70
     6
  9
$SURFTYPE
 70
     6
  9
$SURFU
 70
     6
  9
$SURFV
 70
     6
  9
$UCSNAME
  2

  9
$UCSORG
 10
0.0
 20
0.0
 30
0.0
  9
$UCSXDIR
 10
1.0
 20
0.0
 30
0.0
  9
$UCSYDIR
 10
0.0
 20
1.0
 30
0.0
  9
$PUCSNAME
  2

  9
$PUCSORG
 10
0.0
 20
0.0
 30
0.0
  9
$PUCSXDIR
 10
1.0
 20
0.0
 30
0.0
  9
$PUCSYDIR
 10
0.0
 20
1.0
 30
0.0
  9
$USERI1
 70
     0
  9
$USERI2
 70
     0
  9
$USERI3
 70
     0
  9
$USERI4
 70
     0
  9
$USERI5
 70
     0
  9
$USERR1
 40
0.0
  9
$USERR2
 40
0.0
  9
$USERR3
 40
0.0
  9
$USERR4
 40
0.0
  9
$USERR5
 40
0.0
  9
$WORLDVIEW
 70
     1
  9
$SHADEDGE
 70
     3
  9
$SHADEDIF
 70
    70
  9
$TILEMODE
 70
     1
  9
$MAXACTVP
 70
    64
  9
$PLIMCHECK
 70
     0
  9
$PEXTMIN
 10
1.0000000000000000E+020
 20
1.0000000000000000E+020
 30
1.0000000000000000E+020
  9
$PEXTMAX
 10
-1.0000000000000000E+020
 20
-1.0000000000000000E+020
 30
-1.0000000000000000E+020
  9
$PLIMMIN
 10
0.0
 20
0.0
  9
$PLIMMAX
 10
12.0
 20
9.0
  9
$UNITMODE
 70
     0
  9
$VISRETAIN
 70
     0
  9
$PLINEGEN
 70
     1
  9
$PSLTSCALE
 70
     0
  0
ENDSEC
  0
SECTION
  2
TABLES
  0
TABLE
  2
VPORT
 70
     2
  0
VPORT
  2
*ACTIVE
 70
     0
 10
0.0
 20
0.0
 11
1.0
 21
1.0
 12
99.999990838190229
 22
173.41805713805169
 13
0.0
 23
0.0
 14
1.0
 24
1.0
 15
0.0
 25
0.0
 16
0.0
 26
0.0
 36
1.0
 17
0.0
 27
0.0
 37
0.0
 40
539.68984758174884
 41
1.665745856353591
 42
50.0
 43
0.0
 44
0.0
 50
0.0
 51
0.0
 71
     0
 72
  2000
 73
     1
 74
     1
 75
     0
 76
     0
 77
     0
 78
     0
  0
ENDTAB
  0
TABLE
  2
LTYPE
 70
    11
  0
LTYPE
  2
CONTINUOUS
 70
     0
  3
Solid line
 72
    65
 73
     0
 40
0.0
  0
LTYPE
  2
STYLE_01
 70
     0
  3

 72
    65
 73
     2
 40
0.4166412353515625
 49
0.208282470703125
 49
-0.2083587646484375
  0
ENDTAB
  0
TABLE
  2
LAYER
 70
     5
  0
LAYER
  2
0
 70
     0
 62
     7
  6
CONTINUOUS
  0
LAYER
  2
DATA
 70
     0
 62
     7
  6
CONTINUOUS
  0
LAYER
  2
HIBINO-BASE
 70
     0
 62
     7
  6
CONTINUOUS
  0
LAYER
  2
SPEC
 70
     0
 62
     7
  6
CONTINUOUS
  0
LAYER
  2
DIMNSIONS
 70
     0
 62
     7
  6
CONTINUOUS
  0
ENDTAB
  0
TABLE
  2
STYLE
 70
     3
  0
STYLE
  2
STANDARD
 70
     0
 40
0.0
 41
1.0
 50
0.0
 71
     0
 42
0.0
  3
txt
  4
BIGFONT.SHX
  0
ENDTAB
  0
TABLE
  2
VIEW
 70
     0
  0
ENDTAB
  0
TABLE
  2
UCS
 70
     0
  0
ENDTAB
  0
TABLE
  2
APPID
 70
     1
  0
APPID
  2
ACAD
 70
     0
  0
ENDTAB
  0
TABLE
  2
DIMSTYLE
 70
     1
  0
DIMSTYLE
  2
STANDARD
 70
     0
  3

  4

  5

  6

  7

 40
1.0
 41
0.18
 42
0.0625
 43
0.38
 44
0.18
 45
0.0
 46
0.0
 47
0.0
 48
0.0
140
0.18
141
0.09
142
0.0
143
25.399999999999999
144
1.0
145
0.0
146
1.0
147
0.09
 71
     0
 72
     0
 73
     1
 74
     1
 75
     0
 76
     0
 77
     0
 78
     0
170
     0
171
     2
172
     0
173
     0
174
     0
175
     0
176
     0
177
     0
178
     0
  0
ENDTAB
  0
ENDSEC
  0
SECTION
  2
BLOCKS
  0
BLOCK
  8
0
  2
$MODEL_SPACE
 70
     0
 10
0.0
 20
0.0
 30
0.0
  3
$MODEL_SPACE
  1

  0
ENDBLK
  5
201
  8
0
  0
BLOCK
 67
     1
  8
0
  2
$PAPER_SPACE
 70
     0
 10
0.0
 20
0.0
 30
0.0
  3
$PAPER_SPACE
  1

  0
ENDBLK
  5
1FD
 67
     1
  8
0
  0
ENDSEC
  0
SECTION
  2
ENTITIES
  0
LINE
  5
2D
  8
HIBINO-BASE
  6
CONTINUOUS
 62
     7
 10
-80.0
 20
441.03181000000001
 30
0.0
 11
279.99997999999999
 21
441.03181000000001
 31
0.0
  0
LINE
  5
2E
  8
HIBINO-BASE
  6
CONTINUOUS
 62
     7
 10
279.99997999999999
 20
-78.968179999999975
 30
0.0
 11
-80.0
 21
-78.968179999999975
 31
0.0
  0
LINE
  5
2F
  8
HIBINO-BASE
  6
CONTINUOUS
 62
     7
 10
-80.0
 20
-78.968179999999975
 30
0.0
 11
-80.0
 21
441.03181000000001
 31
0.0
  0
TEXT
  5
30
  8
HIBINO-BASE
 62
     7
 10
-65.631999999999977
 20
-91.785527000000016
 30
0.0
 40
7.200080664062499
  1
Hibino Corporation
 41
0.8
 11
-65.631999999999977
 21
-84.585446335937505
 31
0.0
 73
     3
  0
LINE
  5
31
  8
HIBINO-BASE
  6
CONTINUOUS
 62
     7
 10
279.99997999999999
 20
441.03181000000001
 30
0.0
 11
279.99997999999999
 21
-78.968179999999975
 31
0.0
  0
LINE
  5
32
  8
HIBINO-BASE
  6
CONTINUOUS
 62
     7
 10
99.999989999999997
 20
-33.968189999999993
 30
0.0
 11
279.99997999999999
 21
-33.968189999999993
 31
0.0
  0
LINE
  5
33
  8
HIBINO-BASE
  6
CONTINUOUS
 62
     7
 10
99.999989999999997
 20
-78.968179999999975
 30
0.0
 11
99.999989999999997
 21
-33.968189999999993
 31
0.0
  0
TEXT
  5
34
  8
HIBINO-BASE
 62
     7
 10
101.79998000000001
 20
-39.368196399999988
 30
0.0
 40
3.6000518750000001
  1
NOTE
 41
0.8
 11
101.79998000000001
 21
-35.768144524999997
 31
0.0
 73
     3
  0
LINE
  5
35
  8
HIBINO-BASE
  6
CONTINUOUS
 62
     7
 10
169.99999
 20
-78.968179999999975
 30
0.0
 11
169.99999
 21
-33.968189999999993
 31
0.0
  0
TEXT
  5
36
  8
HIBINO-BASE
 62
     7
 10
171.79998999999989
 20
-39.368196399999988
 30
0.0
 40
3.6000518750000001
  1
TITLE
 41
0.8
 11
171.79998999999989
 21
-35.768144524999997
 31
0.0
 73
     3
  0
TEXT
  5
37
  8
HIBINO-BASE
 62
     7
 10
200.13676000000001
 20
-91.785527000000016
 30
0.0
 40
7.200080664062499
  1
ヒビノ株式会社
 41
0.8
 11
200.13676000000001
 21
-84.585446335937505
 31
0.0
 73
     3
  0
LINE
  5
38
  8
HIBINO-BASE
  6
CONTINUOUS
 62
     7
 10
99.999989999999997
 20
-58.968189999999993
 30
0.0
 11
279.99997999999999
 21
-58.968189999999993
 31
0.0
  0
TEXT
  5
39
  8
HIBINO-BASE
 62
     7
 10
196.79999000000001
 20
-64.255546399999972
 30
0.0
 40
3.6000518750000001
  1
DRAWN
 41
0.8
 11
196.79999000000001
 21
-60.655494524999973
 31
0.0
 73
     3
  0
TEXT
  5
3A
  8
HIBINO-BASE
 62
     7
 10
146.79998999999989
 20
-64.255546399999972
 30
0.0
 40
3.6000518750000001
  1
DATE
 41
0.8
 11
146.79998999999989
 21
-60.655494524999973
 31
0.0
 73
     3
  0
TEXT
  5
3B
  8
HIBINO-BASE
 62
     7
 10
102.19998
 20
-64.207083800000007
 30
0.0
 40
3.257679726562499
  1
図面サイズ
 41
0.8
 11
102.19998
 21
-60.949404073437499
 31
0.0
 73
     3
  0
TEXT
  5
3C
  8
HIBINO-BASE
 62
     7
 10
126.79998000000001
 20
-64.255546399999972
 30
0.0
 40
3.6000518750000001
  1
SCALE
 41
0.8
 11
126.79998000000001
 21
-60.655494524999973
 31
0.0
 73
     3
  0
TEXT
  5
3D
  8
HIBINO-BASE
 62
     7
 10
171.79998999999989
 20
-64.255546399999972
 30
0.0
 40
3.6000518750000001
  1
DESIGN
 41
0.8
 11
171.79998999999989
 21
-60.655494524999973
 31
0.0
 73
     3
  0
TEXT
  5
3E
  8
HIBINO-BASE
 62
     7
 10
246.79998000000001
 20
-64.255546399999972
 30
0.0
 40
3.6000518750000001
  1
DRAWING NO.
 41
0.8
 11
246.79998000000001
 21
-60.655494524999973
 31
0.0
 73
     3
  0
TEXT
  5
3F
  8
HIBINO-BASE
 62
     7
 10
221.79998000000001
 20
-64.255546399999972
 30
0.0
 40
3.6000518750000001
  1
CHECK
 41
0.8
 11
221.79998000000001
 21
-60.655494524999973
 31
0.0
 73
     3
  0
LINE
  5
40
  8
HIBINO-BASE
  6
CONTINUOUS
 62
     7
 10
128.74997999999999
 20
-76.468189999999979
 30
0.0
 11
136.24999
 21
-68.968189999999993
 31
0.0
  0
TEXT
  5
41
  8
HIBINO-BASE
 62
     7
 10
127.49997999999999
 20
-72.399618399999966
 30
0.0
 40
4.3435729687500002
  1
1
 41
0.8
 11
127.49997999999999
 21
-68.05604543124997
 31
0.0
 73
     3
  0
LINE
  5
42
  8
HIBINO-BASE
  6
CONTINUOUS
 62
     7
 10
124.99997999999999
 20
-78.968179999999975
 30
0.0
 11
124.99997999999999
 21
-58.968189999999993
 31
0.0
  0
LINE
  5
43
  8
HIBINO-BASE
  6
CONTINUOUS
 62
     7
 10
144.99997999999999
 20
-78.968179999999975
 30
0.0
 11
144.99997999999999
 21
-58.968189999999993
 31
0.0
  0
LINE
  5
44
  8
HIBINO-BASE
  6
CONTINUOUS
 62
     7
 10
194.99997999999999
 20
-58.968189999999993
 30
0.0
 11
194.99997999999999
 21
-78.968179999999975
 31
0.0
  0
LINE
  5
45
  8
HIBINO-BASE
  6
CONTINUOUS
 62
     7
 10
244.99999
 20
-58.968189999999993
 30
0.0
 11
244.99999
 21
-78.968179999999975
 31
0.0
  0
LINE
  5
46
  8
HIBINO-BASE
  6
CONTINUOUS
 62
     7
 10
219.99997999999999
 20
-78.968179999999975
 30
0.0
 11
219.99997999999999
 21
-58.968189999999993
 31
0.0
  0
TEXT
  5
47
  8
HIBINO-BASE
 62
     7
 10
107.82177
 20
-73.971258999999961
 30
0.0
 40
6.5153517578124989
  1
A4
 41
0.8
 11
107.82177
 21
-67.455907242187465
 31
0.0
 73
     3
  0
TEXT
  5
48
  8
HIBINO-BASE
 62
     7
 10
145.71306999999999
 20
-73.623506399999982
 30
0.0
 40
3.6000518750000001
  1
'05.12.
 41
0.8
 11
145.71306999999999
 21
-70.023454524999977
 31
0.0
 73
     3
  0
TEXT
  5
49
  8
HIBINO-BASE
 62
     7
 10
134.99999
 20
-76.149618399999966
 30
0.0
 40
4.3435729687500002
  1
2
 41
0.8
 11
134.99999
 21
-71.80604543124997
 31
0.0
 73
     3
  0
LINE
  5
4A
  8
SPEC
  6
CONTINUOUS
 62
     7
 10
-65.0
 20
421.03181000000001
 30
0.0
 11
199.99997999999999
 21
421.03181000000001
 31
0.0
  0
LINE
  5
4B
  8
SPEC
  6
CONTINUOUS
 62
     7
 10
-65.0
 20
413.53181000000001
 30
0.0
 11
199.99997999999999
 21
413.53181000000001
 31
0.0
  0
TEXT
  5
4C
  8
SPEC
 62
     7
 10
1.8000000000000109
 20
415.10763555555542
 30
0.0
 40
3.8006293402777769
  1
UHFワイドバンド・アクティブ・リモート･アンテナ･キット
 41
0.8
 11
1.8000000000000109
 21
418.90826489583321
 31
0.0
 73
     3
  0
LINE
  5
4D
  8
SPEC
  6
CONTINUOUS
 62
     7
 10
-65.0
 20
421.03181000000001
 30
0.0
 11
-65.0
 21
346.03179999999998
 31
0.0
  0
TEXT
  5
4E
  8
SPEC
 62
     7
 10
-62.5
 20
423.81833999999998
 30
0.0
 40
4.8865234375000002
  1
仕様
 41
0.8
 11
-62.5
 21
428.70486343750002
 31
0.0
 73
     3
  0
LINE
  5
4F
  8
SPEC
  6
CONTINUOUS
 62
     7
 10
0.0
 20
421.03181000000001
 30
0.0
 11
0.0
 21
346.03179999999998
 31
0.0
  0
LINE
  5
50
  8
SPEC
  6
CONTINUOUS
 62
     7
 10
199.99997999999999
 20
421.03181000000001
 30
0.0
 11
199.99997999999999
 21
346.03179999999998
 31
0.0
  0
TEXT
  5
51
  8
SPEC
 62
     7
 10
-63.199999999999989
 20
415.10763555555542
 30
0.0
 40
3.8006293402777769
  1
形式
 41
0.8
 11
-63.199999999999989
 21
418.90826489583321
 31
0.0
 73
     3
  0
TEXT
  5
52
  8
SPEC
 62
     7
 10
-63.199999999999989
 20
407.60764555555551
 30
0.0
 40
3.8006293402777769
  1
対応周波数
 41
0.8
 11
-63.199999999999989
 21
411.4082748958333
 31
0.0
 73
     3
  0
TEXT
  5
53
  8
SPEC
 62
     7
 10
1.8000000000000109
 20
407.60764555555551
 30
0.0
 40
3.8006293402777769
  1
470～900MHz
 41
0.8
 11
1.8000000000000109
 21
411.4082748958333
 31
0.0
 73
     3
  0
LINE
  5
54
  8
SPEC
  6
CONTINUOUS
 62
     7
 10
-65.0
 20
406.03180999999989
 30
0.0
 11
199.99997999999999
 21
406.03180999999989
 31
0.0
  0
TEXT
  5
55
  8
SPEC
 62
     7
 10
-63.199999999999989
 20
400.10764555555551
 30
0.0
 40
3.8006293402777769
  1
利得
 41
0.8
 11
-63.199999999999989
 21
403.9082748958333
 31
0.0
 73
     3
  0
TEXT
  5
56
  8
SPEC
 62
     7
 10
1.8000000000000109
 20
400.10764555555551
 30
0.0
 40
3.8006293402777769
  1
ゲインスイッチ3dB:3.5dB±2.0dB
 41
0.8
 11
1.8000000000000109
 21
403.9082748958333
 31
0.0
 73
     3
  0
LINE
  5
57
  8
SPEC
  6
CONTINUOUS
 62
     7
 10
-65.0
 20
391.03181000000001
 30
0.0
 11
199.99997999999999
 21
391.03181000000001
 31
0.0
  0
TEXT
  5
58
  8
SPEC
 62
     7
 10
-63.199999999999989
 20
385.10764555555551
 30
0.0
 40
3.8006293402777769
  1
外装
 41
0.8
 11
-63.199999999999989
 21
388.9082748958333
 31
0.0
 73
     3
  0
TEXT
  5
59
  8
SPEC
 62
     7
 10
1.8000000000000109
 20
385.10764555555551
 30
0.0
 40
3.8006293402777769
  1
アルミダイキャスト黒色塗装仕上げ
 41
0.8
 11
1.8000000000000109
 21
388.9082748958333
 31
0.0
 73
     3
  0
LINE
  5
5A
  8
SPEC
  6
CONTINUOUS
 62
     7
 10
-65.0
 20
383.53181000000001
 30
0.0
 11
199.99997999999999
 21
383.53181000000001
 31
0.0
  0
TEXT
  5
5B
  8
SPEC
 62
     7
 10
1.8000000000000109
 20
377.60764555555551
 30
0.0
 40
3.8006293402777769
  1
BNC、インピーダンス:50Ω
 41
0.8
 11
1.8000000000000109
 21
381.4082748958333
 31
0.0
 73
     3
  0
TEXT
  5
5C
  8
SPEC
 62
     7
 10
-63.199999999999989
 20
377.8232455555555
 30
0.0
 40
3.8006293402777769
  1
コネクター
 41
0.8
 11
-63.199999999999989
 21
381.6238748958333
 31
0.0
 73
     3
  0
TEXT
  5
5D
  8
SPEC
 62
     7
 10
1.8000000000000109
 20
370.10764555555551
 30
0.0
 40
3.8006293402777769
  1
DC12V 0.6～0.72W(受信機より同軸ケーブルに重畳して供給)
 41
0.8
 11
1.8000000000000109
 21
373.9082748958333
 31
0.0
 73
     3
  0
TEXT
  5
5E
  8
SPEC
 62
     7
 10
-63.199999999999989
 20
370.3232455555555
 30
0.0
 40
3.8006293402777769
  1
電源
 41
0.8
 11
-63.199999999999989
 21
374.1238748958333
 31
0.0
 73
     3
  0
LINE
  5
5F
  8
SPEC
  6
CONTINUOUS
 62
     7
 10
-65.0
 20
376.03181000000001
 30
0.0
 11
199.99997999999999
 21
376.03181000000001
 31
0.0
  0
TEXT
  5
60
  8
SPEC
 62
     7
 10
1.8000000000000109
 20
362.60764555555551
 30
0.0
 40
3.8006293402777769
  1
UR4、U4、ULXP4、ULXS4、UA845US
 41
0.8
 11
1.8000000000000109
 21
366.4082748958333
 31
0.0
 73
     3
  0
TEXT
  5
61
  8
SPEC
 62
     7
 10
-63.199999999999989
 20
362.8232455555555
 30
0.0
 40
3.8006293402777769
  1
対応製品
 41
0.8
 11
-63.199999999999989
 21
366.6238748958333
 31
0.0
 73
     3
  0
LINE
  5
62
  8
SPEC
  6
CONTINUOUS
 62
     7
 10
-65.0
 20
361.03181000000001
 30
0.0
 11
199.99997999999999
 21
361.03181000000001
 31
0.0
  0
LINE
  5
63
  8
SPEC
  6
CONTINUOUS
 62
     7
 10
-65.0
 20
346.03179999999998
 30
0.0
 11
199.99997999999999
 21
346.03179999999998
 31
0.0
  0
LINE
  5
64
  8
SPEC
  6
CONTINUOUS
 62
     7
 10
-65.0
 20
353.53181000000001
 30
0.0
 11
199.99997999999999
 21
353.53181000000001
 31
0.0
  0
TEXT
  5
65
  8
SPEC
 62
     7
 10
-63.199999999999989
 20
347.50764555555548
 30
0.0
 40
3.8006293402777769
  1
重量
 41
0.8
 11
-63.199999999999989
 21
351.30827489583328
 31
0.0
 73
     3
  0
TEXT
  5
66
  8
SPEC
 62
     7
 10
1.8000000000000109
 20
355.10764555555551
 30
0.0
 40
3.8006293402777769
  1
112×84×32mm(マウンティングベース除く)
 41
0.8
 11
1.8000000000000109
 21
358.9082748958333
 31
0.0
 73
     3
  0
TEXT
  5
67
  8
SPEC
 62
     7
 10
1.8000000000000109
 20
347.50764555555548
 30
0.0
 40
3.8006293402777769
  1
約420g
 41
0.8
 11
1.8000000000000109
 21
351.30827489583328
 31
0.0
 73
     3
  0
TEXT
  5
68
  8
SPEC
 62
     7
 10
-63.199999999999989
 20
355.3232455555555
 30
0.0
 40
3.8006293402777769
  1
寸法(W×H×D)
 41
0.8
 11
-63.199999999999989
 21
359.1238748958333
 31
0.0
 73
     3
  0
LINE
  5
69
  8
SPEC
  6
CONTINUOUS
 62
     7
 10
-65.0
 20
368.53181000000001
 30
0.0
 11
199.99997999999999
 21
368.53181000000001
 31
0.0
  0
TEXT
  5
6A
  8
SPEC
 62
     7
 10
1.8000000000000109
 20
392.60764555555551
 30
0.0
 40
3.8006293402777769
  1
ゲインスイッチ10dB:10dB±2.0dB
 41
0.8
 11
1.8000000000000109
 21
396.4082748958333
 31
0.0
 73
     3
  0
LINE
  5
6B
  8
SPEC
  6
CONTINUOUS
 62
     7
 10
0.0
 20
398.53181000000001
 30
0.0
 11
199.99997999999999
 21
398.53181000000001
 31
0.0
  0
TEXT
  5
6C
  8
DIMNSIONS
 62
     7
 10
59.99998999999999
 20
-54.429199999999987
 30
0.0
 40
4.8865234375000002
  1
(単位：mm)
 41
0.8
 11
59.99998999999999
 21
-49.542676562499992
 31
0.0
 73
     3
  0
LINE
  5
6D
  8
DIMNSIONS
  6
CONTINUOUS
 62
     7
 10
0.0
 20
110.49998998509879
 30
0.0
 11
0.0
 21
122.7499799850988
 31
0.0
  0
LINE
  5
6E
  8
DIMNSIONS
  6
CONTINUOUS
 62
     7
 10
111.99997999999999
 20
110.49998998509879
 30
0.0
 11
111.99997999999999
 21
122.7499799850988
 31
0.0
  0
LINE
  5
6F
  8
DIMNSIONS
  6
CONTINUOUS
 62
     7
 10
0.0
 20
118.74997999999999
 30
0.0
 11
111.99997999999999
 21
118.74997999999999
 31
0.0
  0
LINE
  5
70
  8
DIMNSIONS
  6
CONTINUOUS
 62
     7
 10
0.0
 20
118.74997999999999
 30
0.0
 11
6.3499999999999934
 21
120.45145737193759
 31
0.0
  0
LINE
  5
71
  8
DIMNSIONS
  6
CONTINUOUS
 62
     7
 10
0.0
 20
118.74997999999999
 30
0.0
 11
6.3499999999999934
 21
117.04850262806229
 31
0.0
  0
LINE
  5
72
  8
DIMNSIONS
  6
CONTINUOUS
 62
     7
 10
111.99997999999999
 20
118.74997999999999
 30
0.0
 11
105.64998
 21
117.04850262806229
 31
0.0
  0
LINE
  5
73
  8
DIMNSIONS
  6
CONTINUOUS
 62
     7
 10
111.99997999999999
 20
118.74997999999999
 30
0.0
 11
105.64998
 21
120.45145737193759
 31
0.0
  0
TEXT
  5
74
  8
DIMNSIONS
 62
     7
 10
50.708327706989699
 20
121.7377469999999
 30
0.0
 40
5.4294662109375
  1
112
 41
0.8
 11
50.708327706989699
 21
127.1672132109374
 31
0.0
 73
     3
  0
LINE
  5
75
  8
DIMNSIONS
  6
CONTINUOUS
 62
     7
 10
-3.9999999850988388
 20
106.49999
 30
0.0
 11
-28.999999985098839
 21
106.49999
 31
0.0
  0
LINE
  5
76
  8
DIMNSIONS
  6
CONTINUOUS
 62
     7
 10
-3.9999999850988388
 20
70.999989999999997
 30
0.0
 11
-28.999999985098839
 21
70.999989999999997
 31
0.0
  0
LINE
  5
77
  8
DIMNSIONS
  6
CONTINUOUS
 62
     7
 10
-25.0
 20
106.49999
 30
0.0
 11
-25.0
 21
70.999989999999997
 31
0.0
  0
LINE
  5
78
  8
DIMNSIONS
  6
CONTINUOUS
 62
     7
 10
-25.0
 20
106.49999
 30
0.0
 11
-23.298522628062369
 21
100.14999
 31
0.0
  0
LINE
  5
79
  8
DIMNSIONS
  6
CONTINUOUS
 62
     7
 10
-25.0
 20
106.49999
 30
0.0
 11
-26.701477371937631
 21
100.14999
 31
0.0
  0
LINE
  5
7A
  8
DIMNSIONS
  6
CONTINUOUS
 62
     7
 10
-25.0
 20
70.999989999999997
 30
0.0
 11
-26.701477371937631
 21
77.349989999999977
 31
0.0
  0
LINE
  5
7B
  8
DIMNSIONS
  6
CONTINUOUS
 62
     7
 10
-25.0
 20
70.999989999999997
 30
0.0
 11
-23.298522628062369
 21
77.349989999999977
 31
0.0
  0
TEXT
  5
7C
  8
DIMNSIONS
 62
     7
 10
-27.987767000000002
 20
80.472218575675925
 30
0.0
 40
5.4294662109375
  1
36
 50
90.0
 41
0.8
 11
-33.417233210937503
 21
80.472218575675925
 31
0.0
 73
     3
  0
LINE
  5
7D
  8
DIMNSIONS
  6
CONTINUOUS
 62
     7
 10
-3.9999999850988388
 20
106.49999
 30
0.0
 11
-53.99998998509885
 21
106.49999
 31
0.0
  0
LINE
  5
7E
  8
DIMNSIONS
  6
CONTINUOUS
 62
     7
 10
14.250000014901159
 20
-0.0000100000000032
 30
0.0
 11
-53.99998998509885
 21
-0.0000100000000032
 31
0.0
  0
LINE
  5
7F
  8
DIMNSIONS
  6
CONTINUOUS
 62
     7
 10
-49.99998999999999
 20
106.49999
 30
0.0
 11
-49.99998999999999
 21
-0.0000100000000032
 31
0.0
  0
LINE
  5
80
  8
DIMNSIONS
  6
CONTINUOUS
 62
     7
 10
-49.99998999999999
 20
106.49999
 30
0.0
 11
-48.298512628062383
 21
100.14999
 31
0.0
  0
LINE
  5
81
  8
DIMNSIONS
  6
CONTINUOUS
 62
     7
 10
-49.99998999999999
 20
106.49999
 30
0.0
 11
-51.701467371937639
 21
100.14999
 31
0.0
  0
LINE
  5
82
  8
DIMNSIONS
  6
CONTINUOUS
 62
     7
 10
-49.99998999999999
 20
-0.0000100000000032
 30
0.0
 11
-51.701467371937639
 21
6.3499899999999911
 31
0.0
  0
LINE
  5
83
  8
DIMNSIONS
  6
CONTINUOUS
 62
     7
 10
-49.99998999999999
 20
-0.0000100000000032
 30
0.0
 11
-48.298512628062362
 21
6.3499899999999911
 31
0.0
  0
TEXT
  5
84
  8
DIMNSIONS
 62
     7
 10
-52.987756999999959
 20
47.958327706989699
 30
0.0
 40
5.4294662109375
  1
107
 50
90.0
 41
0.8
 11
-58.417223210937472
 21
47.958327706989699
 31
0.0
 73
     3
  0
LINE
  5
85
  8
DIMNSIONS
  6
CONTINUOUS
 62
     7
 10
-3.9999999850988388
 20
194.49999
 30
0.0
 11
-41.499999985098839
 21
194.49999
 31
0.0
  0
LINE
  5
86
  8
DIMNSIONS
  6
CONTINUOUS
 62
     7
 10
-3.9999999850988388
 20
162.5
 30
0.0
 11
-41.499999985098839
 21
162.5
 31
0.0
  0
LINE
  5
87
  8
DIMNSIONS
  6
CONTINUOUS
 62
     7
 10
-37.5
 20
194.49999
 30
0.0
 11
-37.5
 21
162.5
 31
0.0
  0
LINE
  5
88
  8
DIMNSIONS
  6
CONTINUOUS
 62
     7
 10
-37.5
 20
194.49999
 30
0.0
 11
-35.798522628062379
 21
188.14999
 31
0.0
  0
LINE
  5
89
  8
DIMNSIONS
  6
CONTINUOUS
 62
     7
 10
-37.5
 20
194.49999
 30
0.0
 11
-39.201477371937642
 21
188.14999
 31
0.0
  0
LINE
  5
8A
  8
DIMNSIONS
  6
CONTINUOUS
 62
     7
 10
-37.5
 20
162.5
 30
0.0
 11
-39.201477371937642
 21
168.84999999999999
 31
0.0
  0
LINE
  5
8B
  8
DIMNSIONS
  6
CONTINUOUS
 62
     7
 10
-37.5
 20
162.5
 30
0.0
 11
-35.798522628062358
 21
168.84999999999999
 31
0.0
  0
TEXT
  5
8C
  8
DIMNSIONS
 62
     7
 10
-40.487766999999998
 20
174.97221991370299
 30
0.0
 40
5.4294662109375
  1
32
 50
90.0
 41
0.8
 11
-45.917233210937503
 21
174.97221991370299
 31
0.0
 73
     3
  0
LINE
  5
8D
  8
DIMNSIONS
  6
CONTINUOUS
 62
     7
 10
205.46050077767219
 20
280.46050077767222
 30
0.0
 11
225.0
 21
300.0
 31
0.0
  0
LINE
  5
8E
  8
DIMNSIONS
  6
CONTINUOUS
 62
     7
 10
205.46050077767219
 20
280.46050077767222
 30
0.0
 11
208.74750265047419
 21
286.15375502593929
 31
0.0
  0
LINE
  5
8F
  8
DIMNSIONS
  6
CONTINUOUS
 62
     7
 10
205.46050077767219
 20
280.46050077767222
 30
0.0
 11
211.15375502593929
 21
283.74750265047419
 31
0.0
  0
LINE
  5
90
  8
DIMNSIONS
  6
CONTINUOUS
 62
     7
 10
225.0
 20
300.0
 30
0.0
 11
237.00000000260769
 21
300.0
 31
0.0
  0
TEXT
  5
91
  8
DIMNSIONS
 62
     7
 10
237.00000000260769
 20
297.46000199999997
 30
0.0
 40
5.4294662109375
  1
φ50.8
 41
0.8
 11
237.00000000260769
 21
302.88946821093748
 31
0.0
 73
     3
  0
LINE
  5
92
  8
DIMNSIONS
  6
CONTINUOUS
 62
     7
 10
162.0388379227912
 20
247.799990830133
 30
0.0
 11
140.734610456627
 21
235.49999611366161
 31
0.0
  0
LINE
  5
93
  8
DIMNSIONS
  6
CONTINUOUS
 62
     7
 10
212.96113247090909
 20
247.7999915120426
 30
0.0
 11
234.26535485832761
 21
235.50000531943999
 31
0.0
  0
ARC
  5
94
  8
DIMNSIONS
  6
CONTINUOUS
 62
     7
 10
187.49997999999999
 20
262.49997999999999
 30
0.0
 40
49.99998999999999
 50
209.9999863929427
 51
330.00002488574972
  0
LINE
  5
95
  8
DIMNSIONS
  6
CONTINUOUS
 62
     7
 10
230.8012523874184
 20
237.50000380739741
 30
0.0
 11
229.0997750154807
 21
231.1500038073973
 31
0.0
  0
LINE
  5
96
  8
DIMNSIONS
  6
CONTINUOUS
 62
     7
 10
230.8012523874184
 20
237.50000380739741
 30
0.0
 11
226.15272975935599
 21
232.851481179335
 31
0.0
  0
LINE
  5
97
  8
DIMNSIONS
  6
CONTINUOUS
 62
     7
 10
144.1987125338357
 20
237.49999528352859
 30
0.0
 11
148.84723516189811
 21
232.8514726554661
 31
0.0
  0
LINE
  5
98
  8
DIMNSIONS
  6
CONTINUOUS
 62
     7
 10
144.1987125338357
 20
237.49999528352859
 30
0.0
 11
145.90018990577329
 21
231.14999528352851
 31
0.0
  0
TEXT
  5
99
  8
DIMNSIONS
 62
     7
 10
178.6805486724557
 20
204.43222613194581
 30
0.0
 40
5.4294662109375
  1
120°
 50
0.0000056393462312
 41
0.8
 11
178.68054813805969
 21
209.86169234288329
 31
0.0
 73
     3
  0
LINE
  5
9A
  8
DIMNSIONS
  6
CONTINUOUS
 62
     7
 10
189.85218
 20
290.21454999999992
 30
0.0
 11
212.4999790249222
 21
312.49998422418889
 31
0.0
  0
LINE
  5
9B
  8
DIMNSIONS
  6
CONTINUOUS
 62
     7
 10
189.85218
 20
290.21454999999992
 30
0.0
 11
193.23804223358741
 21
295.84957104542491
 31
0.0
  0
LINE
  5
9C
  8
DIMNSIONS
  6
CONTINUOUS
 62
     7
 10
189.85218
 20
290.21454999999992
 30
0.0
 11
195.6019332307134
 21
293.40169025940418
 31
0.0
  0
LINE
  5
9D
  8
DIMNSIONS
  6
CONTINUOUS
 62
     7
 10
212.4999790249222
 20
312.49998422418889
 30
0.0
 11
224.4999790275298
 21
312.49998422418889
 31
0.0
  0
TEXT
  5
9E
  8
DIMNSIONS
 62
     7
 10
224.49997902752989
 20
309.95998622418892
 30
0.0
 40
5.4294662109375
  1
3-M6サラ
 41
0.8
 11
224.49997902752989
 21
315.38945243512637
 31
0.0
 73
     3
  0
LINE
  5
9F
  8
DIMNSIONS
  6
CONTINUOUS
 62
     7
 10
38.250000014901161
 20
22.99999
 30
0.0
 11
-41.499999985098839
 21
22.99999
 31
0.0
  0
LINE
  5
A0
  8
DIMNSIONS
  6
CONTINUOUS
 62
     7
 10
-3.9999999850988388
 20
106.49999
 30
0.0
 11
-41.499999985098839
 21
106.49999
 31
0.0
  0
LINE
  5
A1
  8
DIMNSIONS
  6
CONTINUOUS
 62
     7
 10
-37.5
 20
22.99999
 30
0.0
 11
-37.5
 21
106.49999
 31
0.0
  0
LINE
  5
A2
  8
DIMNSIONS
  6
CONTINUOUS
 62
     7
 10
-37.5
 20
22.99999
 30
0.0
 11
-39.201477371937642
 21
29.349989999999991
 31
0.0
  0
LINE
  5
A3
  8
DIMNSIONS
  6
CONTINUOUS
 62
     7
 10
-37.5
 20
22.99999
 30
0.0
 11
-35.798522628062358
 21
29.349989999999991
 31
0.0
  0
LINE
  5
A4
  8
DIMNSIONS
  6
CONTINUOUS
 62
     7
 10
-37.5
 20
106.49999
 30
0.0
 11
-35.798522628062379
 21
100.14999
 31
0.0
  0
LINE
  5
A5
  8
DIMNSIONS
  6
CONTINUOUS
 62
     7
 10
-37.5
 20
106.49999
 30
0.0
 11
-39.201477371937642
 21
100.14999
 31
0.0
  0
TEXT
  5
A6
  8
DIMNSIONS
 62
     7
 10
-40.487766999999998
 20
51.647286630011642
 30
0.0
 40
5.4294662109375
  1
84
 50
90.0
 41
0.8
 11
-45.917233210937503
 21
51.647286630011642
 31
0.0
 73
     3
  0
LINE
  5
A7
  8
DIMNSIONS
  6
CONTINUOUS
 62
     7
 10
17.75
 20
-3.9999999850988388
 30
0.0
 11
17.75
 21
-28.999999985098839
 31
0.0
  0
LINE
  5
A8
  8
DIMNSIONS
  6
CONTINUOUS
 62
     7
 10
94.25
 20
-3.9999999850988388
 30
0.0
 11
94.25
 21
-28.999999985098839
 31
0.0
  0
LINE
  5
A9
  8
DIMNSIONS
  6
CONTINUOUS
 62
     7
 10
17.75
 20
-25.0
 30
0.0
 11
94.25
 21
-25.0
 31
0.0
  0
LINE
  5
AA
  8
DIMNSIONS
  6
CONTINUOUS
 62
     7
 10
17.75
 20
-25.0
 30
0.0
 11
24.100000000000001
 21
-23.298522628062361
 31
0.0
  0
LINE
  5
AB
  8
DIMNSIONS
  6
CONTINUOUS
 62
     7
 10
17.75
 20
-25.0
 30
0.0
 11
24.100000000000001
 21
-26.701477371937639
 31
0.0
  0
LINE
  5
AC
  8
DIMNSIONS
  6
CONTINUOUS
 62
     7
 10
94.25
 20
-25.0
 30
0.0
 11
87.900000000000006
 21
-26.701477371937639
 31
0.0
  0
LINE
  5
AD
  8
DIMNSIONS
  6
CONTINUOUS
 62
     7
 10
94.25
 20
-25.0
 30
0.0
 11
87.900000000000006
 21
-23.298522628062361
 31
0.0
  0
TEXT
  5
AE
  8
DIMNSIONS
 62
     7
 10
52.472222222222221
 20
-22.01222222967283
 30
0.0
 40
5.4294704861111107
  1
77
 41
0.8
 11
52.472222222222221
 21
-16.582751743561708
 31
0.0
 73
     3
  0
LINE
  5
AF
  8
DIMNSIONS
  6
CONTINUOUS
 62
     7
 10
221.7254150296566
 20
279.57868302542778
 30
0.0
 11
237.80000000000001
 21
287.60000000000002
 31
0.0
  0
LINE
  5
B0
  8
DIMNSIONS
  6
CONTINUOUS
 62
     7
 10
221.7254150296566
 20
279.57868302542778
 30
0.0
 11
226.6868786368843
 21
283.89161753934877
 31
0.0
  0
LINE
  5
B1
  8
DIMNSIONS
  6
CONTINUOUS
 62
     7
 10
221.7254150296566
 20
279.57868302542778
 30
0.0
 11
228.1786358104282
 21
280.83306207572821
 31
0.0
  0
LINE
  5
B2
  8
DIMNSIONS
  6
CONTINUOUS
 62
     7
 10
237.80000000000001
 20
287.60000000000002
 30
0.0
 11
249.8000000026077
 21
287.60000000000002
 31
0.0
  0
TEXT
  5
B3
  8
DIMNSIONS
 62
     7
 10
249.8000000026077
 20
285.06000000000012
 30
0.0
 40
5.4294704861111107
  1
φ77
 41
0.8
 11
249.8000000026077
 21
290.4894704861112
 31
0.0
 73
     3
  0
LINE
  5
B4
  8
DIMNSIONS
  6
CONTINUOUS
 62
     7
 10
51.999990014901151
 20
216.74997999999869
 30
0.0
 11
-53.999999985098839
 21
216.74997999999869
 31
0.0
  0
LINE
  5
B5
  8
DIMNSIONS
  6
CONTINUOUS
 62
     7
 10
51.999990014901151
 20
140.2499800000013
 30
0.0
 11
-53.999999985098839
 21
140.2499800000013
 31
0.0
  0
LINE
  5
B6
  8
DIMNSIONS
  6
CONTINUOUS
 62
     7
 10
-50.0
 20
216.74997999999869
 30
0.0
 11
-50.0
 21
140.2499800000013
 31
0.0
  0
LINE
  5
B7
  8
DIMNSIONS
  6
CONTINUOUS
 62
     7
 10
-50.0
 20
216.74997999999869
 30
0.0
 11
-48.298522628062393
 21
210.39997999999869
 31
0.0
  0
LINE
  5
B8
  8
DIMNSIONS
  6
CONTINUOUS
 62
     7
 10
-50.0
 20
216.74997999999869
 30
0.0
 11
-51.701477371937628
 21
210.39997999999869
 31
0.0
  0
LINE
  5
B9
  8
DIMNSIONS
  6
CONTINUOUS
 62
     7
 10
-50.0
 20
140.2499800000013
 30
0.0
 11
-51.701477371937628
 21
146.5999800000013
 31
0.0
  0
LINE
  5
BA
  8
DIMNSIONS
  6
CONTINUOUS
 62
     7
 10
-50.0
 20
140.2499800000013
 30
0.0
 11
-48.298522628062372
 21
146.5999800000013
 31
0.0
  0
TEXT
  5
BB
  8
DIMNSIONS
 62
     7
 10
-52.987777770327178
 20
174.97220222222219
 30
0.0
 40
5.4294704861111107
  1
77
 50
90.0
 41
0.8
 11
-58.417248256438292
 21
174.97220222222219
 31
0.0
 73
     3
  0
ARC
  5
BC
  8
DATA
  6
CONTINUOUS
 62
     7
 10
192.80017000000001
 20
51.974440000000001
 30
0.0
 40
14.682627359284179
 50
153.95892127979971
 51
200.01120169590601
  0
ARC
  5
BD
  8
DATA
  6
CONTINUOUS
 62
     7
 10
56.743580000000001
 20
53.738240000000012
 30
0.0
 40
10.289770609241
 50
94.143141154000674
 51
162.36012622033491
  0
ARC
  5
BE
  8
DATA
  6
CONTINUOUS
 62
     7
 10
162.15823
 20
23.65062
 30
0.0
 40
119.910004426393
 50
163.92339361968561
 51
180.31088286632161
  0
TEXT
  5
BF
  8
DATA
 62
     7
 10
194.19998000000001
 20
-42.206409999999991
 30
0.0
 40
4.8865234375000002
  1
SHURE
 41
0.8
 11
194.19998000000001
 21
-37.319886562499988
 31
0.0
 73
     3
  0
TEXT
  5
C0
  8
DATA
 62
     7
 10
194.19998000000001
 20
-48.567094444444443
 30
0.0
 40
3.8006293402777769
  1
アンテナ･ブースタ ー
 41
0.8
 11
194.19998000000001
 21
-44.766465104166663
 31
0.0
 73
     3
  0
TEXT
  5
C1
  8
DATA
 62
     7
 10
194.19998000000001
 20
-56.195849999999993
 30
0.0
 40
4.8865234375000002
  1
UA830WB
 41
0.8
 11
194.19998000000001
 21
-51.30932656249999
 31
0.0
 73
     3
  0
LINE
  5
C2
  8
DATA
  6
CONTINUOUS
 62
     7
 10
0.0
 20
71.0
 30
0.0
 11
0.0
 21
106.49999
 31
0.0
  0
LINE
  5
C3
  8
DATA
  6
CONTINUOUS
 62
     7
 10
17.75
 20
0.0
 30
0.0
 11
94.25
 21
0.0
 31
0.0
  0
LINE
  5
C4
  8
DATA
  6
CONTINUOUS
 62
     7
 10
111.99997999999999
 20
106.49999
 30
0.0
 11
111.99997999999999
 21
71.0
 31
0.0
  0
LINE
  5
C5
  8
DATA
  6
CONTINUOUS
 62
     7
 10
0.0
 20
106.49999
 30
0.0
 11
111.99997999999999
 21
106.49999
 31
0.0
  0
LINE
  5
C6
  8
DATA
  6
CONTINUOUS
 62
     7
 10
75.472389999999976
 20
71.0
 30
0.0
 11
111.99997999999999
 21
71.0
 31
0.0
  0
LINE
  5
C7
  8
DATA
  6
CONTINUOUS
 62
     7
 10
18.999994999999998
 20
7.0
 30
0.0
 11
92.999994999999998
 21
7.0
 31
0.0
  0
LINE
  5
C8
  8
DATA
  6
CONTINUOUS
 62
     7
 10
43.25
 20
11.0
 30
0.0
 11
68.75
 21
11.0
 31
0.0
  0
LINE
  5
C9
  8
DATA
  6
CONTINUOUS
 62
     7
 10
43.25
 20
11.0
 30
0.0
 11
43.25
 21
7.0
 31
0.0
  0
LINE
  5
CA
  8
DATA
  6
CONTINUOUS
 62
     7
 10
68.75
 20
11.0
 30
0.0
 11
68.75
 21
7.0
 31
0.0
  0
LINE
  5
CB
  8
DATA
  6
CONTINUOUS
 62
     7
 10
48.149999999999999
 20
18.99999
 30
0.0
 11
48.149999999999999
 21
11.0
 31
0.0
  0
LINE
  5
CC
  8
DATA
  6
CONTINUOUS
 62
     7
 10
63.849989999999998
 20
18.99999
 30
0.0
 11
63.849989999999998
 21
11.0
 31
0.0
  0
LINE
  5
CD
  8
DATA
  6
CONTINUOUS
 62
     7
 10
42.25
 20
22.99999
 30
0.0
 11
71.75
 21
22.99999
 31
0.0
  0
LINE
  5
CE
  8
DATA
  6
CONTINUOUS
 62
     7
 10
50.0
 20
52.950000000000003
 30
0.0
 11
61.999989999999997
 21
52.950000000000003
 31
0.0
  0
CIRCLE
  5
CF
  8
DATA
  6
CONTINUOUS
 62
     7
 10
56.0
 20
52.950000000000003
 30
0.0
 40
5.9999899999999959
  0
LINE
  5
D0
  8
DATA
  6
CONTINUOUS
 62
     7
 10
63.999989999999997
 20
53.000000000000021
 30
0.0
 11
63.999989999999997
 21
41.999989999999997
 31
0.0
  0
LINE
  5
D1
  8
DATA
  6
CONTINUOUS
 62
     7
 10
48.0
 20
53.000000000000021
 30
0.0
 11
48.0
 21
41.999989999999997
 31
0.0
  0
ARC
  5
D2
  8
DATA
  6
CONTINUOUS
 62
     7
 10
56.0
 20
53.000000000000021
 30
0.0
 40
7.9999899999999959
 50
0.0
 51
180.0
  0
ARC
  5
D3
  8
DATA
  6
CONTINUOUS
 62
     7
 10
56.0
 20
41.999989999999997
 30
0.0
 40
8.0
 50
180.0
 51
0.0
  0
LINE
  5
D4
  8
DATA
  6
CONTINUOUS
 62
     7
 10
38.437339999999999
 20
69.594030000000004
 30
0.0
 11
44.911289999999987
 21
48.781490000000019
 31
0.0
  0
LINE
  5
D5
  8
DATA
  6
CONTINUOUS
 62
     7
 10
0.0
 20
98.249989999999997
 30
0.0
 11
111.99997999999999
 21
98.249989999999997
 31
0.0
  0
LINE
  5
D6
  8
DATA
  6
CONTINUOUS
 62
     7
 10
0.0
 20
79.25
 30
0.0
 11
111.99997999999999
 21
79.25
 31
0.0
  0
LINE
  5
D7
  8
DATA
  6
CONTINUOUS
 62
     7
 10
94.299999999999983
 20
96.25
 30
0.0
 11
94.299999999999983
 21
81.25
 31
0.0
  0
LINE
  5
D8
  8
DATA
  6
CONTINUOUS
 62
     7
 10
17.69999
 20
81.25
 30
0.0
 11
17.69999
 21
96.25
 31
0.0
  0
LINE
  5
D9
  8
DATA
  6
CONTINUOUS
 62
     7
 10
79.79998999999998
 20
85.25
 30
0.0
 11
79.79998999999998
 21
90.25
 31
0.0
  0
LINE
  5
DA
  8
DATA
  6
CONTINUOUS
 62
     7
 10
69.799999999999997
 20
85.25
 30
0.0
 11
69.799999999999997
 21
90.25
 31
0.0
  0
LINE
  5
DB
  8
DATA
  6
CONTINUOUS
 62
     7
 10
69.799999999999997
 20
90.25
 30
0.0
 11
79.79998999999998
 21
90.25
 31
0.0
  0
LINE
  5
DC
  8
DATA
  6
CONTINUOUS
 62
     7
 10
69.799999999999997
 20
85.25
 30
0.0
 11
79.79998999999998
 21
85.25
 31
0.0
  0
LINE
  5
DD
  8
DATA
  6
CONTINUOUS
 62
     7
 10
75.79998999999998
 20
85.750000000000014
 30
0.0
 11
75.79998999999998
 21
89.749999999999986
 31
0.0
  0
LINE
  5
DE
  8
DATA
  6
CONTINUOUS
 62
     7
 10
70.799999999999997
 20
85.750000000000014
 30
0.0
 11
70.799999999999997
 21
89.749999999999986
 31
0.0
  0
LINE
  5
DF
  8
DATA
  6
CONTINUOUS
 62
     7
 10
70.799999999999997
 20
89.749999999999986
 30
0.0
 11
75.79998999999998
 21
89.749999999999986
 31
0.0
  0
LINE
  5
E0
  8
DATA
  6
CONTINUOUS
 62
     7
 10
70.799999999999997
 20
85.750000000000014
 30
0.0
 11
75.79998999999998
 21
85.750000000000014
 31
0.0
  0
LINE
  5
E1
  8
DATA
  6
CONTINUOUS
 62
     7
 10
74.79998999999998
 20
85.750000000000014
 30
0.0
 11
74.79998999999998
 21
89.749999999999986
 31
0.0
  0
LINE
  5
E2
  8
DATA
  6
CONTINUOUS
 62
     7
 10
73.799989999999966
 20
85.750000000000014
 30
0.0
 11
73.799989999999966
 21
89.749999999999986
 31
0.0
  0
LINE
  5
E3
  8
DATA
  6
CONTINUOUS
 62
     7
 10
72.79998999999998
 20
85.750000000000014
 30
0.0
 11
72.79998999999998
 21
89.749999999999986
 31
0.0
  0
LINE
  5
E4
  8
DATA
  6
CONTINUOUS
 62
     7
 10
71.799989999999994
 20
85.750000000000014
 30
0.0
 11
71.799989999999994
 21
89.749999999999986
 31
0.0
  0
CIRCLE
  5
E5
  8
DATA
  6
CONTINUOUS
 62
     7
 10
56.0
 20
87.75
 30
0.0
 40
2.5
  0
LINE
  5
E6
  8
DATA
  6
CONTINUOUS
 62
     7
 10
0.0
 20
71.0
 30
0.0
 11
36.5276
 21
71.0
 31
0.0
  0
LINE
  5
E7
  8
DATA
  6
CONTINUOUS
 62
     7
 10
46.5
 20
18.99999
 30
0.0
 11
65.499989999999997
 21
18.99999
 31
0.0
  0
LINE
  5
E8
  8
DATA
  6
CONTINUOUS
 62
     7
 10
46.5
 20
18.99999
 30
0.0
 11
46.5
 21
22.99999
 31
0.0
  0
LINE
  5
E9
  8
DATA
  6
CONTINUOUS
 62
     7
 10
65.499989999999997
 20
18.99999
 30
0.0
 11
65.499989999999997
 21
22.99999
 31
0.0
  0
LINE
  5
EA
  8
DATA
  6
CONTINUOUS
 62
     7
 10
61.74998999999999
 20
22.99999
 30
0.0
 11
61.74998999999999
 21
18.99999
 31
0.0
  0
LINE
  5
EB
  8
DATA
  6
CONTINUOUS
 62
     7
 10
50.25
 20
22.99999
 30
0.0
 11
50.25
 21
18.99999
 31
0.0
  0
LINE
  5
EC
  8
DATA
  6
CONTINUOUS
 62
     7
 10
71.75
 20
25.49999
 30
0.0
 11
71.75
 21
22.99999
 31
0.0
  0
LINE
  5
ED
  8
DATA
  6
CONTINUOUS
 62
     7
 10
71.75
 20
25.49999
 30
0.0
 11
69.707520000000002
 21
26.90804
 31
0.0
  0
TEXT
  5
EE
  8
DATA
 62
     7
 10
49.91764839375
 20
82.314008599999994
 30
0.0
 40
2.0007735546875001
  1
DC POWER
 41
0.8
 72
     1
 11
56.0
 21
84.314782154687506
 31
0.0
 73
     3
  0
TEXT
  5
EF
  8
DATA
 62
     7
 10
72.132291927083315
 20
82.314008599999994
 30
0.0
 40
2.0007735546875001
  1
GAIN
 41
0.8
 72
     1
 11
74.79998999999998
 21
84.314782154687506
 31
0.0
 73
     3
  0
TEXT
  5
F0
  8
DATA
 62
     7
 10
65.16552211979166
 20
91.564008599999966
 30
0.0
 40
2.0007735546875001
  1
+3dB
 41
0.8
 72
     1
 11
68.099989999999991
 21
93.564782154687464
 31
0.0
 73
     3
  0
TEXT
  5
F1
  8
DATA
 62
     7
 10
79.465367408854149
 20
91.514008599999983
 30
0.0
 40
2.0007735546875001
  1
+10dB
 41
0.8
 72
     1
 11
82.79998999999998
 21
93.514782154687481
 31
0.0
 73
     3
  0
TEXT
  5
F2
  8
DATA
 62
     7
 10
89.935981400000017
 20
87.416150963541654
 30
0.0
 40
2.0007735546875001
  1
TO
 50
90.0
 41
0.8
 72
     1
 11
87.935207845312505
 21
88.75
 31
0.0
 73
     3
  0
TEXT
  5
F3
  8
DATA
 62
     7
 10
92.53597139999998
 20
82.614294432291658
 30
0.0
 40
2.0007735546875001
  1
RECEIVER
 50
90.0
 41
0.8
 72
     1
 11
90.535197845312481
 21
88.75
 31
0.0
 73
     3
  0
LINE
  5
F4
  8
DATA
  6
CONTINUOUS
 62
     7
 10
17.69999
 20
96.25
 30
0.0
 11
94.299999999999983
 21
96.25
 31
0.0
  0
LINE
  5
F5
  8
DATA
  6
CONTINUOUS
 62
     7
 10
17.69999
 20
81.25
 30
0.0
 11
94.299999999999983
 21
81.25
 31
0.0
  0
TEXT
  5
F6
  8
DATA
 62
     7
 10
30.600000000000009
 20
91.713998599999996
 30
0.0
 40
2.0007735546875001
  1
ATTENTION
 41
0.8
 11
30.600000000000009
 21
93.714772154687495
 31
0.0
 73
     3
  0
TEXT
  5
F7
  8
DATA
 62
     7
 10
30.600000000000009
 20
89.114008600000005
 30
0.0
 40
2.0007735546875001
  1
USE ONLY 50 OHMS
 41
0.8
 11
30.600000000000009
 21
91.114782154687504
 31
0.0
 73
     3
  0
TEXT
  5
F8
  8
DATA
 62
     7
 10
30.600000000000009
 20
86.514018599999986
 30
0.0
 40
2.0007735546875001
  1
CABLE.[RG-8/X OR
 41
0.8
 11
30.600000000000009
 21
88.514792154687484
 31
0.0
 73
     3
  0
TEXT
  5
F9
  8
DATA
 62
     7
 10
30.600000000000009
 20
83.914028599999995
 30
0.0
 40
2.0007735546875001
  1
EQUIVALENT.]
 41
0.8
 11
30.600000000000009
 21
85.914802154687493
 31
0.0
 73
     3
  0
TEXT
  5
FA
  8
DATA
 62
     7
 10
21.035991400000011
 20
87.416150963541654
 30
0.0
 40
2.0007735546875001
  1
TO
 50
90.0
 41
0.8
 72
     1
 11
19.035217845312498
 21
88.75
 31
0.0
 73
     3
  0
TEXT
  5
FB
  8
DATA
 62
     7
 10
23.635981399999991
 20
83.414603854166671
 30
0.0
 40
2.0007735546875001
  1
ANTENNA
 50
90.0
 41
0.8
 72
     1
 11
21.63520784531249
 21
88.75
 31
0.0
 73
     3
  0
TEXT
  5
FC
  8
DATA
 62
     7
 10
10.649990000000001
 20
81.598958333333329
 30
0.0
 40
3.84765625
  1
SHURE
 50
90.0
 41
0.8
 72
     1
 11
6.8023337500000016
 21
88.78125
 31
0.0
 73
     3
  0
TEXT
  5
FD
  8
DATA
 62
     7
 10
101.34999000000001
 20
95.963541666666671
 30
0.0
 40
3.84765625
  1
SHURE
 50
270.0
 41
0.8
 72
     1
 11
105.19764625000001
 21
88.78125
 31
0.0
 73
     3
  0
LINE
  5
FE
  8
DATA
  6
CONTINUOUS
 62
     7
 10
0.0
 20
162.5
 30
0.0
 11
0.0
 21
194.49999
 31
0.0
  0
LINE
  5
FF
  8
DATA
  6
CONTINUOUS
 62
     7
 10
111.99997999999999
 20
162.5
 30
0.0
 11
111.99997999999999
 21
194.49999
 31
0.0
  0
LINE
  5
100
  8
DATA
  6
CONTINUOUS
 62
     7
 10
0.0
 20
178.49997999999999
 30
0.0
 11
111.99997999999999
 21
178.49997999999999
 31
0.0
  0
LINE
  5
101
  8
DATA
  6
CONTINUOUS
 62
     7
 10
0.0
 20
194.49999
 30
0.0
 11
111.99997999999999
 21
194.49999
 31
0.0
  0
LINE
  5
102
  8
DATA
  6
CONTINUOUS
 62
     7
 10
0.0
 20
162.5
 30
0.0
 11
111.99997999999999
 21
162.5
 31
0.0
  0
LINE
  5
103
  8
DATA
  6
CONTINUOUS
 62
     7
 10
0.0
 20
179.99999
 30
0.0
 11
111.99997999999999
 21
179.99999
 31
0.0
  0
LINE
  5
104
  8
DATA
  6
CONTINUOUS
 62
     7
 10
0.0
 20
177.0
 30
0.0
 11
111.99997999999999
 21
177.0
 31
0.0
  0
LINE
  5
105
  8
DATA
  6
CONTINUOUS
 62
     7
 10
204.24997999999999
 20
98.249989999999997
 30
0.0
 11
204.24997999999999
 21
79.25
 31
0.0
  0
LINE
  5
106
  8
DATA
  6
CONTINUOUS
 62
     7
 10
172.24999
 20
98.249989999999997
 30
0.0
 11
172.24999
 21
79.25
 31
0.0
  0
LINE
  5
107
  8
DATA
  6
CONTINUOUS
 62
     7
 10
186.53939
 20
106.49999
 30
0.0
 11
172.24999
 21
98.249989999999997
 31
0.0
  0
LINE
  5
108
  8
DATA
  6
CONTINUOUS
 62
     7
 10
189.80151000000001
 20
106.49999
 30
0.0
 11
204.24997999999999
 21
98.249989999999997
 31
0.0
  0
LINE
  5
109
  8
DATA
  6
CONTINUOUS
 62
     7
 10
204.24997999999999
 20
79.25
 30
0.0
 11
189.80151000000001
 21
71.0
 31
0.0
  0
LINE
  5
10A
  8
DATA
  6
CONTINUOUS
 62
     7
 10
186.69846000000001
 20
71.0
 30
0.0
 11
172.24999
 21
79.25
 31
0.0
  0
LINE
  5
10B
  8
DATA
  6
CONTINUOUS
 62
     7
 10
174.9499799999999
 20
96.942189999999997
 30
0.0
 11
174.9499799999999
 21
80.5578
 31
0.0
  0
LINE
  5
10C
  8
DATA
  6
CONTINUOUS
 62
     7
 10
201.54999000000001
 20
96.942189999999997
 30
0.0
 11
201.54999000000001
 21
80.5578
 31
0.0
  0
LINE
  5
10D
  8
DATA
  6
CONTINUOUS
 62
     7
 10
186.69846000000001
 20
103.8
 30
0.0
 11
174.9499799999999
 21
96.942189999999997
 31
0.0
  0
LINE
  5
10E
  8
DATA
  6
CONTINUOUS
 62
     7
 10
189.80151000000001
 20
103.8
 30
0.0
 11
201.54999000000001
 21
96.942189999999997
 31
0.0
  0
LINE
  5
10F
  8
DATA
  6
CONTINUOUS
 62
     7
 10
201.54999000000001
 20
80.5578
 30
0.0
 11
189.80151000000001
 21
73.699989999999985
 31
0.0
  0
LINE
  5
110
  8
DATA
  6
CONTINUOUS
 62
     7
 10
186.69846000000001
 20
73.699989999999985
 30
0.0
 11
174.9499799999999
 21
80.5578
 31
0.0
  0
CIRCLE
  5
111
  8
DATA
  6
CONTINUOUS
 62
     7
 10
188.24997999999999
 20
88.75
 30
0.0
 40
4.8499954476782863
  0
LINE
  5
112
  8
DATA
  6
CONTINUOUS
 62
     7
 10
189.19998000000001
 20
93.599990000000005
 30
0.0
 11
189.19998000000001
 21
94.600000000000023
 31
0.0
  0
LINE
  5
113
  8
DATA
  6
CONTINUOUS
 62
     7
 10
187.29999000000001
 20
93.599990000000005
 30
0.0
 11
187.29999000000001
 21
94.600000000000023
 31
0.0
  0
LINE
  5
114
  8
DATA
  6
CONTINUOUS
 62
     7
 10
189.19998000000001
 20
83.899990000000017
 30
0.0
 11
189.19998000000001
 21
82.899989999999988
 31
0.0
  0
LINE
  5
115
  8
DATA
  6
CONTINUOUS
 62
     7
 10
187.29999000000001
 20
83.899990000000017
 30
0.0
 11
187.29999000000001
 21
82.899989999999988
 31
0.0
  0
CIRCLE
  5
116
  8
DATA
  6
CONTINUOUS
 62
     7
 10
188.24997999999999
 20
88.75
 30
0.0
 40
2.25
  0
CIRCLE
  5
117
  8
DATA
  6
CONTINUOUS
 62
     7
 10
188.24997999999999
 20
88.75
 30
0.0
 40
1.0
  0
CIRCLE
  5
118
  8
DATA
  6
CONTINUOUS
 62
     7
 10
188.24997999999999
 20
88.75
 30
0.0
 40
5.9266347955648548
  0
POLYLINE
  5
119
  8
DATA
  6
CONTINUOUS
 62
     7
 66
     1
 10
0.0
 20
0.0
 30
0.0
 70
     1
  0
VERTEX
  5
21F
  8
DATA
  6
CONTINUOUS
 62
     7
 10
196.24997999999999
 20
88.75
 30
0.0
  0
VERTEX
  5
220
  8
DATA
  6
CONTINUOUS
 62
     7
 10
192.25003000000001
 20
95.678269999999983
 30
0.0
  0
VERTEX
  5
221
  8
DATA
  6
CONTINUOUS
 62
     7
 10
184.25004000000001
 20
95.678340000000006
 30
0.0
  0
VERTEX
  5
222
  8
DATA
  6
CONTINUOUS
 62
     7
 10
180.24999
 20
88.750120000000024
 30
0.0
  0
VERTEX
  5
223
  8
DATA
  6
CONTINUOUS
 62
     7
 10
184.24994000000001
 20
81.821719999999985
 30
0.0
  0
VERTEX
  5
224
  8
DATA
  6
CONTINUOUS
 62
     7
 10
192.24992
 20
81.821640000000002
 30
0.0
  0
SEQEND
  5
225
  8
DATA
  6
CONTINUOUS
 62
     7
  0
LINE
  5
121
  8
DATA
  6
CONTINUOUS
 62
     7
 10
188.24997999999999
 20
71.0
 30
0.0
 11
188.24997999999999
 21
39.499989999999997
 31
0.0
  0
LINE
  5
122
  8
DATA
  6
CONTINUOUS
 62
     7
 10
188.24997999999999
 20
106.49999
 30
0.0
 11
188.24997999999999
 21
103.8
 31
0.0
  0
LINE
  5
123
  8
DATA
  6
CONTINUOUS
 62
     7
 10
188.24997999999999
 20
73.699989999999985
 30
0.0
 11
188.24997999999999
 21
71.0
 31
0.0
  0
LINE
  5
124
  8
DATA
  6
CONTINUOUS
 62
     7
 10
188.24997999999999
 20
71.800000000000026
 30
0.0
 11
188.24997999999999
 21
71.0
 31
0.0
  0
LINE
  5
125
  8
DATA
  6
CONTINUOUS
 62
     7
 10
186.69846000000001
 20
73.699989999999985
 30
0.0
 11
189.80151000000001
 21
73.699989999999985
 31
0.0
  0
LINE
  5
126
  8
DATA
  6
CONTINUOUS
 62
     7
 10
186.69846000000001
 20
106.49999
 30
0.0
 11
189.80151000000001
 21
106.49999
 31
0.0
  0
LINE
  5
127
  8
DATA
  6
CONTINUOUS
 62
     7
 10
186.69846000000001
 20
103.8
 30
0.0
 11
189.80151000000001
 21
103.8
 31
0.0
  0
LINE
  5
128
  8
DATA
  6
CONTINUOUS
 62
     7
 10
190.74997999999999
 20
70.380500000000012
 30
0.0
 11
190.74997999999999
 21
38.200000000000017
 31
0.0
  0
LINE
  5
129
  8
DATA
  6
CONTINUOUS
 62
     7
 10
185.74997999999999
 20
70.380500000000012
 30
0.0
 11
185.74997999999999
 21
38.200000000000017
 31
0.0
  0
ARC
  5
12A
  8
DATA
  6
CONTINUOUS
 62
     7
 10
188.24997999999999
 20
41.70000000000001
 30
0.0
 40
2.5
 50
180.0
 51
0.0
  0
ARC
  5
12B
  8
DATA
  6
CONTINUOUS
 62
     7
 10
183.74997999999999
 20
70.380500000000012
 30
0.0
 40
2.0
 50
0.0
 51
60.273595996571999
  0
ARC
  5
12C
  8
DATA
  6
CONTINUOUS
 62
     7
 10
192.74997999999999
 20
70.380500000000012
 30
0.0
 40
1.9999907410035631
 50
119.7262972768871
 51
180.0
  0
LINE
  5
12D
  8
DATA
  6
CONTINUOUS
 62
     7
 10
174.74999
 20
22.99999
 30
0.0
 11
201.74997999999999
 21
22.99999
 31
0.0
  0
LINE
  5
12E
  8
DATA
  6
CONTINUOUS
 62
     7
 10
174.74999
 20
22.99999
 30
0.0
 11
174.74999
 21
34.300000000000011
 31
0.0
  0
LINE
  5
12F
  8
DATA
  6
CONTINUOUS
 62
     7
 10
201.74997999999999
 20
22.99999
 30
0.0
 11
201.74997999999999
 21
34.499989999999997
 31
0.0
  0
LINE
  5
130
  8
DATA
  6
CONTINUOUS
 62
     7
 10
185.74997999999999
 20
64.0
 30
0.0
 11
185.59338
 21
64.0
 31
0.0
  0
ARC
  5
131
  8
DATA
  6
CONTINUOUS
 62
     7
 10
185.5934
 20
58.000000000000021
 30
0.0
 40
6.0000000000333191
 50
90.000190985931624
 51
175.98285457347379
  0
LINE
  5
132
  8
DATA
  6
CONTINUOUS
 62
     7
 10
190.74997999999999
 20
64.0
 30
0.0
 11
190.90658999999999
 21
64.0
 31
0.0
  0
ARC
  5
133
  8
DATA
  6
CONTINUOUS
 62
     7
 10
190.90657999999999
 20
58.000000000000021
 30
0.0
 40
6.0000019152663571
 50
4.0172406848479856
 51
89.999904507034074
  0
ARC
  5
134
  8
DATA
  6
CONTINUOUS
 62
     7
 10
188.24997999999999
 20
38.200000000000017
 30
0.0
 40
2.5
 50
180.0
 51
0.0
  0
LINE
  5
135
  8
DATA
  6
CONTINUOUS
 62
     7
 10
191.24997999999999
 20
22.99999
 30
0.0
 11
191.24997999999999
 21
26.99999
 31
0.0
  0
LINE
  5
136
  8
DATA
  6
CONTINUOUS
 62
     7
 10
185.24997999999999
 20
22.99999
 30
0.0
 11
185.24997999999999
 21
26.99999
 31
0.0
  0
LINE
  5
137
  8
DATA
  6
CONTINUOUS
 62
     7
 10
185.24997999999999
 20
26.99999
 30
0.0
 11
191.24997999999999
 21
26.99999
 31
0.0
  0
LINE
  5
138
  8
DATA
  6
CONTINUOUS
 62
     7
 10
185.24997999999999
 20
25.49999
 30
0.0
 11
191.24997999999999
 21
25.49999
 31
0.0
  0
LINE
  5
139
  8
DATA
  6
CONTINUOUS
 62
     7
 10
196.09998999999999
 20
18.99999
 30
0.0
 11
196.09998999999999
 21
11.0
 31
0.0
  0
LINE
  5
13A
  8
DATA
  6
CONTINUOUS
 62
     7
 10
180.39998
 20
18.99999
 30
0.0
 11
180.39998
 21
11.0
 31
0.0
  0
LINE
  5
13B
  8
DATA
  6
CONTINUOUS
 62
     7
 10
200.99997999999999
 20
11.0
 30
0.0
 11
200.99997999999999
 21
7.0
 31
0.0
  0
LINE
  5
13C
  8
DATA
  6
CONTINUOUS
 62
     7
 10
175.49999
 20
11.0
 30
0.0
 11
175.49999
 21
7.0
 31
0.0
  0
LINE
  5
13D
  8
DATA
  6
CONTINUOUS
 62
     7
 10
175.49999
 20
11.0
 30
0.0
 11
200.99997999999999
 21
11.0
 31
0.0
  0
LINE
  5
13E
  8
DATA
  6
CONTINUOUS
 62
     7
 10
149.99997999999999
 20
0.0
 30
0.0
 11
226.49997999999999
 21
0.0
 31
0.0
  0
LINE
  5
13F
  8
DATA
  6
CONTINUOUS
 62
     7
 10
151.24997999999999
 20
7.0
 30
0.0
 11
225.24997999999999
 21
7.0
 31
0.0
  0
LINE
  5
140
  8
DATA
  6
CONTINUOUS
 62
     7
 10
186.69846000000001
 20
71.0
 30
0.0
 11
189.80151000000001
 21
71.0
 31
0.0
  0
LINE
  5
141
  8
DATA
  6
CONTINUOUS
 62
     7
 10
178.74999
 20
18.99999
 30
0.0
 11
197.74997999999999
 21
18.99999
 31
0.0
  0
LINE
  5
142
  8
DATA
  6
CONTINUOUS
 62
     7
 10
178.74999
 20
18.99999
 30
0.0
 11
178.74999
 21
22.99999
 31
0.0
  0
LINE
  5
143
  8
DATA
  6
CONTINUOUS
 62
     7
 10
197.74997999999999
 20
18.99999
 30
0.0
 11
197.74997999999999
 21
22.99999
 31
0.0
  0
LINE
  5
144
  8
DATA
  6
CONTINUOUS
 62
     7
 10
193.99997999999999
 20
22.99999
 30
0.0
 11
193.99997999999999
 21
18.99999
 31
0.0
  0
LINE
  5
145
  8
DATA
  6
CONTINUOUS
 62
     7
 10
182.49997999999999
 20
22.99999
 30
0.0
 11
182.49997999999999
 21
18.99999
 31
0.0
  0
LINE
  5
146
  8
DATA
  6
CONTINUOUS
 62
     7
 10
124.99997999999999
 20
306.24999000000008
 30
0.0
 11
124.99997999999999
 21
212.49999
 31
0.0
  0
LINE
  5
147
  8
DATA
  6
CONTINUOUS
 62
     7
 10
124.99997999999999
 20
212.49999
 30
0.0
 11
175.99999
 21
161.5
 31
0.0
  0
CIRCLE
  5
148
  8
DATA
  6
CONTINUOUS
 62
     7
 10
187.49997999999999
 20
287.89999
 30
0.0
 40
3.2999899999999931
  0
CIRCLE
  5
149
  8
DATA
  6
CONTINUOUS
 62
     7
 10
187.49997999999999
 20
287.89999
 30
0.0
 40
6.0
  0
LINE
  5
14A
  8
DATA
  6
CONTINUOUS
 62
     7
 10
176.74999
 20
231.00117
 30
0.0
 11
198.24997999999999
 21
231.00117
 31
0.0
  0
LINE
  5
14B
  8
DATA
  6
CONTINUOUS
 62
     7
 10
176.74999
 20
236.00117
 30
0.0
 11
198.24997999999999
 21
236.00117
 31
0.0
  0
LINE
  5
14C
  8
DATA
  6
CONTINUOUS
 62
     7
 10
176.74999
 20
236.00117
 30
0.0
 11
176.74999
 21
231.00117
 31
0.0
  0
LINE
  5
14D
  8
DATA
  6
CONTINUOUS
 62
     7
 10
198.24997999999999
 20
236.00117
 30
0.0
 11
198.24997999999999
 21
231.00117
 31
0.0
  0
TEXT
  5
14E
  8
DATA
 62
     7
 10
177.79185499999991
 20
231.55717999999999
 30
0.0
 40
4.1554687499999989
  1
S
 41
0.8
 72
     1
 11
178.89998
 21
235.71264875
 31
0.0
 73
     3
  0
TEXT
  5
14F
  8
DATA
 62
     7
 10
182.09185500000001
 20
231.55717999999999
 30
0.0
 40
4.1554687499999989
  1
H
 41
0.8
 72
     1
 11
183.19998000000001
 21
235.71264875
 31
0.0
 73
     3
  0
TEXT
  5
150
  8
DATA
 62
     7
 10
186.39185499999999
 20
231.55717999999999
 30
0.0
 40
4.1554687499999989
  1
U
 41
0.8
 72
     1
 11
187.49997999999999
 21
235.71264875
 31
0.0
 73
     3
  0
TEXT
  5
151
  8
DATA
 62
     7
 10
190.69186500000001
 20
231.55717999999999
 30
0.0
 40
4.1554687499999989
  1
R
 41
0.8
 72
     1
 11
191.79999000000001
 21
235.71264875
 31
0.0
 73
     3
  0
TEXT
  5
152
  8
DATA
 62
     7
 10
195.09185500000001
 20
231.55717999999999
 30
0.0
 40
4.1554687499999989
  1
E
 41
0.8
 72
     1
 11
196.19998000000001
 21
235.71264875
 31
0.0
 73
     3
  0
CIRCLE
  5
153
  8
DATA
  6
CONTINUOUS
 62
     7
 10
187.49997999999999
 20
262.49997999999999
 30
0.0
 40
37.0
  0
CIRCLE
  5
154
  8
DATA
  6
CONTINUOUS
 62
     7
 10
187.49997999999999
 20
262.49997999999999
 30
0.0
 40
38.25
  0
CIRCLE
  5
155
  8
DATA
  6
CONTINUOUS
 62
     7
 10
187.49997999999999
 20
262.49997999999999
 30
0.0
 40
12.74998999999999
  0
CIRCLE
  5
156
  8
DATA
  6
CONTINUOUS
 62
     7
 10
187.49997999999999
 20
262.49997999999999
 30
0.0
 40
7.8500000000000068
  0
LINE
  5
157
  8
DATA
  6
CONTINUOUS
 62
     7
 10
195.72746000000001
 20
267.24979000000002
 30
0.0
 11
187.50012000000001
 21
271.99997999999999
 31
0.0
  0
LINE
  5
158
  8
DATA
  6
CONTINUOUS
 62
     7
 10
195.72723999999999
 20
257.74981000000002
 30
0.0
 11
195.72746000000001
 21
267.24979000000002
 31
0.0
  0
LINE
  5
159
  8
DATA
  6
CONTINUOUS
 62
     7
 10
187.49969999999999
 20
252.99999
 30
0.0
 11
195.72723999999999
 21
257.74981000000002
 31
0.0
  0
LINE
  5
15A
  8
DATA
  6
CONTINUOUS
 62
     7
 10
179.27251000000001
 20
257.75017000000003
 30
0.0
 11
187.49969999999999
 21
252.99999
 31
0.0
  0
LINE
  5
15B
  8
DATA
  6
CONTINUOUS
 62
     7
 10
179.27273
 20
267.25015999999999
 30
0.0
 11
179.27251000000001
 21
257.75017000000003
 31
0.0
  0
LINE
  5
15C
  8
DATA
  6
CONTINUOUS
 62
     7
 10
187.50012000000001
 20
271.99997999999999
 30
0.0
 11
179.27273
 21
267.25015999999999
 31
0.0
  0
CIRCLE
  5
15D
  8
DATA
  6
CONTINUOUS
 62
     7
 10
187.49997999999999
 20
262.49997999999999
 30
0.0
 40
4.5
  0
CIRCLE
  5
15E
  8
DATA
  6
CONTINUOUS
 62
     7
 10
187.49997999999999
 20
262.49997999999999
 30
0.0
 40
12.99999478419126
  0
CIRCLE
  5
15F
  8
DATA
  6
CONTINUOUS
 62
     7
 10
56.0
 20
203.00074000000001
 30
0.0
 40
3.2999999999999998
  0
CIRCLE
  5
160
  8
DATA
  6
CONTINUOUS
 62
     7
 10
56.0
 20
203.00074000000001
 30
0.0
 40
6.0
  0
LINE
  5
161
  8
DATA
  6
CONTINUOUS
 62
     7
 10
45.25
 20
147.00118000000001
 30
0.0
 11
66.749989999999997
 21
147.00118000000001
 31
0.0
  0
LINE
  5
162
  8
DATA
  6
CONTINUOUS
 62
     7
 10
45.25
 20
152.00118000000001
 30
0.0
 11
66.749989999999997
 21
152.00118000000001
 31
0.0
  0
LINE
  5
163
  8
DATA
  6
CONTINUOUS
 62
     7
 10
45.25
 20
152.00118000000001
 30
0.0
 11
45.25
 21
147.00118000000001
 31
0.0
  0
LINE
  5
164
  8
DATA
  6
CONTINUOUS
 62
     7
 10
66.749989999999997
 20
152.00118000000001
 30
0.0
 11
66.749989999999997
 21
147.00118000000001
 31
0.0
  0
TEXT
  5
165
  8
DATA
 62
     7
 10
46.29187499999999
 20
147.55718999999999
 30
0.0
 40
4.1554687499999989
  1
S
 41
0.8
 72
     1
 11
47.399999999999999
 21
151.71265875
 31
0.0
 73
     3
  0
TEXT
  5
166
  8
DATA
 62
     7
 10
50.591864999999999
 20
147.55718999999999
 30
0.0
 40
4.1554687499999989
  1
H
 41
0.8
 72
     1
 11
51.69999
 21
151.71265875
 31
0.0
 73
     3
  0
TEXT
  5
167
  8
DATA
 62
     7
 10
54.891874999999992
 20
147.55718999999999
 30
0.0
 40
4.1554687499999989
  1
U
 41
0.8
 72
     1
 11
56.0
 21
151.71265875
 31
0.0
 73
     3
  0
TEXT
  5
168
  8
DATA
 62
     7
 10
59.191874999999989
 20
147.55718999999999
 30
0.0
 40
4.1554687499999989
  1
R
 41
0.8
 72
     1
 11
60.299999999999997
 21
151.71265875
 31
0.0
 73
     3
  0
TEXT
  5
169
  8
DATA
 62
     7
 10
63.591875000000002
 20
147.55718999999999
 30
0.0
 40
4.1554687499999989
  1
E
 41
0.8
 72
     1
 11
64.700000000000003
 21
151.71265875
 31
0.0
 73
     3
  0
ARC
  5
16A
  8
DATA
  6
CONTINUOUS
 62
     7
 10
56.0
 20
178.49997999999999
 30
0.0
 40
36.499995930653192
 50
25.999065494884071
 51
154.0009554951134
  0
ARC
  5
16B
  8
DATA
  6
CONTINUOUS
 62
     7
 10
56.0
 20
178.49997999999999
 30
0.0
 40
38.25
 50
24.802864209042369
 51
154.92267429937601
  0
ARC
  5
16C
  8
DATA
  6
CONTINUOUS
 62
     7
 10
56.0
 20
178.49997999999999
 30
0.0
 40
37.0
 50
205.99901628705871
 51
334.00096960402561
  0
ARC
  5
16D
  8
DATA
  6
CONTINUOUS
 62
     7
 10
56.0
 20
178.49997999999999
 30
0.0
 40
38.25
 50
205.07729177372161
 51
334.92268804636552
  0
ARC
  5
16E
  8
DATA
  6
CONTINUOUS
 62
     7
 10
34.781720000000007
 20
166.24960999999999
 30
0.0
 40
5.9999916295441604
 50
218.6774807714429
 51
321.3225192285571
  0
ARC
  5
16F
  8
DATA
  6
CONTINUOUS
 62
     7
 10
77.218279999999979
 20
166.24960999999999
 30
0.0
 40
5.9999994363083067
 50
218.6774210944574
 51
321.32244467945571
  0
CIRCLE
  5
170
  8
DATA
  6
STYLE_01
 62
     7
 10
187.49997999999999
 20
262.49997999999999
 30
0.0
 40
25.39999910831888
  0
CIRCLE
  5
171
  8
DATA
  6
CONTINUOUS
 62
     7
 10
165.50294
 20
249.79999000000001
 30
0.0
 40
3.2999899999999931
  0
CIRCLE
  5
172
  8
DATA
  6
CONTINUOUS
 62
     7
 10
165.50294
 20
249.79999000000001
 30
0.0
 40
6.0
  0
CIRCLE
  5
173
  8
DATA
  6
CONTINUOUS
 62
     7
 10
209.49703
 20
249.79999000000001
 30
0.0
 40
3.2999899999999931
  0
CIRCLE
  5
174
  8
DATA
  6
CONTINUOUS
 62
     7
 10
209.49703
 20
249.79999000000001
 30
0.0
 40
6.0
  0
ARC
  5
175
  8
DATA
  6
CONTINUOUS
 62
     7
 10
55.256399999999999
 20
53.738240000000012
 30
0.0
 40
10.28978369943702
 50
17.639840032557832
 51
85.856807332256224
  0
ARC
  5
176
  8
DATA
  6
CONTINUOUS
 62
     7
 10
-50.158249999999981
 20
23.65062
 30
0.0
 40
119.9100151674554
 50
359.68911240736992
 51
16.07660964848105
  0
POLYLINE
  5
177
  8
DATA
  6
CONTINUOUS
 62
     7
 66
     1
 10
0.0
 20
0.0
 30
0.0
 70
   128
  0
VERTEX
  5
226
  8
DATA
  6
CONTINUOUS
 62
     7
 10
174.7474399999999
 20
34.300000000000011
 30
0.0
  0
VERTEX
  5
227
  8
DATA
  6
CONTINUOUS
 62
     7
 10
174.74745984374999
 20
34.300000000000011
 30
0.0
  0
VERTEX
  5
228
  8
DATA
  6
CONTINUOUS
 62
     7
 10
174.74751937499991
 20
34.300000000000011
 30
0.0
  0
VERTEX
  5
229
  8
DATA
  6
CONTINUOUS
 62
     7
 10
174.74761859374999
 20
34.300000000000011
 30
0.0
  0
VERTEX
  5
22A
  8
DATA
  6
CONTINUOUS
 62
     7
 10
174.74775749999989
 20
34.300000000000011
 30
0.0
  0
VERTEX
  5
22B
  8
DATA
  6
CONTINUOUS
 62
     7
 10
174.7479360937499
 20
34.300000000000011
 30
0.0
  0
VERTEX
  5
22C
  8
DATA
  6
CONTINUOUS
 62
     7
 10
174.7481543749999
 20
34.300000000000011
 30
0.0
  0
VERTEX
  5
22D
  8
DATA
  6
CONTINUOUS
 62
     7
 10
174.74841234374989
 20
34.300000000000011
 30
0.0
  0
VERTEX
  5
22E
  8
DATA
  6
CONTINUOUS
 62
     7
 10
174.74870999999999
 20
34.300000000000011
 30
0.0
  0
VERTEX
  5
22F
  8
DATA
  6
CONTINUOUS
 62
     7
 10
174.74870999999999
 20
34.300000000000011
 30
0.0
  0
VERTEX
  5
230
  8
DATA
  6
CONTINUOUS
 62
     7
 10
175.07150640624999
 20
34.350492343749998
 30
0.0
  0
VERTEX
  5
231
  8
DATA
  6
CONTINUOUS
 62
     7
 10
175.388850625
 20
34.501969375000023
 30
0.0
  0
VERTEX
  5
232
  8
DATA
  6
CONTINUOUS
 62
     7
 10
175.70074265624999
 20
34.754431093750007
 30
0.0
  0
VERTEX
  5
233
  8
DATA
  6
CONTINUOUS
 62
     7
 10
176.0071825
 20
35.107877500000001
 30
0.0
  0
VERTEX
  5
234
  8
DATA
  6
CONTINUOUS
 62
     7
 10
176.30817015624999
 20
35.562308593750011
 30
0.0
  0
VERTEX
  5
235
  8
DATA
  6
CONTINUOUS
 62
     7
 10
176.603705625
 20
36.117724375000002
 30
0.0
  0
VERTEX
  5
236
  8
DATA
  6
CONTINUOUS
 62
     7
 10
176.89378890624999
 20
36.774124843750002
 30
0.0
  0
VERTEX
  5
237
  8
DATA
  6
CONTINUOUS
 62
     7
 10
177.17841999999999
 20
37.531509999999997
 30
0.0
  0
VERTEX
  5
238
  8
DATA
  6
CONTINUOUS
 62
     7
 10
177.17841999999999
 20
37.531509999999997
 30
0.0
  0
VERTEX
  5
239
  8
DATA
  6
CONTINUOUS
 62
     7
 10
177.4528809375
 20
38.376352812500009
 30
0.0
  0
VERTEX
  5
23A
  8
DATA
  6
CONTINUOUS
 62
     7
 10
177.71244874999999
 20
39.295121250000022
 30
0.0
  0
VERTEX
  5
23B
  8
DATA
  6
CONTINUOUS
 62
     7
 10
177.9571234375
 20
40.287815312500051
 30
0.0
  0
VERTEX
  5
23C
  8
DATA
  6
CONTINUOUS
 62
     7
 10
178.186905
 20
41.354435000000009
 30
0.0
  0
VERTEX
  5
23D
  8
DATA
  6
CONTINUOUS
 62
     7
 10
178.4017934375
 20
42.494980312500012
 30
0.0
  0
VERTEX
  5
23E
  8
DATA
  6
CONTINUOUS
 62
     7
 10
178.60178875
 20
43.709451250000001
 30
0.0
  0
VERTEX
  5
23F
  8
DATA
  6
CONTINUOUS
 62
     7
 10
178.7868909375
 20
44.997847812500019
 30
0.0
  0
VERTEX
  5
240
  8
DATA
  6
CONTINUOUS
 62
     7
 10
178.9571
 20
46.360170000000011
 30
0.0
  0
VERTEX
  5
241
  8
DATA
  6
CONTINUOUS
 62
     7
 10
178.9571
 20
46.360170000000011
 30
0.0
  0
VERTEX
  5
242
  8
DATA
  6
CONTINUOUS
 62
     7
 10
179.10968515625001
 20
47.772982343750023
 30
0.0
  0
VERTEX
  5
243
  8
DATA
  6
CONTINUOUS
 62
     7
 10
179.24192562499999
 20
49.212854374999999
 30
0.0
  0
VERTEX
  5
244
  8
DATA
  6
CONTINUOUS
 62
     7
 10
179.35382140625001
 20
50.67978609375001
 30
0.0
  0
VERTEX
  5
245
  8
DATA
  6
CONTINUOUS
 62
     7
 10
179.44537249999999
 20
52.1737775
 30
0.0
  0
VERTEX
  5
246
  8
DATA
  6
CONTINUOUS
 62
     7
 10
179.51657890625
 20
53.69482859375001
 30
0.0
  0
VERTEX
  5
247
  8
DATA
  6
CONTINUOUS
 62
     7
 10
179.56744062499999
 20
55.242939375000013
 30
0.0
  0
VERTEX
  5
248
  8
DATA
  6
CONTINUOUS
 62
     7
 10
179.59795765625
 20
56.818109843750022
 30
0.0
  0
VERTEX
  5
249
  8
DATA
  6
CONTINUOUS
 62
     7
 10
179.60812999999999
 20
58.42034000000001
 30
0.0
  0
VERTEX
  5
24A
  8
DATA
  6
CONTINUOUS
 62
     7
 10
179.60812999999999
 20
58.42034000000001
 30
0.0
  0
SEQEND
  5
24B
  8
DATA
  6
CONTINUOUS
 62
     7
  0
ARC
  5
19E
  8
DATA
  6
CONTINUOUS
 62
     7
 10
183.69980000000001
 20
51.974440000000001
 30
0.0
 40
14.68260971555123
 50
339.98882161721963
 51
26.041060790591079
  0
POLYLINE
  5
19F
  8
DATA
  6
CONTINUOUS
 62
     7
 66
     1
 10
0.0
 20
0.0
 30
0.0
 70
   128
  0
VERTEX
  5
24C
  8
DATA
  6
CONTINUOUS
 62
     7
 10
201.75253000000001
 20
34.300000000000011
 30
0.0
  0
VERTEX
  5
24D
  8
DATA
  6
CONTINUOUS
 62
     7
 10
201.75251015625
 20
34.300000000000011
 30
0.0
  0
VERTEX
  5
24E
  8
DATA
  6
CONTINUOUS
 62
     7
 10
201.75245062499999
 20
34.300000000000011
 30
0.0
  0
VERTEX
  5
24F
  8
DATA
  6
CONTINUOUS
 62
     7
 10
201.75235140625
 20
34.300000000000011
 30
0.0
  0
VERTEX
  5
250
  8
DATA
  6
CONTINUOUS
 62
     7
 10
201.75221250000001
 20
34.300000000000011
 30
0.0
  0
VERTEX
  5
251
  8
DATA
  6
CONTINUOUS
 62
     7
 10
201.75203390625001
 20
34.300000000000011
 30
0.0
  0
VERTEX
  5
252
  8
DATA
  6
CONTINUOUS
 62
     7
 10
201.75181562500001
 20
34.300000000000011
 30
0.0
  0
VERTEX
  5
253
  8
DATA
  6
CONTINUOUS
 62
     7
 10
201.75155765624999
 20
34.300000000000011
 30
0.0
  0
VERTEX
  5
254
  8
DATA
  6
CONTINUOUS
 62
     7
 10
201.75126
 20
34.300000000000011
 30
0.0
  0
VERTEX
  5
255
  8
DATA
  6
CONTINUOUS
 62
     7
 10
201.75126
 20
34.300000000000011
 30
0.0
  0
VERTEX
  5
256
  8
DATA
  6
CONTINUOUS
 62
     7
 10
201.42846359375
 20
34.350492343749998
 30
0.0
  0
VERTEX
  5
257
  8
DATA
  6
CONTINUOUS
 62
     7
 10
201.11111937499999
 20
34.501969375000023
 30
0.0
  0
VERTEX
  5
258
  8
DATA
  6
CONTINUOUS
 62
     7
 10
200.79922734375
 20
34.754431093750007
 30
0.0
  0
VERTEX
  5
259
  8
DATA
  6
CONTINUOUS
 62
     7
 10
200.49278749999999
 20
35.107877500000001
 30
0.0
  0
VERTEX
  5
25A
  8
DATA
  6
CONTINUOUS
 62
     7
 10
200.19179984375
 20
35.562308593750011
 30
0.0
  0
VERTEX
  5
25B
  8
DATA
  6
CONTINUOUS
 62
     7
 10
199.89626437499999
 20
36.117724375000002
 30
0.0
  0
VERTEX
  5
25C
  8
DATA
  6
CONTINUOUS
 62
     7
 10
199.60618109375
 20
36.774124843750002
 30
0.0
  0
VERTEX
  5
25D
  8
DATA
  6
CONTINUOUS
 62
     7
 10
199.32155
 20
37.531509999999997
 30
0.0
  0
VERTEX
  5
25E
  8
DATA
  6
CONTINUOUS
 62
     7
 10
199.32155
 20
37.531509999999997
 30
0.0
  0
VERTEX
  5
25F
  8
DATA
  6
CONTINUOUS
 62
     7
 10
199.04708906249999
 20
38.376352812500009
 30
0.0
  0
VERTEX
  5
260
  8
DATA
  6
CONTINUOUS
 62
     7
 10
198.78752125
 20
39.295121250000022
 30
0.0
  0
VERTEX
  5
261
  8
DATA
  6
CONTINUOUS
 62
     7
 10
198.54284656249999
 20
40.287815312500051
 30
0.0
  0
VERTEX
  5
262
  8
DATA
  6
CONTINUOUS
 62
     7
 10
198.31306499999999
 20
41.354435000000009
 30
0.0
  0
VERTEX
  5
263
  8
DATA
  6
CONTINUOUS
 62
     7
 10
198.09817656249999
 20
42.494980312500012
 30
0.0
  0
VERTEX
  5
264
  8
DATA
  6
CONTINUOUS
 62
     7
 10
197.89818124999999
 20
43.709451250000001
 30
0.0
  0
VERTEX
  5
265
  8
DATA
  6
CONTINUOUS
 62
     7
 10
197.71307906249999
 20
44.997847812500019
 30
0.0
  0
VERTEX
  5
266
  8
DATA
  6
CONTINUOUS
 62
     7
 10
197.54286999999999
 20
46.360170000000011
 30
0.0
  0
VERTEX
  5
267
  8
DATA
  6
CONTINUOUS
 62
     7
 10
197.54286999999999
 20
46.360170000000011
 30
0.0
  0
VERTEX
  5
268
  8
DATA
  6
CONTINUOUS
 62
     7
 10
197.39028484375001
 20
47.772982343750023
 30
0.0
  0
VERTEX
  5
269
  8
DATA
  6
CONTINUOUS
 62
     7
 10
197.258044375
 20
49.212854374999999
 30
0.0
  0
VERTEX
  5
26A
  8
DATA
  6
CONTINUOUS
 62
     7
 10
197.14614859375001
 20
50.67978609375001
 30
0.0
  0
VERTEX
  5
26B
  8
DATA
  6
CONTINUOUS
 62
     7
 10
197.0545975
 20
52.1737775
 30
0.0
  0
VERTEX
  5
26C
  8
DATA
  6
CONTINUOUS
 62
     7
 10
196.98339109374999
 20
53.69482859375001
 30
0.0
  0
VERTEX
  5
26D
  8
DATA
  6
CONTINUOUS
 62
     7
 10
196.932529375
 20
55.242939375000013
 30
0.0
  0
VERTEX
  5
26E
  8
DATA
  6
CONTINUOUS
 62
     7
 10
196.90201234374999
 20
56.818109843750022
 30
0.0
  0
VERTEX
  5
26F
  8
DATA
  6
CONTINUOUS
 62
     7
 10
196.89184
 20
58.42034000000001
 30
0.0
  0
VERTEX
  5
270
  8
DATA
  6
CONTINUOUS
 62
     7
 10
196.89184
 20
58.42034000000001
 30
0.0
  0
SEQEND
  5
271
  8
DATA
  6
CONTINUOUS
 62
     7
  0
LINE
  5
1C6
  8
DATA
  6
CONTINUOUS
 62
     7
 10
73.562649999999977
 20
69.594030000000004
 30
0.0
 11
67.088709999999992
 21
48.781490000000019
 31
0.0
  0
ARC
  5
1C7
  8
DATA
  6
CONTINUOUS
 62
     7
 10
36.5276
 20
69.0
 30
0.0
 40
1.9999946271177831
 50
17.278452881308791
 51
90.0
  0
ARC
  5
1C8
  8
DATA
  6
CONTINUOUS
 62
     7
 10
75.472389999999976
 20
69.0
 30
0.0
 40
2.0
 50
90.0
 51
162.7212735675225
  0
LINE
  5
1C9
  8
DATA
  6
CONTINUOUS
 62
     7
 10
-3.125
 20
88.75
 30
0.0
 11
-12.5
 21
88.75
 31
0.0
  0
TEXT
  5
1CA
  8
DATA
 62
     7
 10
-23.788889999999999
 20
91.717991600000005
 30
0.0
 40
4.3435729687500002
  1
アンテナ
 41
0.8
 11
-23.788889999999999
 21
96.061564568750001
 31
0.0
 73
     3
  0
LINE
  5
1CB
  8
DATA
  6
CONTINUOUS
 62
     7
 10
-12.5
 20
88.75
 30
0.0
 11
-7.6703799999999926
 21
90.0441
 31
0.0
  0
LINE
  5
1CC
  8
DATA
  6
CONTINUOUS
 62
     7
 10
-12.5
 20
88.75
 30
0.0
 11
-7.6703799999999926
 21
87.455899999999986
 31
0.0
  0
LINE
  5
1CD
  8
DATA
  6
CONTINUOUS
 62
     7
 10
117.99999
 20
88.75
 30
0.0
 11
127.37497999999999
 21
88.75
 31
0.0
  0
LINE
  5
1CE
  8
DATA
  6
CONTINUOUS
 62
     7
 10
127.37497999999999
 20
88.75
 30
0.0
 11
122.54536
 21
90.0441
 31
0.0
  0
LINE
  5
1CF
  8
DATA
  6
CONTINUOUS
 62
     7
 10
127.37497999999999
 20
88.75
 30
0.0
 11
122.54536
 21
87.455899999999986
 31
0.0
  0
TEXT
  5
1D0
  8
DATA
 62
     7
 10
117.13889
 20
91.717991600000005
 30
0.0
 40
4.3435729687500002
  1
レシーバー
 41
0.8
 11
117.13889
 21
96.061564568750001
 31
0.0
 73
     3
  0
LINE
  5
1D1
  8
DATA
  6
CONTINUOUS
 62
     7
 10
18.999994999999998
 20
7.0
 30
0.0
 11
17.75
 21
0.0
 31
0.0
  0
LINE
  5
1D2
  8
DATA
  6
CONTINUOUS
 62
     7
 10
92.999994999999998
 20
7.0
 30
0.0
 11
94.25
 21
0.0
 31
0.0
  0
LINE
  5
1D3
  8
DATA
  6
CONTINUOUS
 62
     7
 10
225.24997999999999
 20
7.0
 30
0.0
 11
226.49997999999999
 21
0.0
 31
0.0
  0
LINE
  5
1D4
  8
DATA
  6
CONTINUOUS
 62
     7
 10
151.24997999999999
 20
7.0
 30
0.0
 11
149.99997999999999
 21
0.0
 31
0.0
  0
LINE
  5
1D5
  8
DATA
  6
STYLE_01
 62
     7
 10
63.849989999999998
 20
31.0
 30
0.0
 11
48.149999999999999
 21
31.0
 31
0.0
  0
LINE
  5
1D6
  8
DATA
  6
STYLE_01
 62
     7
 10
48.149999999999999
 20
22.99999
 30
0.0
 11
48.149999999999999
 21
31.0
 31
0.0
  0
LINE
  5
1D7
  8
DATA
  6
STYLE_01
 62
     7
 10
63.849989999999998
 20
22.99999
 30
0.0
 11
63.849989999999998
 21
31.0
 31
0.0
  0
LINE
  5
1D8
  8
DATA
  6
STYLE_01
 62
     7
 10
180.39998
 20
31.0
 30
0.0
 11
196.09998999999999
 21
31.0
 31
0.0
  0
LINE
  5
1D9
  8
DATA
  6
STYLE_01
 62
     7
 10
196.09998999999999
 20
22.99999
 30
0.0
 11
196.09998999999999
 21
31.0
 31
0.0
  0
LINE
  5
1DA
  8
DATA
  6
STYLE_01
 62
     7
 10
180.39998
 20
22.99999
 30
0.0
 11
180.39998
 21
31.0
 31
0.0
  0
TEXT
  5
1DB
  8
DATA
 62
     7
 10
175.0
 20
185.64577777777771
 30
0.0
 40
4.3435763888888879
  1
マウンティングベース詳細
 41
0.8
 11
175.0
 21
189.9893541666666
 31
0.0
 73
     3
  0
ENDSEC
  0
EOF
