  0
SECTION
  2
HEADER
  9
$ACADVER
  1
AC1009
  9
$INSBASE
 10
0.0
 20
0.0
 30
0.0
  9
$EXTMIN
 10
-133.73295646984201
 20
-273.73148183733377
 30
-0.0015258207003583
  9
$EXTMAX
 10
946.33296149898467
 20
1332.04890454205
 30
0.0000000349246037
  9
$LIMMIN
 10
0.0
 20
0.0
  9
$LIMMAX
 10
0.0
 20
0.0
  9
$ORTHOMODE
 70
     0
  9
$REGENMODE
 70
     1
  9
$FILLMODE
 70
     1
  9
$QTEXTMODE
 70
     0
  9
$MIRRTEXT
 70
     1
  9
$DRAGMODE
 70
     2
  9
$LTSCALE
 40
30.48
  9
$OSMODE
 70
   231
  9
$ATTMODE
 70
     1
  9
$TEXTSIZE
 40
0.0
  9
$TRACEWID
 40
1.0
  9
$TEXTSTYLE
  7
STANDARD
  9
$CLAYER
  8
DATA
  9
$CELTYPE
  6
BYLAYER
  9
$CECOLOR
 62
   256
  9
$DIMSCALE
 40
1.0
  9
$DIMASZ
 40
0.18
  9
$DIMEXO
 40
0.0625
  9
$DIMDLI
 40
0.38
  9
$DIMRND
 40
0.0
  9
$DIMDLE
 40
0.0
  9
$DIMEXE
 40
0.18
  9
$DIMTP
 40
0.0
  9
$DIMTM
 40
0.0
  9
$DIMTXT
 40
0.18
  9
$DIMCEN
 40
0.09
  9
$DIMTSZ
 40
0.0
  9
$DIMTOL
 70
     0
  9
$DIMLIM
 70
     0
  9
$DIMTIH
 70
     1
  9
$DIMTOH
 70
     1
  9
$DIMSE1
 70
     0
  9
$DIMSE2
 70
     0
  9
$DIMTAD
 70
     0
  9
$DIMZIN
 70
     0
  9
$DIMBLK
  1

  9
$DIMASO
 70
     1
  9
$DIMSHO
 70
     1
  9
$DIMPOST
  1

  9
$DIMAPOST
  1

  9
$DIMALT
 70
     0
  9
$DIMALTD
 70
     2
  9
$DIMALTF
 40
25.399999999999999
  9
$DIMLFAC
 40
1.0
  9
$DIMTOFL
 70
     0
  9
$DIMTVP
 40
0.0
  9
$DIMTIX
 70
     0
  9
$DIMSOXD
 70
     0
  9
$DIMSAH
 70
     0
  9
$DIMBLK1
  1

  9
$DIMBLK2
  1

  9
$DIMSTYLE
  2
STANDARD
  9
$DIMCLRD
 70
     0
  9
$DIMCLRE
 70
     0
  9
$DIMCLRT
 70
     0
  9
$DIMTFAC
 40
1.0
  9
$DIMGAP
 40
0.09
  9
$LUNITS
 70
     2
  9
$LUPREC
 70
     4
  9
$SKETCHINC
 40
0.1
  9
$FILLETRAD
 40
0.0
  9
$AUNITS
 70
     0
  9
$AUPREC
 70
     0
  9
$MENU
  1
acad
  9
$ELEVATION
 40
0.0
  9
$PELEVATION
 40
0.0
  9
$THICKNESS
 40
0.0
  9
$LIMCHECK
 70
     0
  9
$BLIPMODE
 70
     0
  9
$CHAMFERA
 40
0.0
  9
$CHAMFERB
 40
0.0
  9
$SKPOLY
 70
     0
  9
$TDCREATE
 40
2454294.5477662031
  9
$TDUPDATE
 40
2454294.5483770021
  9
$TDINDWG
 40
0.0003384375
  9
$TDUSRTIMER
 40
0.0003346412
  9
$USRTIMER
 70
     1
  9
$ANGBASE
 50
0.0
  9
$ANGDIR
 70
     0
  9
$PDMODE
 70
     1
  9
$PDSIZE
 40
-2.0
  9
$PLINEWID
 40
0.0
  9
$COORDS
 70
     1
  9
$SPLFRAME
 70
     0
  9
$SPLINETYPE
 70
     6
  9
$SPLINESEGS
 70
     8
  9
$ATTDIA
 70
     0
  9
$ATTREQ
 70
     1
  9
$HANDLING
 70
     1
  9
$HANDSEED
  5
475
  9
$SURFTAB1
 70
     6
  9
$SURFTAB2
 70
     6
  9
$SURFTYPE
 70
     6
  9
$SURFU
 70
     6
  9
$SURFV
 70
     6
  9
$UCSNAME
  2

  9
$UCSORG
 10
0.0
 20
0.0
 30
0.0
  9
$UCSXDIR
 10
1.0
 20
0.0
 30
0.0
  9
$UCSYDIR
 10
0.0
 20
1.0
 30
0.0
  9
$PUCSNAME
  2

  9
$PUCSORG
 10
0.0
 20
0.0
 30
0.0
  9
$PUCSXDIR
 10
1.0
 20
0.0
 30
0.0
  9
$PUCSYDIR
 10
0.0
 20
1.0
 30
0.0
  9
$USERI1
 70
     0
  9
$USERI2
 70
     0
  9
$USERI3
 70
     0
  9
$USERI4
 70
     0
  9
$USERI5
 70
     0
  9
$USERR1
 40
0.0
  9
$USERR2
 40
0.0
  9
$USERR3
 40
0.0
  9
$USERR4
 40
0.0
  9
$USERR5
 40
0.0
  9
$WORLDVIEW
 70
     1
  9
$SHADEDGE
 70
     3
  9
$SHADEDIF
 70
    70
  9
$TILEMODE
 70
     1
  9
$MAXACTVP
 70
    64
  9
$PLIMCHECK
 70
     0
  9
$PEXTMIN
 10
1.0000000000000000E+020
 20
1.0000000000000000E+020
 30
1.0000000000000000E+020
  9
$PEXTMAX
 10
-1.0000000000000000E+020
 20
-1.0000000000000000E+020
 30
-1.0000000000000000E+020
  9
$PLIMMIN
 10
0.0
 20
0.0
  9
$PLIMMAX
 10
12.0
 20
9.0
  9
$UNITMODE
 70
     0
  9
$VISRETAIN
 70
     0
  9
$PLINEGEN
 70
     1
  9
$PSLTSCALE
 70
     0
  0
ENDSEC
  0
SECTION
  2
TABLES
  0
TABLE
  2
VPORT
 70
     1
  0
VPORT
  2
*ACTIVE
 70
     0
 10
0.0
 20
0.0
 11
1.0
 21
1.0
 12
406.30000251457142
 22
529.15871135235818
 13
0.0
 23
0.0
 14
1.0
 24
1.0
 15
0.0
 25
0.0
 16
0.0
 26
0.0
 36
1.0
 17
0.0
 27
0.0
 37
0.0
 40
1619.1063646895859
 41
1.6703601108033239
 42
50.0
 43
0.0
 44
0.0
 50
0.0
 51
0.0
 71
     0
 72
  2000
 73
     1
 74
     1
 75
     0
 76
     0
 77
     0
 78
     0
  0
ENDTAB
  0
TABLE
  2
LTYPE
 70
    11
  0
LTYPE
  2
CONTINUOUS
 70
     0
  3
Solid line
 72
    65
 73
     0
 40
0.0
  0
ENDTAB
  0
TABLE
  2
LAYER
 70
     5
  0
LAYER
  2
0
 70
     0
 62
     7
  6
CONTINUOUS
  0
LAYER
  2
DATA
 70
     0
 62
     7
  6
CONTINUOUS
  0
LAYER
  2
HIBINO-BASE
 70
     0
 62
     7
  6
CONTINUOUS
  0
LAYER
  2
SPEC
 70
     0
 62
     7
  6
CONTINUOUS
  0
LAYER
  2
DIMNSIONS
 70
     0
 62
     7
  6
CONTINUOUS
  0
ENDTAB
  0
TABLE
  2
STYLE
 70
     2
  0
STYLE
  2
STANDARD
 70
     0
 40
0.0
 41
1.0
 50
0.0
 71
     0
 42
0.0
  3
txt
  4
BIGFONT.SHX
  0
ENDTAB
  0
TABLE
  2
VIEW
 70
     0
  0
ENDTAB
  0
TABLE
  2
UCS
 70
     0
  0
ENDTAB
  0
TABLE
  2
APPID
 70
     1
  0
APPID
  2
ACAD
 70
     0
  0
ENDTAB
  0
TABLE
  2
DIMSTYLE
 70
     1
  0
DIMSTYLE
  2
STANDARD
 70
     0
  3

  4

  5

  6

  7

 40
1.0
 41
0.18
 42
0.0625
 43
0.38
 44
0.18
 45
0.0
 46
0.0
 47
0.0
 48
0.0
140
0.18
141
0.09
142
0.0
143
25.399999999999999
144
1.0
145
0.0
146
1.0
147
0.09
 71
     0
 72
     0
 73
     1
 74
     1
 75
     0
 76
     0
 77
     0
 78
     0
170
     0
171
     2
172
     0
173
     0
174
     0
175
     0
176
     0
177
     0
178
     0
  0
ENDTAB
  0
ENDSEC
  0
SECTION
  2
BLOCKS
  0
BLOCK
  8
0
  2
$MODEL_SPACE
 70
     0
 10
0.0
 20
0.0
 30
0.0
  3
$MODEL_SPACE
  1

  0
ENDBLK
  5
3D8
  8
0
  0
BLOCK
 67
     1
  8
0
  2
$PAPER_SPACE
 70
     0
 10
0.0
 20
0.0
 30
0.0
  3
$PAPER_SPACE
  1

  0
ENDBLK
  5
3D4
 67
     1
  8
0
  0
ENDSEC
  0
SECTION
  2
ENTITIES
  0
LINE
  5
2C
  8
HIBINO-BASE
  6
CONTINUOUS
 62
     7
 10
-133.69999999999999
 20
1332.0
 30
0.0
 11
946.29999999999973
 21
1332.0
 31
0.0
  0
LINE
  5
2D
  8
HIBINO-BASE
  6
CONTINUOUS
 62
     7
 10
946.29999999999973
 20
-228.0
 30
0.0
 11
-133.69999999999999
 21
-228.0
 31
0.0
  0
LINE
  5
2E
  8
HIBINO-BASE
  6
CONTINUOUS
 62
     7
 10
-133.69999999999999
 20
-228.0
 30
0.0
 11
-133.69999999999999
 21
1332.0
 31
0.0
  0
TEXT
  5
2F
  8
HIBINO-BASE
 62
     7
 10
-90.596000000000004
 20
-266.4520667999999
 30
0.0
 40
21.600265078124998
  1
Hibino Corporation
 41
0.7
 11
-90.596000000000004
 21
-244.85180172187489
 31
0.0
 73
     3
  0
LINE
  5
30
  8
HIBINO-BASE
  6
CONTINUOUS
 62
     7
 10
946.29999999999973
 20
1332.0
 30
0.0
 11
946.29999999999973
 21
-228.0
 31
0.0
  0
LINE
  5
31
  8
HIBINO-BASE
  6
CONTINUOUS
 62
     7
 10
406.29999999999978
 20
-92.999999999999886
 30
0.0
 11
946.29999999999973
 21
-92.999999999999886
 31
0.0
  0
LINE
  5
32
  8
HIBINO-BASE
  6
CONTINUOUS
 62
     7
 10
406.29999999999978
 20
-228.0
 30
0.0
 11
406.29999999999978
 21
-92.999999999999886
 31
0.0
  0
TEXT
  5
33
  8
HIBINO-BASE
 62
     7
 10
411.69999999999987
 20
-108.05216
 30
0.0
 40
9.7730468749999986
  1
NOTE
 41
0.7
 11
411.69999999999987
 21
-98.279113124999995
 31
0.0
 73
     3
  0
LINE
  5
34
  8
HIBINO-BASE
  6
CONTINUOUS
 62
     7
 10
616.29999999999995
 20
-228.0
 30
0.0
 11
616.29999999999995
 21
-92.999999999999886
 31
0.0
  0
TEXT
  5
35
  8
HIBINO-BASE
 62
     7
 10
621.69999999999982
 20
-108.05216
 30
0.0
 40
9.7730468749999986
  1
TITLE
 41
0.7
 11
621.69999999999982
 21
-98.279113124999995
 31
0.0
 73
     3
  0
TEXT
  5
36
  8
HIBINO-BASE
 62
     7
 10
706.71033999999975
 20
-266.4520667999999
 30
0.0
 40
21.600265078124998
  1
ヒビノ株式会社
 41
0.7
 11
706.71033999999975
 21
-244.85180172187489
 31
0.0
 73
     3
  0
LINE
  5
37
  8
HIBINO-BASE
  6
CONTINUOUS
 62
     7
 10
406.29999999999978
 20
-167.9999999999998
 30
0.0
 11
946.29999999999973
 21
-167.9999999999998
 31
0.0
  0
TEXT
  5
38
  8
HIBINO-BASE
 62
     7
 10
696.69999999999982
 20
-182.7142399999999
 30
0.0
 40
9.7730468749999986
  1
DRAWN
 41
0.7
 11
696.69999999999982
 21
-172.9411931249999
 31
0.0
 73
     3
  0
TEXT
  5
39
  8
HIBINO-BASE
 62
     7
 10
546.69999999999993
 20
-182.7142399999999
 30
0.0
 40
9.7730468749999986
  1
DATE
 41
0.7
 11
546.69999999999993
 21
-172.9411931249999
 31
0.0
 73
     3
  0
TEXT
  5
3A
  8
HIBINO-BASE
 62
     7
 10
412.89999999999992
 20
-183.7167371999999
 30
0.0
 40
9.7730622656249988
  1
図面サイズ
 41
0.7
 11
412.89999999999992
 21
-173.94367493437491
 31
0.0
 73
     3
  0
TEXT
  5
3B
  8
HIBINO-BASE
 62
     7
 10
486.69999999999987
 20
-182.7142399999999
 30
0.0
 40
9.7730468749999986
  1
SCALE
 41
0.7
 11
486.69999999999987
 21
-172.9411931249999
 31
0.0
 73
     3
  0
TEXT
  5
3C
  8
HIBINO-BASE
 62
     7
 10
621.69999999999982
 20
-182.7142399999999
 30
0.0
 40
9.7730468749999986
  1
DESIGN
 41
0.7
 11
621.69999999999982
 21
-172.9411931249999
 31
0.0
 73
     3
  0
TEXT
  5
3D
  8
HIBINO-BASE
 62
     7
 10
846.69999999999982
 20
-182.7142399999999
 30
0.0
 40
9.7730468749999986
  1
DRAWING NO.
 41
0.7
 11
846.69999999999982
 21
-172.9411931249999
 31
0.0
 73
     3
  0
TEXT
  5
3E
  8
HIBINO-BASE
 62
     7
 10
771.69999999999982
 20
-182.7142399999999
 30
0.0
 40
9.7730468749999986
  1
CHECK
 41
0.7
 11
771.69999999999982
 21
-172.9411931249999
 31
0.0
 73
     3
  0
LINE
  5
3F
  8
HIBINO-BASE
  6
CONTINUOUS
 62
     7
 10
492.54999999999978
 20
-220.5
 30
0.0
 11
515.04999999999995
 21
-197.99999999999989
 31
0.0
  0
TEXT
  5
40
  8
HIBINO-BASE
 62
     7
 10
488.79999999999978
 20
-204.65366
 30
0.0
 40
9.7730468749999986
  1
1
 41
0.7
 11
488.79999999999978
 21
-194.880613125
 31
0.0
 73
     3
  0
LINE
  5
41
  8
HIBINO-BASE
  6
CONTINUOUS
 62
     7
 10
481.29999999999978
 20
-228.0
 30
0.0
 11
481.29999999999978
 21
-167.9999999999998
 31
0.0
  0
LINE
  5
42
  8
HIBINO-BASE
  6
CONTINUOUS
 62
     7
 10
541.29999999999984
 20
-228.0
 30
0.0
 11
541.29999999999984
 21
-167.9999999999998
 31
0.0
  0
LINE
  5
43
  8
HIBINO-BASE
  6
CONTINUOUS
 62
     7
 10
691.29999999999984
 20
-167.9999999999998
 30
0.0
 11
691.29999999999984
 21
-228.0
 31
0.0
  0
LINE
  5
44
  8
HIBINO-BASE
  6
CONTINUOUS
 62
     7
 10
841.29999999999984
 20
-167.9999999999998
 30
0.0
 11
841.29999999999984
 21
-228.0
 31
0.0
  0
LINE
  5
45
  8
HIBINO-BASE
  6
CONTINUOUS
 62
     7
 10
766.29999999999984
 20
-228.0
 30
0.0
 11
766.29999999999984
 21
-167.9999999999998
 31
0.0
  0
TEXT
  5
46
  8
HIBINO-BASE
 62
     7
 10
546.43923999999993
 20
-210.81812000000011
 30
0.0
 40
9.7730468749999986
  1
'05.12.
 41
0.7
 11
546.43923999999993
 21
-201.0450731250001
 31
0.0
 73
     3
  0
TEXT
  5
47
  8
HIBINO-BASE
 62
     7
 10
511.29999999999978
 20
-215.90366
 30
0.0
 40
9.7730468749999986
  1
6
 41
0.7
 11
511.29999999999978
 21
-206.130613125
 31
0.0
 73
     3
  0
TEXT
  5
48
  8
HIBINO-BASE
 62
     7
 10
429.60000000000002
 20
-216.14400000000001
 30
0.0
 40
19.546093750000001
  1
A4
 41
0.7
 11
429.60000000000002
 21
-196.59790624999991
 31
0.0
 73
     3
  0
TEXT
  5
49
  8
HIBINO-BASE
 62
     7
 10
700.33486006620763
 20
-210.81812000000011
 30
0.0
 40
9.7730468749999986
  1
N.Sasaki
 41
0.7
 11
700.33486006620763
 21
-201.0450731250001
 31
0.0
 73
     3
  0
TEXT
  5
4A
  8
SPEC
 62
     7
 10
-81.200000000000003
 20
1280.3596199999999
 30
0.0
 40
14.6595703125
  1
仕様
 41
0.7
 11
-81.200000000000003
 21
1295.0191903125001
 31
0.0
 73
     3
  0
LINE
  5
4B
  8
SPEC
  6
CONTINUOUS
 62
     7
 10
-88.700000000000088
 20
1272.0
 30
0.0
 11
650.0
 21
1272.0
 31
0.0
  0
LINE
  5
4C
  8
SPEC
  6
CONTINUOUS
 62
     7
 10
-88.700000000000088
 20
1272.0
 30
0.0
 11
-88.700000000000088
 21
934.5
 31
0.0
  0
TEXT
  5
4D
  8
SPEC
 62
     7
 10
-83.300000000000068
 20
1255.415986666666
 30
0.0
 40
11.401888020833329
  1
アンテナ入力
 41
0.7
 11
-83.300000000000068
 21
1266.8178746875001
 31
0.0
 73
     3
  0
TEXT
  5
4E
  8
SPEC
 62
     7
 10
61.699999999999882
 20
1255.415986666666
 30
0.0
 40
11.401888020833329
  1
2(A、B)
 41
0.7
 11
61.699999999999882
 21
1266.8178746875001
 31
0.0
 73
     3
  0
LINE
  5
4F
  8
SPEC
  6
CONTINUOUS
 62
     7
 10
49.999999999999929
 20
1272.0
 30
0.0
 11
49.999999999999929
 21
934.5
 31
0.0
  0
LINE
  5
50
  8
SPEC
  6
CONTINUOUS
 62
     7
 10
650.0
 20
1272.0
 30
0.0
 11
650.0
 21
934.5
 31
0.0
  0
LINE
  5
51
  8
SPEC
  6
CONTINUOUS
 62
     7
 10
-88.700000000000088
 20
1204.5
 30
0.0
 11
650.0
 21
1204.5
 31
0.0
  0
TEXT
  5
52
  8
SPEC
 62
     7
 10
61.699999999999882
 20
1232.9159866666671
 30
0.0
 40
11.401888020833329
  1
コネクタ:BNC
 41
0.7
 11
61.699999999999882
 21
1244.3178746875001
 31
0.0
 73
     3
  0
TEXT
  5
53
  8
SPEC
 62
     7
 10
61.699999999999882
 20
1187.915986666666
 30
0.0
 40
11.401888020833329
  1
5(A、Bそれぞれ)
 41
0.7
 11
61.699999999999882
 21
1199.3178746875001
 31
0.0
 73
     3
  0
TEXT
  5
54
  8
SPEC
 62
     7
 10
-83.300000000000068
 20
1187.915986666666
 30
0.0
 40
11.401888020833329
  1
アンテナ分配出力
 41
0.7
 11
-83.300000000000068
 21
1199.3178746875001
 31
0.0
 73
     3
  0
LINE
  5
55
  8
SPEC
  6
CONTINUOUS
 62
     7
 10
-88.700000000000088
 20
1092.0
 30
0.0
 11
650.0
 21
1092.0
 31
0.0
  0
TEXT
  5
56
  8
SPEC
 62
     7
 10
61.699999999999882
 20
1120.415986666666
 30
0.0
 40
11.401888020833329
  1
コネクタ:BNC
 41
0.7
 11
61.699999999999882
 21
1131.8178746875001
 31
0.0
 73
     3
  0
LINE
  5
57
  8
SPEC
  6
CONTINUOUS
 62
     7
 10
-88.700000000000088
 20
1047.0
 30
0.0
 11
650.0
 21
1047.0
 31
0.0
  0
TEXT
  5
58
  8
SPEC
 62
     7
 10
-83.300000000000068
 20
1075.4159866666671
 30
0.0
 40
11.401888020833329
  1
電源出力
 41
0.7
 11
-83.300000000000068
 21
1086.8178746875001
 31
0.0
 73
     3
  0
TEXT
  5
59
  8
SPEC
 62
     7
 10
61.699999999999882
 20
1075.4159866666671
 30
0.0
 40
11.401888020833329
  1
DC12V×4(ULXP4等SHUREワイヤレス受信機用。付属の電源ケーブルにて接続)
 41
0.7
 11
61.699999999999882
 21
1086.8178746875001
 31
0.0
 73
     3
  0
LINE
  5
5A
  8
SPEC
  6
CONTINUOUS
 62
     7
 10
-88.700000000000088
 20
1024.5
 30
0.0
 11
650.0
 21
1024.5
 31
0.0
  0
TEXT
  5
5B
  8
SPEC
 62
     7
 10
-83.300000000000068
 20
1030.415986666666
 30
0.0
 40
11.401888020833329
  1
対応周波数
 41
0.7
 11
-83.300000000000068
 21
1041.8178746875001
 31
0.0
 73
     3
  0
TEXT
  5
5C
  8
SPEC
 62
     7
 10
61.699999999999882
 20
1030.415986666666
 30
0.0
 40
11.401888020833329
  1
500～900MHz
 41
0.7
 11
61.699999999999882
 21
1041.8178746875001
 31
0.0
 73
     3
  0
LINE
  5
5D
  8
SPEC
  6
CONTINUOUS
 62
     7
 10
-88.700000000000088
 20
979.49999999999989
 30
0.0
 11
650.0
 21
979.49999999999989
 31
0.0
  0
TEXT
  5
5E
  8
SPEC
 62
     7
 10
-83.300000000000068
 20
1007.915986666666
 30
0.0
 40
11.401888020833329
  1
電源
 41
0.7
 11
-83.300000000000068
 21
1019.3178746875
 31
0.0
 73
     3
  0
TEXT
  5
5F
  8
SPEC
 62
     7
 10
61.699999999999882
 20
1007.915986666666
 30
0.0
 40
11.401888020833329
  1
AC100V、50/60Hz、15W
 41
0.7
 11
61.699999999999882
 21
1019.3178746875
 31
0.0
 73
     3
  0
LINE
  5
60
  8
SPEC
  6
CONTINUOUS
 62
     7
 10
-88.700000000000088
 20
957.0
 30
0.0
 11
650.0
 21
957.0
 31
0.0
  0
TEXT
  5
61
  8
SPEC
 62
     7
 10
-83.300000000000068
 20
962.91598666666653
 30
0.0
 40
11.401888020833329
  1
寸法(W×H×D)
 41
0.7
 11
-83.300000000000068
 21
974.31787468749985
 31
0.0
 73
     3
  0
TEXT
  5
62
  8
SPEC
 62
     7
 10
61.699999999999882
 20
962.91598666666653
 30
0.0
 40
11.401888020833329
  1
483×44×286mm(奥行はラックマウント面より。コネクタ ・突起含まず)
 41
0.7
 11
61.699999999999882
 21
974.31787468749985
 31
0.0
 73
     3
  0
LINE
  5
63
  8
SPEC
  6
CONTINUOUS
 62
     7
 10
-88.700000000000088
 20
934.5
 30
0.0
 11
650.0
 21
934.5
 31
0.0
  0
TEXT
  5
64
  8
SPEC
 62
     7
 10
-83.300000000000068
 20
940.41598666666653
 30
0.0
 40
11.401888020833329
  1
重量
 41
0.7
 11
-83.300000000000068
 21
951.81787468749985
 31
0.0
 73
     3
  0
TEXT
  5
65
  8
SPEC
 62
     7
 10
61.699999999999882
 20
940.41598666666653
 30
0.0
 40
11.401888020833329
  1
約3.3kg
 41
0.7
 11
61.699999999999882
 21
951.81787468749985
 31
0.0
 73
     3
  0
TEXT
  5
66
  8
SPEC
 62
     7
 10
61.699999999999882
 20
1210.4159866666671
 30
0.0
 40
11.401888020833329
  1
インピーダンス:50Ω
 41
0.7
 11
61.699999999999882
 21
1221.8178746875001
 31
0.0
 73
     3
  0
TEXT
  5
67
  8
SPEC
 62
     7
 10
61.699999999999882
 20
1097.9159866666671
 30
0.0
 40
11.401888020833329
  1
インピーダンス:50Ω
 41
0.7
 11
61.699999999999882
 21
1109.3178746875001
 31
0.0
 73
     3
  0
TEXT
  5
68
  8
SPEC
 62
     7
 10
61.699999999999882
 20
1142.915986666666
 30
0.0
 40
11.401888020833329
  1
RFカスケード出力:出力コネクタ 5、出力ゲイン:1dB typical(受信機も接続可能)
 41
0.7
 11
61.699999999999882
 21
1154.3178746875001
 31
0.0
 73
     3
  0
TEXT
  5
69
  8
SPEC
 62
     7
 10
61.699999999999882
 20
1165.415986666666
 30
0.0
 40
11.401888020833329
  1
RF出力:出力コネクタ 1～4、出力ゲイン:3dB typical
 41
0.7
 11
61.699999999999882
 21
1176.8178746875001
 31
0.0
 73
     3
  0
LINE
  5
6A
  8
SPEC
  6
CONTINUOUS
 62
     7
 10
49.999999999999893
 20
1114.5
 30
0.0
 11
649.99999999999989
 21
1114.5
 31
0.0
  0
LINE
  5
6B
  8
SPEC
  6
CONTINUOUS
 62
     7
 10
49.999999999999893
 20
1137.0
 30
0.0
 11
649.99999999999989
 21
1137.0
 31
0.0
  0
LINE
  5
6C
  8
SPEC
  6
CONTINUOUS
 62
     7
 10
49.999999999999893
 20
1159.5
 30
0.0
 11
649.99999999999989
 21
1159.5
 31
0.0
  0
LINE
  5
6D
  8
SPEC
  6
CONTINUOUS
 62
     7
 10
49.999999999999893
 20
1182.0
 30
0.0
 11
649.99999999999989
 21
1182.0
 31
0.0
  0
LINE
  5
6E
  8
SPEC
  6
CONTINUOUS
 62
     7
 10
49.999999999999893
 20
1227.0
 30
0.0
 11
649.99999999999989
 21
1227.0
 31
0.0
  0
LINE
  5
6F
  8
SPEC
  6
CONTINUOUS
 62
     7
 10
49.999999999999893
 20
1249.5
 30
0.0
 11
649.99999999999989
 21
1249.5
 31
0.0
  0
TEXT
  5
70
  8
SPEC
 62
     7
 10
61.699999999999882
 20
1052.9159866666671
 30
0.0
 40
11.401888020833329
  1
AC出力×1(U4等SHUREワイヤレス受信機用)
 41
0.7
 11
61.699999999999882
 21
1064.3178746875001
 31
0.0
 73
     3
  0
LINE
  5
71
  8
SPEC
  6
CONTINUOUS
 62
     7
 10
49.999999999999893
 20
1069.5
 30
0.0
 11
649.99999999999989
 21
1069.5
 31
0.0
  0
LINE
  5
72
  8
SPEC
  6
CONTINUOUS
 62
     7
 10
-88.700000000000088
 20
1002.0
 30
0.0
 11
650.0
 21
1002.0
 31
0.0
  0
TEXT
  5
73
  8
SPEC
 62
     7
 10
-83.300000000000068
 20
985.41598666666641
 30
0.0
 40
11.401888020833329
  1
対応製品
 41
0.7
 11
-83.300000000000068
 21
996.81787468749985
 31
0.0
 73
     3
  0
TEXT
  5
74
  8
SPEC
 62
     7
 10
61.699999999999882
 20
985.41598666666641
 30
0.0
 40
11.401888020833329
  1
UR4、U4、ULXP4、ULXS4、SLX4
 41
0.7
 11
61.699999999999882
 21
996.81787468749985
 31
0.0
 73
     3
  0
TEXT
  5
75
  8
DIMNSIONS
 62
     7
 10
286.2999999999999
 20
-156.20339333333331
 30
0.0
 40
16.288411458333329
  1
(単位：mm)
 41
0.7
 11
286.2999999999999
 21
-139.91498187499991
 31
0.0
 73
     3
  0
LINE
  5
76
  8
DIMNSIONS
  6
CONTINUOUS
 62
     7
 10
0.0
 20
55.500000000000107
 30
0.0
 11
0.0
 21
112.0
 31
0.0
  0
LINE
  5
77
  8
DIMNSIONS
  6
CONTINUOUS
 62
     7
 10
482.5
 20
55.500000000000107
 30
0.0
 11
482.5
 21
112.0
 31
0.0
  0
LINE
  5
78
  8
DIMNSIONS
  6
CONTINUOUS
 62
     7
 10
0.0
 20
100.0
 30
0.0
 11
482.5
 21
100.0
 31
0.0
  0
LINE
  5
79
  8
DIMNSIONS
  6
CONTINUOUS
 62
     7
 10
0.0
 20
100.0
 30
0.0
 11
15.00373535156251
 21
104.0202387709015
 31
0.0
  0
LINE
  5
7A
  8
DIMNSIONS
  6
CONTINUOUS
 62
     7
 10
0.0
 20
100.0
 30
0.0
 11
15.00373535156251
 21
95.979761229098514
 31
0.0
  0
LINE
  5
7B
  8
DIMNSIONS
  6
CONTINUOUS
 62
     7
 10
482.5
 20
100.0
 30
0.0
 11
467.49626464843749
 21
95.979761229098514
 31
0.0
  0
LINE
  5
7C
  8
DIMNSIONS
  6
CONTINUOUS
 62
     7
 10
482.5
 20
100.0
 30
0.0
 11
467.49626464843749
 21
104.0202387709015
 31
0.0
  0
TEXT
  5
7D
  8
DIMNSIONS
 62
     7
 10
225.375
 20
105.9633333333333
 30
0.0
 40
16.288411458333329
  1
483
 41
0.7
 11
225.375
 21
122.2517447916667
 31
0.0
 73
     3
  0
LINE
  5
7E
  8
DIMNSIONS
  6
CONTINUOUS
 62
     7
 10
-12.0
 20
208.00000000000011
 30
0.0
 11
-62.0
 21
208.00000000000011
 31
0.0
  0
LINE
  5
7F
  8
DIMNSIONS
  6
CONTINUOUS
 62
     7
 10
27.75
 20
494.0
 30
0.0
 11
-62.0
 21
494.0
 31
0.0
  0
LINE
  5
80
  8
DIMNSIONS
  6
CONTINUOUS
 62
     7
 10
-50.0
 20
208.00000000000011
 30
0.0
 11
-50.0
 21
494.0
 31
0.0
  0
LINE
  5
81
  8
DIMNSIONS
  6
CONTINUOUS
 62
     7
 10
-50.0
 20
208.00000000000011
 30
0.0
 11
-54.020238770901472
 21
223.0037353515626
 31
0.0
  0
LINE
  5
82
  8
DIMNSIONS
  6
CONTINUOUS
 62
     7
 10
-50.0
 20
208.00000000000011
 30
0.0
 11
-45.979761229098528
 21
223.0037353515626
 31
0.0
  0
LINE
  5
83
  8
DIMNSIONS
  6
CONTINUOUS
 62
     7
 10
-50.0
 20
494.0
 30
0.0
 11
-45.979761229098528
 21
478.9962646484376
 31
0.0
  0
LINE
  5
84
  8
DIMNSIONS
  6
CONTINUOUS
 62
     7
 10
-50.0
 20
494.0
 30
0.0
 11
-54.020238770901472
 21
478.9962646484376
 31
0.0
  0
TEXT
  5
85
  8
DIMNSIONS
 62
     7
 10
-55.963333333333303
 20
335.12500000000011
 30
0.0
 40
16.288411458333329
  1
286
 50
90.0
 41
0.7
 11
-72.251744791666624
 21
335.12500000000011
 31
0.0
 73
     3
  0
LINE
  5
86
  8
DIMNSIONS
  6
CONTINUOUS
 62
     7
 10
39.75
 20
506.0
 30
0.0
 11
39.75
 21
562.0
 31
0.0
  0
LINE
  5
87
  8
DIMNSIONS
  6
CONTINUOUS
 62
     7
 10
442.75
 20
506.0
 30
0.0
 11
442.75
 21
562.0
 31
0.0
  0
LINE
  5
88
  8
DIMNSIONS
  6
CONTINUOUS
 62
     7
 10
39.75
 20
550.0
 30
0.0
 11
442.75
 21
550.0
 31
0.0
  0
LINE
  5
89
  8
DIMNSIONS
  6
CONTINUOUS
 62
     7
 10
39.75
 20
550.0
 30
0.0
 11
54.753735351562511
 21
554.02023877090141
 31
0.0
  0
LINE
  5
8A
  8
DIMNSIONS
  6
CONTINUOUS
 62
     7
 10
39.75
 20
550.0
 30
0.0
 11
54.753735351562511
 21
545.97976122909847
 31
0.0
  0
LINE
  5
8B
  8
DIMNSIONS
  6
CONTINUOUS
 62
     7
 10
442.75
 20
550.0
 30
0.0
 11
427.74626464843749
 21
545.97976122909847
 31
0.0
  0
LINE
  5
8C
  8
DIMNSIONS
  6
CONTINUOUS
 62
     7
 10
442.75
 20
550.0
 30
0.0
 11
427.74626464843749
 21
554.02023877090141
 31
0.0
  0
TEXT
  5
8D
  8
DIMNSIONS
 62
     7
 10
225.375
 20
555.96333333333314
 30
0.0
 40
16.288411458333329
  1
403
 41
0.7
 11
225.375
 21
572.25174479166651
 31
0.0
 73
     3
  0
LINE
  5
8E
  8
DIMNSIONS
  6
CONTINUOUS
 62
     7
 10
-12.0
 20
208.00000000000011
 30
0.0
 11
-62.0
 21
208.00000000000011
 31
0.0
  0
LINE
  5
8F
  8
DIMNSIONS
  6
CONTINUOUS
 62
     7
 10
394.75
 20
193.00000000000011
 30
0.0
 11
-62.0
 21
193.00000000000011
 31
0.0
  0
LINE
  5
90
  8
DIMNSIONS
  6
CONTINUOUS
 62
     7
 10
-50.0
 20
193.00000000000011
 30
0.0
 11
-50.0
 21
208.00000000000011
 31
0.0
  0
LINE
  5
91
  8
DIMNSIONS
  6
CONTINUOUS
 62
     7
 10
-50.0
 20
208.00000000000011
 30
0.0
 11
-50.0
 21
238.00000000000011
 31
0.0
  0
LINE
  5
92
  8
DIMNSIONS
  6
CONTINUOUS
 62
     7
 10
-50.0
 20
208.00000000000011
 30
0.0
 11
-54.020238770901472
 21
223.0037353515626
 31
0.0
  0
LINE
  5
93
  8
DIMNSIONS
  6
CONTINUOUS
 62
     7
 10
-50.0
 20
208.00000000000011
 30
0.0
 11
-45.979761229098528
 21
223.0037353515626
 31
0.0
  0
LINE
  5
94
  8
DIMNSIONS
  6
CONTINUOUS
 62
     7
 10
-50.0
 20
193.00000000000011
 30
0.0
 11
-50.0
 21
148.90142064757501
 31
0.0
  0
LINE
  5
95
  8
DIMNSIONS
  6
CONTINUOUS
 62
     7
 10
-50.0
 20
193.00000000000011
 30
0.0
 11
-45.979761229098528
 21
177.9962646484376
 31
0.0
  0
LINE
  5
96
  8
DIMNSIONS
  6
CONTINUOUS
 62
     7
 10
-50.0
 20
193.00000000000011
 30
0.0
 11
-54.020238770901472
 21
177.9962646484376
 31
0.0
  0
TEXT
  5
97
  8
DIMNSIONS
 62
     7
 10
-55.963333333333303
 20
148.90142064757501
 30
0.0
 40
16.288411458333329
  1
15
 50
90.0
 41
0.7
 11
-72.251744791666624
 21
148.90142064757501
 31
0.0
 73
     3
  0
LINE
  5
98
  8
DIMNSIONS
  6
CONTINUOUS
 62
     7
 10
27.75
 20
494.0
 30
0.0
 11
-62.0
 21
494.0
 31
0.0
  0
LINE
  5
99
  8
DIMNSIONS
  6
CONTINUOUS
 62
     7
 10
38.900000000000041
 20
506.5
 30
0.0
 11
-62.0
 21
506.5
 31
0.0
  0
LINE
  5
9A
  8
DIMNSIONS
  6
CONTINUOUS
 62
     7
 10
-50.0
 20
506.5
 30
0.0
 11
-50.0
 21
494.0
 31
0.0
  0
LINE
  5
9B
  8
DIMNSIONS
  6
CONTINUOUS
 62
     7
 10
-50.0
 20
494.0
 30
0.0
 11
-50.0
 21
464.0
 31
0.0
  0
LINE
  5
9C
  8
DIMNSIONS
  6
CONTINUOUS
 62
     7
 10
-50.0
 20
494.0
 30
0.0
 11
-45.979761229098528
 21
478.9962646484376
 31
0.0
  0
LINE
  5
9D
  8
DIMNSIONS
  6
CONTINUOUS
 62
     7
 10
-50.0
 20
494.0
 30
0.0
 11
-54.020238770901472
 21
478.9962646484376
 31
0.0
  0
LINE
  5
9E
  8
DIMNSIONS
  6
CONTINUOUS
 62
     7
 10
-50.0
 20
506.5
 30
0.0
 11
-50.0
 21
542.16666666666652
 31
0.0
  0
LINE
  5
9F
  8
DIMNSIONS
  6
CONTINUOUS
 62
     7
 10
-50.0
 20
506.5
 30
0.0
 11
-54.020238770901472
 21
521.50373535156245
 31
0.0
  0
LINE
  5
A0
  8
DIMNSIONS
  6
CONTINUOUS
 62
     7
 10
-50.0
 20
506.5
 30
0.0
 11
-45.979761229098528
 21
521.50373535156245
 31
0.0
  0
TEXT
  5
A1
  8
DIMNSIONS
 62
     7
 10
-55.963333333333303
 20
521.0
 30
0.0
 40
16.288411458333329
  1
13
 50
90.0
 41
0.7
 11
-72.251744791666624
 21
521.0
 31
0.0
 73
     3
  0
LINE
  5
A2
  8
DIMNSIONS
  6
CONTINUOUS
 62
     7
 10
34.75
 20
430.5
 30
0.0
 11
34.75
 21
612.0
 31
0.0
  0
LINE
  5
A3
  8
DIMNSIONS
  6
CONTINUOUS
 62
     7
 10
447.75
 20
430.5
 30
0.0
 11
447.75
 21
612.0
 31
0.0
  0
LINE
  5
A4
  8
DIMNSIONS
  6
CONTINUOUS
 62
     7
 10
34.75
 20
600.0
 30
0.0
 11
447.75
 21
600.0
 31
0.0
  0
LINE
  5
A5
  8
DIMNSIONS
  6
CONTINUOUS
 62
     7
 10
34.75
 20
600.0
 30
0.0
 11
49.753735351562511
 21
604.02023877090153
 31
0.0
  0
LINE
  5
A6
  8
DIMNSIONS
  6
CONTINUOUS
 62
     7
 10
34.75
 20
600.0
 30
0.0
 11
49.753735351562511
 21
595.97976122909847
 31
0.0
  0
LINE
  5
A7
  8
DIMNSIONS
  6
CONTINUOUS
 62
     7
 10
447.75
 20
600.0
 30
0.0
 11
432.74626464843749
 21
595.97976122909847
 31
0.0
  0
LINE
  5
A8
  8
DIMNSIONS
  6
CONTINUOUS
 62
     7
 10
447.75
 20
600.0
 30
0.0
 11
432.74626464843749
 21
604.02023877090153
 31
0.0
  0
TEXT
  5
A9
  8
DIMNSIONS
 62
     7
 10
225.375
 20
605.96333333333314
 30
0.0
 40
16.288411458333329
  1
413
 41
0.7
 11
225.375
 21
622.25174479166651
 31
0.0
 73
     3
  0
LINE
  5
AA
  8
DIMNSIONS
  6
CONTINUOUS
 62
     7
 10
-12.0
 20
43.500000000000107
 30
0.0
 11
-62.0
 21
43.500000000000107
 31
0.0
  0
LINE
  5
AB
  8
DIMNSIONS
  6
CONTINUOUS
 62
     7
 10
-12.0
 20
0.0
 30
0.0
 11
-62.0
 21
0.0
 31
0.0
  0
LINE
  5
AC
  8
DIMNSIONS
  6
CONTINUOUS
 62
     7
 10
-50.0
 20
43.500000000000107
 30
0.0
 11
-50.0
 21
0.0
 31
0.0
  0
LINE
  5
AD
  8
DIMNSIONS
  6
CONTINUOUS
 62
     7
 10
-50.0
 20
43.500000000000107
 30
0.0
 11
-45.979761229098528
 21
28.496264648437659
 31
0.0
  0
LINE
  5
AE
  8
DIMNSIONS
  6
CONTINUOUS
 62
     7
 10
-50.0
 20
43.500000000000107
 30
0.0
 11
-54.020238770901472
 21
28.496264648437659
 31
0.0
  0
LINE
  5
AF
  8
DIMNSIONS
  6
CONTINUOUS
 62
     7
 10
-50.0
 20
0.0
 30
0.0
 11
-54.020238770901472
 21
15.003735351562449
 31
0.0
  0
LINE
  5
B0
  8
DIMNSIONS
  6
CONTINUOUS
 62
     7
 10
-50.0
 20
0.0
 30
0.0
 11
-45.979761229098528
 21
15.003735351562449
 31
0.0
  0
TEXT
  5
B1
  8
DIMNSIONS
 62
     7
 10
-55.963333333333303
 20
11.16666666666662
 30
0.0
 40
16.288411458333329
  1
44
 50
90.0
 41
0.7
 11
-72.251744791666624
 21
11.16666666666662
 31
0.0
 73
     3
  0
TEXT
  5
B2
  8
DATA
 62
     7
 10
706.29999999999984
 20
-117.5063266666675
 30
0.0
 40
14.6595703125
  1
SHURE
 41
0.7
 11
706.29999999999984
 21
-102.8467563541675
 31
0.0
 73
     3
  0
TEXT
  5
B3
  8
DATA
 62
     7
 10
-73.700000000000003
 20
-202.57199999999989
 30
0.0
 40
9.7730468749999986
  1
仕様および外観は予告なく変更されることがありますので、ご了承ください。
 41
0.7
 11
-73.700000000000003
 21
-192.79895312499991
 31
0.0
 73
     3
  0
TEXT
  5
B4
  8
DATA
 62
     7
 10
706.29999999999984
 20
-137.5823266666672
 30
0.0
 40
11.401888020833329
  1
アンテナ分配機
 41
0.7
 11
706.29999999999984
 21
-126.1804386458339
 31
0.0
 73
     3
  0
TEXT
  5
B5
  8
DATA
 62
     7
 10
706.29999999999984
 20
-160.70632666666739
 30
0.0
 40
14.6595703125
  1
UA845J
 41
0.7
 11
706.29999999999984
 21
-146.0467563541674
 31
0.0
 73
     3
  0
LINE
  5
B6
  8
DATA
  6
CONTINUOUS
 62
     7
 10
0.0
 20
0.0
 30
0.0
 11
482.5
 21
0.0
 31
0.0
  0
LINE
  5
B7
  8
DATA
  6
CONTINUOUS
 62
     7
 10
0.0
 20
0.0
 30
0.0
 11
0.0
 21
43.500000000000107
 31
0.0
  0
LINE
  5
B8
  8
DATA
  6
CONTINUOUS
 62
     7
 10
482.5
 20
0.0
 30
0.0
 11
482.5
 21
43.500000000000107
 31
0.0
  0
LINE
  5
B9
  8
DATA
  6
CONTINUOUS
 62
     7
 10
0.0
 20
43.500000000000107
 30
0.0
 11
482.5
 21
43.500000000000107
 31
0.0
  0
ARC
  5
BA
  8
DATA
  6
CONTINUOUS
 62
     7
 10
6.4999999999999432
 20
5.75
 30
0.0
 40
3.5000000000001128
 50
90.0
 51
270.0
  0
ARC
  5
BB
  8
DATA
  6
CONTINUOUS
 62
     7
 10
9.5
 20
5.75
 30
0.0
 40
3.4999999999998859
 50
270.0
 51
90.0
  0
LINE
  5
BC
  8
DATA
  6
CONTINUOUS
 62
     7
 10
6.4999999999999432
 20
9.2500000000001101
 30
0.0
 11
9.5
 21
9.2500000000001101
 31
0.0
  0
LINE
  5
BD
  8
DATA
  6
CONTINUOUS
 62
     7
 10
6.4999999999999432
 20
2.2500000000001128
 30
0.0
 11
9.5
 21
2.2500000000001128
 31
0.0
  0
ARC
  5
BE
  8
DATA
  6
CONTINUOUS
 62
     7
 10
6.4999999999999432
 20
37.750000000000107
 30
0.0
 40
3.4999999999999432
 50
90.0
 51
270.0
  0
ARC
  5
BF
  8
DATA
  6
CONTINUOUS
 62
     7
 10
9.5
 20
37.750000000000107
 30
0.0
 40
3.5
 50
270.0
 51
90.0
  0
LINE
  5
C0
  8
DATA
  6
CONTINUOUS
 62
     7
 10
6.4999999999999432
 20
34.250000000000107
 30
0.0
 11
9.5
 21
34.250000000000107
 31
0.0
  0
LINE
  5
C1
  8
DATA
  6
CONTINUOUS
 62
     7
 10
6.4999999999999432
 20
41.25000000000005
 30
0.0
 11
9.5
 21
41.25000000000005
 31
0.0
  0
ARC
  5
C2
  8
DATA
  6
CONTINUOUS
 62
     7
 10
476.0
 20
5.75
 30
0.0
 40
3.4999999999998859
 50
270.0
 51
90.0
  0
ARC
  5
C3
  8
DATA
  6
CONTINUOUS
 62
     7
 10
473.0
 20
5.75
 30
0.0
 40
3.5000000000001128
 50
90.0
 51
270.0
  0
LINE
  5
C4
  8
DATA
  6
CONTINUOUS
 62
     7
 10
476.0
 20
9.2500000000001101
 30
0.0
 11
473.0
 21
9.2500000000001101
 31
0.0
  0
LINE
  5
C5
  8
DATA
  6
CONTINUOUS
 62
     7
 10
476.0
 20
2.2500000000001128
 30
0.0
 11
473.0
 21
2.2500000000001128
 31
0.0
  0
ARC
  5
C6
  8
DATA
  6
CONTINUOUS
 62
     7
 10
476.0
 20
37.750000000000107
 30
0.0
 40
3.5
 50
270.0
 51
90.0
  0
ARC
  5
C7
  8
DATA
  6
CONTINUOUS
 62
     7
 10
473.0
 20
37.750000000000107
 30
0.0
 40
3.4999999999999432
 50
90.0
 51
270.0
  0
LINE
  5
C8
  8
DATA
  6
CONTINUOUS
 62
     7
 10
476.0
 20
34.250000000000107
 30
0.0
 11
473.0
 21
34.250000000000107
 31
0.0
  0
LINE
  5
C9
  8
DATA
  6
CONTINUOUS
 62
     7
 10
476.0
 20
41.25000000000005
 30
0.0
 11
473.0
 21
41.25000000000005
 31
0.0
  0
ARC
  5
CA
  8
DATA
  6
CONTINUOUS
 62
     7
 10
27.49999999999989
 20
21.75000000000011
 30
0.0
 40
6.4999999999999956
 50
297.79577249604938
 51
242.2042275039519
  0
LINE
  5
CB
  8
DATA
  6
CONTINUOUS
 62
     7
 10
24.468911086751628
 20
16.00000000000011
 30
0.0
 11
30.531088913248251
 21
16.00000000000011
 31
0.0
  0
ARC
  5
CC
  8
DATA
  6
CONTINUOUS
 62
     7
 10
455.0
 20
21.75000000000011
 30
0.0
 40
6.4999999999999698
 50
297.79577249604893
 51
242.2042275039507
  0
LINE
  5
CD
  8
DATA
  6
CONTINUOUS
 62
     7
 10
458.03108891324831
 20
16.00000000000011
 30
0.0
 11
451.9689110867518
 21
16.00000000000011
 31
0.0
  0
LINE
  5
CE
  8
DATA
  6
CONTINUOUS
 62
     7
 10
406.74999999999989
 20
6.7500000000001128
 30
0.0
 11
428.75
 21
6.7500000000001128
 31
0.0
  0
LINE
  5
CF
  8
DATA
  6
CONTINUOUS
 62
     7
 10
406.74999999999989
 20
6.7500000000001128
 30
0.0
 11
406.74999999999989
 21
36.750000000000107
 31
0.0
  0
LINE
  5
D0
  8
DATA
  6
CONTINUOUS
 62
     7
 10
406.74999999999989
 20
36.750000000000107
 30
0.0
 11
428.75
 21
36.750000000000107
 31
0.0
  0
LINE
  5
D1
  8
DATA
  6
CONTINUOUS
 62
     7
 10
428.75
 20
36.750000000000107
 30
0.0
 11
428.75
 21
6.7500000000001128
 31
0.0
  0
LINE
  5
D2
  8
DATA
  6
CONTINUOUS
 62
     7
 10
427.24999999999989
 20
6.7500000000001128
 30
0.0
 11
427.24999999999989
 21
36.750000000000107
 31
0.0
  0
LINE
  5
D3
  8
DATA
  6
CONTINUOUS
 62
     7
 10
408.25
 20
6.7500000000001128
 30
0.0
 11
408.25
 21
36.750000000000107
 31
0.0
  0
LINE
  5
D4
  8
DATA
  6
CONTINUOUS
 62
     7
 10
408.25
 20
7.7500000000001128
 30
0.0
 11
427.24999999999989
 21
7.7500000000001128
 31
0.0
  0
LINE
  5
D5
  8
DATA
  6
CONTINUOUS
 62
     7
 10
408.25
 20
35.750000000000121
 30
0.0
 11
427.24999999999989
 21
35.750000000000121
 31
0.0
  0
LINE
  5
D6
  8
DATA
  6
CONTINUOUS
 62
     7
 10
412.0
 20
12.0
 30
0.0
 11
412.0
 21
31.50000000000011
 31
0.0
  0
LINE
  5
D7
  8
DATA
  6
CONTINUOUS
 62
     7
 10
412.0
 20
12.0
 30
0.0
 11
423.5
 21
12.0
 31
0.0
  0
LINE
  5
D8
  8
DATA
  6
CONTINUOUS
 62
     7
 10
423.5
 20
12.0
 30
0.0
 11
423.5
 21
31.50000000000011
 31
0.0
  0
LINE
  5
D9
  8
DATA
  6
CONTINUOUS
 62
     7
 10
423.5
 20
31.50000000000011
 30
0.0
 11
412.0
 21
31.50000000000011
 31
0.0
  0
LINE
  5
DA
  8
DATA
  6
CONTINUOUS
 62
     7
 10
412.0
 20
27.5
 30
0.0
 11
423.5
 21
27.5
 31
0.0
  0
CIRCLE
  5
DB
  8
DATA
  6
CONTINUOUS
 62
     7
 10
417.75
 20
16.75000000000011
 30
0.0
 40
3.0000000000000062
  0
LINE
  5
DC
  8
DATA
  6
CONTINUOUS
 62
     7
 10
417.75
 20
25.75
 30
0.0
 11
417.75
 21
22.250000000000121
 31
0.0
  0
CIRCLE
  5
DD
  8
DATA
  6
CONTINUOUS
 62
     7
 10
401.75
 20
21.75000000000011
 30
0.0
 40
1.500000000000018
  0
TEXT
  5
DE
  8
DATA
 62
     7
 10
411.93055555555549
 20
37.977777777777817
 30
0.0
 40
4.375
  1
power
 41
0.7
 11
411.93055555555549
 21
42.35277777777781
 31
0.0
 73
     3
  0
TEXT
  5
DF
  8
DATA
 62
     7
 10
43.999999999999943
 20
13.68222222222229
 30
0.0
 40
6.1736111111111116
  1
UA845
 41
0.7
 11
43.999999999999943
 21
19.855833333333411
 31
0.0
 73
     3
  0
LINE
  5
E0
  8
DATA
  6
CONTINUOUS
 62
     7
 10
0.0
 20
200.00000000000011
 30
0.0
 11
482.5
 21
200.00000000000011
 31
0.0
  0
LINE
  5
E1
  8
DATA
  6
CONTINUOUS
 62
     7
 10
0.0
 20
200.00000000000011
 30
0.0
 11
0.0
 21
205.00000000000011
 31
0.0
  0
LINE
  5
E2
  8
DATA
  6
CONTINUOUS
 62
     7
 10
482.5
 20
200.00000000000011
 30
0.0
 11
482.5
 21
205.00000000000011
 31
0.0
  0
LINE
  5
E3
  8
DATA
  6
CONTINUOUS
 62
     7
 10
0.0
 20
205.00000000000011
 30
0.0
 11
482.5
 21
205.00000000000011
 31
0.0
  0
LINE
  5
E4
  8
DATA
  6
CONTINUOUS
 62
     7
 10
0.0
 20
205.00000000000011
 30
0.0
 11
0.0
 21
208.00000000000011
 31
0.0
  0
LINE
  5
E5
  8
DATA
  6
CONTINUOUS
 62
     7
 10
39.75
 20
208.00000000000011
 30
0.0
 11
442.75
 21
208.00000000000011
 31
0.0
  0
LINE
  5
E6
  8
DATA
  6
CONTINUOUS
 62
     7
 10
39.75
 20
205.00000000000011
 30
0.0
 11
39.75
 21
494.0
 31
0.0
  0
LINE
  5
E7
  8
DATA
  6
CONTINUOUS
 62
     7
 10
0.0
 20
208.00000000000011
 30
0.0
 11
36.75
 21
208.00000000000011
 31
0.0
  0
LINE
  5
E8
  8
DATA
  6
CONTINUOUS
 62
     7
 10
36.75
 20
208.00000000000011
 30
0.0
 11
36.75
 21
434.0
 31
0.0
  0
LINE
  5
E9
  8
DATA
  6
CONTINUOUS
 62
     7
 10
36.75
 20
434.0
 30
0.0
 11
39.75
 21
434.0
 31
0.0
  0
LINE
  5
EA
  8
DATA
  6
CONTINUOUS
 62
     7
 10
442.75
 20
205.00000000000011
 30
0.0
 11
442.75
 21
494.0
 31
0.0
  0
LINE
  5
EB
  8
DATA
  6
CONTINUOUS
 62
     7
 10
445.75
 20
208.00000000000011
 30
0.0
 11
445.75
 21
434.0
 31
0.0
  0
LINE
  5
EC
  8
DATA
  6
CONTINUOUS
 62
     7
 10
482.5
 20
205.00000000000011
 30
0.0
 11
482.5
 21
208.00000000000011
 31
0.0
  0
LINE
  5
ED
  8
DATA
  6
CONTINUOUS
 62
     7
 10
482.5
 20
208.00000000000011
 30
0.0
 11
445.75
 21
208.00000000000011
 31
0.0
  0
LINE
  5
EE
  8
DATA
  6
CONTINUOUS
 62
     7
 10
39.75
 20
494.0
 30
0.0
 11
442.75
 21
494.0
 31
0.0
  0
LINE
  5
EF
  8
DATA
  6
CONTINUOUS
 62
     7
 10
3.0
 20
208.00000000000011
 30
0.0
 11
3.0
 21
205.00000000000011
 31
0.0
  0
LINE
  5
F0
  8
DATA
  6
CONTINUOUS
 62
     7
 10
479.49999999999989
 20
208.00000000000011
 30
0.0
 11
479.49999999999989
 21
205.00000000000011
 31
0.0
  0
LINE
  5
F1
  8
DATA
  6
CONTINUOUS
 62
     7
 10
36.75
 20
431.0
 30
0.0
 11
39.75
 21
431.0
 31
0.0
  0
CIRCLE
  5
F2
  8
DATA
  6
CONTINUOUS
 62
     7
 10
214.75
 20
221.50000000000011
 30
0.0
 40
7.000000000000032
  0
CIRCLE
  5
F3
  8
DATA
  6
CONTINUOUS
 62
     7
 10
214.75
 20
221.50000000000011
 30
0.0
 40
3.000000000000028
  0
LINE
  5
F4
  8
DATA
  6
CONTINUOUS
 62
     7
 10
212.75
 20
221.50000000000011
 30
0.0
 11
216.75
 21
221.50000000000011
 31
0.0
  0
LINE
  5
F5
  8
DATA
  6
CONTINUOUS
 62
     7
 10
214.75
 20
219.50000000000011
 30
0.0
 11
214.75
 21
223.50000000000011
 31
0.0
  0
CIRCLE
  5
F6
  8
DATA
  6
CONTINUOUS
 62
     7
 10
282.75
 20
476.0
 30
0.0
 40
7.0000000000000204
  0
CIRCLE
  5
F7
  8
DATA
  6
CONTINUOUS
 62
     7
 10
282.75
 20
476.0
 30
0.0
 40
3.000000000000028
  0
LINE
  5
F8
  8
DATA
  6
CONTINUOUS
 62
     7
 10
280.75
 20
476.0
 30
0.0
 11
284.75
 21
476.0
 31
0.0
  0
LINE
  5
F9
  8
DATA
  6
CONTINUOUS
 62
     7
 10
282.75
 20
474.00000000000011
 30
0.0
 11
282.75
 21
478.0
 31
0.0
  0
LINE
  5
FA
  8
DATA
  6
CONTINUOUS
 62
     7
 10
406.74999999999989
 20
193.00000000000011
 30
0.0
 11
406.74999999999989
 21
200.00000000000011
 31
0.0
  0
LINE
  5
FB
  8
DATA
  6
CONTINUOUS
 62
     7
 10
428.75
 20
193.00000000000011
 30
0.0
 11
428.75
 21
200.00000000000011
 31
0.0
  0
LINE
  5
FC
  8
DATA
  6
CONTINUOUS
 62
     7
 10
427.24999999999989
 20
193.00000000000011
 30
0.0
 11
427.24999999999989
 21
197.50000000000011
 31
0.0
  0
LINE
  5
FD
  8
DATA
  6
CONTINUOUS
 62
     7
 10
406.74999999999989
 20
193.00000000000011
 30
0.0
 11
408.25
 21
193.00000000000011
 31
0.0
  0
LINE
  5
FE
  8
DATA
  6
CONTINUOUS
 62
     7
 10
427.24999999999989
 20
193.00000000000011
 30
0.0
 11
428.75
 21
193.00000000000011
 31
0.0
  0
LINE
  5
FF
  8
DATA
  6
CONTINUOUS
 62
     7
 10
408.25
 20
193.00000000000011
 30
0.0
 11
408.25
 21
197.50000000000011
 31
0.0
  0
LINE
  5
100
  8
DATA
  6
CONTINUOUS
 62
     7
 10
408.25
 20
197.50000000000011
 30
0.0
 11
427.24999999999989
 21
197.50000000000011
 31
0.0
  0
LINE
  5
101
  8
DATA
  6
CONTINUOUS
 62
     7
 10
412.0
 20
193.50000000000011
 30
0.0
 11
412.0
 21
197.50000000000011
 31
0.0
  0
LINE
  5
102
  8
DATA
  6
CONTINUOUS
 62
     7
 10
423.5
 20
193.50000000000011
 30
0.0
 11
423.5
 21
197.50000000000011
 31
0.0
  0
LINE
  5
103
  8
DATA
  6
CONTINUOUS
 62
     7
 10
412.0
 20
193.50000000000011
 30
0.0
 11
423.5
 21
193.50000000000011
 31
0.0
  0
LINE
  5
104
  8
DATA
  6
CONTINUOUS
 62
     7
 10
50.900000000000027
 20
506.5
 30
0.0
 11
60.599999999999902
 21
506.5
 31
0.0
  0
LINE
  5
105
  8
DATA
  6
CONTINUOUS
 62
     7
 10
62.678203230275528
 20
495.5
 30
0.0
 11
62.678203230275528
 21
494.0
 31
0.0
  0
LINE
  5
106
  8
DATA
  6
CONTINUOUS
 62
     7
 10
48.821796769724457
 20
495.5
 30
0.0
 11
48.821796769724457
 21
494.0
 31
0.0
  0
LINE
  5
107
  8
DATA
  6
CONTINUOUS
 62
     7
 10
48.821796769724457
 20
495.5
 30
0.0
 11
62.678203230275528
 21
495.5
 31
0.0
  0
LINE
  5
108
  8
DATA
  6
CONTINUOUS
 62
     7
 10
55.75
 20
495.5
 30
0.0
 11
55.75
 21
494.0
 31
0.0
  0
CIRCLE
  5
109
  8
DATA
  6
CONTINUOUS
 62
     7
 10
55.75
 20
502.5
 30
0.0
 40
1.0000000000000131
  0
LINE
  5
10A
  8
DATA
  6
CONTINUOUS
 62
     7
 10
50.900000000000027
 20
506.5
 30
0.0
 11
50.900000000000027
 21
495.5
 31
0.0
  0
LINE
  5
10B
  8
DATA
  6
CONTINUOUS
 62
     7
 10
60.599999999999902
 20
506.5
 30
0.0
 11
60.599999999999902
 21
495.5
 31
0.0
  0
LINE
  5
10C
  8
DATA
  6
CONTINUOUS
 62
     7
 10
76.799999999999955
 20
506.5
 30
0.0
 11
86.499999999999943
 21
506.5
 31
0.0
  0
LINE
  5
10D
  8
DATA
  6
CONTINUOUS
 62
     7
 10
88.578203230275491
 20
495.5
 30
0.0
 11
88.578203230275491
 21
494.0
 31
0.0
  0
LINE
  5
10E
  8
DATA
  6
CONTINUOUS
 62
     7
 10
74.721796769724435
 20
495.5
 30
0.0
 11
74.721796769724435
 21
494.0
 31
0.0
  0
LINE
  5
10F
  8
DATA
  6
CONTINUOUS
 62
     7
 10
74.721796769724435
 20
495.5
 30
0.0
 11
88.578203230275491
 21
495.5
 31
0.0
  0
LINE
  5
110
  8
DATA
  6
CONTINUOUS
 62
     7
 10
81.649999999999963
 20
495.5
 30
0.0
 11
81.649999999999963
 21
494.0
 31
0.0
  0
CIRCLE
  5
111
  8
DATA
  6
CONTINUOUS
 62
     7
 10
81.649999999999963
 20
502.5
 30
0.0
 40
1.0000000000000131
  0
LINE
  5
112
  8
DATA
  6
CONTINUOUS
 62
     7
 10
76.799999999999955
 20
506.5
 30
0.0
 11
76.799999999999955
 21
495.5
 31
0.0
  0
LINE
  5
113
  8
DATA
  6
CONTINUOUS
 62
     7
 10
86.499999999999943
 20
506.5
 30
0.0
 11
86.499999999999943
 21
495.5
 31
0.0
  0
LINE
  5
114
  8
DATA
  6
CONTINUOUS
 62
     7
 10
102.7
 20
506.5
 30
0.0
 11
112.40000000000001
 21
506.5
 31
0.0
  0
LINE
  5
115
  8
DATA
  6
CONTINUOUS
 62
     7
 10
114.4782032302755
 20
495.5
 30
0.0
 11
114.4782032302755
 21
494.0
 31
0.0
  0
LINE
  5
116
  8
DATA
  6
CONTINUOUS
 62
     7
 10
100.6217967697245
 20
495.5
 30
0.0
 11
100.6217967697245
 21
494.0
 31
0.0
  0
LINE
  5
117
  8
DATA
  6
CONTINUOUS
 62
     7
 10
100.6217967697245
 20
495.5
 30
0.0
 11
114.4782032302755
 21
495.5
 31
0.0
  0
LINE
  5
118
  8
DATA
  6
CONTINUOUS
 62
     7
 10
107.55
 20
495.5
 30
0.0
 11
107.55
 21
494.0
 31
0.0
  0
CIRCLE
  5
119
  8
DATA
  6
CONTINUOUS
 62
     7
 10
107.55
 20
502.5
 30
0.0
 40
1.0000000000000131
  0
LINE
  5
11A
  8
DATA
  6
CONTINUOUS
 62
     7
 10
102.7
 20
506.5
 30
0.0
 11
102.7
 21
495.5
 31
0.0
  0
LINE
  5
11B
  8
DATA
  6
CONTINUOUS
 62
     7
 10
112.40000000000001
 20
506.5
 30
0.0
 11
112.40000000000001
 21
495.5
 31
0.0
  0
LINE
  5
11C
  8
DATA
  6
CONTINUOUS
 62
     7
 10
128.59999999999999
 20
506.5
 30
0.0
 11
138.2999999999999
 21
506.5
 31
0.0
  0
LINE
  5
11D
  8
DATA
  6
CONTINUOUS
 62
     7
 10
140.37820323027549
 20
495.5
 30
0.0
 11
140.37820323027549
 21
494.0
 31
0.0
  0
LINE
  5
11E
  8
DATA
  6
CONTINUOUS
 62
     7
 10
126.5217967697244
 20
495.5
 30
0.0
 11
126.5217967697244
 21
494.0
 31
0.0
  0
LINE
  5
11F
  8
DATA
  6
CONTINUOUS
 62
     7
 10
126.5217967697244
 20
495.5
 30
0.0
 11
140.37820323027549
 21
495.5
 31
0.0
  0
LINE
  5
120
  8
DATA
  6
CONTINUOUS
 62
     7
 10
133.44999999999999
 20
495.5
 30
0.0
 11
133.44999999999999
 21
494.0
 31
0.0
  0
CIRCLE
  5
121
  8
DATA
  6
CONTINUOUS
 62
     7
 10
133.44999999999999
 20
502.5
 30
0.0
 40
0.9999999999999586
  0
LINE
  5
122
  8
DATA
  6
CONTINUOUS
 62
     7
 10
128.59999999999999
 20
506.5
 30
0.0
 11
128.59999999999999
 21
495.5
 31
0.0
  0
LINE
  5
123
  8
DATA
  6
CONTINUOUS
 62
     7
 10
138.2999999999999
 20
506.5
 30
0.0
 11
138.2999999999999
 21
495.5
 31
0.0
  0
LINE
  5
124
  8
DATA
  6
CONTINUOUS
 62
     7
 10
154.5
 20
506.5
 30
0.0
 11
164.1999999999999
 21
506.5
 31
0.0
  0
LINE
  5
125
  8
DATA
  6
CONTINUOUS
 62
     7
 10
166.27820323027541
 20
495.5
 30
0.0
 11
166.27820323027541
 21
494.0
 31
0.0
  0
LINE
  5
126
  8
DATA
  6
CONTINUOUS
 62
     7
 10
152.42179676972441
 20
495.5
 30
0.0
 11
152.42179676972441
 21
494.0
 31
0.0
  0
LINE
  5
127
  8
DATA
  6
CONTINUOUS
 62
     7
 10
152.42179676972441
 20
495.5
 30
0.0
 11
166.27820323027541
 21
495.5
 31
0.0
  0
LINE
  5
128
  8
DATA
  6
CONTINUOUS
 62
     7
 10
159.34999999999991
 20
495.5
 30
0.0
 11
159.34999999999991
 21
494.0
 31
0.0
  0
CIRCLE
  5
129
  8
DATA
  6
CONTINUOUS
 62
     7
 10
159.34999999999991
 20
502.5
 30
0.0
 40
1.0000000000000691
  0
LINE
  5
12A
  8
DATA
  6
CONTINUOUS
 62
     7
 10
154.5
 20
506.5
 30
0.0
 11
154.5
 21
495.5
 31
0.0
  0
LINE
  5
12B
  8
DATA
  6
CONTINUOUS
 62
     7
 10
164.1999999999999
 20
506.5
 30
0.0
 11
164.1999999999999
 21
495.5
 31
0.0
  0
LINE
  5
12C
  8
DATA
  6
CONTINUOUS
 62
     7
 10
180.40000000000001
 20
506.5
 30
0.0
 11
190.09999999999991
 21
506.5
 31
0.0
  0
LINE
  5
12D
  8
DATA
  6
CONTINUOUS
 62
     7
 10
192.17820323027561
 20
495.5
 30
0.0
 11
192.17820323027561
 21
494.0
 31
0.0
  0
LINE
  5
12E
  8
DATA
  6
CONTINUOUS
 62
     7
 10
178.32179676972439
 20
495.5
 30
0.0
 11
178.32179676972439
 21
494.0
 31
0.0
  0
LINE
  5
12F
  8
DATA
  6
CONTINUOUS
 62
     7
 10
178.32179676972439
 20
495.5
 30
0.0
 11
192.17820323027561
 21
495.5
 31
0.0
  0
LINE
  5
130
  8
DATA
  6
CONTINUOUS
 62
     7
 10
185.25
 20
495.5
 30
0.0
 11
185.25
 21
494.0
 31
0.0
  0
CIRCLE
  5
131
  8
DATA
  6
CONTINUOUS
 62
     7
 10
185.25
 20
502.5
 30
0.0
 40
1.0000000000000131
  0
LINE
  5
132
  8
DATA
  6
CONTINUOUS
 62
     7
 10
180.40000000000001
 20
506.5
 30
0.0
 11
180.40000000000001
 21
495.5
 31
0.0
  0
LINE
  5
133
  8
DATA
  6
CONTINUOUS
 62
     7
 10
190.09999999999991
 20
506.5
 30
0.0
 11
190.09999999999991
 21
495.5
 31
0.0
  0
LINE
  5
134
  8
DATA
  6
CONTINUOUS
 62
     7
 10
206.3000000000001
 20
506.5
 30
0.0
 11
216.0
 21
506.5
 31
0.0
  0
LINE
  5
135
  8
DATA
  6
CONTINUOUS
 62
     7
 10
218.07820323027559
 20
495.5
 30
0.0
 11
218.07820323027559
 21
494.0
 31
0.0
  0
LINE
  5
136
  8
DATA
  6
CONTINUOUS
 62
     7
 10
204.22179676972451
 20
495.5
 30
0.0
 11
204.22179676972451
 21
494.0
 31
0.0
  0
LINE
  5
137
  8
DATA
  6
CONTINUOUS
 62
     7
 10
204.22179676972451
 20
495.5
 30
0.0
 11
218.07820323027559
 21
495.5
 31
0.0
  0
LINE
  5
138
  8
DATA
  6
CONTINUOUS
 62
     7
 10
211.15000000000001
 20
495.5
 30
0.0
 11
211.15000000000001
 21
494.0
 31
0.0
  0
CIRCLE
  5
139
  8
DATA
  6
CONTINUOUS
 62
     7
 10
211.15000000000001
 20
502.5
 30
0.0
 40
1.0000000000000411
  0
LINE
  5
13A
  8
DATA
  6
CONTINUOUS
 62
     7
 10
206.3000000000001
 20
506.5
 30
0.0
 11
206.3000000000001
 21
495.5
 31
0.0
  0
LINE
  5
13B
  8
DATA
  6
CONTINUOUS
 62
     7
 10
216.0
 20
506.5
 30
0.0
 11
216.0
 21
495.5
 31
0.0
  0
LINE
  5
13C
  8
DATA
  6
CONTINUOUS
 62
     7
 10
232.19999999999999
 20
506.5
 30
0.0
 11
241.90000000000001
 21
506.5
 31
0.0
  0
LINE
  5
13D
  8
DATA
  6
CONTINUOUS
 62
     7
 10
243.9782032302756
 20
495.5
 30
0.0
 11
243.9782032302756
 21
494.0
 31
0.0
  0
LINE
  5
13E
  8
DATA
  6
CONTINUOUS
 62
     7
 10
230.1217967697244
 20
495.5
 30
0.0
 11
230.1217967697244
 21
494.0
 31
0.0
  0
LINE
  5
13F
  8
DATA
  6
CONTINUOUS
 62
     7
 10
230.1217967697244
 20
495.5
 30
0.0
 11
243.9782032302756
 21
495.5
 31
0.0
  0
LINE
  5
140
  8
DATA
  6
CONTINUOUS
 62
     7
 10
237.05000000000001
 20
495.5
 30
0.0
 11
237.05000000000001
 21
494.0
 31
0.0
  0
CIRCLE
  5
141
  8
DATA
  6
CONTINUOUS
 62
     7
 10
237.05000000000001
 20
502.5
 30
0.0
 40
1.0000000000000411
  0
LINE
  5
142
  8
DATA
  6
CONTINUOUS
 62
     7
 10
232.19999999999999
 20
506.5
 30
0.0
 11
232.19999999999999
 21
495.5
 31
0.0
  0
LINE
  5
143
  8
DATA
  6
CONTINUOUS
 62
     7
 10
241.90000000000001
 20
506.5
 30
0.0
 11
241.90000000000001
 21
495.5
 31
0.0
  0
LINE
  5
144
  8
DATA
  6
CONTINUOUS
 62
     7
 10
258.10000000000002
 20
506.5
 30
0.0
 11
267.7999999999999
 21
506.5
 31
0.0
  0
LINE
  5
145
  8
DATA
  6
CONTINUOUS
 62
     7
 10
269.87820323027552
 20
495.5
 30
0.0
 11
269.87820323027552
 21
494.0
 31
0.0
  0
LINE
  5
146
  8
DATA
  6
CONTINUOUS
 62
     7
 10
256.02179676972452
 20
495.5
 30
0.0
 11
256.02179676972452
 21
494.0
 31
0.0
  0
LINE
  5
147
  8
DATA
  6
CONTINUOUS
 62
     7
 10
256.02179676972452
 20
495.5
 30
0.0
 11
269.87820323027552
 21
495.5
 31
0.0
  0
LINE
  5
148
  8
DATA
  6
CONTINUOUS
 62
     7
 10
262.9500000000001
 20
495.5
 30
0.0
 11
262.9500000000001
 21
494.0
 31
0.0
  0
CIRCLE
  5
149
  8
DATA
  6
CONTINUOUS
 62
     7
 10
262.9500000000001
 20
502.5
 30
0.0
 40
1.0000000000000131
  0
LINE
  5
14A
  8
DATA
  6
CONTINUOUS
 62
     7
 10
258.10000000000002
 20
506.5
 30
0.0
 11
258.10000000000002
 21
495.5
 31
0.0
  0
LINE
  5
14B
  8
DATA
  6
CONTINUOUS
 62
     7
 10
267.7999999999999
 20
506.5
 30
0.0
 11
267.7999999999999
 21
495.5
 31
0.0
  0
LINE
  5
14C
  8
DATA
  6
CONTINUOUS
 62
     7
 10
284.00000000000011
 20
506.5
 30
0.0
 11
293.69999999999987
 21
506.5
 31
0.0
  0
LINE
  5
14D
  8
DATA
  6
CONTINUOUS
 62
     7
 10
295.77820323027549
 20
495.5
 30
0.0
 11
295.77820323027549
 21
494.0
 31
0.0
  0
LINE
  5
14E
  8
DATA
  6
CONTINUOUS
 62
     7
 10
281.92179676972449
 20
495.5
 30
0.0
 11
281.92179676972449
 21
494.0
 31
0.0
  0
LINE
  5
14F
  8
DATA
  6
CONTINUOUS
 62
     7
 10
281.92179676972449
 20
495.5
 30
0.0
 11
295.77820323027549
 21
495.5
 31
0.0
  0
LINE
  5
150
  8
DATA
  6
CONTINUOUS
 62
     7
 10
288.85000000000002
 20
495.5
 30
0.0
 11
288.85000000000002
 21
494.0
 31
0.0
  0
CIRCLE
  5
151
  8
DATA
  6
CONTINUOUS
 62
     7
 10
288.85000000000002
 20
502.5
 30
0.0
 40
1.0000000000000131
  0
LINE
  5
152
  8
DATA
  6
CONTINUOUS
 62
     7
 10
284.00000000000011
 20
506.5
 30
0.0
 11
284.00000000000011
 21
495.5
 31
0.0
  0
LINE
  5
153
  8
DATA
  6
CONTINUOUS
 62
     7
 10
293.69999999999987
 20
506.5
 30
0.0
 11
293.69999999999987
 21
495.5
 31
0.0
  0
LINE
  5
154
  8
DATA
  6
CONTINUOUS
 62
     7
 10
309.90000000000009
 20
506.5
 30
0.0
 11
319.60000000000002
 21
506.5
 31
0.0
  0
LINE
  5
155
  8
DATA
  6
CONTINUOUS
 62
     7
 10
321.67820323027559
 20
495.5
 30
0.0
 11
321.67820323027559
 21
494.0
 31
0.0
  0
LINE
  5
156
  8
DATA
  6
CONTINUOUS
 62
     7
 10
307.82179676972447
 20
495.5
 30
0.0
 11
307.82179676972447
 21
494.0
 31
0.0
  0
LINE
  5
157
  8
DATA
  6
CONTINUOUS
 62
     7
 10
307.82179676972447
 20
495.5
 30
0.0
 11
321.67820323027559
 21
495.5
 31
0.0
  0
LINE
  5
158
  8
DATA
  6
CONTINUOUS
 62
     7
 10
314.75
 20
495.5
 30
0.0
 11
314.75
 21
494.0
 31
0.0
  0
CIRCLE
  5
159
  8
DATA
  6
CONTINUOUS
 62
     7
 10
314.75
 20
502.5
 30
0.0
 40
1.0
  0
LINE
  5
15A
  8
DATA
  6
CONTINUOUS
 62
     7
 10
309.90000000000009
 20
506.5
 30
0.0
 11
309.90000000000009
 21
495.5
 31
0.0
  0
LINE
  5
15B
  8
DATA
  6
CONTINUOUS
 62
     7
 10
319.60000000000002
 20
506.5
 30
0.0
 11
319.60000000000002
 21
495.5
 31
0.0
  0
LINE
  5
15C
  8
DATA
  6
CONTINUOUS
 62
     7
 10
335.80000000000001
 20
506.5
 30
0.0
 11
345.5
 21
506.5
 31
0.0
  0
LINE
  5
15D
  8
DATA
  6
CONTINUOUS
 62
     7
 10
347.57820323027551
 20
495.5
 30
0.0
 11
347.57820323027551
 21
494.0
 31
0.0
  0
LINE
  5
15E
  8
DATA
  6
CONTINUOUS
 62
     7
 10
333.72179676972439
 20
495.5
 30
0.0
 11
333.72179676972439
 21
494.0
 31
0.0
  0
LINE
  5
15F
  8
DATA
  6
CONTINUOUS
 62
     7
 10
333.72179676972439
 20
495.5
 30
0.0
 11
347.57820323027551
 21
495.5
 31
0.0
  0
LINE
  5
160
  8
DATA
  6
CONTINUOUS
 62
     7
 10
340.64999999999998
 20
495.5
 30
0.0
 11
340.64999999999998
 21
494.0
 31
0.0
  0
CIRCLE
  5
161
  8
DATA
  6
CONTINUOUS
 62
     7
 10
340.64999999999998
 20
502.5
 30
0.0
 40
1.0000000000000131
  0
LINE
  5
162
  8
DATA
  6
CONTINUOUS
 62
     7
 10
335.80000000000001
 20
506.5
 30
0.0
 11
335.80000000000001
 21
495.5
 31
0.0
  0
LINE
  5
163
  8
DATA
  6
CONTINUOUS
 62
     7
 10
345.5
 20
506.5
 30
0.0
 11
345.5
 21
495.5
 31
0.0
  0
LINE
  5
164
  8
DATA
  6
CONTINUOUS
 62
     7
 10
142.39999999999989
 20
499.00000000000011
 30
0.0
 11
142.39999999999989
 21
495.5
 31
0.0
  0
LINE
  5
165
  8
DATA
  6
CONTINUOUS
 62
     7
 10
150.40000000000001
 20
499.00000000000011
 30
0.0
 11
150.40000000000001
 21
495.5
 31
0.0
  0
LINE
  5
166
  8
DATA
  6
CONTINUOUS
 62
     7
 10
142.39999999999989
 20
499.00000000000011
 30
0.0
 11
150.40000000000001
 21
499.00000000000011
 31
0.0
  0
LINE
  5
167
  8
DATA
  6
CONTINUOUS
 62
     7
 10
141.63686027918561
 20
495.5
 30
0.0
 11
141.63686027918561
 21
494.0
 31
0.0
  0
LINE
  5
168
  8
DATA
  6
CONTINUOUS
 62
     7
 10
151.1631397208144
 20
495.5
 30
0.0
 11
151.1631397208144
 21
494.0
 31
0.0
  0
LINE
  5
169
  8
DATA
  6
CONTINUOUS
 62
     7
 10
141.63686027918561
 20
495.5
 30
0.0
 11
151.1631397208144
 21
495.5
 31
0.0
  0
LINE
  5
16A
  8
DATA
  6
CONTINUOUS
 62
     7
 10
146.40000000000001
 20
495.5
 30
0.0
 11
146.40000000000001
 21
494.0
 31
0.0
  0
LINE
  5
16B
  8
DATA
  6
CONTINUOUS
 62
     7
 10
142.39999999999989
 20
495.5
 30
0.0
 11
150.40000000000001
 21
496.5
 31
0.0
  0
LINE
  5
16C
  8
DATA
  6
CONTINUOUS
 62
     7
 10
142.39999999999989
 20
496.5
 30
0.0
 11
150.40000000000001
 21
497.5
 31
0.0
  0
LINE
  5
16D
  8
DATA
  6
CONTINUOUS
 62
     7
 10
142.39999999999989
 20
497.5
 30
0.0
 11
150.40000000000001
 21
498.5
 31
0.0
  0
LINE
  5
16E
  8
DATA
  6
CONTINUOUS
 62
     7
 10
142.39999999999989
 20
498.5
 30
0.0
 11
146.40000000000001
 21
499.00000000000011
 31
0.0
  0
LINE
  5
16F
  8
DATA
  6
CONTINUOUS
 62
     7
 10
168.30000000000001
 20
499.00000000000011
 30
0.0
 11
168.30000000000001
 21
495.5
 31
0.0
  0
LINE
  5
170
  8
DATA
  6
CONTINUOUS
 62
     7
 10
176.30000000000001
 20
499.00000000000011
 30
0.0
 11
176.30000000000001
 21
495.5
 31
0.0
  0
LINE
  5
171
  8
DATA
  6
CONTINUOUS
 62
     7
 10
168.30000000000001
 20
499.00000000000011
 30
0.0
 11
176.30000000000001
 21
499.00000000000011
 31
0.0
  0
LINE
  5
172
  8
DATA
  6
CONTINUOUS
 62
     7
 10
167.53686027918559
 20
495.5
 30
0.0
 11
167.53686027918559
 21
494.0
 31
0.0
  0
LINE
  5
173
  8
DATA
  6
CONTINUOUS
 62
     7
 10
177.06313972081441
 20
495.5
 30
0.0
 11
177.06313972081441
 21
494.0
 31
0.0
  0
LINE
  5
174
  8
DATA
  6
CONTINUOUS
 62
     7
 10
167.53686027918559
 20
495.5
 30
0.0
 11
177.06313972081441
 21
495.5
 31
0.0
  0
LINE
  5
175
  8
DATA
  6
CONTINUOUS
 62
     7
 10
172.30000000000001
 20
495.5
 30
0.0
 11
172.30000000000001
 21
494.0
 31
0.0
  0
LINE
  5
176
  8
DATA
  6
CONTINUOUS
 62
     7
 10
168.30000000000001
 20
495.5
 30
0.0
 11
176.30000000000001
 21
496.5
 31
0.0
  0
LINE
  5
177
  8
DATA
  6
CONTINUOUS
 62
     7
 10
168.30000000000001
 20
496.5
 30
0.0
 11
176.30000000000001
 21
497.5
 31
0.0
  0
LINE
  5
178
  8
DATA
  6
CONTINUOUS
 62
     7
 10
168.30000000000001
 20
497.5
 30
0.0
 11
176.30000000000001
 21
498.5
 31
0.0
  0
LINE
  5
179
  8
DATA
  6
CONTINUOUS
 62
     7
 10
168.30000000000001
 20
498.5
 30
0.0
 11
172.30000000000001
 21
499.00000000000011
 31
0.0
  0
LINE
  5
17A
  8
DATA
  6
CONTINUOUS
 62
     7
 10
297.80000000000001
 20
499.00000000000011
 30
0.0
 11
297.80000000000001
 21
495.5
 31
0.0
  0
LINE
  5
17B
  8
DATA
  6
CONTINUOUS
 62
     7
 10
305.80000000000013
 20
499.00000000000011
 30
0.0
 11
305.80000000000013
 21
495.5
 31
0.0
  0
LINE
  5
17C
  8
DATA
  6
CONTINUOUS
 62
     7
 10
297.80000000000001
 20
499.00000000000011
 30
0.0
 11
305.80000000000013
 21
499.00000000000011
 31
0.0
  0
LINE
  5
17D
  8
DATA
  6
CONTINUOUS
 62
     7
 10
297.03686027918559
 20
495.5
 30
0.0
 11
297.03686027918559
 21
494.0
 31
0.0
  0
LINE
  5
17E
  8
DATA
  6
CONTINUOUS
 62
     7
 10
306.56313972081438
 20
495.5
 30
0.0
 11
306.56313972081438
 21
494.0
 31
0.0
  0
LINE
  5
17F
  8
DATA
  6
CONTINUOUS
 62
     7
 10
297.03686027918559
 20
495.5
 30
0.0
 11
306.56313972081438
 21
495.5
 31
0.0
  0
LINE
  5
180
  8
DATA
  6
CONTINUOUS
 62
     7
 10
301.80000000000001
 20
495.5
 30
0.0
 11
301.80000000000001
 21
494.0
 31
0.0
  0
LINE
  5
181
  8
DATA
  6
CONTINUOUS
 62
     7
 10
297.80000000000001
 20
495.5
 30
0.0
 11
305.80000000000013
 21
496.5
 31
0.0
  0
LINE
  5
182
  8
DATA
  6
CONTINUOUS
 62
     7
 10
297.80000000000001
 20
496.5
 30
0.0
 11
305.80000000000013
 21
497.5
 31
0.0
  0
LINE
  5
183
  8
DATA
  6
CONTINUOUS
 62
     7
 10
297.80000000000001
 20
497.5
 30
0.0
 11
305.80000000000013
 21
498.5
 31
0.0
  0
LINE
  5
184
  8
DATA
  6
CONTINUOUS
 62
     7
 10
297.80000000000001
 20
498.5
 30
0.0
 11
301.80000000000001
 21
499.00000000000011
 31
0.0
  0
LINE
  5
185
  8
DATA
  6
CONTINUOUS
 62
     7
 10
323.7000000000001
 20
499.00000000000011
 30
0.0
 11
323.7000000000001
 21
495.5
 31
0.0
  0
LINE
  5
186
  8
DATA
  6
CONTINUOUS
 62
     7
 10
331.7000000000001
 20
499.00000000000011
 30
0.0
 11
331.7000000000001
 21
495.5
 31
0.0
  0
LINE
  5
187
  8
DATA
  6
CONTINUOUS
 62
     7
 10
323.7000000000001
 20
499.00000000000011
 30
0.0
 11
331.7000000000001
 21
499.00000000000011
 31
0.0
  0
LINE
  5
188
  8
DATA
  6
CONTINUOUS
 62
     7
 10
322.93686027918562
 20
495.5
 30
0.0
 11
322.93686027918562
 21
494.0
 31
0.0
  0
LINE
  5
189
  8
DATA
  6
CONTINUOUS
 62
     7
 10
332.46313972081452
 20
495.5
 30
0.0
 11
332.46313972081452
 21
494.0
 31
0.0
  0
LINE
  5
18A
  8
DATA
  6
CONTINUOUS
 62
     7
 10
322.93686027918562
 20
495.5
 30
0.0
 11
332.46313972081452
 21
495.5
 31
0.0
  0
LINE
  5
18B
  8
DATA
  6
CONTINUOUS
 62
     7
 10
327.7000000000001
 20
495.5
 30
0.0
 11
327.7000000000001
 21
494.0
 31
0.0
  0
LINE
  5
18C
  8
DATA
  6
CONTINUOUS
 62
     7
 10
323.7000000000001
 20
495.5
 30
0.0
 11
331.7000000000001
 21
496.5
 31
0.0
  0
LINE
  5
18D
  8
DATA
  6
CONTINUOUS
 62
     7
 10
323.7000000000001
 20
496.5
 30
0.0
 11
331.7000000000001
 21
497.5
 31
0.0
  0
LINE
  5
18E
  8
DATA
  6
CONTINUOUS
 62
     7
 10
323.7000000000001
 20
497.5
 30
0.0
 11
331.7000000000001
 21
498.5
 31
0.0
  0
LINE
  5
18F
  8
DATA
  6
CONTINUOUS
 62
     7
 10
323.7000000000001
 20
498.5
 30
0.0
 11
327.7000000000001
 21
499.00000000000011
 31
0.0
  0
LINE
  5
190
  8
DATA
  6
CONTINUOUS
 62
     7
 10
353.75
 20
495.5
 30
0.0
 11
353.75
 21
494.0
 31
0.0
  0
LINE
  5
191
  8
DATA
  6
CONTINUOUS
 62
     7
 10
408.25
 20
495.5
 30
0.0
 11
408.25
 21
494.0
 31
0.0
  0
LINE
  5
192
  8
DATA
  6
CONTINUOUS
 62
     7
 10
353.75
 20
495.5
 30
0.0
 11
408.25
 21
495.5
 31
0.0
  0
LINE
  5
193
  8
DATA
  6
CONTINUOUS
 62
     7
 10
385.75
 20
495.5
 30
0.0
 11
385.75
 21
494.0
 31
0.0
  0
LINE
  5
194
  8
DATA
  6
CONTINUOUS
 62
     7
 10
386.25
 20
495.5
 30
0.0
 11
386.25
 21
494.0
 31
0.0
  0
LINE
  5
195
  8
DATA
  6
CONTINUOUS
 62
     7
 10
36.75
 20
287.0
 30
0.0
 11
36.75
 21
293.00000000000011
 31
0.0
  0
LINE
  5
196
  8
DATA
  6
CONTINUOUS
 62
     7
 10
36.75
 20
287.0
 30
0.0
 11
35.75
 21
287.0
 31
0.0
  0
LINE
  5
197
  8
DATA
  6
CONTINUOUS
 62
     7
 10
36.75
 20
293.00000000000011
 30
0.0
 11
35.75
 21
293.00000000000011
 31
0.0
  0
LINE
  5
198
  8
DATA
  6
CONTINUOUS
 62
     7
 10
34.75
 20
292.00000000000011
 30
0.0
 11
34.75
 21
288.00000000000011
 31
0.0
  0
ARC
  5
199
  8
DATA
  6
CONTINUOUS
 62
     7
 10
35.75
 20
292.00000000000011
 30
0.0
 40
1.0
 50
90.0
 51
180.0
  0
ARC
  5
19A
  8
DATA
  6
CONTINUOUS
 62
     7
 10
35.75
 20
288.00000000000011
 30
0.0
 40
1.0
 50
180.0
 51
270.0
  0
LINE
  5
19B
  8
DATA
  6
CONTINUOUS
 62
     7
 10
36.75
 20
413.5
 30
0.0
 11
36.75
 21
419.5
 31
0.0
  0
LINE
  5
19C
  8
DATA
  6
CONTINUOUS
 62
     7
 10
36.75
 20
413.5
 30
0.0
 11
35.75
 21
413.5
 31
0.0
  0
LINE
  5
19D
  8
DATA
  6
CONTINUOUS
 62
     7
 10
36.75
 20
419.5
 30
0.0
 11
35.75
 21
419.5
 31
0.0
  0
LINE
  5
19E
  8
DATA
  6
CONTINUOUS
 62
     7
 10
34.75
 20
418.5
 30
0.0
 11
34.75
 21
414.5
 31
0.0
  0
ARC
  5
19F
  8
DATA
  6
CONTINUOUS
 62
     7
 10
35.75
 20
418.5
 30
0.0
 40
1.0
 50
90.0
 51
180.0
  0
ARC
  5
1A0
  8
DATA
  6
CONTINUOUS
 62
     7
 10
35.75
 20
414.5
 30
0.0
 40
1.0
 50
180.0
 51
270.0
  0
LINE
  5
1A1
  8
DATA
  6
CONTINUOUS
 62
     7
 10
445.75
 20
434.0
 30
0.0
 11
442.75
 21
434.0
 31
0.0
  0
LINE
  5
1A2
  8
DATA
  6
CONTINUOUS
 62
     7
 10
445.75
 20
431.0
 30
0.0
 11
442.75
 21
431.0
 31
0.0
  0
LINE
  5
1A3
  8
DATA
  6
CONTINUOUS
 62
     7
 10
445.75
 20
287.0
 30
0.0
 11
445.75
 21
293.00000000000011
 31
0.0
  0
LINE
  5
1A4
  8
DATA
  6
CONTINUOUS
 62
     7
 10
445.75
 20
287.0
 30
0.0
 11
446.75
 21
287.0
 31
0.0
  0
LINE
  5
1A5
  8
DATA
  6
CONTINUOUS
 62
     7
 10
445.75
 20
293.00000000000011
 30
0.0
 11
446.75
 21
293.00000000000011
 31
0.0
  0
LINE
  5
1A6
  8
DATA
  6
CONTINUOUS
 62
     7
 10
447.75
 20
292.00000000000011
 30
0.0
 11
447.75
 21
288.00000000000011
 31
0.0
  0
ARC
  5
1A7
  8
DATA
  6
CONTINUOUS
 62
     7
 10
446.75
 20
292.00000000000011
 30
0.0
 40
1.0
 50
0.0
 51
90.0
  0
ARC
  5
1A8
  8
DATA
  6
CONTINUOUS
 62
     7
 10
446.75
 20
288.00000000000011
 30
0.0
 40
1.0
 50
270.0
 51
0.0
  0
LINE
  5
1A9
  8
DATA
  6
CONTINUOUS
 62
     7
 10
445.75
 20
413.5
 30
0.0
 11
445.75
 21
419.5
 31
0.0
  0
LINE
  5
1AA
  8
DATA
  6
CONTINUOUS
 62
     7
 10
445.75
 20
413.5
 30
0.0
 11
446.75
 21
413.5
 31
0.0
  0
LINE
  5
1AB
  8
DATA
  6
CONTINUOUS
 62
     7
 10
445.75
 20
419.5
 30
0.0
 11
446.75
 21
419.5
 31
0.0
  0
LINE
  5
1AC
  8
DATA
  6
CONTINUOUS
 62
     7
 10
447.75
 20
418.5
 30
0.0
 11
447.75
 21
414.5
 31
0.0
  0
ARC
  5
1AD
  8
DATA
  6
CONTINUOUS
 62
     7
 10
446.75
 20
418.5
 30
0.0
 40
1.0
 50
0.0
 51
90.0
  0
ARC
  5
1AE
  8
DATA
  6
CONTINUOUS
 62
     7
 10
446.75
 20
414.5
 30
0.0
 40
1.0
 50
270.0
 51
0.0
  0
LINE
  5
1AF
  8
DATA
  6
CONTINUOUS
 62
     7
 10
586.74999999999989
 20
0.0
 30
0.0
 11
880.75
 21
0.0
 31
0.0
  0
LINE
  5
1B0
  8
DATA
  6
CONTINUOUS
 62
     7
 10
586.74999999999989
 20
43.500000000000107
 30
0.0
 11
586.74999999999989
 21
0.0
 31
0.0
  0
LINE
  5
1B1
  8
DATA
  6
CONTINUOUS
 62
     7
 10
586.74999999999989
 20
43.500000000000107
 30
0.0
 11
880.75
 21
43.500000000000107
 31
0.0
  0
LINE
  5
1B2
  8
DATA
  6
CONTINUOUS
 62
     7
 10
880.75
 20
43.500000000000107
 30
0.0
 11
880.75
 21
0.0
 31
0.0
  0
LINE
  5
1B3
  8
DATA
  6
CONTINUOUS
 62
     7
 10
591.75
 20
43.500000000000107
 30
0.0
 11
591.75
 21
0.0
 31
0.0
  0
LINE
  5
1B4
  8
DATA
  6
CONTINUOUS
 62
     7
 10
594.74999999999989
 20
43.500000000000107
 30
0.0
 11
594.74999999999989
 21
0.0
 31
0.0
  0
LINE
  5
1B5
  8
DATA
  6
CONTINUOUS
 62
     7
 10
817.75
 20
43.500000000000107
 30
0.0
 11
820.74999999999989
 21
40.500000000000099
 31
0.0
  0
LINE
  5
1B6
  8
DATA
  6
CONTINUOUS
 62
     7
 10
817.75
 20
-0.0000000000001137
 30
0.0
 11
820.74999999999989
 21
2.9999999999998859
 31
0.0
  0
LINE
  5
1B7
  8
DATA
  6
CONTINUOUS
 62
     7
 10
820.74999999999989
 20
40.500000000000099
 30
0.0
 11
820.74999999999989
 21
2.9999999999998859
 31
0.0
  0
CIRCLE
  5
1B8
  8
DATA
  6
CONTINUOUS
 62
     7
 10
803.25
 20
19.0
 30
0.0
 40
3.0000000000000382
  0
LINE
  5
1B9
  8
DATA
  6
CONTINUOUS
 62
     7
 10
801.24999999999989
 20
19.0
 30
0.0
 11
805.25
 21
19.0
 31
0.0
  0
LINE
  5
1BA
  8
DATA
  6
CONTINUOUS
 62
     7
 10
803.25
 20
21.0
 30
0.0
 11
803.25
 21
17.0
 31
0.0
  0
CIRCLE
  5
1BB
  8
DATA
  6
CONTINUOUS
 62
     7
 10
676.75
 20
19.0
 30
0.0
 40
3.0000000000000382
  0
LINE
  5
1BC
  8
DATA
  6
CONTINUOUS
 62
     7
 10
674.75
 20
19.0
 30
0.0
 11
678.75
 21
19.0
 31
0.0
  0
LINE
  5
1BD
  8
DATA
  6
CONTINUOUS
 62
     7
 10
676.75
 20
21.0
 30
0.0
 11
676.75
 21
17.0
 31
0.0
  0
ARC
  5
1BE
  8
DATA
  6
CONTINUOUS
 62
     7
 10
626.75
 20
21.75
 30
0.0
 40
4.5
 50
270.0
 51
90.0
  0
LINE
  5
1BF
  8
DATA
  6
CONTINUOUS
 62
     7
 10
626.75
 20
26.25
 30
0.0
 11
594.74999999999989
 21
26.25
 31
0.0
  0
LINE
  5
1C0
  8
DATA
  6
CONTINUOUS
 62
     7
 10
626.75
 20
17.25
 30
0.0
 11
594.74999999999989
 21
17.25
 31
0.0
  0
LINE
  5
1C1
  8
DATA
  6
CONTINUOUS
 62
     7
 10
0.0
 20
700.0
 30
0.0
 11
482.5
 21
700.0
 31
0.0
  0
LINE
  5
1C2
  8
DATA
  6
CONTINUOUS
 62
     7
 10
39.75
 20
700.0
 30
0.0
 11
39.75
 21
743.00000000000011
 31
0.0
  0
LINE
  5
1C3
  8
DATA
  6
CONTINUOUS
 62
     7
 10
442.75
 20
700.0
 30
0.0
 11
442.75
 21
743.00000000000011
 31
0.0
  0
LINE
  5
1C4
  8
DATA
  6
CONTINUOUS
 62
     7
 10
39.75
 20
743.00000000000011
 30
0.0
 11
442.75
 21
743.00000000000011
 31
0.0
  0
LINE
  5
1C5
  8
DATA
  6
CONTINUOUS
 62
     7
 10
0.0
 20
743.50000000000011
 30
0.0
 11
482.5
 21
743.50000000000011
 31
0.0
  0
LINE
  5
1C6
  8
DATA
  6
CONTINUOUS
 62
     7
 10
39.75
 20
742.50000000000011
 30
0.0
 11
442.75
 21
742.50000000000011
 31
0.0
  0
CIRCLE
  5
1C7
  8
DATA
  6
CONTINUOUS
 62
     7
 10
55.75
 20
730.50000000000011
 30
0.0
 40
4.8499999999999641
  0
LINE
  5
1C8
  8
DATA
  6
CONTINUOUS
 62
     7
 10
54.75
 20
736.04999999999995
 30
0.0
 11
56.75
 21
736.04999999999995
 31
0.0
  0
LINE
  5
1C9
  8
DATA
  6
CONTINUOUS
 62
     7
 10
56.75
 20
736.04999999999995
 30
0.0
 11
56.75
 21
735.24578760586701
 31
0.0
  0
LINE
  5
1CA
  8
DATA
  6
CONTINUOUS
 62
     7
 10
54.75
 20
736.04999999999995
 30
0.0
 11
54.75000000001404
 21
735.24578760586701
 31
0.0
  0
LINE
  5
1CB
  8
DATA
  6
CONTINUOUS
 62
     7
 10
54.75
 20
724.95000000000016
 30
0.0
 11
56.75
 21
724.95000000000016
 31
0.0
  0
LINE
  5
1CC
  8
DATA
  6
CONTINUOUS
 62
     7
 10
56.75
 20
724.95000000000016
 30
0.0
 11
56.75
 21
725.75421239413299
 31
0.0
  0
LINE
  5
1CD
  8
DATA
  6
CONTINUOUS
 62
     7
 10
54.75
 20
724.95000000000016
 30
0.0
 11
54.75000000001404
 21
725.75421239413299
 31
0.0
  0
CIRCLE
  5
1CE
  8
DATA
  6
CONTINUOUS
 62
     7
 10
55.75
 20
730.50000000000011
 30
0.0
 40
2.25
  0
CIRCLE
  5
1CF
  8
DATA
  6
CONTINUOUS
 62
     7
 10
55.75
 20
730.50000000000011
 30
0.0
 40
1.0
  0
CIRCLE
  5
1D0
  8
DATA
  6
CONTINUOUS
 62
     7
 10
55.75
 20
730.50000000000011
 30
0.0
 40
5.7499999999999432
  0
CIRCLE
  5
1D1
  8
DATA
  6
CONTINUOUS
 62
     7
 10
55.75
 20
730.50000000000011
 30
0.0
 40
8.0
  0
POLYLINE
  5
1D2
  8
DATA
  6
CONTINUOUS
 62
     7
 66
     1
 10
0.0
 20
0.0
 30
0.0
 70
     1
  0
VERTEX
  5
3F5
  8
DATA
  6
CONTINUOUS
 62
     7
 10
55.75
 20
738.50000000000011
 30
0.0
  0
VERTEX
  5
3F6
  8
DATA
  6
CONTINUOUS
 62
     7
 10
48.821796769724457
 20
734.50000000000011
 30
0.0
  0
VERTEX
  5
3F7
  8
DATA
  6
CONTINUOUS
 62
     7
 10
48.821796769724457
 20
726.50000000000011
 30
0.0
  0
VERTEX
  5
3F8
  8
DATA
  6
CONTINUOUS
 62
     7
 10
55.75
 20
722.50000000000011
 30
0.0
  0
VERTEX
  5
3F9
  8
DATA
  6
CONTINUOUS
 62
     7
 10
62.678203230275528
 20
726.50000000000011
 30
0.0
  0
VERTEX
  5
3FA
  8
DATA
  6
CONTINUOUS
 62
     7
 10
62.678203230275528
 20
734.50000000000011
 30
0.0
  0
SEQEND
  5
3FB
  8
DATA
  6
CONTINUOUS
 62
     7
  0
CIRCLE
  5
1DB
  8
DATA
  6
CONTINUOUS
 62
     7
 10
81.649999999999963
 20
730.50000000000011
 30
0.0
 40
4.8499999999999073
  0
LINE
  5
1DC
  8
DATA
  6
CONTINUOUS
 62
     7
 10
80.649999999999963
 20
736.04999999999995
 30
0.0
 11
82.649999999999977
 21
736.04999999999995
 31
0.0
  0
LINE
  5
1DD
  8
DATA
  6
CONTINUOUS
 62
     7
 10
82.649999999999977
 20
736.04999999999995
 30
0.0
 11
82.649999999999977
 21
735.24578760586701
 31
0.0
  0
LINE
  5
1DE
  8
DATA
  6
CONTINUOUS
 62
     7
 10
80.649999999999963
 20
736.04999999999995
 30
0.0
 11
80.650000000014018
 21
735.24578760586701
 31
0.0
  0
LINE
  5
1DF
  8
DATA
  6
CONTINUOUS
 62
     7
 10
80.649999999999963
 20
724.95000000000016
 30
0.0
 11
82.649999999999977
 21
724.95000000000016
 31
0.0
  0
LINE
  5
1E0
  8
DATA
  6
CONTINUOUS
 62
     7
 10
82.649999999999977
 20
724.95000000000016
 30
0.0
 11
82.649999999999977
 21
725.75421239413299
 31
0.0
  0
LINE
  5
1E1
  8
DATA
  6
CONTINUOUS
 62
     7
 10
80.649999999999963
 20
724.95000000000016
 30
0.0
 11
80.650000000014018
 21
725.75421239413299
 31
0.0
  0
CIRCLE
  5
1E2
  8
DATA
  6
CONTINUOUS
 62
     7
 10
81.649999999999963
 20
730.50000000000011
 30
0.0
 40
2.25
  0
CIRCLE
  5
1E3
  8
DATA
  6
CONTINUOUS
 62
     7
 10
81.649999999999963
 20
730.50000000000011
 30
0.0
 40
1.0
  0
CIRCLE
  5
1E4
  8
DATA
  6
CONTINUOUS
 62
     7
 10
81.649999999999963
 20
730.50000000000011
 30
0.0
 40
5.75
  0
CIRCLE
  5
1E5
  8
DATA
  6
CONTINUOUS
 62
     7
 10
81.649999999999963
 20
730.50000000000011
 30
0.0
 40
7.9999999999999423
  0
POLYLINE
  5
1E6
  8
DATA
  6
CONTINUOUS
 62
     7
 66
     1
 10
0.0
 20
0.0
 30
0.0
 70
     1
  0
VERTEX
  5
3FC
  8
DATA
  6
CONTINUOUS
 62
     7
 10
81.649999999999963
 20
738.50000000000011
 30
0.0
  0
VERTEX
  5
3FD
  8
DATA
  6
CONTINUOUS
 62
     7
 10
74.721796769724435
 20
734.50000000000011
 30
0.0
  0
VERTEX
  5
3FE
  8
DATA
  6
CONTINUOUS
 62
     7
 10
74.721796769724435
 20
726.50000000000011
 30
0.0
  0
VERTEX
  5
3FF
  8
DATA
  6
CONTINUOUS
 62
     7
 10
81.649999999999963
 20
722.50000000000011
 30
0.0
  0
VERTEX
  5
400
  8
DATA
  6
CONTINUOUS
 62
     7
 10
88.578203230275491
 20
726.50000000000011
 30
0.0
  0
VERTEX
  5
401
  8
DATA
  6
CONTINUOUS
 62
     7
 10
88.578203230275491
 20
734.50000000000011
 30
0.0
  0
SEQEND
  5
402
  8
DATA
  6
CONTINUOUS
 62
     7
  0
CIRCLE
  5
1EF
  8
DATA
  6
CONTINUOUS
 62
     7
 10
107.55
 20
730.50000000000011
 30
0.0
 40
4.8499999999999073
  0
LINE
  5
1F0
  8
DATA
  6
CONTINUOUS
 62
     7
 10
106.55
 20
736.04999999999995
 30
0.0
 11
108.55
 21
736.04999999999995
 31
0.0
  0
LINE
  5
1F1
  8
DATA
  6
CONTINUOUS
 62
     7
 10
108.55
 20
736.04999999999995
 30
0.0
 11
108.55
 21
735.24578760586701
 31
0.0
  0
LINE
  5
1F2
  8
DATA
  6
CONTINUOUS
 62
     7
 10
106.55
 20
736.04999999999995
 30
0.0
 11
106.55000000001399
 21
735.24578760586701
 31
0.0
  0
LINE
  5
1F3
  8
DATA
  6
CONTINUOUS
 62
     7
 10
106.55
 20
724.95000000000016
 30
0.0
 11
108.55
 21
724.95000000000016
 31
0.0
  0
LINE
  5
1F4
  8
DATA
  6
CONTINUOUS
 62
     7
 10
108.55
 20
724.95000000000016
 30
0.0
 11
108.55
 21
725.75421239413299
 31
0.0
  0
LINE
  5
1F5
  8
DATA
  6
CONTINUOUS
 62
     7
 10
106.55
 20
724.95000000000016
 30
0.0
 11
106.55000000001399
 21
725.75421239413299
 31
0.0
  0
CIRCLE
  5
1F6
  8
DATA
  6
CONTINUOUS
 62
     7
 10
107.55
 20
730.50000000000011
 30
0.0
 40
2.25
  0
CIRCLE
  5
1F7
  8
DATA
  6
CONTINUOUS
 62
     7
 10
107.55
 20
730.50000000000011
 30
0.0
 40
1.0
  0
CIRCLE
  5
1F8
  8
DATA
  6
CONTINUOUS
 62
     7
 10
107.55
 20
730.50000000000011
 30
0.0
 40
5.75
  0
CIRCLE
  5
1F9
  8
DATA
  6
CONTINUOUS
 62
     7
 10
107.55
 20
730.50000000000011
 30
0.0
 40
7.9999999999999423
  0
POLYLINE
  5
1FA
  8
DATA
  6
CONTINUOUS
 62
     7
 66
     1
 10
0.0
 20
0.0
 30
0.0
 70
     1
  0
VERTEX
  5
403
  8
DATA
  6
CONTINUOUS
 62
     7
 10
107.55
 20
738.50000000000011
 30
0.0
  0
VERTEX
  5
404
  8
DATA
  6
CONTINUOUS
 62
     7
 10
100.6217967697245
 20
734.50000000000011
 30
0.0
  0
VERTEX
  5
405
  8
DATA
  6
CONTINUOUS
 62
     7
 10
100.6217967697245
 20
726.50000000000011
 30
0.0
  0
VERTEX
  5
406
  8
DATA
  6
CONTINUOUS
 62
     7
 10
107.55
 20
722.50000000000011
 30
0.0
  0
VERTEX
  5
407
  8
DATA
  6
CONTINUOUS
 62
     7
 10
114.4782032302755
 20
726.50000000000011
 30
0.0
  0
VERTEX
  5
408
  8
DATA
  6
CONTINUOUS
 62
     7
 10
114.4782032302755
 20
734.50000000000011
 30
0.0
  0
SEQEND
  5
409
  8
DATA
  6
CONTINUOUS
 62
     7
  0
CIRCLE
  5
203
  8
DATA
  6
CONTINUOUS
 62
     7
 10
133.44999999999999
 20
730.50000000000011
 30
0.0
 40
4.8499999999999641
  0
LINE
  5
204
  8
DATA
  6
CONTINUOUS
 62
     7
 10
132.4499999999999
 20
736.04999999999995
 30
0.0
 11
134.44999999999999
 21
736.04999999999995
 31
0.0
  0
LINE
  5
205
  8
DATA
  6
CONTINUOUS
 62
     7
 10
134.44999999999999
 20
736.04999999999995
 30
0.0
 11
134.44999999999999
 21
735.24578760586701
 31
0.0
  0
LINE
  5
206
  8
DATA
  6
CONTINUOUS
 62
     7
 10
132.4499999999999
 20
736.04999999999995
 30
0.0
 11
132.450000000014
 21
735.24578760586701
 31
0.0
  0
LINE
  5
207
  8
DATA
  6
CONTINUOUS
 62
     7
 10
132.4499999999999
 20
724.95000000000016
 30
0.0
 11
134.44999999999999
 21
724.95000000000016
 31
0.0
  0
LINE
  5
208
  8
DATA
  6
CONTINUOUS
 62
     7
 10
134.44999999999999
 20
724.95000000000016
 30
0.0
 11
134.44999999999999
 21
725.75421239413299
 31
0.0
  0
LINE
  5
209
  8
DATA
  6
CONTINUOUS
 62
     7
 10
132.4499999999999
 20
724.95000000000016
 30
0.0
 11
132.450000000014
 21
725.75421239413299
 31
0.0
  0
CIRCLE
  5
20A
  8
DATA
  6
CONTINUOUS
 62
     7
 10
133.44999999999999
 20
730.50000000000011
 30
0.0
 40
2.25
  0
CIRCLE
  5
20B
  8
DATA
  6
CONTINUOUS
 62
     7
 10
133.44999999999999
 20
730.50000000000011
 30
0.0
 40
1.0
  0
CIRCLE
  5
20C
  8
DATA
  6
CONTINUOUS
 62
     7
 10
133.44999999999999
 20
730.50000000000011
 30
0.0
 40
5.75
  0
CIRCLE
  5
20D
  8
DATA
  6
CONTINUOUS
 62
     7
 10
133.44999999999999
 20
730.50000000000011
 30
0.0
 40
8.0
  0
POLYLINE
  5
20E
  8
DATA
  6
CONTINUOUS
 62
     7
 66
     1
 10
0.0
 20
0.0
 30
0.0
 70
     1
  0
VERTEX
  5
40A
  8
DATA
  6
CONTINUOUS
 62
     7
 10
133.44999999999999
 20
738.50000000000011
 30
0.0
  0
VERTEX
  5
40B
  8
DATA
  6
CONTINUOUS
 62
     7
 10
126.5217967697244
 20
734.50000000000011
 30
0.0
  0
VERTEX
  5
40C
  8
DATA
  6
CONTINUOUS
 62
     7
 10
126.5217967697244
 20
726.50000000000011
 30
0.0
  0
VERTEX
  5
40D
  8
DATA
  6
CONTINUOUS
 62
     7
 10
133.44999999999999
 20
722.50000000000011
 30
0.0
  0
VERTEX
  5
40E
  8
DATA
  6
CONTINUOUS
 62
     7
 10
140.37820323027549
 20
726.50000000000011
 30
0.0
  0
VERTEX
  5
40F
  8
DATA
  6
CONTINUOUS
 62
     7
 10
140.37820323027549
 20
734.50000000000011
 30
0.0
  0
SEQEND
  5
410
  8
DATA
  6
CONTINUOUS
 62
     7
  0
CIRCLE
  5
217
  8
DATA
  6
CONTINUOUS
 62
     7
 10
159.34999999999991
 20
730.50000000000011
 30
0.0
 40
4.850000000000021
  0
LINE
  5
218
  8
DATA
  6
CONTINUOUS
 62
     7
 10
158.34999999999991
 20
736.04999999999995
 30
0.0
 11
160.34999999999991
 21
736.04999999999995
 31
0.0
  0
LINE
  5
219
  8
DATA
  6
CONTINUOUS
 62
     7
 10
160.34999999999991
 20
736.04999999999995
 30
0.0
 11
160.34999999999991
 21
735.24578760586701
 31
0.0
  0
LINE
  5
21A
  8
DATA
  6
CONTINUOUS
 62
     7
 10
158.34999999999991
 20
736.04999999999995
 30
0.0
 11
158.35000000001401
 21
735.24578760586701
 31
0.0
  0
LINE
  5
21B
  8
DATA
  6
CONTINUOUS
 62
     7
 10
158.34999999999991
 20
724.95000000000016
 30
0.0
 11
160.34999999999991
 21
724.95000000000016
 31
0.0
  0
LINE
  5
21C
  8
DATA
  6
CONTINUOUS
 62
     7
 10
160.34999999999991
 20
724.95000000000016
 30
0.0
 11
160.34999999999991
 21
725.75421239413299
 31
0.0
  0
LINE
  5
21D
  8
DATA
  6
CONTINUOUS
 62
     7
 10
158.34999999999991
 20
724.95000000000016
 30
0.0
 11
158.35000000001401
 21
725.75421239413299
 31
0.0
  0
CIRCLE
  5
21E
  8
DATA
  6
CONTINUOUS
 62
     7
 10
159.34999999999991
 20
730.50000000000011
 30
0.0
 40
2.250000000000028
  0
CIRCLE
  5
21F
  8
DATA
  6
CONTINUOUS
 62
     7
 10
159.34999999999991
 20
730.50000000000011
 30
0.0
 40
1.000000000000028
  0
CIRCLE
  5
220
  8
DATA
  6
CONTINUOUS
 62
     7
 10
159.34999999999991
 20
730.50000000000011
 30
0.0
 40
5.7500000000000284
  0
CIRCLE
  5
221
  8
DATA
  6
CONTINUOUS
 62
     7
 10
159.34999999999991
 20
730.50000000000011
 30
0.0
 40
8.0000000000000284
  0
POLYLINE
  5
222
  8
DATA
  6
CONTINUOUS
 62
     7
 66
     1
 10
0.0
 20
0.0
 30
0.0
 70
     1
  0
VERTEX
  5
411
  8
DATA
  6
CONTINUOUS
 62
     7
 10
159.34999999999991
 20
738.50000000000011
 30
0.0
  0
VERTEX
  5
412
  8
DATA
  6
CONTINUOUS
 62
     7
 10
152.42179676972441
 20
734.50000000000011
 30
0.0
  0
VERTEX
  5
413
  8
DATA
  6
CONTINUOUS
 62
     7
 10
152.42179676972441
 20
726.50000000000011
 30
0.0
  0
VERTEX
  5
414
  8
DATA
  6
CONTINUOUS
 62
     7
 10
159.34999999999991
 20
722.50000000000011
 30
0.0
  0
VERTEX
  5
415
  8
DATA
  6
CONTINUOUS
 62
     7
 10
166.27820323027541
 20
726.50000000000011
 30
0.0
  0
VERTEX
  5
416
  8
DATA
  6
CONTINUOUS
 62
     7
 10
166.27820323027541
 20
734.50000000000011
 30
0.0
  0
SEQEND
  5
417
  8
DATA
  6
CONTINUOUS
 62
     7
  0
CIRCLE
  5
22B
  8
DATA
  6
CONTINUOUS
 62
     7
 10
185.25
 20
730.50000000000011
 30
0.0
 40
4.8499999999999917
  0
LINE
  5
22C
  8
DATA
  6
CONTINUOUS
 62
     7
 10
184.25
 20
736.04999999999995
 30
0.0
 11
186.25
 21
736.04999999999995
 31
0.0
  0
LINE
  5
22D
  8
DATA
  6
CONTINUOUS
 62
     7
 10
186.25
 20
736.04999999999995
 30
0.0
 11
186.25
 21
735.24578760586701
 31
0.0
  0
LINE
  5
22E
  8
DATA
  6
CONTINUOUS
 62
     7
 10
184.25
 20
736.04999999999995
 30
0.0
 11
184.25000000001401
 21
735.24578760586701
 31
0.0
  0
LINE
  5
22F
  8
DATA
  6
CONTINUOUS
 62
     7
 10
184.25
 20
724.95000000000016
 30
0.0
 11
186.25
 21
724.95000000000016
 31
0.0
  0
LINE
  5
230
  8
DATA
  6
CONTINUOUS
 62
     7
 10
186.25
 20
724.95000000000016
 30
0.0
 11
186.25
 21
725.75421239413299
 31
0.0
  0
LINE
  5
231
  8
DATA
  6
CONTINUOUS
 62
     7
 10
184.25
 20
724.95000000000016
 30
0.0
 11
184.25000000001401
 21
725.75421239413299
 31
0.0
  0
CIRCLE
  5
232
  8
DATA
  6
CONTINUOUS
 62
     7
 10
185.25
 20
730.50000000000011
 30
0.0
 40
2.250000000000028
  0
CIRCLE
  5
233
  8
DATA
  6
CONTINUOUS
 62
     7
 10
185.25
 20
730.50000000000011
 30
0.0
 40
1.000000000000028
  0
CIRCLE
  5
234
  8
DATA
  6
CONTINUOUS
 62
     7
 10
185.25
 20
730.50000000000011
 30
0.0
 40
5.75
  0
CIRCLE
  5
235
  8
DATA
  6
CONTINUOUS
 62
     7
 10
185.25
 20
730.50000000000011
 30
0.0
 40
8.0000000000000284
  0
POLYLINE
  5
236
  8
DATA
  6
CONTINUOUS
 62
     7
 66
     1
 10
0.0
 20
0.0
 30
0.0
 70
     1
  0
VERTEX
  5
418
  8
DATA
  6
CONTINUOUS
 62
     7
 10
185.25
 20
738.50000000000011
 30
0.0
  0
VERTEX
  5
419
  8
DATA
  6
CONTINUOUS
 62
     7
 10
178.32179676972439
 20
734.50000000000011
 30
0.0
  0
VERTEX
  5
41A
  8
DATA
  6
CONTINUOUS
 62
     7
 10
178.32179676972439
 20
726.50000000000011
 30
0.0
  0
VERTEX
  5
41B
  8
DATA
  6
CONTINUOUS
 62
     7
 10
185.25
 20
722.50000000000011
 30
0.0
  0
VERTEX
  5
41C
  8
DATA
  6
CONTINUOUS
 62
     7
 10
192.17820323027561
 20
726.50000000000011
 30
0.0
  0
VERTEX
  5
41D
  8
DATA
  6
CONTINUOUS
 62
     7
 10
192.17820323027561
 20
734.50000000000011
 30
0.0
  0
SEQEND
  5
41E
  8
DATA
  6
CONTINUOUS
 62
     7
  0
CIRCLE
  5
23F
  8
DATA
  6
CONTINUOUS
 62
     7
 10
211.15000000000001
 20
730.50000000000011
 30
0.0
 40
4.8499999999999917
  0
LINE
  5
240
  8
DATA
  6
CONTINUOUS
 62
     7
 10
210.15000000000001
 20
736.04999999999995
 30
0.0
 11
212.15000000000001
 21
736.04999999999995
 31
0.0
  0
LINE
  5
241
  8
DATA
  6
CONTINUOUS
 62
     7
 10
212.15000000000001
 20
736.04999999999995
 30
0.0
 11
212.15000000000001
 21
735.24578760586701
 31
0.0
  0
LINE
  5
242
  8
DATA
  6
CONTINUOUS
 62
     7
 10
210.15000000000001
 20
736.04999999999995
 30
0.0
 11
210.15000000001399
 21
735.24578760586701
 31
0.0
  0
LINE
  5
243
  8
DATA
  6
CONTINUOUS
 62
     7
 10
210.15000000000001
 20
724.95000000000016
 30
0.0
 11
212.15000000000001
 21
724.95000000000016
 31
0.0
  0
LINE
  5
244
  8
DATA
  6
CONTINUOUS
 62
     7
 10
212.15000000000001
 20
724.95000000000016
 30
0.0
 11
212.15000000000001
 21
725.75421239413299
 31
0.0
  0
LINE
  5
245
  8
DATA
  6
CONTINUOUS
 62
     7
 10
210.15000000000001
 20
724.95000000000016
 30
0.0
 11
210.15000000001399
 21
725.75421239413299
 31
0.0
  0
CIRCLE
  5
246
  8
DATA
  6
CONTINUOUS
 62
     7
 10
211.15000000000001
 20
730.50000000000011
 30
0.0
 40
2.250000000000028
  0
CIRCLE
  5
247
  8
DATA
  6
CONTINUOUS
 62
     7
 10
211.15000000000001
 20
730.50000000000011
 30
0.0
 40
1.000000000000028
  0
CIRCLE
  5
248
  8
DATA
  6
CONTINUOUS
 62
     7
 10
211.15000000000001
 20
730.50000000000011
 30
0.0
 40
5.75
  0
CIRCLE
  5
249
  8
DATA
  6
CONTINUOUS
 62
     7
 10
211.15000000000001
 20
730.50000000000011
 30
0.0
 40
8.0000000000000284
  0
POLYLINE
  5
24A
  8
DATA
  6
CONTINUOUS
 62
     7
 66
     1
 10
0.0
 20
0.0
 30
0.0
 70
     1
  0
VERTEX
  5
41F
  8
DATA
  6
CONTINUOUS
 62
     7
 10
211.15000000000001
 20
738.50000000000011
 30
0.0
  0
VERTEX
  5
420
  8
DATA
  6
CONTINUOUS
 62
     7
 10
204.22179676972451
 20
734.50000000000011
 30
0.0
  0
VERTEX
  5
421
  8
DATA
  6
CONTINUOUS
 62
     7
 10
204.22179676972451
 20
726.50000000000011
 30
0.0
  0
VERTEX
  5
422
  8
DATA
  6
CONTINUOUS
 62
     7
 10
211.15000000000001
 20
722.50000000000011
 30
0.0
  0
VERTEX
  5
423
  8
DATA
  6
CONTINUOUS
 62
     7
 10
218.07820323027559
 20
726.50000000000011
 30
0.0
  0
VERTEX
  5
424
  8
DATA
  6
CONTINUOUS
 62
     7
 10
218.07820323027559
 20
734.50000000000011
 30
0.0
  0
SEQEND
  5
425
  8
DATA
  6
CONTINUOUS
 62
     7
  0
CIRCLE
  5
253
  8
DATA
  6
CONTINUOUS
 62
     7
 10
237.05000000000001
 20
730.50000000000011
 30
0.0
 40
4.8499999999999641
  0
LINE
  5
254
  8
DATA
  6
CONTINUOUS
 62
     7
 10
236.05000000000001
 20
736.04999999999995
 30
0.0
 11
238.05000000000001
 21
736.04999999999995
 31
0.0
  0
LINE
  5
255
  8
DATA
  6
CONTINUOUS
 62
     7
 10
238.05000000000001
 20
736.04999999999995
 30
0.0
 11
238.05000000000001
 21
735.24578760586701
 31
0.0
  0
LINE
  5
256
  8
DATA
  6
CONTINUOUS
 62
     7
 10
236.05000000000001
 20
736.04999999999995
 30
0.0
 11
236.05000000001399
 21
735.24578760586701
 31
0.0
  0
LINE
  5
257
  8
DATA
  6
CONTINUOUS
 62
     7
 10
236.05000000000001
 20
724.95000000000016
 30
0.0
 11
238.05000000000001
 21
724.95000000000016
 31
0.0
  0
LINE
  5
258
  8
DATA
  6
CONTINUOUS
 62
     7
 10
238.05000000000001
 20
724.95000000000016
 30
0.0
 11
238.05000000000001
 21
725.75421239413299
 31
0.0
  0
LINE
  5
259
  8
DATA
  6
CONTINUOUS
 62
     7
 10
236.05000000000001
 20
724.95000000000016
 30
0.0
 11
236.05000000001399
 21
725.75421239413299
 31
0.0
  0
CIRCLE
  5
25A
  8
DATA
  6
CONTINUOUS
 62
     7
 10
237.05000000000001
 20
730.50000000000011
 30
0.0
 40
2.250000000000028
  0
CIRCLE
  5
25B
  8
DATA
  6
CONTINUOUS
 62
     7
 10
237.05000000000001
 20
730.50000000000011
 30
0.0
 40
1.000000000000028
  0
CIRCLE
  5
25C
  8
DATA
  6
CONTINUOUS
 62
     7
 10
237.05000000000001
 20
730.50000000000011
 30
0.0
 40
5.7500000000000284
  0
CIRCLE
  5
25D
  8
DATA
  6
CONTINUOUS
 62
     7
 10
237.05000000000001
 20
730.50000000000011
 30
0.0
 40
8.0
  0
POLYLINE
  5
25E
  8
DATA
  6
CONTINUOUS
 62
     7
 66
     1
 10
0.0
 20
0.0
 30
0.0
 70
     1
  0
VERTEX
  5
426
  8
DATA
  6
CONTINUOUS
 62
     7
 10
237.05000000000001
 20
738.50000000000011
 30
0.0
  0
VERTEX
  5
427
  8
DATA
  6
CONTINUOUS
 62
     7
 10
230.1217967697244
 20
734.50000000000011
 30
0.0
  0
VERTEX
  5
428
  8
DATA
  6
CONTINUOUS
 62
     7
 10
230.1217967697244
 20
726.50000000000011
 30
0.0
  0
VERTEX
  5
429
  8
DATA
  6
CONTINUOUS
 62
     7
 10
237.05000000000001
 20
722.50000000000011
 30
0.0
  0
VERTEX
  5
42A
  8
DATA
  6
CONTINUOUS
 62
     7
 10
243.9782032302756
 20
726.50000000000011
 30
0.0
  0
VERTEX
  5
42B
  8
DATA
  6
CONTINUOUS
 62
     7
 10
243.9782032302756
 20
734.50000000000011
 30
0.0
  0
SEQEND
  5
42C
  8
DATA
  6
CONTINUOUS
 62
     7
  0
CIRCLE
  5
267
  8
DATA
  6
CONTINUOUS
 62
     7
 10
262.9500000000001
 20
730.50000000000011
 30
0.0
 40
4.8499999999999348
  0
LINE
  5
268
  8
DATA
  6
CONTINUOUS
 62
     7
 10
261.94999999999999
 20
736.04999999999995
 30
0.0
 11
263.94999999999999
 21
736.04999999999995
 31
0.0
  0
LINE
  5
269
  8
DATA
  6
CONTINUOUS
 62
     7
 10
263.94999999999999
 20
736.04999999999995
 30
0.0
 11
263.94999999999999
 21
735.24578760586701
 31
0.0
  0
LINE
  5
26A
  8
DATA
  6
CONTINUOUS
 62
     7
 10
261.94999999999999
 20
736.04999999999995
 30
0.0
 11
261.95000000001397
 21
735.24578760586701
 31
0.0
  0
LINE
  5
26B
  8
DATA
  6
CONTINUOUS
 62
     7
 10
261.94999999999999
 20
724.95000000000016
 30
0.0
 11
263.94999999999999
 21
724.95000000000016
 31
0.0
  0
LINE
  5
26C
  8
DATA
  6
CONTINUOUS
 62
     7
 10
263.94999999999999
 20
724.95000000000016
 30
0.0
 11
263.94999999999999
 21
725.75421239413299
 31
0.0
  0
LINE
  5
26D
  8
DATA
  6
CONTINUOUS
 62
     7
 10
261.94999999999999
 20
724.95000000000016
 30
0.0
 11
261.95000000001397
 21
725.75421239413299
 31
0.0
  0
CIRCLE
  5
26E
  8
DATA
  6
CONTINUOUS
 62
     7
 10
262.9500000000001
 20
730.50000000000011
 30
0.0
 40
2.249999999999972
  0
CIRCLE
  5
26F
  8
DATA
  6
CONTINUOUS
 62
     7
 10
262.9500000000001
 20
730.50000000000011
 30
0.0
 40
0.9999999999999715
  0
CIRCLE
  5
270
  8
DATA
  6
CONTINUOUS
 62
     7
 10
262.9500000000001
 20
730.50000000000011
 30
0.0
 40
5.75
  0
CIRCLE
  5
271
  8
DATA
  6
CONTINUOUS
 62
     7
 10
262.9500000000001
 20
730.50000000000011
 30
0.0
 40
7.9999999999999707
  0
POLYLINE
  5
272
  8
DATA
  6
CONTINUOUS
 62
     7
 66
     1
 10
0.0
 20
0.0
 30
0.0
 70
     1
  0
VERTEX
  5
42D
  8
DATA
  6
CONTINUOUS
 62
     7
 10
262.9500000000001
 20
738.50000000000011
 30
0.0
  0
VERTEX
  5
42E
  8
DATA
  6
CONTINUOUS
 62
     7
 10
256.02179676972452
 20
734.50000000000011
 30
0.0
  0
VERTEX
  5
42F
  8
DATA
  6
CONTINUOUS
 62
     7
 10
256.02179676972452
 20
726.50000000000011
 30
0.0
  0
VERTEX
  5
430
  8
DATA
  6
CONTINUOUS
 62
     7
 10
262.9500000000001
 20
722.50000000000011
 30
0.0
  0
VERTEX
  5
431
  8
DATA
  6
CONTINUOUS
 62
     7
 10
269.87820323027552
 20
726.50000000000011
 30
0.0
  0
VERTEX
  5
432
  8
DATA
  6
CONTINUOUS
 62
     7
 10
269.87820323027552
 20
734.50000000000011
 30
0.0
  0
SEQEND
  5
433
  8
DATA
  6
CONTINUOUS
 62
     7
  0
CIRCLE
  5
27B
  8
DATA
  6
CONTINUOUS
 62
     7
 10
288.85000000000002
 20
730.50000000000011
 30
0.0
 40
4.849999999999949
  0
LINE
  5
27C
  8
DATA
  6
CONTINUOUS
 62
     7
 10
287.85000000000002
 20
736.04999999999995
 30
0.0
 11
289.85000000000002
 21
736.04999999999995
 31
0.0
  0
LINE
  5
27D
  8
DATA
  6
CONTINUOUS
 62
     7
 10
289.85000000000002
 20
736.04999999999995
 30
0.0
 11
289.85000000000002
 21
735.24578760586701
 31
0.0
  0
LINE
  5
27E
  8
DATA
  6
CONTINUOUS
 62
     7
 10
287.85000000000002
 20
736.04999999999995
 30
0.0
 11
287.85000000001412
 21
735.24578760586701
 31
0.0
  0
LINE
  5
27F
  8
DATA
  6
CONTINUOUS
 62
     7
 10
287.85000000000002
 20
724.95000000000016
 30
0.0
 11
289.85000000000002
 21
724.95000000000016
 31
0.0
  0
LINE
  5
280
  8
DATA
  6
CONTINUOUS
 62
     7
 10
289.85000000000002
 20
724.95000000000016
 30
0.0
 11
289.85000000000002
 21
725.75421239413299
 31
0.0
  0
LINE
  5
281
  8
DATA
  6
CONTINUOUS
 62
     7
 10
287.85000000000002
 20
724.95000000000016
 30
0.0
 11
287.85000000001412
 21
725.75421239413299
 31
0.0
  0
CIRCLE
  5
282
  8
DATA
  6
CONTINUOUS
 62
     7
 10
288.85000000000002
 20
730.50000000000011
 30
0.0
 40
2.2499999999999849
  0
CIRCLE
  5
283
  8
DATA
  6
CONTINUOUS
 62
     7
 10
288.85000000000002
 20
730.50000000000011
 30
0.0
 40
0.9999999999999857
  0
CIRCLE
  5
284
  8
DATA
  6
CONTINUOUS
 62
     7
 10
288.85000000000002
 20
730.50000000000011
 30
0.0
 40
5.7499999999999707
  0
CIRCLE
  5
285
  8
DATA
  6
CONTINUOUS
 62
     7
 10
288.85000000000002
 20
730.50000000000011
 30
0.0
 40
7.9999999999999867
  0
POLYLINE
  5
286
  8
DATA
  6
CONTINUOUS
 62
     7
 66
     1
 10
0.0
 20
0.0
 30
0.0
 70
     1
  0
VERTEX
  5
434
  8
DATA
  6
CONTINUOUS
 62
     7
 10
288.85000000000002
 20
738.50000000000011
 30
0.0
  0
VERTEX
  5
435
  8
DATA
  6
CONTINUOUS
 62
     7
 10
281.92179676972449
 20
734.50000000000011
 30
0.0
  0
VERTEX
  5
436
  8
DATA
  6
CONTINUOUS
 62
     7
 10
281.92179676972449
 20
726.50000000000011
 30
0.0
  0
VERTEX
  5
437
  8
DATA
  6
CONTINUOUS
 62
     7
 10
288.85000000000002
 20
722.50000000000011
 30
0.0
  0
VERTEX
  5
438
  8
DATA
  6
CONTINUOUS
 62
     7
 10
295.77820323027549
 20
726.50000000000011
 30
0.0
  0
VERTEX
  5
439
  8
DATA
  6
CONTINUOUS
 62
     7
 10
295.77820323027549
 20
734.50000000000011
 30
0.0
  0
SEQEND
  5
43A
  8
DATA
  6
CONTINUOUS
 62
     7
  0
CIRCLE
  5
28F
  8
DATA
  6
CONTINUOUS
 62
     7
 10
314.75
 20
730.50000000000011
 30
0.0
 40
4.849999999999949
  0
LINE
  5
290
  8
DATA
  6
CONTINUOUS
 62
     7
 10
313.75
 20
736.04999999999995
 30
0.0
 11
315.75
 21
736.04999999999995
 31
0.0
  0
LINE
  5
291
  8
DATA
  6
CONTINUOUS
 62
     7
 10
315.75
 20
736.04999999999995
 30
0.0
 11
315.75
 21
735.24578760586701
 31
0.0
  0
LINE
  5
292
  8
DATA
  6
CONTINUOUS
 62
     7
 10
313.75
 20
736.04999999999995
 30
0.0
 11
313.7500000000141
 21
735.24578760586701
 31
0.0
  0
LINE
  5
293
  8
DATA
  6
CONTINUOUS
 62
     7
 10
313.75
 20
724.95000000000016
 30
0.0
 11
315.75
 21
724.95000000000016
 31
0.0
  0
LINE
  5
294
  8
DATA
  6
CONTINUOUS
 62
     7
 10
315.75
 20
724.95000000000016
 30
0.0
 11
315.75
 21
725.75421239413299
 31
0.0
  0
LINE
  5
295
  8
DATA
  6
CONTINUOUS
 62
     7
 10
313.75
 20
724.95000000000016
 30
0.0
 11
313.7500000000141
 21
725.75421239413299
 31
0.0
  0
CIRCLE
  5
296
  8
DATA
  6
CONTINUOUS
 62
     7
 10
314.75
 20
730.50000000000011
 30
0.0
 40
2.2499999999999849
  0
CIRCLE
  5
297
  8
DATA
  6
CONTINUOUS
 62
     7
 10
314.75
 20
730.50000000000011
 30
0.0
 40
0.9999999999999857
  0
CIRCLE
  5
298
  8
DATA
  6
CONTINUOUS
 62
     7
 10
314.75
 20
730.50000000000011
 30
0.0
 40
5.7499999999999849
  0
CIRCLE
  5
299
  8
DATA
  6
CONTINUOUS
 62
     7
 10
314.75
 20
730.50000000000011
 30
0.0
 40
7.9999999999999867
  0
POLYLINE
  5
29A
  8
DATA
  6
CONTINUOUS
 62
     7
 66
     1
 10
0.0
 20
0.0
 30
0.0
 70
     1
  0
VERTEX
  5
43B
  8
DATA
  6
CONTINUOUS
 62
     7
 10
314.75
 20
738.50000000000011
 30
0.0
  0
VERTEX
  5
43C
  8
DATA
  6
CONTINUOUS
 62
     7
 10
307.82179676972447
 20
734.50000000000011
 30
0.0
  0
VERTEX
  5
43D
  8
DATA
  6
CONTINUOUS
 62
     7
 10
307.82179676972447
 20
726.50000000000011
 30
0.0
  0
VERTEX
  5
43E
  8
DATA
  6
CONTINUOUS
 62
     7
 10
314.75
 20
722.50000000000011
 30
0.0
  0
VERTEX
  5
43F
  8
DATA
  6
CONTINUOUS
 62
     7
 10
321.67820323027559
 20
726.50000000000011
 30
0.0
  0
VERTEX
  5
440
  8
DATA
  6
CONTINUOUS
 62
     7
 10
321.67820323027559
 20
734.50000000000011
 30
0.0
  0
SEQEND
  5
441
  8
DATA
  6
CONTINUOUS
 62
     7
  0
CIRCLE
  5
2A3
  8
DATA
  6
CONTINUOUS
 62
     7
 10
340.64999999999998
 20
730.50000000000011
 30
0.0
 40
4.849999999999949
  0
LINE
  5
2A4
  8
DATA
  6
CONTINUOUS
 62
     7
 10
339.64999999999998
 20
736.04999999999995
 30
0.0
 11
341.64999999999998
 21
736.04999999999995
 31
0.0
  0
LINE
  5
2A5
  8
DATA
  6
CONTINUOUS
 62
     7
 10
341.64999999999998
 20
736.04999999999995
 30
0.0
 11
341.64999999999998
 21
735.24578760586701
 31
0.0
  0
LINE
  5
2A6
  8
DATA
  6
CONTINUOUS
 62
     7
 10
339.64999999999998
 20
736.04999999999995
 30
0.0
 11
339.65000000001402
 21
735.24578760586701
 31
0.0
  0
LINE
  5
2A7
  8
DATA
  6
CONTINUOUS
 62
     7
 10
339.64999999999998
 20
724.95000000000016
 30
0.0
 11
341.64999999999998
 21
724.95000000000016
 31
0.0
  0
LINE
  5
2A8
  8
DATA
  6
CONTINUOUS
 62
     7
 10
341.64999999999998
 20
724.95000000000016
 30
0.0
 11
341.64999999999998
 21
725.75421239413299
 31
0.0
  0
LINE
  5
2A9
  8
DATA
  6
CONTINUOUS
 62
     7
 10
339.64999999999998
 20
724.95000000000016
 30
0.0
 11
339.65000000001402
 21
725.75421239413299
 31
0.0
  0
CIRCLE
  5
2AA
  8
DATA
  6
CONTINUOUS
 62
     7
 10
340.64999999999998
 20
730.50000000000011
 30
0.0
 40
2.2499999999999849
  0
CIRCLE
  5
2AB
  8
DATA
  6
CONTINUOUS
 62
     7
 10
340.64999999999998
 20
730.50000000000011
 30
0.0
 40
0.9999999999999857
  0
CIRCLE
  5
2AC
  8
DATA
  6
CONTINUOUS
 62
     7
 10
340.64999999999998
 20
730.50000000000011
 30
0.0
 40
5.75
  0
CIRCLE
  5
2AD
  8
DATA
  6
CONTINUOUS
 62
     7
 10
340.64999999999998
 20
730.50000000000011
 30
0.0
 40
7.9999999999999867
  0
POLYLINE
  5
2AE
  8
DATA
  6
CONTINUOUS
 62
     7
 66
     1
 10
0.0
 20
0.0
 30
0.0
 70
     1
  0
VERTEX
  5
442
  8
DATA
  6
CONTINUOUS
 62
     7
 10
340.64999999999998
 20
738.50000000000011
 30
0.0
  0
VERTEX
  5
443
  8
DATA
  6
CONTINUOUS
 62
     7
 10
333.72179676972439
 20
734.50000000000011
 30
0.0
  0
VERTEX
  5
444
  8
DATA
  6
CONTINUOUS
 62
     7
 10
333.72179676972439
 20
726.50000000000011
 30
0.0
  0
VERTEX
  5
445
  8
DATA
  6
CONTINUOUS
 62
     7
 10
340.64999999999998
 20
722.50000000000011
 30
0.0
  0
VERTEX
  5
446
  8
DATA
  6
CONTINUOUS
 62
     7
 10
347.57820323027551
 20
726.50000000000011
 30
0.0
  0
VERTEX
  5
447
  8
DATA
  6
CONTINUOUS
 62
     7
 10
347.57820323027551
 20
734.50000000000011
 30
0.0
  0
SEQEND
  5
448
  8
DATA
  6
CONTINUOUS
 62
     7
  0
CIRCLE
  5
2B7
  8
DATA
  6
CONTINUOUS
 62
     7
 10
172.30000000000001
 20
715.50000000000011
 30
0.0
 40
4.0000000000000124
  0
CIRCLE
  5
2B8
  8
DATA
  6
CONTINUOUS
 62
     7
 10
172.30000000000001
 20
715.50000000000011
 30
0.0
 40
1.25
  0
POLYLINE
  5
2B9
  8
DATA
  6
CONTINUOUS
 62
     7
 66
     1
 10
0.0
 20
0.0
 30
0.0
 70
     1
  0
VERTEX
  5
449
  8
DATA
  6
CONTINUOUS
 62
     7
 10
172.30000000000001
 20
721.0
 30
0.0
  0
VERTEX
  5
44A
  8
DATA
  6
CONTINUOUS
 62
     7
 10
167.53686027918559
 20
718.25
 30
0.0
  0
VERTEX
  5
44B
  8
DATA
  6
CONTINUOUS
 62
     7
 10
167.53686027918559
 20
712.75000000000011
 30
0.0
  0
VERTEX
  5
44C
  8
DATA
  6
CONTINUOUS
 62
     7
 10
172.30000000000001
 20
710.00000000000011
 30
0.0
  0
VERTEX
  5
44D
  8
DATA
  6
CONTINUOUS
 62
     7
 10
177.06313972081441
 20
712.75000000000011
 30
0.0
  0
VERTEX
  5
44E
  8
DATA
  6
CONTINUOUS
 62
     7
 10
177.06313972081441
 20
718.25
 30
0.0
  0
SEQEND
  5
44F
  8
DATA
  6
CONTINUOUS
 62
     7
  0
CIRCLE
  5
2C2
  8
DATA
  6
CONTINUOUS
 62
     7
 10
172.30000000000001
 20
715.50000000000011
 30
0.0
 40
2.75
  0
CIRCLE
  5
2C3
  8
DATA
  6
CONTINUOUS
 62
     7
 10
146.40000000000001
 20
715.50000000000011
 30
0.0
 40
4.000000000000008
  0
CIRCLE
  5
2C4
  8
DATA
  6
CONTINUOUS
 62
     7
 10
146.40000000000001
 20
715.50000000000011
 30
0.0
 40
1.25
  0
POLYLINE
  5
2C5
  8
DATA
  6
CONTINUOUS
 62
     7
 66
     1
 10
0.0
 20
0.0
 30
0.0
 70
     1
  0
VERTEX
  5
450
  8
DATA
  6
CONTINUOUS
 62
     7
 10
146.40000000000001
 20
721.0
 30
0.0
  0
VERTEX
  5
451
  8
DATA
  6
CONTINUOUS
 62
     7
 10
141.63686027918561
 20
718.25
 30
0.0
  0
VERTEX
  5
452
  8
DATA
  6
CONTINUOUS
 62
     7
 10
141.63686027918561
 20
712.75000000000011
 30
0.0
  0
VERTEX
  5
453
  8
DATA
  6
CONTINUOUS
 62
     7
 10
146.40000000000001
 20
710.00000000000011
 30
0.0
  0
VERTEX
  5
454
  8
DATA
  6
CONTINUOUS
 62
     7
 10
151.1631397208144
 20
712.75000000000011
 30
0.0
  0
VERTEX
  5
455
  8
DATA
  6
CONTINUOUS
 62
     7
 10
151.1631397208144
 20
718.25
 30
0.0
  0
SEQEND
  5
456
  8
DATA
  6
CONTINUOUS
 62
     7
  0
CIRCLE
  5
2CE
  8
DATA
  6
CONTINUOUS
 62
     7
 10
146.40000000000001
 20
715.50000000000011
 30
0.0
 40
2.75
  0
CIRCLE
  5
2CF
  8
DATA
  6
CONTINUOUS
 62
     7
 10
301.80000000000001
 20
715.50000000000011
 30
0.0
 40
4.0000000000000098
  0
CIRCLE
  5
2D0
  8
DATA
  6
CONTINUOUS
 62
     7
 10
301.80000000000001
 20
715.50000000000011
 30
0.0
 40
1.25
  0
POLYLINE
  5
2D1
  8
DATA
  6
CONTINUOUS
 62
     7
 66
     1
 10
0.0
 20
0.0
 30
0.0
 70
     1
  0
VERTEX
  5
457
  8
DATA
  6
CONTINUOUS
 62
     7
 10
301.80000000000001
 20
721.0
 30
0.0
  0
VERTEX
  5
458
  8
DATA
  6
CONTINUOUS
 62
     7
 10
297.03686027918559
 20
718.25
 30
0.0
  0
VERTEX
  5
459
  8
DATA
  6
CONTINUOUS
 62
     7
 10
297.03686027918559
 20
712.75000000000011
 30
0.0
  0
VERTEX
  5
45A
  8
DATA
  6
CONTINUOUS
 62
     7
 10
301.80000000000001
 20
710.00000000000011
 30
0.0
  0
VERTEX
  5
45B
  8
DATA
  6
CONTINUOUS
 62
     7
 10
306.56313972081438
 20
712.75000000000011
 30
0.0
  0
VERTEX
  5
45C
  8
DATA
  6
CONTINUOUS
 62
     7
 10
306.56313972081438
 20
718.25
 30
0.0
  0
SEQEND
  5
45D
  8
DATA
  6
CONTINUOUS
 62
     7
  0
CIRCLE
  5
2DA
  8
DATA
  6
CONTINUOUS
 62
     7
 10
301.80000000000001
 20
715.50000000000011
 30
0.0
 40
2.75
  0
CIRCLE
  5
2DB
  8
DATA
  6
CONTINUOUS
 62
     7
 10
327.69999999999999
 20
715.50000000000011
 30
0.0
 40
4.0000000000000098
  0
CIRCLE
  5
2DC
  8
DATA
  6
CONTINUOUS
 62
     7
 10
327.69999999999999
 20
715.50000000000011
 30
0.0
 40
1.25
  0
POLYLINE
  5
2DD
  8
DATA
  6
CONTINUOUS
 62
     7
 66
     1
 10
0.0
 20
0.0
 30
0.0
 70
     1
  0
VERTEX
  5
45E
  8
DATA
  6
CONTINUOUS
 62
     7
 10
327.69999999999999
 20
721.0
 30
0.0
  0
VERTEX
  5
45F
  8
DATA
  6
CONTINUOUS
 62
     7
 10
322.93686027918562
 20
718.25
 30
0.0
  0
VERTEX
  5
460
  8
DATA
  6
CONTINUOUS
 62
     7
 10
322.93686027918562
 20
712.75000000000011
 30
0.0
  0
VERTEX
  5
461
  8
DATA
  6
CONTINUOUS
 62
     7
 10
327.69999999999999
 20
710.00000000000011
 30
0.0
  0
VERTEX
  5
462
  8
DATA
  6
CONTINUOUS
 62
     7
 10
332.46313972081441
 20
712.75000000000011
 30
0.0
  0
VERTEX
  5
463
  8
DATA
  6
CONTINUOUS
 62
     7
 10
332.46313972081441
 20
718.25
 30
0.0
  0
SEQEND
  5
464
  8
DATA
  6
CONTINUOUS
 62
     7
  0
CIRCLE
  5
2E6
  8
DATA
  6
CONTINUOUS
 62
     7
 10
327.69999999999999
 20
715.50000000000011
 30
0.0
 40
2.75
  0
LINE
  5
2E7
  8
DATA
  6
CONTINUOUS
 62
     7
 10
353.75
 20
705.50000000000011
 30
0.0
 11
408.25
 21
705.50000000000011
 31
0.0
  0
LINE
  5
2E8
  8
DATA
  6
CONTINUOUS
 62
     7
 10
353.75
 20
705.50000000000011
 30
0.0
 11
353.75
 21
735.50000000000011
 31
0.0
  0
LINE
  5
2E9
  8
DATA
  6
CONTINUOUS
 62
     7
 10
353.75
 20
735.50000000000011
 30
0.0
 11
408.25
 21
735.50000000000011
 31
0.0
  0
LINE
  5
2EA
  8
DATA
  6
CONTINUOUS
 62
     7
 10
408.25
 20
735.50000000000011
 30
0.0
 11
408.25
 21
705.50000000000011
 31
0.0
  0
LINE
  5
2EB
  8
DATA
  6
CONTINUOUS
 62
     7
 10
385.75
 20
735.50000000000011
 30
0.0
 11
385.75
 21
705.50000000000011
 31
0.0
  0
LINE
  5
2EC
  8
DATA
  6
CONTINUOUS
 62
     7
 10
360.75
 20
709.00000000000011
 30
0.0
 11
378.75
 21
709.00000000000011
 31
0.0
  0
LINE
  5
2ED
  8
DATA
  6
CONTINUOUS
 62
     7
 10
354.75
 20
728.00000000000011
 30
0.0
 11
354.75
 21
715.00000000000011
 31
0.0
  0
LINE
  5
2EE
  8
DATA
  6
CONTINUOUS
 62
     7
 10
384.75
 20
728.00000000000011
 30
0.0
 11
384.75
 21
715.00000000000011
 31
0.0
  0
ARC
  5
2EF
  8
DATA
  6
CONTINUOUS
 62
     7
 10
358.75
 20
728.00000000000011
 30
0.0
 40
4.0
 50
90.0
 51
180.0
  0
ARC
  5
2F0
  8
DATA
  6
CONTINUOUS
 62
     7
 10
380.75
 20
728.00000000000011
 30
0.0
 40
4.0
 50
0.0
 51
90.0
  0
LINE
  5
2F1
  8
DATA
  6
CONTINUOUS
 62
     7
 10
354.75
 20
715.00000000000011
 30
0.0
 11
360.75
 21
709.00000000000011
 31
0.0
  0
LINE
  5
2F2
  8
DATA
  6
CONTINUOUS
 62
     7
 10
384.75
 20
715.00000000000011
 30
0.0
 11
378.75
 21
709.00000000000011
 31
0.0
  0
LINE
  5
2F3
  8
DATA
  6
CONTINUOUS
 62
     7
 10
358.75
 20
732.00000000000011
 30
0.0
 11
380.75
 21
732.00000000000011
 31
0.0
  0
LINE
  5
2F4
  8
DATA
  6
CONTINUOUS
 62
     7
 10
358.75
 20
726.00000000000011
 30
0.0
 11
358.75
 21
716.65685424949254
 31
0.0
  0
ARC
  5
2F5
  8
DATA
  6
CONTINUOUS
 62
     7
 10
360.75
 20
726.00000000000011
 30
0.0
 40
1.9999999999999429
 50
90.0
 51
180.0
  0
LINE
  5
2F6
  8
DATA
  6
CONTINUOUS
 62
     7
 10
358.75
 20
716.65685424949254
 30
0.0
 11
362.40685424949231
 21
713.00000000000011
 31
0.0
  0
LINE
  5
2F7
  8
DATA
  6
CONTINUOUS
 62
     7
 10
380.75
 20
726.00000000000011
 30
0.0
 11
380.75
 21
716.65685424949254
 31
0.0
  0
ARC
  5
2F8
  8
DATA
  6
CONTINUOUS
 62
     7
 10
378.75
 20
726.00000000000011
 30
0.0
 40
2.0
 50
0.0
 51
90.0
  0
LINE
  5
2F9
  8
DATA
  6
CONTINUOUS
 62
     7
 10
380.75
 20
716.65685424949254
 30
0.0
 11
377.09314575050769
 21
713.00000000000011
 31
0.0
  0
LINE
  5
2FA
  8
DATA
  6
CONTINUOUS
 62
     7
 10
360.75
 20
728.00000000000011
 30
0.0
 11
378.75
 21
728.00000000000011
 31
0.0
  0
LINE
  5
2FB
  8
DATA
  6
CONTINUOUS
 62
     7
 10
362.40685424949231
 20
713.00000000000011
 30
0.0
 11
377.09314575050769
 21
713.00000000000011
 31
0.0
  0
LINE
  5
2FC
  8
DATA
  6
CONTINUOUS
 62
     7
 10
368.75
 20
716.00000000000011
 30
0.0
 11
370.75
 21
716.00000000000011
 31
0.0
  0
LINE
  5
2FD
  8
DATA
  6
CONTINUOUS
 62
     7
 10
368.75
 20
716.00000000000011
 30
0.0
 11
368.75
 21
721.0
 31
0.0
  0
LINE
  5
2FE
  8
DATA
  6
CONTINUOUS
 62
     7
 10
368.75
 20
721.0
 30
0.0
 11
370.75
 21
721.0
 31
0.0
  0
LINE
  5
2FF
  8
DATA
  6
CONTINUOUS
 62
     7
 10
370.75
 20
721.0
 30
0.0
 11
370.75
 21
716.00000000000011
 31
0.0
  0
LINE
  5
300
  8
DATA
  6
CONTINUOUS
 62
     7
 10
361.75
 20
719.50000000000011
 30
0.0
 11
363.75
 21
719.50000000000011
 31
0.0
  0
LINE
  5
301
  8
DATA
  6
CONTINUOUS
 62
     7
 10
361.75
 20
719.50000000000011
 30
0.0
 11
361.75
 21
724.5
 31
0.0
  0
LINE
  5
302
  8
DATA
  6
CONTINUOUS
 62
     7
 10
361.75
 20
724.5
 30
0.0
 11
363.75
 21
724.5
 31
0.0
  0
LINE
  5
303
  8
DATA
  6
CONTINUOUS
 62
     7
 10
363.75
 20
724.5
 30
0.0
 11
363.75
 21
719.50000000000011
 31
0.0
  0
LINE
  5
304
  8
DATA
  6
CONTINUOUS
 62
     7
 10
377.75
 20
719.50000000000011
 30
0.0
 11
375.75
 21
719.50000000000011
 31
0.0
  0
LINE
  5
305
  8
DATA
  6
CONTINUOUS
 62
     7
 10
377.75
 20
719.50000000000011
 30
0.0
 11
377.75
 21
724.5
 31
0.0
  0
LINE
  5
306
  8
DATA
  6
CONTINUOUS
 62
     7
 10
377.75
 20
724.5
 30
0.0
 11
375.75
 21
724.5
 31
0.0
  0
LINE
  5
307
  8
DATA
  6
CONTINUOUS
 62
     7
 10
375.75
 20
724.5
 30
0.0
 11
375.75
 21
719.50000000000011
 31
0.0
  0
LINE
  5
308
  8
DATA
  6
CONTINUOUS
 62
     7
 10
405.75
 20
731.00000000000011
 30
0.0
 11
405.75
 21
710.00000000000011
 31
0.0
  0
LINE
  5
309
  8
DATA
  6
CONTINUOUS
 62
     7
 10
403.74999999999989
 20
708.0
 30
0.0
 11
393.75
 21
708.0
 31
0.0
  0
LINE
  5
30A
  8
DATA
  6
CONTINUOUS
 62
     7
 10
386.25
 20
705.50000000000011
 30
0.0
 11
386.25
 21
735.50000000000011
 31
0.0
  0
LINE
  5
30B
  8
DATA
  6
CONTINUOUS
 62
     7
 10
388.75
 20
713.00000000000011
 30
0.0
 11
388.75
 21
728.00000000000011
 31
0.0
  0
LINE
  5
30C
  8
DATA
  6
CONTINUOUS
 62
     7
 10
393.75
 20
733.0
 30
0.0
 11
403.74999999999989
 21
733.0
 31
0.0
  0
LINE
  5
30D
  8
DATA
  6
CONTINUOUS
 62
     7
 10
388.75
 20
728.00000000000011
 30
0.0
 11
393.75
 21
733.0
 31
0.0
  0
LINE
  5
30E
  8
DATA
  6
CONTINUOUS
 62
     7
 10
388.75
 20
713.00000000000011
 30
0.0
 11
393.75
 21
708.0
 31
0.0
  0
ARC
  5
30F
  8
DATA
  6
CONTINUOUS
 62
     7
 10
403.74999999999989
 20
731.00000000000011
 30
0.0
 40
2.0
 50
0.0
 51
90.0
  0
ARC
  5
310
  8
DATA
  6
CONTINUOUS
 62
     7
 10
403.74999999999989
 20
710.00000000000011
 30
0.0
 40
2.0
 50
270.0
 51
0.0
  0
LINE
  5
311
  8
DATA
  6
CONTINUOUS
 62
     7
 10
393.25
 20
721.25000000000011
 30
0.0
 11
393.25
 21
719.75000000000011
 31
0.0
  0
LINE
  5
312
  8
DATA
  6
CONTINUOUS
 62
     7
 10
393.25
 20
719.75000000000011
 30
0.0
 11
397.25
 21
719.75000000000011
 31
0.0
  0
LINE
  5
313
  8
DATA
  6
CONTINUOUS
 62
     7
 10
397.25
 20
719.75000000000011
 30
0.0
 11
397.25
 21
721.25000000000011
 31
0.0
  0
LINE
  5
314
  8
DATA
  6
CONTINUOUS
 62
     7
 10
397.25
 20
721.25000000000011
 30
0.0
 11
393.25
 21
721.25000000000011
 31
0.0
  0
LINE
  5
315
  8
DATA
  6
CONTINUOUS
 62
     7
 10
397.25
 20
728.25000000000011
 30
0.0
 11
397.25
 21
726.75
 31
0.0
  0
LINE
  5
316
  8
DATA
  6
CONTINUOUS
 62
     7
 10
397.25
 20
726.75
 30
0.0
 11
401.25
 21
726.75
 31
0.0
  0
LINE
  5
317
  8
DATA
  6
CONTINUOUS
 62
     7
 10
401.25
 20
726.75
 30
0.0
 11
401.25
 21
728.25000000000011
 31
0.0
  0
LINE
  5
318
  8
DATA
  6
CONTINUOUS
 62
     7
 10
401.25
 20
728.25000000000011
 30
0.0
 11
397.25
 21
728.25000000000011
 31
0.0
  0
LINE
  5
319
  8
DATA
  6
CONTINUOUS
 62
     7
 10
397.25
 20
712.75000000000011
 30
0.0
 11
397.25
 21
714.25
 31
0.0
  0
LINE
  5
31A
  8
DATA
  6
CONTINUOUS
 62
     7
 10
397.25
 20
714.25
 30
0.0
 11
401.25
 21
714.25
 31
0.0
  0
LINE
  5
31B
  8
DATA
  6
CONTINUOUS
 62
     7
 10
401.25
 20
714.25
 30
0.0
 11
401.25
 21
712.75000000000011
 31
0.0
  0
LINE
  5
31C
  8
DATA
  6
CONTINUOUS
 62
     7
 10
401.25
 20
712.75000000000011
 30
0.0
 11
397.25
 21
712.75000000000011
 31
0.0
  0
LINE
  5
31D
  8
DATA
  6
CONTINUOUS
 62
     7
 10
47.25
 20
707.50000000000011
 30
0.0
 11
47.25
 21
743.00000000000011
 31
0.0
  0
LINE
  5
31E
  8
DATA
  6
CONTINUOUS
 62
     7
 10
47.25
 20
707.50000000000011
 30
0.0
 11
353.75
 21
707.50000000000011
 31
0.0
  0
LINE
  5
31F
  8
DATA
  6
CONTINUOUS
 62
     7
 10
408.25
 20
707.50000000000011
 30
0.0
 11
435.25
 21
707.50000000000011
 31
0.0
  0
LINE
  5
320
  8
DATA
  6
CONTINUOUS
 62
     7
 10
435.25
 20
707.50000000000011
 30
0.0
 11
435.25
 21
743.00000000000011
 31
0.0
  0
LINE
  5
321
  8
DATA
  6
CONTINUOUS
 62
     7
 10
39.75
 20
700.0
 30
0.0
 11
47.25
 21
707.50000000000011
 31
0.0
  0
LINE
  5
322
  8
DATA
  6
CONTINUOUS
 62
     7
 10
435.25
 20
707.50000000000011
 30
0.0
 11
442.75
 21
700.0
 31
0.0
  0
LINE
  5
323
  8
DATA
  6
CONTINUOUS
 62
     7
 10
0.0
 20
700.0
 30
0.0
 11
0.0
 21
743.50000000000011
 31
0.0
  0
ARC
  5
324
  8
DATA
  6
CONTINUOUS
 62
     7
 10
6.4999999999999432
 20
705.75
 30
0.0
 40
3.500000000000056
 50
90.0
 51
270.0
  0
ARC
  5
325
  8
DATA
  6
CONTINUOUS
 62
     7
 10
9.5
 20
705.75
 30
0.0
 40
3.499999999999972
 50
270.0
 51
90.0
  0
LINE
  5
326
  8
DATA
  6
CONTINUOUS
 62
     7
 10
6.4999999999999432
 20
709.25000000000011
 30
0.0
 11
9.5
 21
709.25000000000011
 31
0.0
  0
LINE
  5
327
  8
DATA
  6
CONTINUOUS
 62
     7
 10
6.4999999999999432
 20
702.25
 30
0.0
 11
9.5
 21
702.25
 31
0.0
  0
ARC
  5
328
  8
DATA
  6
CONTINUOUS
 62
     7
 10
6.4999999999999432
 20
737.75000000000011
 30
0.0
 40
3.5
 50
90.0
 51
270.0
  0
ARC
  5
329
  8
DATA
  6
CONTINUOUS
 62
     7
 10
9.5
 20
737.75000000000011
 30
0.0
 40
3.500000000000056
 50
270.0
 51
90.0
  0
LINE
  5
32A
  8
DATA
  6
CONTINUOUS
 62
     7
 10
6.4999999999999432
 20
734.25
 30
0.0
 11
9.5
 21
734.25
 31
0.0
  0
LINE
  5
32B
  8
DATA
  6
CONTINUOUS
 62
     7
 10
6.4999999999999432
 20
741.25000000000011
 30
0.0
 11
9.5
 21
741.25000000000011
 31
0.0
  0
ARC
  5
32C
  8
DATA
  6
CONTINUOUS
 62
     7
 10
27.49999999999989
 20
721.75000000000011
 30
0.0
 40
6.5000000000000471
 50
297.79577249604921
 51
242.2042275039519
  0
LINE
  5
32D
  8
DATA
  6
CONTINUOUS
 62
     7
 10
24.468911086751628
 20
716.00000000000011
 30
0.0
 11
30.531088913248251
 21
716.00000000000011
 31
0.0
  0
LINE
  5
32E
  8
DATA
  6
CONTINUOUS
 62
     7
 10
36.75
 20
700.0
 30
0.0
 11
36.75
 21
743.50000000000011
 31
0.0
  0
LINE
  5
32F
  8
DATA
  6
CONTINUOUS
 62
     7
 10
23.49999999999995
 20
729.50000000000011
 30
0.0
 11
31.49999999999995
 21
729.50000000000011
 31
0.0
  0
LINE
  5
330
  8
DATA
  6
CONTINUOUS
 62
     7
 10
23.49999999999995
 20
729.50000000000011
 30
0.0
 11
23.49999999999995
 21
726.87347538298025
 31
0.0
  0
LINE
  5
331
  8
DATA
  6
CONTINUOUS
 62
     7
 10
23.49999999999995
 20
716.62652461701998
 30
0.0
 11
23.49999999999995
 21
714.00000000000011
 31
0.0
  0
LINE
  5
332
  8
DATA
  6
CONTINUOUS
 62
     7
 10
23.49999999999995
 20
714.00000000000011
 30
0.0
 11
31.49999999999995
 21
714.00000000000011
 31
0.0
  0
LINE
  5
333
  8
DATA
  6
CONTINUOUS
 62
     7
 10
31.49999999999995
 20
714.00000000000011
 30
0.0
 11
31.49999999999995
 21
716.62652461701998
 31
0.0
  0
LINE
  5
334
  8
DATA
  6
CONTINUOUS
 62
     7
 10
31.49999999999995
 20
726.87347538298025
 30
0.0
 11
31.49999999999995
 21
729.50000000000011
 31
0.0
  0
LINE
  5
335
  8
DATA
  6
CONTINUOUS
 62
     7
 10
445.75
 20
700.0
 30
0.0
 11
445.75
 21
743.50000000000011
 31
0.0
  0
TEXT
  5
336
  8
DATA
 62
     7
 10
50.585685658613393
 20
740.27222222222224
 30
0.0
 40
4.375
  1
A
 50
180.0
 41
0.7
 11
50.585685658613393
 21
735.89722222222224
 31
0.0
 73
     3
  0
TEXT
  5
337
  8
DATA
 62
     7
 10
63.750000034769293
 20
740.27222222222224
 30
0.0
 40
3.84765625
  1
1
 50
180.0
 41
0.7
 11
63.750000034769293
 21
736.42456597222224
 31
0.0
 73
     3
  0
TEXT
  5
338
  8
DATA
 62
     7
 10
89.65000003476932
 20
740.27222222222224
 30
0.0
 40
3.84765625
  1
2
 50
180.0
 41
0.7
 11
89.65000003476932
 21
736.42456597222224
 31
0.0
 73
     3
  0
TEXT
  5
339
  8
DATA
 62
     7
 10
115.5500000347693
 20
740.27222222222224
 30
0.0
 40
3.84765625
  1
3
 50
180.0
 41
0.7
 11
115.5500000347693
 21
736.42456597222224
 31
0.0
 73
     3
  0
TEXT
  5
33A
  8
DATA
 62
     7
 10
128.28568565861329
 20
740.27222222222224
 30
0.0
 40
4.375
  1
A
 50
180.0
 41
0.7
 11
128.28568565861329
 21
735.89722222222224
 31
0.0
 73
     3
  0
TEXT
  5
33B
  8
DATA
 62
     7
 10
141.45000003476929
 20
740.27222222222224
 30
0.0
 40
3.84765625
  1
4
 50
180.0
 41
0.7
 11
141.45000003476929
 21
736.42456597222224
 31
0.0
 73
     3
  0
TEXT
  5
33C
  8
DATA
 62
     7
 10
154.18568565861341
 20
740.27222222222224
 30
0.0
 40
4.375
  1
A
 50
180.0
 41
0.7
 11
154.18568565861341
 21
735.89722222222224
 31
0.0
 73
     3
  0
TEXT
  5
33D
  8
DATA
 62
     7
 10
167.35000003476941
 20
740.27222222222224
 30
0.0
 40
3.84765625
  1
5
 50
180.0
 41
0.7
 11
167.35000003476941
 21
736.42456597222224
 31
0.0
 73
     3
  0
TEXT
  5
33E
  8
DATA
 62
     7
 10
76.485685658613363
 20
740.27222222222224
 30
0.0
 40
4.375
  1
A
 50
180.0
 41
0.7
 11
76.485685658613363
 21
735.89722222222224
 31
0.0
 73
     3
  0
TEXT
  5
33F
  8
DATA
 62
     7
 10
102.3856856586134
 20
740.27222222222224
 30
0.0
 40
4.375
  1
A
 50
180.0
 41
0.7
 11
102.3856856586134
 21
735.89722222222224
 31
0.0
 73
     3
  0
TEXT
  5
340
  8
DATA
 62
     7
 10
165.7500000347693
 20
742.03388888888901
 30
0.0
 40
2.7147352430555549
  1
CASCADE
 50
180.0
 41
0.7
 11
165.7500000347693
 21
739.31915364583335
 31
0.0
 73
     3
  0
TEXT
  5
341
  8
DATA
 62
     7
 10
195.42361111111109
 20
742.03388888888901
 30
0.0
 40
2.7147352430555549
  1
ANTENNA A IN
 50
180.0
 41
0.7
 11
195.42361111111109
 21
739.31915364583335
 31
0.0
 73
     3
  0
TEXT
  5
342
  8
DATA
 62
     7
 10
126.7500000347693
 20
718.03999999999996
 30
0.0
 40
5.4294704861111116
  1
RF OUTPUT A
 50
180.0
 41
0.7
 11
126.7500000347693
 21
712.61052951388899
 31
0.0
 73
     3
  0
TEXT
  5
343
  8
DATA
 62
     7
 10
166.75017364588041
 20
711.5338888888889
 30
0.0
 40
2.7147352430555549
  1
12V
 50
180.0
 41
0.7
 11
166.75017364588041
 21
708.81915364583335
 31
0.0
 73
     3
  0
TEXT
  5
344
  8
DATA
 62
     7
 10
166.75017364588041
 20
715.06166666666684
 30
0.0
 40
2.7147352430555549
  1
OUT 1.1 A
 50
180.0
 41
0.7
 11
166.75017364588041
 21
712.34693142361118
 31
0.0
 73
     3
  0
TEXT
  5
345
  8
DATA
 62
     7
 10
190.53755267878009
 20
718.77781249999998
 30
0.0
 40
2.7147352430555549
  1
150mA
 50
180.0
 41
0.7
 72
     1
 11
186.5785637826574
 21
716.06307725694444
 31
0.0
 73
     3
  0
TEXT
  5
346
  8
DATA
 62
     7
 10
192.75017364588041
 20
711.5338888888889
 30
0.0
 40
2.7147352430555549
  1
12V
 50
180.0
 41
0.7
 11
192.75017364588041
 21
708.81915364583335
 31
0.0
 73
     3
  0
TEXT
  5
347
  8
DATA
 62
     7
 10
192.75017364588041
 20
715.06166666666684
 30
0.0
 40
2.7147352430555549
  1
  OUT
 50
180.0
 41
0.7
 11
192.75017364588041
 21
712.34693142361118
 31
0.0
 73
     3
  0
TEXT
  5
348
  8
DATA
 62
     7
 10
163.0337528935184
 20
718.32121527777804
 30
0.0
 40
2.7147352430555549
  1
MAX
 50
180.0
 41
0.7
 72
     1
 11
160.49999999999989
 21
715.60648003472238
 31
0.0
 73
     3
  0
TEXT
  5
349
  8
DATA
 62
     7
 10
164.93406756365729
 20
721.84899305555575
 30
0.0
 40
2.7147352430555549
  1
TOTAL
 50
180.0
 41
0.7
 72
     1
 11
160.49999999999989
 21
719.13425781250021
 31
0.0
 73
     3
  0
TEXT
  5
34A
  8
DATA
 62
     7
 10
205.98568565861331
 20
740.27222222222224
 30
0.0
 40
3.84765625
  1
B
 50
180.0
 41
0.7
 11
205.98568565861331
 21
736.42456597222224
 31
0.0
 73
     3
  0
TEXT
  5
34B
  8
DATA
 62
     7
 10
219.15000003476931
 20
740.27222222222224
 30
0.0
 40
3.84765625
  1
1
 50
180.0
 41
0.7
 11
219.15000003476931
 21
736.42456597222224
 31
0.0
 73
     3
  0
TEXT
  5
34C
  8
DATA
 62
     7
 10
245.05000003476931
 20
740.27222222222224
 30
0.0
 40
3.84765625
  1
2
 50
180.0
 41
0.7
 11
245.05000003476931
 21
736.42456597222224
 31
0.0
 73
     3
  0
TEXT
  5
34D
  8
DATA
 62
     7
 10
270.9500000347694
 20
740.27222222222224
 30
0.0
 40
3.84765625
  1
3
 50
180.0
 41
0.7
 11
270.9500000347694
 21
736.42456597222224
 31
0.0
 73
     3
  0
TEXT
  5
34E
  8
DATA
 62
     7
 10
296.85000003476932
 20
740.27222222222224
 30
0.0
 40
3.84765625
  1
4
 50
180.0
 41
0.7
 11
296.85000003476932
 21
736.42456597222224
 31
0.0
 73
     3
  0
TEXT
  5
34F
  8
DATA
 62
     7
 10
322.7500000347693
 20
740.27222222222224
 30
0.0
 40
3.84765625
  1
5
 50
180.0
 41
0.7
 11
322.7500000347693
 21
736.42456597222224
 31
0.0
 73
     3
  0
TEXT
  5
350
  8
DATA
 62
     7
 10
321.15000003476928
 20
742.03388888888901
 30
0.0
 40
2.7147352430555549
  1
CASCADE
 50
180.0
 41
0.7
 11
321.15000003476928
 21
739.31915364583335
 31
0.0
 73
     3
  0
TEXT
  5
351
  8
DATA
 62
     7
 10
350.82361111111112
 20
742.03388888888901
 30
0.0
 40
2.7147352430555549
  1
ANTENNA B IN
 50
180.0
 41
0.7
 11
350.82361111111112
 21
739.31915364583335
 31
0.0
 73
     3
  0
TEXT
  5
352
  8
DATA
 62
     7
 10
282.15000003476939
 20
718.03999999999996
 30
0.0
 40
5.4294704861111116
  1
RF OUTPUT B
 50
180.0
 41
0.7
 11
282.15000003476939
 21
712.61052951388899
 31
0.0
 73
     3
  0
TEXT
  5
353
  8
DATA
 62
     7
 10
322.15017364588039
 20
711.5338888888889
 30
0.0
 40
2.7147352430555549
  1
12V
 50
180.0
 41
0.7
 11
322.15017364588039
 21
708.81915364583335
 31
0.0
 73
     3
  0
TEXT
  5
354
  8
DATA
 62
     7
 10
322.15017364588039
 20
715.06166666666684
 30
0.0
 40
2.7147352430555549
  1
OUT 1.1 A
 50
180.0
 41
0.7
 11
322.15017364588039
 21
712.34693142361118
 31
0.0
 73
     3
  0
TEXT
  5
355
  8
DATA
 62
     7
 10
345.93755267878009
 20
718.77781249999998
 30
0.0
 40
2.7147352430555549
  1
150mA
 50
180.0
 41
0.7
 72
     1
 11
341.97856378265749
 21
716.06307725694444
 31
0.0
 73
     3
  0
TEXT
  5
356
  8
DATA
 62
     7
 10
348.15017364588039
 20
711.5338888888889
 30
0.0
 40
2.7147352430555549
  1
12V
 50
180.0
 41
0.7
 11
348.15017364588039
 21
708.81915364583335
 31
0.0
 73
     3
  0
TEXT
  5
357
  8
DATA
 62
     7
 10
348.15017364588039
 20
715.06166666666684
 30
0.0
 40
2.7147352430555549
  1
  OUT
 50
180.0
 41
0.7
 11
348.15017364588039
 21
712.34693142361118
 31
0.0
 73
     3
  0
TEXT
  5
358
  8
DATA
 62
     7
 10
318.43375289351849
 20
718.32121527777804
 30
0.0
 40
2.7147352430555549
  1
MAX
 50
180.0
 41
0.7
 72
     1
 11
315.89999999999998
 21
715.60648003472238
 31
0.0
 73
     3
  0
TEXT
  5
359
  8
DATA
 62
     7
 10
320.33406756365741
 20
721.84899305555575
 30
0.0
 40
2.7147352430555549
  1
TOTAL
 50
180.0
 41
0.7
 72
     1
 11
315.89999999999998
 21
719.13425781250021
 31
0.0
 73
     3
  0
TEXT
  5
35A
  8
DATA
 62
     7
 10
231.8856856586134
 20
740.27222222222224
 30
0.0
 40
3.84765625
  1
B
 50
180.0
 41
0.7
 11
231.8856856586134
 21
736.42456597222224
 31
0.0
 73
     3
  0
TEXT
  5
35B
  8
DATA
 62
     7
 10
257.78568565861337
 20
740.27222222222224
 30
0.0
 40
3.84765625
  1
B
 50
180.0
 41
0.7
 11
257.78568565861337
 21
736.42456597222224
 31
0.0
 73
     3
  0
TEXT
  5
35C
  8
DATA
 62
     7
 10
283.68568565861329
 20
740.27222222222224
 30
0.0
 40
3.84765625
  1
B
 50
180.0
 41
0.7
 11
283.68568565861329
 21
736.42456597222224
 31
0.0
 73
     3
  0
TEXT
  5
35D
  8
DATA
 62
     7
 10
309.58568565861339
 20
740.27222222222224
 30
0.0
 40
3.84765625
  1
B
 50
180.0
 41
0.7
 11
309.58568565861339
 21
736.42456597222224
 31
0.0
 73
     3
  0
TEXT
  5
35E
  8
DATA
 62
     7
 10
418.5694444792137
 20
739.07729166666684
 30
0.0
 40
2.7147352430555549
  1
INPUT:1A MON/5A MAX
 50
180.0
 41
0.7
 11
418.5694444792137
 21
736.36255642361118
 31
0.0
 73
     3
  0
TEXT
  5
35F
  8
DATA
 62
     7
 10
418.5694444792137
 20
742.09291666666684
 30
0.0
 40
2.7147352430555549
  1
100-240V～50/60Hz
 50
180.0
 41
0.7
 11
418.5694444792137
 21
739.37818142361118
 31
0.0
 73
     3
  0
TEXT
  5
360
  8
DATA
 62
     7
 10
382.5694444792137
 20
739.09291666666684
 30
0.0
 40
2.7147352430555549
  1
OUTPUT:MAX 4A UNSW.
 50
180.0
 41
0.7
 11
382.5694444792137
 21
736.37818142361118
 31
0.0
 73
     3
  0
TEXT
  5
361
  8
DATA
 62
     7
 10
382.5694444792137
 20
742.09291666666684
 30
0.0
 40
2.7147352430555549
  1
100-240V～50/60Hz
 50
180.0
 41
0.7
 11
382.5694444792137
 21
739.37818142361118
 31
0.0
 73
     3
  0
LINE
  5
362
  8
DATA
  6
CONTINUOUS
 62
     7
 10
36.75
 20
703.00000000000011
 30
0.0
 11
39.75
 21
703.00000000000011
 31
0.0
  0
LINE
  5
363
  8
DATA
  6
CONTINUOUS
 62
     7
 10
36.75
 20
740.50000000000011
 30
0.0
 11
39.75
 21
740.50000000000011
 31
0.0
  0
LINE
  5
364
  8
DATA
  6
CONTINUOUS
 62
     7
 10
445.75
 20
703.00000000000011
 30
0.0
 11
442.75
 21
703.00000000000011
 31
0.0
  0
LINE
  5
365
  8
DATA
  6
CONTINUOUS
 62
     7
 10
445.75
 20
740.50000000000011
 30
0.0
 11
442.75
 21
740.50000000000011
 31
0.0
  0
LINE
  5
366
  8
DATA
  6
CONTINUOUS
 62
     7
 10
36.75
 20
727.50000000000011
 30
0.0
 11
36.75
 21
721.50000000000011
 31
0.0
  0
LINE
  5
367
  8
DATA
  6
CONTINUOUS
 62
     7
 10
36.75
 20
727.50000000000011
 30
0.0
 11
35.75
 21
727.50000000000011
 31
0.0
  0
LINE
  5
368
  8
DATA
  6
CONTINUOUS
 62
     7
 10
36.75
 20
721.50000000000011
 30
0.0
 11
35.75
 21
721.50000000000011
 31
0.0
  0
LINE
  5
369
  8
DATA
  6
CONTINUOUS
 62
     7
 10
34.75
 20
726.50000000000011
 30
0.0
 11
34.75
 21
722.50000000000011
 31
0.0
  0
ARC
  5
36A
  8
DATA
  6
CONTINUOUS
 62
     7
 10
35.75
 20
726.50000000000011
 30
0.0
 40
1.0
 50
90.0
 51
180.0
  0
ARC
  5
36B
  8
DATA
  6
CONTINUOUS
 62
     7
 10
35.75
 20
722.50000000000011
 30
0.0
 40
1.0
 50
180.0
 51
270.0
  0
LINE
  5
36C
  8
DATA
  6
CONTINUOUS
 62
     7
 10
445.75
 20
727.50000000000011
 30
0.0
 11
445.75
 21
721.50000000000011
 31
0.0
  0
LINE
  5
36D
  8
DATA
  6
CONTINUOUS
 62
     7
 10
445.75
 20
727.50000000000011
 30
0.0
 11
446.75
 21
727.50000000000011
 31
0.0
  0
LINE
  5
36E
  8
DATA
  6
CONTINUOUS
 62
     7
 10
445.75
 20
721.50000000000011
 30
0.0
 11
446.75
 21
721.50000000000011
 31
0.0
  0
LINE
  5
36F
  8
DATA
  6
CONTINUOUS
 62
     7
 10
447.75
 20
726.50000000000011
 30
0.0
 11
447.75
 21
722.50000000000011
 31
0.0
  0
ARC
  5
370
  8
DATA
  6
CONTINUOUS
 62
     7
 10
446.75
 20
726.50000000000011
 30
0.0
 40
1.0
 50
0.0
 51
90.0
  0
ARC
  5
371
  8
DATA
  6
CONTINUOUS
 62
     7
 10
446.75
 20
722.50000000000011
 30
0.0
 40
1.0
 50
270.0
 51
0.0
  0
LINE
  5
372
  8
DATA
  6
CONTINUOUS
 62
     7
 10
0.0
 20
700.0
 30
0.0
 11
0.0
 21
703.00000000000011
 31
0.0
  0
LINE
  5
373
  8
DATA
  6
CONTINUOUS
 62
     7
 10
0.0
 20
703.00000000000011
 30
0.0
 11
3.0
 21
700.0
 31
0.0
  0
LINE
  5
374
  8
DATA
  6
CONTINUOUS
 62
     7
 10
0.0
 20
740.50000000000011
 30
0.0
 11
3.0
 21
743.50000000000011
 31
0.0
  0
LINE
  5
375
  8
DATA
  6
CONTINUOUS
 62
     7
 10
482.5
 20
700.0
 30
0.0
 11
482.5
 21
743.50000000000011
 31
0.0
  0
ARC
  5
376
  8
DATA
  6
CONTINUOUS
 62
     7
 10
476.0
 20
705.75
 30
0.0
 40
3.499999999999972
 50
270.0
 51
90.0
  0
ARC
  5
377
  8
DATA
  6
CONTINUOUS
 62
     7
 10
473.0
 20
705.75
 30
0.0
 40
3.500000000000056
 50
90.0
 51
270.0
  0
LINE
  5
378
  8
DATA
  6
CONTINUOUS
 62
     7
 10
476.0
 20
709.25000000000011
 30
0.0
 11
473.0
 21
709.25000000000011
 31
0.0
  0
LINE
  5
379
  8
DATA
  6
CONTINUOUS
 62
     7
 10
476.0
 20
702.25
 30
0.0
 11
473.0
 21
702.25
 31
0.0
  0
ARC
  5
37A
  8
DATA
  6
CONTINUOUS
 62
     7
 10
476.0
 20
737.75000000000011
 30
0.0
 40
3.500000000000056
 50
270.0
 51
90.0
  0
ARC
  5
37B
  8
DATA
  6
CONTINUOUS
 62
     7
 10
473.0
 20
737.75000000000011
 30
0.0
 40
3.5
 50
90.0
 51
270.0
  0
LINE
  5
37C
  8
DATA
  6
CONTINUOUS
 62
     7
 10
476.0
 20
734.25
 30
0.0
 11
473.0
 21
734.25
 31
0.0
  0
LINE
  5
37D
  8
DATA
  6
CONTINUOUS
 62
     7
 10
476.0
 20
741.25000000000011
 30
0.0
 11
473.0
 21
741.25000000000011
 31
0.0
  0
ARC
  5
37E
  8
DATA
  6
CONTINUOUS
 62
     7
 10
455.0
 20
721.75000000000011
 30
0.0
 40
6.5000000000000204
 50
297.79577249604881
 51
242.2042275039509
  0
LINE
  5
37F
  8
DATA
  6
CONTINUOUS
 62
     7
 10
458.03108891324831
 20
716.00000000000011
 30
0.0
 11
451.9689110867518
 21
716.00000000000011
 31
0.0
  0
LINE
  5
380
  8
DATA
  6
CONTINUOUS
 62
     7
 10
459.0
 20
729.50000000000011
 30
0.0
 11
451.0
 21
729.50000000000011
 31
0.0
  0
LINE
  5
381
  8
DATA
  6
CONTINUOUS
 62
     7
 10
459.0
 20
729.50000000000011
 30
0.0
 11
459.0
 21
726.87347538298025
 31
0.0
  0
LINE
  5
382
  8
DATA
  6
CONTINUOUS
 62
     7
 10
459.0
 20
716.62652461701998
 30
0.0
 11
459.0
 21
714.00000000000011
 31
0.0
  0
LINE
  5
383
  8
DATA
  6
CONTINUOUS
 62
     7
 10
459.0
 20
714.00000000000011
 30
0.0
 11
451.0
 21
714.00000000000011
 31
0.0
  0
LINE
  5
384
  8
DATA
  6
CONTINUOUS
 62
     7
 10
451.0
 20
714.00000000000011
 30
0.0
 11
451.0
 21
716.62652461701998
 31
0.0
  0
LINE
  5
385
  8
DATA
  6
CONTINUOUS
 62
     7
 10
451.0
 20
726.87347538298025
 30
0.0
 11
451.0
 21
729.50000000000011
 31
0.0
  0
LINE
  5
386
  8
DATA
  6
CONTINUOUS
 62
     7
 10
482.5
 20
700.0
 30
0.0
 11
482.5
 21
703.00000000000011
 31
0.0
  0
LINE
  5
387
  8
DATA
  6
CONTINUOUS
 62
     7
 10
482.5
 20
703.00000000000011
 30
0.0
 11
479.49999999999989
 21
700.0
 31
0.0
  0
LINE
  5
388
  8
DATA
  6
CONTINUOUS
 62
     7
 10
482.5
 20
740.50000000000011
 30
0.0
 11
479.49999999999989
 21
743.50000000000011
 31
0.0
  0
LINE
  5
389
  8
DATA
  6
CONTINUOUS
 62
     7
 10
882.24999999999989
 20
38.0
 30
0.0
 11
880.75
 21
38.0
 31
0.0
  0
LINE
  5
38A
  8
DATA
  6
CONTINUOUS
 62
     7
 10
882.24999999999989
 20
8.0
 30
0.0
 11
880.75
 21
8.0
 31
0.0
  0
LINE
  5
38B
  8
DATA
  6
CONTINUOUS
 62
     7
 10
882.24999999999989
 20
38.0
 30
0.0
 11
882.24999999999989
 21
8.0
 31
0.0
  0
LINE
  5
38C
  8
DATA
  6
CONTINUOUS
 62
     7
 10
893.25
 20
17.849999999999799
 30
0.0
 11
893.25
 21
8.1500000000002046
 31
0.0
  0
LINE
  5
38D
  8
DATA
  6
CONTINUOUS
 62
     7
 10
893.25
 20
8.1500000000002046
 30
0.0
 11
882.24999999999989
 21
8.1500000000002046
 31
0.0
  0
LINE
  5
38E
  8
DATA
  6
CONTINUOUS
 62
     7
 10
893.25
 20
17.849999999999799
 30
0.0
 11
882.24999999999989
 21
17.849999999999799
 31
0.0
  0
LINE
  5
38F
  8
DATA
  6
CONTINUOUS
 62
     7
 10
890.24999999999989
 20
18.549999999999951
 30
0.0
 11
888.25
 21
18.549999999999951
 31
0.0
  0
LINE
  5
390
  8
DATA
  6
CONTINUOUS
 62
     7
 10
888.25
 20
18.549999999999951
 30
0.0
 11
888.25
 21
17.849999999999799
 31
0.0
  0
LINE
  5
391
  8
DATA
  6
CONTINUOUS
 62
     7
 10
890.24999999999989
 20
18.549999999999951
 30
0.0
 11
890.24999999999989
 21
17.849999999999799
 31
0.0
  0
LINE
  5
392
  8
DATA
  6
CONTINUOUS
 62
     7
 10
890.24999999999989
 20
7.4500000000000437
 30
0.0
 11
888.25
 21
7.4500000000000437
 31
0.0
  0
LINE
  5
393
  8
DATA
  6
CONTINUOUS
 62
     7
 10
888.25
 20
7.4500000000000437
 30
0.0
 11
888.25
 21
8.1500000000002046
 31
0.0
  0
LINE
  5
394
  8
DATA
  6
CONTINUOUS
 62
     7
 10
890.24999999999989
 20
7.4500000000000437
 30
0.0
 11
890.24999999999989
 21
8.1500000000002046
 31
0.0
  0
LINE
  5
395
  8
DATA
  6
CONTINUOUS
 62
     7
 10
885.74999999999989
 20
32.0
 30
0.0
 11
882.24999999999989
 21
32.0
 31
0.0
  0
LINE
  5
396
  8
DATA
  6
CONTINUOUS
 62
     7
 10
885.74999999999989
 20
24.0
 30
0.0
 11
882.24999999999989
 21
24.0
 31
0.0
  0
LINE
  5
397
  8
DATA
  6
CONTINUOUS
 62
     7
 10
885.74999999999989
 20
32.0
 30
0.0
 11
885.74999999999989
 21
24.0
 31
0.0
  0
LINE
  5
398
  8
DATA
  6
CONTINUOUS
 62
     7
 10
885.74999999999989
 20
24.0
 30
0.0
 11
884.75
 21
32.0
 31
0.0
  0
LINE
  5
399
  8
DATA
  6
CONTINUOUS
 62
     7
 10
884.75
 20
24.0
 30
0.0
 11
883.75
 21
32.0
 31
0.0
  0
LINE
  5
39A
  8
DATA
  6
CONTINUOUS
 62
     7
 10
883.75
 20
24.0
 30
0.0
 11
882.75
 21
32.0
 31
0.0
  0
LINE
  5
39B
  8
DATA
  6
CONTINUOUS
 62
     7
 10
882.75
 20
24.0
 30
0.0
 11
882.24999999999989
 21
28.000000000000451
 31
0.0
  0
LINE
  5
39C
  8
DATA
  6
CONTINUOUS
 62
     7
 10
579.75
 20
36.750000000000107
 30
0.0
 11
586.74999999999989
 21
36.750000000000107
 31
0.0
  0
LINE
  5
39D
  8
DATA
  6
CONTINUOUS
 62
     7
 10
579.75
 20
6.7500000000001128
 30
0.0
 11
586.74999999999989
 21
6.7500000000001128
 31
0.0
  0
LINE
  5
39E
  8
DATA
  6
CONTINUOUS
 62
     7
 10
579.75
 20
36.750000000000107
 30
0.0
 11
579.75
 21
6.7500000000001128
 31
0.0
  0
ENDSEC
  0
EOF
