  0
SECTION
  2
HEADER
  9
$ACADVER
  1
AC1009
  9
$INSBASE
 10
0.0
 20
0.0
 30
0.0
  9
$EXTMIN
 10
9.9963383446405487
 20
2.381287252508741
 30
-0.0015258207003583
  9
$EXTMAX
 10
190.00579878222879
 20
270.00824037474621
 30
0.0000000349246037
  9
$LIMMIN
 10
0.0
 20
0.0
  9
$LIMMAX
 10
0.0
 20
0.0
  9
$ORTHOMODE
 70
     0
  9
$REGENMODE
 70
     1
  9
$FILLMODE
 70
     1
  9
$QTEXTMODE
 70
     0
  9
$MIRRTEXT
 70
     1
  9
$DRAGMODE
 70
     2
  9
$LTSCALE
 40
5.0800000000000001
  9
$OSMODE
 70
   231
  9
$ATTMODE
 70
     1
  9
$TEXTSIZE
 40
0.0
  9
$TRACEWID
 40
1.0
  9
$TEXTSTYLE
  7
STANDARD
  9
$CLAYER
  8
DATA
  9
$CELTYPE
  6
BYLAYER
  9
$CECOLOR
 62
   256
  9
$DIMSCALE
 40
1.0
  9
$DIMASZ
 40
0.18
  9
$DIMEXO
 40
0.0625
  9
$DIMDLI
 40
0.38
  9
$DIMRND
 40
0.0
  9
$DIMDLE
 40
0.0
  9
$DIMEXE
 40
0.18
  9
$DIMTP
 40
0.0
  9
$DIMTM
 40
0.0
  9
$DIMTXT
 40
0.18
  9
$DIMCEN
 40
0.09
  9
$DIMTSZ
 40
0.0
  9
$DIMTOL
 70
     0
  9
$DIMLIM
 70
     0
  9
$DIMTIH
 70
     1
  9
$DIMTOH
 70
     1
  9
$DIMSE1
 70
     0
  9
$DIMSE2
 70
     0
  9
$DIMTAD
 70
     0
  9
$DIMZIN
 70
     0
  9
$DIMBLK
  1

  9
$DIMASO
 70
     1
  9
$DIMSHO
 70
     1
  9
$DIMPOST
  1

  9
$DIMAPOST
  1

  9
$DIMALT
 70
     0
  9
$DIMALTD
 70
     2
  9
$DIMALTF
 40
25.399999999999999
  9
$DIMLFAC
 40
1.0
  9
$DIMTOFL
 70
     0
  9
$DIMTVP
 40
0.0
  9
$DIMTIX
 70
     0
  9
$DIMSOXD
 70
     0
  9
$DIMSAH
 70
     0
  9
$DIMBLK1
  1

  9
$DIMBLK2
  1

  9
$DIMSTYLE
  2
STANDARD
  9
$DIMCLRD
 70
     0
  9
$DIMCLRE
 70
     0
  9
$DIMCLRT
 70
     0
  9
$DIMTFAC
 40
1.0
  9
$DIMGAP
 40
0.09
  9
$LUNITS
 70
     2
  9
$LUPREC
 70
     4
  9
$SKETCHINC
 40
0.1
  9
$FILLETRAD
 40
0.0
  9
$AUNITS
 70
     0
  9
$AUPREC
 70
     0
  9
$MENU
  1
acad
  9
$ELEVATION
 40
0.0
  9
$PELEVATION
 40
0.0
  9
$THICKNESS
 40
0.0
  9
$LIMCHECK
 70
     0
  9
$BLIPMODE
 70
     0
  9
$CHAMFERA
 40
0.0
  9
$CHAMFERB
 40
0.0
  9
$SKPOLY
 70
     0
  9
$TDCREATE
 40
2455223.8139583329
  9
$TDUPDATE
 40
2455223.815192604
  9
$TDINDWG
 40
0.0004297917
  9
$TDUSRTIMER
 40
0.0004263542
  9
$USRTIMER
 70
     1
  9
$ANGBASE
 50
0.0
  9
$ANGDIR
 70
     0
  9
$PDMODE
 70
     1
  9
$PDSIZE
 40
-2.0
  9
$PLINEWID
 40
0.0
  9
$COORDS
 70
     0
  9
$SPLFRAME
 70
     0
  9
$SPLINETYPE
 70
     6
  9
$SPLINESEGS
 70
     8
  9
$ATTDIA
 70
     0
  9
$ATTREQ
 70
     1
  9
$HANDLING
 70
     1
  9
$HANDSEED
  5
1D0
  9
$SURFTAB1
 70
     6
  9
$SURFTAB2
 70
     6
  9
$SURFTYPE
 70
     6
  9
$SURFU
 70
     6
  9
$SURFV
 70
     6
  9
$UCSNAME
  2

  9
$UCSORG
 10
0.0
 20
0.0
 30
0.0
  9
$UCSXDIR
 10
1.0
 20
0.0
 30
0.0
  9
$UCSYDIR
 10
0.0
 20
1.0
 30
0.0
  9
$PUCSNAME
  2

  9
$PUCSORG
 10
0.0
 20
0.0
 30
0.0
  9
$PUCSXDIR
 10
1.0
 20
0.0
 30
0.0
  9
$PUCSYDIR
 10
0.0
 20
1.0
 30
0.0
  9
$USERI1
 70
     0
  9
$USERI2
 70
     0
  9
$USERI3
 70
     0
  9
$USERI4
 70
     0
  9
$USERI5
 70
     0
  9
$USERR1
 40
0.0
  9
$USERR2
 40
0.0
  9
$USERR3
 40
0.0
  9
$USERR4
 40
0.0
  9
$USERR5
 40
0.0
  9
$WORLDVIEW
 70
     1
  9
$SHADEDGE
 70
     3
  9
$SHADEDIF
 70
    70
  9
$TILEMODE
 70
     1
  9
$MAXACTVP
 70
    64
  9
$PLIMCHECK
 70
     0
  9
$PEXTMIN
 10
1.0000000000000000E+020
 20
1.0000000000000000E+020
 30
1.0000000000000000E+020
  9
$PEXTMAX
 10
-1.0000000000000000E+020
 20
-1.0000000000000000E+020
 30
-1.0000000000000000E+020
  9
$PLIMMIN
 10
0.0
 20
0.0
  9
$PLIMMAX
 10
12.0
 20
9.0
  9
$UNITMODE
 70
     0
  9
$VISRETAIN
 70
     0
  9
$PLINEGEN
 70
     1
  9
$PSLTSCALE
 70
     0
  0
ENDSEC
  0
SECTION
  2
TABLES
  0
TABLE
  2
VPORT
 70
     1
  0
VPORT
  2
*ACTIVE
 70
     0
 10
0.0
 20
0.0
 11
1.0
 21
1.0
 12
100.0010685634346
 22
136.19476381362739
 13
0.0
 23
0.0
 14
1.0
 24
1.0
 15
0.0
 25
0.0
 16
0.0
 26
0.0
 36
1.0
 17
0.0
 27
0.0
 37
0.0
 40
269.59963336638168
 41
1.9643296432964319
 42
50.0
 43
0.0
 44
0.0
 50
0.0
 51
0.0
 71
     0
 72
  2000
 73
     1
 74
     1
 75
     0
 76
     0
 77
     0
 78
     0
  0
ENDTAB
  0
TABLE
  2
LTYPE
 70
    11
  0
LTYPE
  2
CONTINUOUS
 70
     0
  3
Solid line
 72
    65
 73
     0
 40
0.0
  0
ENDTAB
  0
TABLE
  2
LAYER
 70
     5
  0
LAYER
  2
0
 70
     0
 62
     7
  6
CONTINUOUS
  0
LAYER
  2
DATA
 70
     0
 62
     7
  6
CONTINUOUS
  0
LAYER
  2
HIBINO-BASE
 70
     0
 62
     7
  6
CONTINUOUS
  0
LAYER
  2
SPEC
 70
     0
 62
     7
  6
CONTINUOUS
  0
LAYER
  2
DIMNSIONS
 70
     0
 62
     7
  6
CONTINUOUS
  0
ENDTAB
  0
TABLE
  2
STYLE
 70
     3
  0
STYLE
  2
STANDARD
 70
     0
 40
0.0
 41
1.0
 50
0.0
 71
     0
 42
0.0
  3
txt
  4
BIGFONT.SHX
  0
ENDTAB
  0
TABLE
  2
VIEW
 70
     0
  0
ENDTAB
  0
TABLE
  2
UCS
 70
     0
  0
ENDTAB
  0
TABLE
  2
APPID
 70
     3
  0
APPID
  2
ACAD
 70
     0
  0
APPID
  2
ACADANNOTATIVE
 70
     0
  0
APPID
  2
ACAD_MLEADERVER
 70
     0
  0
ENDTAB
  0
TABLE
  2
DIMSTYLE
 70
     2
  0
DIMSTYLE
  2
STANDARD
 70
     0
  3

  4

  5

  6

  7

 40
1.0
 41
0.18
 42
0.0625
 43
0.38
 44
0.18
 45
0.0
 46
0.0
 47
0.0
 48
0.0
140
0.18
141
0.09
142
0.0
143
25.399999999999999
144
1.0
145
0.0
146
1.0
147
0.09
 71
     0
 72
     0
 73
     1
 74
     1
 75
     0
 76
     0
 77
     0
 78
     0
170
     0
171
     2
172
     0
173
     0
174
     0
175
     0
176
     0
177
     0
178
     0
  0
ENDTAB
  0
ENDSEC
  0
SECTION
  2
BLOCKS
  0
BLOCK
  8
0
  2
$MODEL_SPACE
 70
     0
 10
0.0
 20
0.0
 30
0.0
  3
$MODEL_SPACE
  1

  0
ENDBLK
  5
167
  8
0
  0
BLOCK
 67
     1
  8
0
  2
$PAPER_SPACE
 70
     0
 10
0.0
 20
0.0
 30
0.0
  3
$PAPER_SPACE
  1

  0
ENDBLK
  5
163
 67
     1
  8
0
  0
ENDSEC
  0
SECTION
  2
ENTITIES
  0
LINE
  5
2C
  8
HIBINO-BASE
  6
CONTINUOUS
 62
     7
 10
10.0
 20
270.0
 30
0.0
 11
190.0
 21
270.0
 31
0.0
  0
LINE
  5
2D
  8
HIBINO-BASE
  6
CONTINUOUS
 62
     7
 10
190.0
 20
10.0
 30
0.0
 11
10.0
 21
10.0
 31
0.0
  0
LINE
  5
2E
  8
HIBINO-BASE
  6
CONTINUOUS
 62
     7
 10
10.0
 20
10.0
 30
0.0
 11
10.0
 21
270.0
 31
0.0
  0
LINE
  5
2F
  8
HIBINO-BASE
  6
CONTINUOUS
 62
     7
 10
190.0
 20
270.0
 30
0.0
 11
190.0
 21
10.0
 31
0.0
  0
LINE
  5
30
  8
HIBINO-BASE
  6
CONTINUOUS
 62
     7
 10
100.0
 20
32.500000000000007
 30
0.0
 11
190.0
 21
32.500000000000007
 31
0.0
  0
LINE
  5
31
  8
HIBINO-BASE
  6
CONTINUOUS
 62
     7
 10
100.0
 20
10.0
 30
0.0
 11
100.0
 21
32.500000000000007
 31
0.0
  0
TEXT
  5
32
  8
HIBINO-BASE
 62
     7
 10
100.90000000000001
 20
29.991306666666681
 30
0.0
 40
1.6288411458333329
  1
NOTE
 41
0.7
 11
100.90000000000001
 21
31.620147812500011
 31
0.0
 73
     3
  0
LINE
  5
33
  8
HIBINO-BASE
  6
CONTINUOUS
 62
     7
 10
135.0
 20
10.0
 30
0.0
 11
135.0
 21
32.500000000000007
 31
0.0
  0
TEXT
  5
34
  8
HIBINO-BASE
 62
     7
 10
135.89999999999989
 20
29.991306666666681
 30
0.0
 40
1.6288411458333329
  1
TITLE
 41
0.7
 11
135.89999999999989
 21
31.620147812500011
 31
0.0
 73
     3
  0
LINE
  5
35
  8
HIBINO-BASE
  6
CONTINUOUS
 62
     7
 10
100.0
 20
20.000000000000011
 30
0.0
 11
190.0
 21
20.000000000000011
 31
0.0
  0
TEXT
  5
36
  8
HIBINO-BASE
 62
     7
 10
148.39999999999989
 20
17.54762666666667
 30
0.0
 40
1.6288411458333329
  1
DRAWN
 41
0.7
 11
148.39999999999989
 21
19.176467812500011
 31
0.0
 73
     3
  0
TEXT
  5
37
  8
HIBINO-BASE
 62
     7
 10
123.39999999999991
 20
17.54762666666667
 30
0.0
 40
1.6288411458333329
  1
DATE
 41
0.7
 11
123.39999999999991
 21
19.176467812500011
 31
0.0
 73
     3
  0
TEXT
  5
38
  8
HIBINO-BASE
 62
     7
 10
113.40000000000001
 20
17.54762666666667
 30
0.0
 40
1.6288411458333329
  1
SCALE
 41
0.7
 11
113.40000000000001
 21
19.176467812500011
 31
0.0
 73
     3
  0
TEXT
  5
39
  8
HIBINO-BASE
 62
     7
 10
135.89999999999989
 20
17.54762666666667
 30
0.0
 40
1.6288411458333329
  1
DESIGN
 41
0.7
 11
135.89999999999989
 21
19.176467812500011
 31
0.0
 73
     3
  0
TEXT
  5
3A
  8
HIBINO-BASE
 62
     7
 10
173.39999999999989
 20
17.54762666666667
 30
0.0
 40
1.6288411458333329
  1
DRAWING NO.
 41
0.7
 11
173.39999999999989
 21
19.176467812500011
 31
0.0
 73
     3
  0
TEXT
  5
3B
  8
HIBINO-BASE
 62
     7
 10
160.89999999999989
 20
17.54762666666667
 30
0.0
 40
1.6288411458333329
  1
CHECK
 41
0.7
 11
160.89999999999989
 21
19.176467812500011
 31
0.0
 73
     3
  0
LINE
  5
3C
  8
HIBINO-BASE
  6
CONTINUOUS
 62
     7
 10
114.375
 20
11.25
 30
0.0
 11
118.125
 21
15.000000000000011
 31
0.0
  0
TEXT
  5
3D
  8
HIBINO-BASE
 62
     7
 10
113.75
 20
13.891056666666669
 30
0.0
 40
1.6288411458333329
  1
1
 41
0.7
 11
113.75
 21
15.5198978125
 31
0.0
 73
     3
  0
LINE
  5
3E
  8
HIBINO-BASE
  6
CONTINUOUS
 62
     7
 10
112.5
 20
10.0
 30
0.0
 11
112.5
 21
20.000000000000011
 31
0.0
  0
LINE
  5
3F
  8
HIBINO-BASE
  6
CONTINUOUS
 62
     7
 10
122.5
 20
10.0
 30
0.0
 11
122.5
 21
20.000000000000011
 31
0.0
  0
LINE
  5
40
  8
HIBINO-BASE
  6
CONTINUOUS
 62
     7
 10
147.49999999999989
 20
20.000000000000011
 30
0.0
 11
147.49999999999989
 21
10.0
 31
0.0
  0
LINE
  5
41
  8
HIBINO-BASE
  6
CONTINUOUS
 62
     7
 10
172.5
 20
20.000000000000011
 30
0.0
 11
172.5
 21
10.0
 31
0.0
  0
LINE
  5
42
  8
HIBINO-BASE
  6
CONTINUOUS
 62
     7
 10
159.99999999999989
 20
10.0
 30
0.0
 11
159.99999999999989
 21
20.000000000000011
 31
0.0
  0
TEXT
  5
43
  8
HIBINO-BASE
 62
     7
 10
123.35654
 20
12.86364666666667
 30
0.0
 40
1.6288411458333329
  1
'10.01.
 41
0.7
 11
123.35654
 21
14.4924878125
 31
0.0
 73
     3
  0
TEXT
  5
44
  8
HIBINO-BASE
 62
     7
 10
117.5
 20
12.016056666666669
 30
0.0
 40
1.6288411458333329
  1
1
 41
0.7
 11
117.5
 21
13.6448978125
 31
0.0
 73
     3
  0
TEXT
  5
45
  8
HIBINO-BASE
 62
     7
 10
149.00581001103461
 20
12.86364666666667
 30
0.0
 40
1.6288411458333329
  1
N.Sasaki
 41
0.7
 11
149.00581001103461
 21
14.4924878125
 31
0.0
 73
     3
  0
TEXT
  5
46
  8
HIBINO-BASE
 62
     7
 10
103.8833333333333
 20
11.97600000000001
 30
0.0
 40
3.2576822916666659
  1
A4
 41
0.7
 11
103.8833333333333
 21
15.23368229166668
 31
0.0
 73
     3
  0
TEXT
  5
47
  8
HIBINO-BASE
 62
     7
 10
100.9583333333333
 20
17.380545000000009
 30
0.0
 40
1.6288411458333329
  1
PAPER SIZE
 41
0.7
 11
100.9583333333333
 21
19.009386145833339
 31
0.0
 73
     3
  0
TEXT
  5
48
  8
HIBINO-BASE
 62
     7
 10
12.75963525689018
 20
3.5747597658237509
 30
0.0
 40
3.5291558159722221
  1
Hibino-Intersound Corporation
 41
0.7
 11
12.75963525689018
 21
7.1039155817959729
 31
0.0
 73
     3
  0
TEXT
  5
49
  8
HIBINO-BASE
 62
     7
 10
120.18060968021391
 20
3.9258480191131699
 30
0.0
 40
3.5291558159722221
  1
ヒビノインターサウンド株式会社
 41
0.7
 11
120.18060968021391
 21
7.4550038350853924
 31
0.0
 73
     3
  0
LINE
  5
4A
  8
SPEC
  6
CONTINUOUS
 62
     7
 10
17.5
 20
260.0
 30
0.0
 11
165.0
 21
260.0
 31
0.0
  0
LINE
  5
4B
  8
SPEC
  6
CONTINUOUS
 62
     7
 10
17.5
 20
256.25
 30
0.0
 11
165.0
 21
256.25
 31
0.0
  0
LINE
  5
4C
  8
SPEC
  6
CONTINUOUS
 62
     7
 10
17.5
 20
248.75
 30
0.0
 11
165.0
 21
248.75
 31
0.0
  0
LINE
  5
4D
  8
SPEC
  6
CONTINUOUS
 62
     7
 10
17.5
 20
252.5
 30
0.0
 11
165.0
 21
252.5
 31
0.0
  0
LINE
  5
4E
  8
SPEC
  6
CONTINUOUS
 62
     7
 10
17.5
 20
260.0
 30
0.0
 11
17.5
 21
248.75
 31
0.0
  0
TEXT
  5
4F
  8
SPEC
 62
     7
 10
18.75
 20
261.39326999999997
 30
0.0
 40
2.4432617187500001
  1
仕様
 41
0.7
 11
18.75
 21
263.83653171875
 31
0.0
 73
     3
  0
LINE
  5
50
  8
SPEC
  6
CONTINUOUS
 62
     7
 10
50.0
 20
260.0
 30
0.0
 11
50.0
 21
248.75
 31
0.0
  0
LINE
  5
51
  8
SPEC
  6
CONTINUOUS
 62
     7
 10
165.0
 20
260.0
 30
0.0
 11
165.0
 21
248.75
 31
0.0
  0
TEXT
  5
52
  8
SPEC
 62
     7
 10
18.395491028343969
 20
257.16690324173442
 30
0.0
 40
1.900314670138888
  1
外装色
 41
0.7
 11
18.395491028343969
 21
259.06721791187329
 31
0.0
 73
     3
  0
TEXT
  5
53
  8
SPEC
 62
     7
 10
18.28994963908319
 20
253.6374223599656
 30
0.0
 40
1.900314670138888
  1
寸法
 41
0.7
 11
18.28994963908319
 21
255.53773703010449
 31
0.0
 73
     3
  0
TEXT
  5
54
  8
SPEC
 62
     7
 10
18.34199488568861
 20
249.89116652629269
 30
0.0
 40
1.900314670138888
  1
重量
 41
0.7
 11
18.34199488568861
 21
251.79148119643159
 31
0.0
 73
     3
  0
TEXT
  5
55
  8
SPEC
 62
     7
 10
50.649958977332041
 20
253.43164163082321
 30
0.0
 40
1.900314670138888
  1
\U+03A637\U+00D722(H)mm(突起部含まず)
 41
0.7
 11
50.649958977332041
 21
255.3319563009621
 31
0.0
 73
     3
  0
TEXT
  5
56
  8
SPEC
 62
     7
 10
50.844148830688482
 20
249.82113248166539
 30
0.0
 40
1.900314670138888
  1
約22g
 41
0.7
 11
50.844148830688482
 21
251.72144715180431
 31
0.0
 73
     3
  0
TEXT
  5
57
  8
SPEC
 62
     7
 10
50.901379650959008
 20
257.19851847585983
 30
0.0
 40
1.900314670138888
  1
UAMS/SL：シャンパンゴールド、UAMS/BK：ブラック
 41
0.7
 11
50.901379650959008
 21
259.09883314599858
 31
0.0
 73
     3
  0
TEXT
  5
58
  8
DIMNSIONS
 62
     7
 10
79.999999999999986
 20
22.269490000000012
 30
0.0
 40
2.4432617187500001
  1
(単位：mm)
 41
0.7
 11
79.999999999999986
 21
24.71275171875001
 31
0.0
 73
     3
  0
LINE
  5
59
  8
DIMNSIONS
  6
CONTINUOUS
 62
     7
 10
48.25
 20
68.75
 30
0.0
 11
38.625
 21
68.75
 31
0.0
  0
LINE
  5
5A
  8
DIMNSIONS
  6
CONTINUOUS
 62
     7
 10
48.25
 20
84.549999999999983
 30
0.0
 11
38.625
 21
84.549999999999983
 31
0.0
  0
LINE
  5
5B
  8
DIMNSIONS
  6
CONTINUOUS
 62
     7
 10
40.625
 20
68.75
 30
0.0
 11
40.625
 21
84.549999999999983
 31
0.0
  0
LINE
  5
5C
  8
DIMNSIONS
  6
CONTINUOUS
 62
     7
 10
40.625
 20
68.75
 30
0.0
 11
39.954960204849762
 21
71.250622558593747
 31
0.0
  0
LINE
  5
5D
  8
DIMNSIONS
  6
CONTINUOUS
 62
     7
 10
40.625
 20
68.75
 30
0.0
 11
41.295039795150252
 21
71.250622558593747
 31
0.0
  0
LINE
  5
5E
  8
DIMNSIONS
  6
CONTINUOUS
 62
     7
 10
40.625
 20
84.549999999999983
 30
0.0
 11
41.295039795150252
 21
82.04937744140625
 31
0.0
  0
LINE
  5
5F
  8
DIMNSIONS
  6
CONTINUOUS
 62
     7
 10
40.625
 20
84.549999999999983
 30
0.0
 11
39.954960204849762
 21
82.04937744140625
 31
0.0
  0
TEXT
  5
60
  8
DIMNSIONS
 62
     7
 10
39.631111111111117
 20
73.12222222222222
 30
0.0
 40
2.7147352430555549
  1
15.8
 50
90.0
 41
0.7
 11
36.91637586805556
 21
73.12222222222222
 31
0.0
 73
     3
  0
LINE
  5
61
  8
DIMNSIONS
  6
CONTINUOUS
 62
     7
 10
48.25
 20
68.75
 30
0.0
 11
32.375
 21
68.75
 31
0.0
  0
LINE
  5
62
  8
DIMNSIONS
  6
CONTINUOUS
 62
     7
 10
48.25
 20
85.34999999999998
 30
0.0
 11
32.375
 21
85.34999999999998
 31
0.0
  0
LINE
  5
63
  8
DIMNSIONS
  6
CONTINUOUS
 62
     7
 10
34.375
 20
68.75
 30
0.0
 11
34.375
 21
85.34999999999998
 31
0.0
  0
LINE
  5
64
  8
DIMNSIONS
  6
CONTINUOUS
 62
     7
 10
34.375
 20
68.75
 30
0.0
 11
33.704960204849762
 21
71.250622558593747
 31
0.0
  0
LINE
  5
65
  8
DIMNSIONS
  6
CONTINUOUS
 62
     7
 10
34.375
 20
68.75
 30
0.0
 11
35.045039795150252
 21
71.250622558593747
 31
0.0
  0
LINE
  5
66
  8
DIMNSIONS
  6
CONTINUOUS
 62
     7
 10
34.375
 20
85.34999999999998
 30
0.0
 11
35.045039795150252
 21
82.849377441406276
 31
0.0
  0
LINE
  5
67
  8
DIMNSIONS
  6
CONTINUOUS
 62
     7
 10
34.375
 20
85.34999999999998
 30
0.0
 11
33.704960204849762
 21
82.849377441406276
 31
0.0
  0
TEXT
  5
68
  8
DIMNSIONS
 62
     7
 10
33.381111111111132
 20
73.522222222222226
 30
0.0
 40
2.7147352430555549
  1
16.6
 50
90.0
 41
0.7
 11
30.666375868055571
 21
73.522222222222226
 31
0.0
 73
     3
  0
LINE
  5
69
  8
DIMNSIONS
  6
CONTINUOUS
 62
     7
 10
48.25
 20
68.75
 30
0.0
 11
26.125
 21
68.75
 31
0.0
  0
LINE
  5
6A
  8
DIMNSIONS
  6
CONTINUOUS
 62
     7
 10
48.25
 20
90.750000000000014
 30
0.0
 11
26.125
 21
90.750000000000014
 31
0.0
  0
LINE
  5
6B
  8
DIMNSIONS
  6
CONTINUOUS
 62
     7
 10
28.125
 20
68.75
 30
0.0
 11
28.125
 21
90.750000000000014
 31
0.0
  0
LINE
  5
6C
  8
DIMNSIONS
  6
CONTINUOUS
 62
     7
 10
28.125
 20
68.75
 30
0.0
 11
27.454960204849758
 21
71.250622558593747
 31
0.0
  0
LINE
  5
6D
  8
DIMNSIONS
  6
CONTINUOUS
 62
     7
 10
28.125
 20
68.75
 30
0.0
 11
28.795039795150249
 21
71.250622558593747
 31
0.0
  0
LINE
  5
6E
  8
DIMNSIONS
  6
CONTINUOUS
 62
     7
 10
28.125
 20
90.750000000000014
 30
0.0
 11
28.795039795150249
 21
88.249377441406267
 31
0.0
  0
LINE
  5
6F
  8
DIMNSIONS
  6
CONTINUOUS
 62
     7
 10
28.125
 20
90.750000000000014
 30
0.0
 11
27.454960204849758
 21
88.249377441406267
 31
0.0
  0
TEXT
  5
70
  8
DIMNSIONS
 62
     7
 10
27.131111111111132
 20
77.9861111111111
 30
0.0
 40
2.7147352430555549
  1
22
 50
90.0
 41
0.7
 11
24.416375868055571
 21
77.9861111111111
 31
0.0
 73
     3
  0
LINE
  5
71
  8
DIMNSIONS
  6
CONTINUOUS
 62
     7
 10
52.960000000000008
 20
92.75
 30
0.0
 11
52.960000000000008
 21
102.0
 31
0.0
  0
LINE
  5
72
  8
DIMNSIONS
  6
CONTINUOUS
 62
     7
 10
84.540000000000006
 20
92.75
 30
0.0
 11
84.540000000000006
 21
102.0
 31
0.0
  0
LINE
  5
73
  8
DIMNSIONS
  6
CONTINUOUS
 62
     7
 10
52.960000000000008
 20
100.0
 30
0.0
 11
84.540000000000006
 21
100.0
 31
0.0
  0
LINE
  5
74
  8
DIMNSIONS
  6
CONTINUOUS
 62
     7
 10
52.960000000000008
 20
100.0
 30
0.0
 11
55.460622558593762
 21
100.6700397951502
 31
0.0
  0
LINE
  5
75
  8
DIMNSIONS
  6
CONTINUOUS
 62
     7
 10
52.960000000000008
 20
100.0
 30
0.0
 11
55.460622558593762
 21
99.329960204849755
 31
0.0
  0
LINE
  5
76
  8
DIMNSIONS
  6
CONTINUOUS
 62
     7
 10
84.540000000000006
 20
100.0
 30
0.0
 11
82.039377441406273
 21
99.329960204849755
 31
0.0
  0
LINE
  5
77
  8
DIMNSIONS
  6
CONTINUOUS
 62
     7
 10
84.540000000000006
 20
100.0
 30
0.0
 11
82.039377441406273
 21
100.6700397951502
 31
0.0
  0
TEXT
  5
78
  8
DIMNSIONS
 62
     7
 10
65.222222222222229
 20
100.9938888888889
 30
0.0
 40
2.7147352430555549
  1
31.6
 41
0.7
 11
65.222222222222229
 21
103.7086241319444
 31
0.0
 73
     3
  0
LINE
  5
79
  8
DIMNSIONS
  6
CONTINUOUS
 62
     7
 10
51.414999999999992
 20
87.349999999999966
 30
0.0
 11
51.414999999999992
 21
108.25
 31
0.0
  0
LINE
  5
7A
  8
DIMNSIONS
  6
CONTINUOUS
 62
     7
 10
86.084999999999965
 20
87.349999999999966
 30
0.0
 11
86.084999999999965
 21
108.25
 31
0.0
  0
LINE
  5
7B
  8
DIMNSIONS
  6
CONTINUOUS
 62
     7
 10
51.414999999999992
 20
106.25
 30
0.0
 11
86.084999999999965
 21
106.25
 31
0.0
  0
LINE
  5
7C
  8
DIMNSIONS
  6
CONTINUOUS
 62
     7
 10
51.414999999999992
 20
106.25
 30
0.0
 11
53.915622558593739
 21
106.9200397951502
 31
0.0
  0
LINE
  5
7D
  8
DIMNSIONS
  6
CONTINUOUS
 62
     7
 10
51.414999999999992
 20
106.25
 30
0.0
 11
53.915622558593739
 21
105.5799602048497
 31
0.0
  0
LINE
  5
7E
  8
DIMNSIONS
  6
CONTINUOUS
 62
     7
 10
86.084999999999965
 20
106.25
 30
0.0
 11
83.584377441406232
 21
105.5799602048497
 31
0.0
  0
LINE
  5
7F
  8
DIMNSIONS
  6
CONTINUOUS
 62
     7
 10
86.084999999999965
 20
106.25
 30
0.0
 11
83.584377441406232
 21
106.9200397951502
 31
0.0
  0
TEXT
  5
80
  8
DIMNSIONS
 62
     7
 10
65.222222222222214
 20
107.2438888888889
 30
0.0
 40
2.7147352430555549
  1
34.7
 41
0.7
 11
65.222222222222214
 21
109.9586241319444
 31
0.0
 73
     3
  0
LINE
  5
81
  8
DIMNSIONS
  6
CONTINUOUS
 62
     7
 10
81.805338715984789
 20
153.65756007084869
 30
0.0
 11
87.5
 21
159.375
 31
0.0
  0
LINE
  5
82
  8
DIMNSIONS
  6
CONTINUOUS
 62
     7
 10
81.805338715984789
 20
153.65756007084869
 30
0.0
 11
83.099756201538895
 21
155.89955692203401
 31
0.0
  0
LINE
  5
83
  8
DIMNSIONS
  6
CONTINUOUS
 62
     7
 10
81.805338715984789
 20
153.65756007084869
 30
0.0
 11
84.04733556717008
 21
154.9519775564028
 31
0.0
  0
LINE
  5
84
  8
DIMNSIONS
  6
CONTINUOUS
 62
     7
 10
87.5
 20
159.375
 30
0.0
 11
96.555555555555557
 21
159.375
 31
0.0
  0
TEXT
  5
85
  8
DIMNSIONS
 62
     7
 10
89.500000000000014
 20
160.3688888888889
 30
0.0
 40
2.7147352430555549
  1
\U+03C637
 41
0.7
 11
89.500000000000014
 21
163.08362413194439
 31
0.0
 73
     3
  0
TEXT
  5
86
  8
DATA
 62
     7
 10
150.0
 20
20.88148592366905
 30
0.0
 40
2.4432617187500001
  1
UAMS/SL、UAMS/BK
 41
0.7
 11
150.0
 21
23.324747642419052
 31
0.0
 73
     3
  0
TEXT
  5
87
  8
DATA
 62
     7
 10
150.0
 20
28.380890000000011
 30
0.0
 40
2.4432617187500001
  1
SHURE
 41
0.7
 11
150.0
 21
30.824151718750009
 31
0.0
 73
     3
  0
TEXT
  5
88
  8
DATA
 62
     7
 10
144.64189543810099
 20
25.103457061064791
 30
0.0
 40
1.6288437109374989
  1
UHF-Rワイヤレス用ミュートスイッチユニット
 41
0.7
 11
144.64189543810099
 21
26.73230077200229
 31
0.0
 73
     3
  0
TEXT
  5
89
  8
DATA
 62
     7
 10
20.0
 20
14.238
 30
0.0
 40
1.6288411458333329
  1
仕様および外観は予告なく変更されることがありますので、ご了承ください。
 41
0.7
 11
20.0
 21
15.86684114583333
 31
0.0
 73
     3
  0
LINE
  5
8A
  8
DATA
  6
CONTINUOUS
 62
     7
 10
50.25
 20
68.75
 30
0.0
 11
50.25
 21
84.549999999999983
 31
0.0
  0
LINE
  5
8B
  8
DATA
  6
CONTINUOUS
 62
     7
 10
87.249999999999986
 20
68.75
 30
0.0
 11
50.25
 21
68.75
 31
0.0
  0
LINE
  5
8C
  8
DATA
  6
CONTINUOUS
 62
     7
 10
87.249999999999986
 20
84.549999999999983
 30
0.0
 11
87.249999999999986
 21
68.75
 31
0.0
  0
LINE
  5
8D
  8
DATA
  6
CONTINUOUS
 62
     7
 10
52.960000000000008
 20
90.750000000000014
 30
0.0
 11
84.540000000000006
 21
90.750000000000014
 31
0.0
  0
LINE
  5
8E
  8
DATA
  6
CONTINUOUS
 62
     7
 10
87.249999999999986
 20
84.549999999999983
 30
0.0
 11
50.25
 21
84.549999999999983
 31
0.0
  0
LINE
  5
8F
  8
DATA
  6
CONTINUOUS
 62
     7
 10
86.084999999999965
 20
85.34999999999998
 30
0.0
 11
51.414999999999992
 21
85.34999999999998
 31
0.0
  0
LINE
  5
90
  8
DATA
  6
CONTINUOUS
 62
     7
 10
52.960000000000008
 20
85.34999999999998
 30
0.0
 11
52.960000000000008
 21
90.750000000000014
 31
0.0
  0
LINE
  5
91
  8
DATA
  6
CONTINUOUS
 62
     7
 10
84.540000000000006
 20
90.750000000000014
 30
0.0
 11
84.540000000000006
 21
85.34999999999998
 31
0.0
  0
LINE
  5
92
  8
DATA
  6
CONTINUOUS
 62
     7
 10
84.540000000000006
 20
84.549999999999983
 30
0.0
 11
52.960000000000008
 21
84.549999999999983
 31
0.0
  0
LINE
  5
93
  8
DATA
  6
CONTINUOUS
 62
     7
 10
52.960000000000008
 20
89.749999999999986
 30
0.0
 11
84.540000000000006
 21
89.749999999999986
 31
0.0
  0
LINE
  5
94
  8
DATA
  6
CONTINUOUS
 62
     7
 10
51.414999999999992
 20
84.549999999999983
 30
0.0
 11
51.414999999999992
 21
85.34999999999998
 31
0.0
  0
LINE
  5
95
  8
DATA
  6
CONTINUOUS
 62
     7
 10
86.084999999999965
 20
84.549999999999983
 30
0.0
 11
86.084999999999965
 21
85.34999999999998
 31
0.0
  0
LINE
  5
96
  8
DATA
  6
CONTINUOUS
 62
     7
 10
52.960000000000008
 20
85.34999999999998
 30
0.0
 11
84.540000000000006
 21
86.34999999999998
 31
0.0
  0
LINE
  5
97
  8
DATA
  6
CONTINUOUS
 62
     7
 10
52.960000000000008
 20
86.34999999999998
 30
0.0
 11
84.540000000000006
 21
87.349999999999966
 31
0.0
  0
LINE
  5
98
  8
DATA
  6
CONTINUOUS
 62
     7
 10
52.960000000000008
 20
87.349999999999966
 30
0.0
 11
84.540000000000006
 21
88.349999999999994
 31
0.0
  0
LINE
  5
99
  8
DATA
  6
CONTINUOUS
 62
     7
 10
52.960000000000008
 20
88.349999999999994
 30
0.0
 11
84.540000000000006
 21
89.34999999999998
 31
0.0
  0
LINE
  5
9A
  8
DATA
  6
CONTINUOUS
 62
     7
 10
59.25
 20
78.658403172318771
 30
0.0
 11
59.25
 21
80.972624039386673
 31
0.0
  0
LINE
  5
9B
  8
DATA
  6
CONTINUOUS
 62
     7
 10
61.80000000000021
 20
83.250000000000014
 30
0.0
 11
75.700000000000131
 21
83.250000000000014
 31
0.0
  0
LINE
  5
9C
  8
DATA
  6
CONTINUOUS
 62
     7
 10
63.04999999999999
 20
80.7030722351045
 30
0.0
 11
63.04999999999999
 21
81.457902064149479
 31
0.0
  0
ARC
  5
9D
  8
DATA
  6
CONTINUOUS
 62
     7
 10
62.238636363636331
 20
79.511363636363683
 30
0.0
 40
3.7642799735152379
 50
96.691648313583556
 51
124.08087179767701
  0
ARC
  5
9E
  8
DATA
  6
CONTINUOUS
 62
     7
 10
65.978373425478622
 20
80.584628208408418
 30
0.0
 40
7.1056692157278443
 50
202.1647939735374
 51
270.98077035648021
  0
ARC
  5
9F
  8
DATA
  6
CONTINUOUS
 62
     7
 10
61.25
 20
80.972624039386673
 30
0.0
 40
2.0
 50
124.08087179767701
 51
180.0
  0
ARC
  5
A0
  8
DATA
  6
CONTINUOUS
 62
     7
 10
61.250000000000021
 20
78.658403172318771
 30
0.0
 40
2.0000000000000209
 50
180.0
 51
202.16479397353709
  0
LINE
  5
A1
  8
DATA
  6
CONTINUOUS
 62
     7
 10
78.250000000000313
 20
78.658403172318771
 30
0.0
 11
78.250000000000313
 21
80.972624039386673
 31
0.0
  0
ARC
  5
A2
  8
DATA
  6
CONTINUOUS
 62
     7
 10
75.261363636363981
 20
79.511363636363683
 30
0.0
 40
3.764279973515241
 50
55.919128202322959
 51
83.308351686416458
  0
ARC
  5
A3
  8
DATA
  6
CONTINUOUS
 62
     7
 10
76.250000000000313
 20
80.972624039386673
 30
0.0
 40
2.0
 50
0.0
 51
55.919128202322959
  0
ARC
  5
A4
  8
DATA
  6
CONTINUOUS
 62
     7
 10
76.250000000000298
 20
78.658403172318771
 30
0.0
 40
2.0000000000000191
 50
337.8352060264628
 51
0.0
  0
ARC
  5
A5
  8
DATA
  6
CONTINUOUS
 62
     7
 10
71.521626574521363
 20
80.584628208408418
 30
0.0
 40
7.1056692157278443
 50
269.01922964351991
 51
337.83520602646257
  0
ARC
  5
A6
  8
DATA
  6
CONTINUOUS
 62
     7
 10
76.249999999999972
 20
78.658403172318771
 30
0.0
 40
2.0000000000000191
 50
337.8352060264628
 51
0.0
  0
LINE
  5
A7
  8
DATA
  6
CONTINUOUS
 62
     7
 10
66.100000000000009
 20
73.480000000000004
 30
0.0
 11
71.400000000000489
 21
73.480000000000004
 31
0.0
  0
ARC
  5
A8
  8
DATA
  6
CONTINUOUS
 62
     7
 10
64.962499999999963
 20
80.587500000000034
 30
0.0
 40
2.2125353104526431
 50
90.323701524919187
 51
141.960946741638
  0
ARC
  5
A9
  8
DATA
  6
CONTINUOUS
 62
     7
 10
67.11167694316326
 20
83.285437373866628
 30
0.0
 40
5.3044094068176451
 50
231.3972635765372
 51
245.69008806601519
  0
ARC
  5
AA
  8
DATA
  6
CONTINUOUS
 62
     7
 10
63.84999999999998
 20
81.457902064149479
 30
0.0
 40
0.7999999999999936
 50
141.96094674163751
 51
180.0
  0
ARC
  5
AB
  8
DATA
  6
CONTINUOUS
 62
     7
 10
66.145874049165656
 20
82.086620555402376
 30
0.0
 40
3.8338419510274711
 50
251.4782802569062
 51
260.99804756968621
  0
ARC
  5
AC
  8
DATA
  6
CONTINUOUS
 62
     7
 10
65.049999999999983
 20
80.7030722351045
 30
0.0
 40
1.999999999999992
 50
180.0
 51
231.3972635765374
  0
LINE
  5
AD
  8
DATA
  6
CONTINUOUS
 62
     7
 10
74.450000000000486
 20
80.7030722351045
 30
0.0
 11
74.450000000000486
 21
81.457902064149479
 31
0.0
  0
ARC
  5
AE
  8
DATA
  6
CONTINUOUS
 62
     7
 10
72.53750000000052
 20
80.587500000000034
 30
0.0
 40
2.2125353104526422
 50
38.03905325836201
 51
89.676298475080813
  0
ARC
  5
AF
  8
DATA
  6
CONTINUOUS
 62
     7
 10
70.388323056837208
 20
83.285437373866628
 30
0.0
 40
5.3044094068176486
 50
294.30991193398478
 51
308.60273642346277
  0
ARC
  5
B0
  8
DATA
  6
CONTINUOUS
 62
     7
 10
73.650000000000489
 20
81.457902064149479
 30
0.0
 40
0.7999999999999901
 50
0.0
 51
38.039053258362507
  0
ARC
  5
B1
  8
DATA
  6
CONTINUOUS
 62
     7
 10
71.354125950834813
 20
82.086620555402376
 30
0.0
 40
3.8338419510274711
 50
279.00195243031391
 51
288.52171974309368
  0
ARC
  5
B2
  8
DATA
  6
CONTINUOUS
 62
     7
 10
72.4500000000005
 20
80.7030722351045
 30
0.0
 40
1.999999999999992
 50
308.60273642346249
 51
0.0
  0
LINE
  5
B3
  8
DATA
  6
CONTINUOUS
 62
     7
 10
72.55000000000048
 20
82.799999999999983
 30
0.0
 11
64.960000000000008
 21
82.799999999999983
 31
0.0
  0
LINE
  5
B4
  8
DATA
  6
CONTINUOUS
 62
     7
 10
71.954000000000491
 20
78.299999999999983
 30
0.0
 11
65.546000000000134
 21
78.299999999999983
 31
0.0
  0
LINE
  5
B5
  8
DATA
  6
CONTINUOUS
 62
     7
 10
65.088586397225768
 20
80.672457788083577
 30
0.0
 11
65.088586397225768
 21
81.276321651319577
 31
0.0
  0
ARC
  5
B6
  8
DATA
  6
CONTINUOUS
 62
     7
 10
66.618586397225727
 20
80.580000000000027
 30
0.0
 40
1.7700282483621079
 50
90.323701524919244
 51
141.960946741638
  0
ARC
  5
B7
  8
DATA
  6
CONTINUOUS
 62
     7
 10
68.337927951756313
 20
82.738349899093294
 30
0.0
 40
4.2435275254540956
 50
231.39726357653771
 51
245.69008806601559
  0
ARC
  5
B8
  8
DATA
  6
CONTINUOUS
 62
     7
 10
65.72858639722574
 20
81.276321651319577
 30
0.0
 40
0.6399999999999987
 50
141.9609467416372
 51
180.0
  0
ARC
  5
B9
  8
DATA
  6
CONTINUOUS
 62
     7
 10
67.565285636558286
 20
81.779296444321886
 30
0.0
 40
3.067073560821973
 50
251.4782802569062
 51
260.99804756968609
  0
ARC
  5
BA
  8
DATA
  6
CONTINUOUS
 62
     7
 10
66.688586397225748
 20
80.672457788083577
 30
0.0
 40
1.5999999999999941
 50
180.0
 51
231.3972635765372
  0
LINE
  5
BB
  8
DATA
  6
CONTINUOUS
 62
     7
 10
74.208586397226043
 20
80.672457788083577
 30
0.0
 11
74.208586397226043
 21
81.276321651319577
 31
0.0
  0
ARC
  5
BC
  8
DATA
  6
CONTINUOUS
 62
     7
 10
72.67858639722607
 20
80.580000000000027
 30
0.0
 40
1.770028248362113
 50
38.03905325836196
 51
89.676298475080756
  0
ARC
  5
BD
  8
DATA
  6
CONTINUOUS
 62
     7
 10
70.959244842695441
 20
82.738349899093294
 30
0.0
 40
4.2435275254541196
 50
294.30991193398478
 51
308.60273642346277
  0
ARC
  5
BE
  8
DATA
  6
CONTINUOUS
 62
     7
 10
73.568586397226042
 20
81.276321651319577
 30
0.0
 40
0.6399999999999899
 50
0.0
 51
38.039053258362969
  0
ARC
  5
BF
  8
DATA
  6
CONTINUOUS
 62
     7
 10
71.73188715789351
 20
81.779296444321886
 30
0.0
 40
3.0670735608219721
 50
279.00195243031391
 51
288.5217197430938
  0
ARC
  5
C0
  8
DATA
  6
CONTINUOUS
 62
     7
 10
72.608586397226048
 20
80.672457788083577
 30
0.0
 40
1.5999999999999941
 50
308.60273642346249
 51
0.0
  0
LINE
  5
C1
  8
DATA
  6
CONTINUOUS
 62
     7
 10
72.688586397226047
 20
82.349999999999966
 30
0.0
 11
66.616586397225745
 21
82.349999999999966
 31
0.0
  0
LINE
  5
C2
  8
DATA
  6
CONTINUOUS
 62
     7
 10
72.211786397226064
 20
78.75
 30
0.0
 11
67.085386397225889
 21
78.75
 31
0.0
  0
LINE
  5
C3
  8
DATA
  6
CONTINUOUS
 62
     7
 10
69.648586397225955
 20
78.75
 30
0.0
 11
69.648586397225955
 21
82.349999999999966
 31
0.0
  0
LINE
  5
C4
  8
DATA
  6
CONTINUOUS
 62
     7
 10
70.948586397225966
 20
78.75
 30
0.0
 11
70.948586397225966
 21
82.349999999999966
 31
0.0
  0
LINE
  5
C5
  8
DATA
  6
CONTINUOUS
 62
     7
 10
72.248586397225949
 20
78.75
 30
0.0
 11
72.248586397225949
 21
82.349999999999966
 31
0.0
  0
LINE
  5
C6
  8
DATA
  6
CONTINUOUS
 62
     7
 10
68.348586397225958
 20
78.75
 30
0.0
 11
68.348586397225958
 21
82.349999999999966
 31
0.0
  0
LINE
  5
C7
  8
DATA
  6
CONTINUOUS
 62
     7
 10
67.048586397225961
 20
78.75
 30
0.0
 11
67.048586397225961
 21
82.349999999999966
 31
0.0
  0
POLYLINE
  5
C8
  8
DATA
  6
CONTINUOUS
 62
     7
 66
     1
 10
0.0
 20
0.0
 30
0.0
 70
     1
  0
VERTEX
  5
193
  8
DATA
  6
CONTINUOUS
 62
     7
 10
57.665556674318047
 20
81.299999999999983
 30
0.0
  0
VERTEX
  5
194
  8
DATA
  6
CONTINUOUS
 62
     7
 10
58.465556674318037
 20
81.299999999999983
 30
0.0
  0
VERTEX
  5
195
  8
DATA
  6
CONTINUOUS
 62
     7
 10
58.465556674318037
 20
79.799999999999983
 30
0.0
  0
VERTEX
  5
196
  8
DATA
  6
CONTINUOUS
 62
     7
 10
57.665556674318047
 20
79.799999999999983
 30
0.0
  0
SEQEND
  5
197
  8
DATA
  6
CONTINUOUS
 62
     7
  0
LINE
  5
CF
  8
DATA
  6
CONTINUOUS
 62
     7
 10
57.665556674318047
 20
81.299999999999983
 30
0.0
 11
56.659999999999997
 21
82.049999999999983
 31
0.0
  0
LINE
  5
D0
  8
DATA
  6
CONTINUOUS
 62
     7
 10
57.665556674318047
 20
79.799999999999983
 30
0.0
 11
56.659999999999997
 21
79.049999999999983
 31
0.0
  0
LINE
  5
D1
  8
DATA
  6
CONTINUOUS
 62
     7
 10
56.659999999999997
 20
79.049999999999983
 30
0.0
 11
56.659999999999997
 21
82.049999999999983
 31
0.0
  0
LINE
  5
D2
  8
DATA
  6
CONTINUOUS
 62
     7
 10
56.359999999999971
 20
80.150000000000006
 30
0.0
 11
56.359999999999971
 21
80.950000000000003
 31
0.0
  0
LINE
  5
D3
  8
DATA
  6
CONTINUOUS
 62
     7
 10
56.659999999999961
 20
80.150000000000006
 30
0.0
 11
56.359999999999971
 21
80.150000000000006
 31
0.0
  0
LINE
  5
D4
  8
DATA
  6
CONTINUOUS
 62
     7
 10
56.359999999999971
 20
80.950000000000003
 30
0.0
 11
56.659999999999961
 21
80.950000000000003
 31
0.0
  0
ARC
  5
D5
  8
DATA
  6
CONTINUOUS
 62
     7
 10
56.540438787195519
 20
80.549999999999969
 30
0.0
 40
0.8591274643497378
 50
116.68590088740321
 51
243.31409911259669
  0
ARC
  5
D6
  8
DATA
  6
CONTINUOUS
 62
     7
 10
56.588572868758718
 20
80.550000000000026
 30
0.0
 40
1.3048116083685311
 50
109.39655257626021
 51
250.60344742373999
  0
POLYLINE
  5
D7
  8
DATA
  6
CONTINUOUS
 62
     7
 66
     1
 10
0.0
 20
0.0
 30
0.0
 70
     1
  0
VERTEX
  5
198
  8
DATA
  6
CONTINUOUS
 62
     7
 10
81.537733210665635
 20
81.299999999999983
 30
0.0
  0
VERTEX
  5
199
  8
DATA
  6
CONTINUOUS
 62
     7
 10
82.337733210665618
 20
81.299999999999983
 30
0.0
  0
VERTEX
  5
19A
  8
DATA
  6
CONTINUOUS
 62
     7
 10
82.337733210665618
 20
79.799999999999983
 30
0.0
  0
VERTEX
  5
19B
  8
DATA
  6
CONTINUOUS
 62
     7
 10
81.537733210665635
 20
79.799999999999983
 30
0.0
  0
SEQEND
  5
19C
  8
DATA
  6
CONTINUOUS
 62
     7
  0
LINE
  5
DE
  8
DATA
  6
CONTINUOUS
 62
     7
 10
81.537733210665635
 20
81.299999999999983
 30
0.0
 11
80.532176536347578
 21
82.049999999999983
 31
0.0
  0
LINE
  5
DF
  8
DATA
  6
CONTINUOUS
 62
     7
 10
81.537733210665635
 20
79.799999999999983
 30
0.0
 11
80.532176536347578
 21
79.049999999999983
 31
0.0
  0
LINE
  5
E0
  8
DATA
  6
CONTINUOUS
 62
     7
 10
80.532176536347578
 20
79.049999999999983
 30
0.0
 11
80.532176536347578
 21
82.049999999999983
 31
0.0
  0
LINE
  5
E1
  8
DATA
  6
CONTINUOUS
 62
     7
 10
80.232176536347552
 20
80.150000000000006
 30
0.0
 11
80.232176536347552
 21
80.950000000000003
 31
0.0
  0
LINE
  5
E2
  8
DATA
  6
CONTINUOUS
 62
     7
 10
80.532176536347578
 20
80.150000000000006
 30
0.0
 11
80.232176536347552
 21
80.150000000000006
 31
0.0
  0
LINE
  5
E3
  8
DATA
  6
CONTINUOUS
 62
     7
 10
80.232176536347552
 20
80.950000000000003
 30
0.0
 11
80.532176536347578
 21
80.950000000000003
 31
0.0
  0
LINE
  5
E4
  8
DATA
  6
CONTINUOUS
 62
     7
 10
80.077819437940576
 20
81.806691662764337
 30
0.0
 11
82.027819437940593
 21
79.156691662764374
 31
0.0
  0
CIRCLE
  5
E5
  8
DATA
  6
CONTINUOUS
 62
     7
 10
68.75
 20
140.55000000000001
 30
0.0
 40
18.5
  0
CIRCLE
  5
E6
  8
DATA
  6
CONTINUOUS
 62
     7
 10
68.75
 20
140.55000000000001
 30
0.0
 40
17.350000000000001
  0
CIRCLE
  5
E7
  8
DATA
  6
CONTINUOUS
 62
     7
 10
68.75
 20
140.55000000000001
 30
0.0
 40
15.800000000000001
  0
CIRCLE
  5
E8
  8
DATA
  6
CONTINUOUS
 62
     7
 10
68.75
 20
140.55000000000001
 30
0.0
 40
9.1499999999999986
  0
CIRCLE
  5
E9
  8
DATA
  6
CONTINUOUS
 62
     7
 10
68.75
 20
140.55000000000001
 30
0.0
 40
8.0
  0
CIRCLE
  5
EA
  8
DATA
  6
CONTINUOUS
 62
     7
 10
68.75
 20
140.55000000000001
 30
0.0
 40
4.5
  0
CIRCLE
  5
EB
  8
DATA
  6
CONTINUOUS
 62
     7
 10
68.75
 20
140.55000000000001
 30
0.0
 40
3.0
  0
CIRCLE
  5
EC
  8
DATA
  6
CONTINUOUS
 62
     7
 10
68.750000000000014
 20
187.5
 30
0.0
 40
18.5
  0
CIRCLE
  5
ED
  8
DATA
  6
CONTINUOUS
 62
     7
 10
68.750000000000014
 20
187.5
 30
0.0
 40
15.0
  0
ENDSEC
  0
EOF
