  0
SECTION
  2
HEADER
  9
$ACADVER
  1
AC1009
  9
$INSBASE
 10
0.0
 20
0.0
 30
0.0
  9
$EXTMIN
 10
-80.010985489337244
 20
-94.078947142016887
 30
-0.0015258207003583
  9
$EXTMAX
 10
280.01096716571772
 20
441.04810870209872
 30
0.0000000349246037
  9
$LIMMIN
 10
0.0
 20
0.0
  9
$LIMMAX
 10
0.0
 20
0.0
  9
$ORTHOMODE
 70
     0
  9
$REGENMODE
 70
     1
  9
$FILLMODE
 70
     1
  9
$QTEXTMODE
 70
     0
  9
$MIRRTEXT
 70
     1
  9
$DRAGMODE
 70
     2
  9
$LTSCALE
 40
10.16
  9
$OSMODE
 70
   231
  9
$ATTMODE
 70
     1
  9
$TEXTSIZE
 40
0.0
  9
$TRACEWID
 40
1.0
  9
$TEXTSTYLE
  7
STANDARD
  9
$CLAYER
  8
DATA
  9
$CELTYPE
  6
BYLAYER
  9
$CECOLOR
 62
   256
  9
$DIMSCALE
 40
1.0
  9
$DIMASZ
 40
0.18
  9
$DIMEXO
 40
0.0625
  9
$DIMDLI
 40
0.38
  9
$DIMRND
 40
0.0
  9
$DIMDLE
 40
0.0
  9
$DIMEXE
 40
0.18
  9
$DIMTP
 40
0.0
  9
$DIMTM
 40
0.0
  9
$DIMTXT
 40
0.18
  9
$DIMCEN
 40
0.09
  9
$DIMTSZ
 40
0.0
  9
$DIMTOL
 70
     0
  9
$DIMLIM
 70
     0
  9
$DIMTIH
 70
     1
  9
$DIMTOH
 70
     1
  9
$DIMSE1
 70
     0
  9
$DIMSE2
 70
     0
  9
$DIMTAD
 70
     0
  9
$DIMZIN
 70
     0
  9
$DIMBLK
  1

  9
$DIMASO
 70
     1
  9
$DIMSHO
 70
     1
  9
$DIMPOST
  1

  9
$DIMAPOST
  1

  9
$DIMALT
 70
     0
  9
$DIMALTD
 70
     2
  9
$DIMALTF
 40
25.399999999999999
  9
$DIMLFAC
 40
1.0
  9
$DIMTOFL
 70
     0
  9
$DIMTVP
 40
0.0
  9
$DIMTIX
 70
     0
  9
$DIMSOXD
 70
     0
  9
$DIMSAH
 70
     0
  9
$DIMBLK1
  1

  9
$DIMBLK2
  1

  9
$DIMSTYLE
  2
STANDARD
  9
$DIMCLRD
 70
     0
  9
$DIMCLRE
 70
     0
  9
$DIMCLRT
 70
     0
  9
$DIMTFAC
 40
1.0
  9
$DIMGAP
 40
0.09
  9
$LUNITS
 70
     2
  9
$LUPREC
 70
     4
  9
$SKETCHINC
 40
0.1
  9
$FILLETRAD
 40
0.0
  9
$AUNITS
 70
     0
  9
$AUPREC
 70
     0
  9
$MENU
  1
acad
  9
$ELEVATION
 40
0.0
  9
$PELEVATION
 40
0.0
  9
$THICKNESS
 40
0.0
  9
$LIMCHECK
 70
     0
  9
$BLIPMODE
 70
     0
  9
$CHAMFERA
 40
0.0
  9
$CHAMFERB
 40
0.0
  9
$SKPOLY
 70
     0
  9
$TDCREATE
 40
2455229.4376967591
  9
$TDUPDATE
 40
2455229.4828361338
  9
$TDINDWG
 40
0.0004153588
  9
$TDUSRTIMER
 40
0.0004153588
  9
$USRTIMER
 70
     1
  9
$ANGBASE
 50
0.0
  9
$ANGDIR
 70
     0
  9
$PDMODE
 70
     1
  9
$PDSIZE
 40
-2.0
  9
$PLINEWID
 40
0.0
  9
$COORDS
 70
     0
  9
$SPLFRAME
 70
     0
  9
$SPLINETYPE
 70
     6
  9
$SPLINESEGS
 70
     8
  9
$ATTDIA
 70
     0
  9
$ATTREQ
 70
     1
  9
$HANDLING
 70
     1
  9
$HANDSEED
  5
666
  9
$SURFTAB1
 70
     6
  9
$SURFTAB2
 70
     6
  9
$SURFTYPE
 70
     6
  9
$SURFU
 70
     6
  9
$SURFV
 70
     6
  9
$UCSNAME
  2

  9
$UCSORG
 10
0.0
 20
0.0
 30
0.0
  9
$UCSXDIR
 10
1.0
 20
0.0
 30
0.0
  9
$UCSYDIR
 10
0.0
 20
1.0
 30
0.0
  9
$PUCSNAME
  2

  9
$PUCSORG
 10
0.0
 20
0.0
 30
0.0
  9
$PUCSXDIR
 10
1.0
 20
0.0
 30
0.0
  9
$PUCSYDIR
 10
0.0
 20
1.0
 30
0.0
  9
$USERI1
 70
     0
  9
$USERI2
 70
     0
  9
$USERI3
 70
     0
  9
$USERI4
 70
     0
  9
$USERI5
 70
     0
  9
$USERR1
 40
0.0
  9
$USERR2
 40
0.0
  9
$USERR3
 40
0.0
  9
$USERR4
 40
0.0
  9
$USERR5
 40
0.0
  9
$WORLDVIEW
 70
     1
  9
$SHADEDGE
 70
     3
  9
$SHADEDIF
 70
    70
  9
$TILEMODE
 70
     1
  9
$MAXACTVP
 70
    64
  9
$PLIMCHECK
 70
     0
  9
$PEXTMIN
 10
1.0000000000000000E+020
 20
1.0000000000000000E+020
 30
1.0000000000000000E+020
  9
$PEXTMAX
 10
-1.0000000000000000E+020
 20
-1.0000000000000000E+020
 30
-1.0000000000000000E+020
  9
$PLIMMIN
 10
0.0
 20
0.0
  9
$PLIMMAX
 10
12.0
 20
9.0
  9
$UNITMODE
 70
     0
  9
$VISRETAIN
 70
     0
  9
$PLINEGEN
 70
     1
  9
$PSLTSCALE
 70
     0
  0
ENDSEC
  0
SECTION
  2
TABLES
  0
TABLE
  2
VPORT
 70
     1
  0
VPORT
  2
*ACTIVE
 70
     0
 10
0.0
 20
0.0
 11
1.0
 21
1.0
 12
99.999990838190229
 22
173.48458078004089
 13
0.0
 23
0.0
 14
1.0
 24
1.0
 15
0.0
 25
0.0
 16
0.0
 26
0.0
 36
1.0
 17
0.0
 27
0.0
 37
0.0
 40
539.07148131716804
 41
1.964329643296433
 42
50.0
 43
0.0
 44
0.0
 50
0.0
 51
0.0
 71
     0
 72
  2000
 73
     1
 74
     1
 75
     0
 76
     0
 77
     0
 78
     0
  0
ENDTAB
  0
TABLE
  2
LTYPE
 70
    11
  0
LTYPE
  2
CONTINUOUS
 70
     0
  3
Solid line
 72
    65
 73
     0
 40
0.0
  0
LTYPE
  2
STYLE_01
 70
     0
  3

 72
    65
 73
     2
 40
0.4166412353515625
 49
0.208282470703125
 49
-0.2083587646484375
  0
ENDTAB
  0
TABLE
  2
LAYER
 70
     5
  0
LAYER
  2
0
 70
     0
 62
     7
  6
CONTINUOUS
  0
LAYER
  2
DATA
 70
     0
 62
     7
  6
CONTINUOUS
  0
LAYER
  2
HIBINO-BASE
 70
     0
 62
     7
  6
CONTINUOUS
  0
LAYER
  2
SPEC
 70
     0
 62
     7
  6
CONTINUOUS
  0
LAYER
  2
DIMNSIONS
 70
     0
 62
     7
  6
CONTINUOUS
  0
ENDTAB
  0
TABLE
  2
STYLE
 70
     4
  0
STYLE
  2
STANDARD
 70
     0
 40
0.0
 41
1.0
 50
0.0
 71
     0
 42
0.0
  3
txt
  4
BIGFONT.SHX
  0
ENDTAB
  0
TABLE
  2
VIEW
 70
     0
  0
ENDTAB
  0
TABLE
  2
UCS
 70
     0
  0
ENDTAB
  0
TABLE
  2
APPID
 70
     3
  0
APPID
  2
ACAD
 70
     0
  0
APPID
  2
ACADANNOTATIVE
 70
     0
  0
APPID
  2
ACAD_MLEADERVER
 70
     0
  0
ENDTAB
  0
TABLE
  2
DIMSTYLE
 70
     2
  0
DIMSTYLE
  2
STANDARD
 70
     0
  3

  4

  5

  6

  7

 40
1.0
 41
0.18
 42
0.0625
 43
0.38
 44
0.18
 45
0.0
 46
0.0
 47
0.0
 48
0.0
140
0.18
141
0.09
142
0.0
143
25.399999999999999
144
1.0
145
0.0
146
1.0
147
0.09
 71
     0
 72
     0
 73
     1
 74
     1
 75
     0
 76
     0
 77
     0
 78
     0
170
     0
171
     2
172
     0
173
     0
174
     0
175
     0
176
     0
177
     0
178
     0
  0
ENDTAB
  0
ENDSEC
  0
SECTION
  2
BLOCKS
  0
BLOCK
  8
0
  2
$MODEL_SPACE
 70
     0
 10
0.0
 20
0.0
 30
0.0
  3
$MODEL_SPACE
  1

  0
ENDBLK
  5
3F3
  8
0
  0
BLOCK
 67
     1
  8
0
  2
$PAPER_SPACE
 70
     0
 10
0.0
 20
0.0
 30
0.0
  3
$PAPER_SPACE
  1

  0
ENDBLK
  5
3EF
 67
     1
  8
0
  0
ENDSEC
  0
SECTION
  2
ENTITIES
  0
LINE
  5
2D
  8
HIBINO-BASE
  6
CONTINUOUS
 62
     7
 10
-80.0
 20
441.03181000000001
 30
0.0
 11
279.99997999999999
 21
441.03181000000001
 31
0.0
  0
LINE
  5
2E
  8
HIBINO-BASE
  6
CONTINUOUS
 62
     7
 10
279.99997999999999
 20
-78.968179999999975
 30
0.0
 11
-80.0
 21
-78.968179999999975
 31
0.0
  0
LINE
  5
2F
  8
HIBINO-BASE
  6
CONTINUOUS
 62
     7
 10
-80.0
 20
-78.968179999999975
 30
0.0
 11
-80.0
 21
441.03181000000001
 31
0.0
  0
LINE
  5
30
  8
HIBINO-BASE
  6
CONTINUOUS
 62
     7
 10
279.99997999999999
 20
441.03181000000001
 30
0.0
 11
279.99997999999999
 21
-78.968179999999975
 31
0.0
  0
LINE
  5
31
  8
HIBINO-BASE
  6
CONTINUOUS
 62
     7
 10
99.999989999999997
 20
-33.968189999999993
 30
0.0
 11
279.99997999999999
 21
-33.968189999999993
 31
0.0
  0
LINE
  5
32
  8
HIBINO-BASE
  6
CONTINUOUS
 62
     7
 10
99.999989999999997
 20
-78.968179999999975
 30
0.0
 11
99.999989999999997
 21
-33.968189999999993
 31
0.0
  0
TEXT
  5
33
  8
HIBINO-BASE
 62
     7
 10
101.79998000000001
 20
-39.368196399999988
 30
0.0
 40
3.6000518750000001
  1
NOTE
 41
0.7
 11
101.79998000000001
 21
-35.768144524999997
 31
0.0
 73
     3
  0
LINE
  5
34
  8
HIBINO-BASE
  6
CONTINUOUS
 62
     7
 10
169.99999
 20
-78.968179999999975
 30
0.0
 11
169.99999
 21
-33.968189999999993
 31
0.0
  0
TEXT
  5
35
  8
HIBINO-BASE
 62
     7
 10
171.79998999999989
 20
-39.368196399999988
 30
0.0
 40
3.6000518750000001
  1
TITLE
 41
0.7
 11
171.79998999999989
 21
-35.768144524999997
 31
0.0
 73
     3
  0
LINE
  5
36
  8
HIBINO-BASE
  6
CONTINUOUS
 62
     7
 10
99.999989999999997
 20
-58.968189999999993
 30
0.0
 11
279.99997999999999
 21
-58.968189999999993
 31
0.0
  0
TEXT
  5
37
  8
HIBINO-BASE
 62
     7
 10
196.79999000000001
 20
-64.255546399999972
 30
0.0
 40
3.6000518750000001
  1
DRAWN
 41
0.7
 11
196.79999000000001
 21
-60.655494524999973
 31
0.0
 73
     3
  0
TEXT
  5
38
  8
HIBINO-BASE
 62
     7
 10
146.79998999999989
 20
-64.255546399999972
 30
0.0
 40
3.6000518750000001
  1
DATE
 41
0.7
 11
146.79998999999989
 21
-60.655494524999973
 31
0.0
 73
     3
  0
TEXT
  5
39
  8
HIBINO-BASE
 62
     7
 10
102.19998
 20
-64.207083800000007
 30
0.0
 40
3.257679726562499
  1
図面サイズ
 41
0.7
 11
102.19998
 21
-60.949404073437499
 31
0.0
 73
     3
  0
TEXT
  5
3A
  8
HIBINO-BASE
 62
     7
 10
126.79998000000001
 20
-64.255546399999972
 30
0.0
 40
3.6000518750000001
  1
SCALE
 41
0.7
 11
126.79998000000001
 21
-60.655494524999973
 31
0.0
 73
     3
  0
TEXT
  5
3B
  8
HIBINO-BASE
 62
     7
 10
171.79998999999989
 20
-64.255546399999972
 30
0.0
 40
3.6000518750000001
  1
DESIGN
 41
0.7
 11
171.79998999999989
 21
-60.655494524999973
 31
0.0
 73
     3
  0
TEXT
  5
3C
  8
HIBINO-BASE
 62
     7
 10
246.79998000000001
 20
-64.255546399999972
 30
0.0
 40
3.6000518750000001
  1
DRAWING NO.
 41
0.7
 11
246.79998000000001
 21
-60.655494524999973
 31
0.0
 73
     3
  0
TEXT
  5
3D
  8
HIBINO-BASE
 62
     7
 10
221.79998000000001
 20
-64.255546399999972
 30
0.0
 40
3.6000518750000001
  1
CHECK
 41
0.7
 11
221.79998000000001
 21
-60.655494524999973
 31
0.0
 73
     3
  0
LINE
  5
3E
  8
HIBINO-BASE
  6
CONTINUOUS
 62
     7
 10
128.74997999999999
 20
-76.468189999999979
 30
0.0
 11
136.24999
 21
-68.968189999999993
 31
0.0
  0
TEXT
  5
3F
  8
HIBINO-BASE
 62
     7
 10
127.49997999999999
 20
-72.399618399999966
 30
0.0
 40
4.3435729687500002
  1
1
 41
0.7
 11
127.49997999999999
 21
-68.05604543124997
 31
0.0
 73
     3
  0
LINE
  5
40
  8
HIBINO-BASE
  6
CONTINUOUS
 62
     7
 10
124.99997999999999
 20
-78.968179999999975
 30
0.0
 11
124.99997999999999
 21
-58.968189999999993
 31
0.0
  0
LINE
  5
41
  8
HIBINO-BASE
  6
CONTINUOUS
 62
     7
 10
144.99997999999999
 20
-78.968179999999975
 30
0.0
 11
144.99997999999999
 21
-58.968189999999993
 31
0.0
  0
LINE
  5
42
  8
HIBINO-BASE
  6
CONTINUOUS
 62
     7
 10
194.99997999999999
 20
-58.968189999999993
 30
0.0
 11
194.99997999999999
 21
-78.968179999999975
 31
0.0
  0
LINE
  5
43
  8
HIBINO-BASE
  6
CONTINUOUS
 62
     7
 10
244.99999
 20
-58.968189999999993
 30
0.0
 11
244.99999
 21
-78.968179999999975
 31
0.0
  0
LINE
  5
44
  8
HIBINO-BASE
  6
CONTINUOUS
 62
     7
 10
219.99997999999999
 20
-78.968179999999975
 30
0.0
 11
219.99997999999999
 21
-58.968189999999993
 31
0.0
  0
TEXT
  5
45
  8
HIBINO-BASE
 62
     7
 10
107.82177
 20
-73.971258999999961
 30
0.0
 40
6.5153517578124989
  1
A4
 41
0.7
 11
107.82177
 21
-67.455907242187465
 31
0.0
 73
     3
  0
TEXT
  5
46
  8
HIBINO-BASE
 62
     7
 10
145.71306999999999
 20
-73.623506399999982
 30
0.0
 40
3.6000518750000001
  1
'10.01.
 41
0.7
 11
145.71306999999999
 21
-70.023454524999977
 31
0.0
 73
     3
  0
TEXT
  5
47
  8
HIBINO-BASE
 62
     7
 10
134.99999
 20
-76.149618399999966
 30
0.0
 40
4.3435729687500002
  1
2
 41
0.7
 11
134.99999
 21
-71.80604543124997
 31
0.0
 73
     3
  0
TEXT
  5
48
  8
HIBINO-BASE
 62
     7
 10
-65.631999999999977
 20
-91.719204999999974
 30
0.0
 40
7.0583116319444441
  1
Hibino-Intersound Corporation
 41
0.7
 11
-65.631999999999977
 21
-84.660893368055497
 31
0.0
 73
     3
  0
TEXT
  5
49
  8
HIBINO-BASE
 62
     7
 10
128.04857297302249
 20
-91.719204999999974
 30
0.0
 40
7.0583116319444441
  1
ヒビノインターサウンド株式会社
 41
0.7
 11
128.04857297302249
 21
-84.660893368055497
 31
0.0
 73
     3
  0
TEXT
  5
4A
  8
HIBINO-BASE
 62
     7
 10
197.80592928981559
 20
-73.368558078473157
 30
0.0
 40
3.8006293402777769
  1
N.Sasaki
 41
0.7
 11
197.80592928981559
 21
-69.567928738195377
 31
0.0
 73
     3
  0
LINE
  5
4B
  8
SPEC
  6
CONTINUOUS
 62
     7
 10
-65.0
 20
421.03181000000001
 30
0.0
 11
199.99997999999999
 21
421.03181000000001
 31
0.0
  0
LINE
  5
4C
  8
SPEC
  6
CONTINUOUS
 62
     7
 10
-65.0
 20
413.53181000000001
 30
0.0
 11
199.99997999999999
 21
413.53181000000001
 31
0.0
  0
LINE
  5
4D
  8
SPEC
  6
CONTINUOUS
 62
     7
 10
-65.0
 20
421.03181000000001
 30
0.0
 11
-65.0
 21
346.03179999999998
 31
0.0
  0
TEXT
  5
4E
  8
SPEC
 62
     7
 10
-62.5
 20
423.81833999999998
 30
0.0
 40
4.8865234375000002
  1
仕様
 41
0.7
 11
-62.5
 21
428.70486343750002
 31
0.0
 73
     3
  0
LINE
  5
4F
  8
SPEC
  6
CONTINUOUS
 62
     7
 10
0.0
 20
421.03181000000001
 30
0.0
 11
0.0
 21
346.03179999999998
 31
0.0
  0
LINE
  5
50
  8
SPEC
  6
CONTINUOUS
 62
     7
 10
199.99997999999999
 20
421.03181000000001
 30
0.0
 11
199.99997999999999
 21
346.03179999999998
 31
0.0
  0
TEXT
  5
51
  8
SPEC
 62
     7
 10
-63.199999999999989
 20
415.10763555555542
 30
0.0
 40
3.8006293402777769
  1
形式
 41
0.7
 11
-63.199999999999989
 21
418.90826489583321
 31
0.0
 73
     3
  0
TEXT
  5
52
  8
SPEC
 62
     7
 10
-63.199999999999989
 20
407.60764555555551
 30
0.0
 40
3.8006293402777769
  1
対応周波数
 41
0.7
 11
-63.199999999999989
 21
411.4082748958333
 31
0.0
 73
     3
  0
LINE
  5
53
  8
SPEC
  6
CONTINUOUS
 62
     7
 10
-65.0
 20
391.03181000000001
 30
0.0
 11
199.99997999999999
 21
391.03181000000001
 31
0.0
  0
TEXT
  5
54
  8
SPEC
 62
     7
 10
-63.199999999999989
 20
385.10764555555551
 30
0.0
 40
3.8006293402777769
  1
外装
 41
0.7
 11
-63.199999999999989
 21
388.9082748958333
 31
0.0
 73
     3
  0
TEXT
  5
55
  8
SPEC
 62
     7
 10
1.8000000000000109
 20
385.10764555555551
 30
0.0
 40
3.8006293402777769
  1
アルミダイキャスト黒色塗装仕上げ
 41
0.7
 11
1.8000000000000109
 21
388.9082748958333
 31
0.0
 73
     3
  0
LINE
  5
56
  8
SPEC
  6
CONTINUOUS
 62
     7
 10
-65.0
 20
383.53181000000001
 30
0.0
 11
199.99997999999999
 21
383.53181000000001
 31
0.0
  0
TEXT
  5
57
  8
SPEC
 62
     7
 10
1.8000000000000109
 20
377.60764555555551
 30
0.0
 40
3.8006293402777769
  1
BNC
 41
0.7
 11
1.8000000000000109
 21
381.4082748958333
 31
0.0
 73
     3
  0
TEXT
  5
58
  8
SPEC
 62
     7
 10
-63.199999999999989
 20
377.8232455555555
 30
0.0
 40
3.8006293402777769
  1
コネクター
 41
0.7
 11
-63.199999999999989
 21
381.6238748958333
 31
0.0
 73
     3
  0
LINE
  5
59
  8
SPEC
  6
CONTINUOUS
 62
     7
 10
-65.0
 20
376.03181000000001
 30
0.0
 11
199.99997999999999
 21
376.03181000000001
 31
0.0
  0
TEXT
  5
5A
  8
SPEC
 62
     7
 10
-63.199999999999989
 20
362.8232455555555
 30
0.0
 40
3.8006293402777769
  1
対応製品
 41
0.7
 11
-63.199999999999989
 21
366.6238748958333
 31
0.0
 73
     3
  0
LINE
  5
5B
  8
SPEC
  6
CONTINUOUS
 62
     7
 10
-65.0
 20
361.03181000000001
 30
0.0
 11
199.99997999999999
 21
361.03181000000001
 31
0.0
  0
LINE
  5
5C
  8
SPEC
  6
CONTINUOUS
 62
     7
 10
-65.0
 20
346.03179999999998
 30
0.0
 11
199.99997999999999
 21
346.03179999999998
 31
0.0
  0
LINE
  5
5D
  8
SPEC
  6
CONTINUOUS
 62
     7
 10
-65.0
 20
353.53181000000001
 30
0.0
 11
199.99997999999999
 21
353.53181000000001
 31
0.0
  0
TEXT
  5
5E
  8
SPEC
 62
     7
 10
-63.199999999999989
 20
347.50764555555548
 30
0.0
 40
3.8006293402777769
  1
重量
 41
0.7
 11
-63.199999999999989
 21
351.30827489583328
 31
0.0
 73
     3
  0
TEXT
  5
5F
  8
SPEC
 62
     7
 10
1.8000000000000109
 20
355.10764555555551
 30
0.0
 40
3.8006293402777769
  1
112\U+00D784\U+00D732mm(マウンティングベース除く)
 41
0.7
 11
1.8000000000000109
 21
358.9082748958333
 31
0.0
 73
     3
  0
TEXT
  5
60
  8
SPEC
 62
     7
 10
-63.199999999999989
 20
355.3232455555555
 30
0.0
 40
3.8006293402777769
  1
寸法(W\U+00D7H\U+00D7D)
 41
0.7
 11
-63.199999999999989
 21
359.1238748958333
 31
0.0
 73
     3
  0
LINE
  5
61
  8
SPEC
  6
CONTINUOUS
 62
     7
 10
-65.0
 20
368.53181000000001
 30
0.0
 11
199.99997999999999
 21
368.53181000000001
 31
0.0
  0
TEXT
  5
62
  8
SPEC
 62
     7
 10
1.8000000000000109
 20
415.10763555555542
 30
0.0
 40
3.8006293402777769
  1
パッシブRFフィルター
 41
0.7
 11
1.8000000000000109
 21
418.90826489583321
 31
0.0
 73
     3
  0
TEXT
  5
63
  8
SPEC
 62
     7
 10
1.8000000000000109
 20
407.60764555555551
 30
0.0
 40
3.8006293402777769
  1
UAPF-A4B: 797～810MHz
 41
0.7
 11
1.8000000000000109
 21
411.4082748958333
 31
0.0
 73
     3
  0
TEXT
  5
64
  8
SPEC
 62
     7
 10
1.8000000000000109
 20
400.60764555555551
 30
0.0
 40
3.8006293402777769
  1
UAPF-A2 : 779～788MHz
 41
0.7
 11
1.8000000000000109
 21
404.4082748958333
 31
0.0
 73
     3
  0
TEXT
  5
65
  8
SPEC
 62
     7
 10
1.8000000000000109
 20
393.60764555555551
 30
0.0
 40
3.8006293402777769
  1
UAPF-ABJ: 779～810MHz
 41
0.7
 11
1.8000000000000109
 21
397.4082748958333
 31
0.0
 73
     3
  0
TEXT
  5
66
  8
SPEC
 62
     7
 10
-63.199999999999989
 20
370.3232455555555
 30
0.0
 40
3.8006293402777769
  1
RFレベルの損失
 41
0.7
 11
-63.199999999999989
 21
374.1238748958333
 31
0.0
 73
     3
  0
TEXT
  5
67
  8
SPEC
 62
     7
 10
1.8000000000000109
 20
370.10764555555551
 30
0.0
 40
3.8006293402777769
  1
3.25dB
 41
0.7
 11
1.8000000000000109
 21
373.9082748958333
 31
0.0
 73
     3
  0
TEXT
  5
68
  8
SPEC
 62
     7
 10
1.8000000000000109
 20
362.60764555555562
 30
0.0
 40
3.8006293402777769
  1
UHF-RMW、UHF-R、ULX(UAPF-A4Bのみ)、SLX(UAPF-A4Bのみ)
 41
0.7
 11
1.8000000000000109
 21
366.40827489583342
 31
0.0
 73
     3
  0
TEXT
  5
69
  8
SPEC
 62
     7
 10
1.8000000000000109
 20
347.50764555555548
 30
0.0
 40
3.8006293402777769
  1
約420g
 41
0.7
 11
1.8000000000000109
 21
351.30827489583328
 31
0.0
 73
     3
  0
LINE
  5
6A
  8
DIMNSIONS
  6
CONTINUOUS
 62
     7
 10
221.7254150296566
 20
279.57868302542778
 30
0.0
 11
237.80000000000001
 21
287.60000000000002
 31
0.0
  0
LINE
  5
6B
  8
DIMNSIONS
  6
CONTINUOUS
 62
     7
 10
221.7254150296566
 20
279.57868302542778
 30
0.0
 11
226.6868786368843
 21
283.89161753934877
 31
0.0
  0
LINE
  5
6C
  8
DIMNSIONS
  6
CONTINUOUS
 62
     7
 10
221.7254150296566
 20
279.57868302542778
 30
0.0
 11
228.1786358104282
 21
280.83306207572821
 31
0.0
  0
LINE
  5
6D
  8
DIMNSIONS
  6
CONTINUOUS
 62
     7
 10
237.80000000000001
 20
287.60000000000002
 30
0.0
 11
249.8000000026077
 21
287.60000000000002
 31
0.0
  0
TEXT
  5
6E
  8
DIMNSIONS
 62
     7
 10
249.8000000026077
 20
285.06000000000012
 30
0.0
 40
5.4294704861111107
  1
\U+03C677
 41
0.7
 11
249.8000000026077
 21
290.4894704861112
 31
0.0
 73
     3
  0
TEXT
  5
6F
  8
DIMNSIONS
 62
     7
 10
59.99998999999999
 20
-54.429199999999987
 30
0.0
 40
4.8865234375000002
  1
(単位：mm)
 41
0.7
 11
59.99998999999999
 21
-49.542676562499992
 31
0.0
 73
     3
  0
LINE
  5
70
  8
DIMNSIONS
  6
CONTINUOUS
 62
     7
 10
0.0
 20
110.49998998509879
 30
0.0
 11
0.0
 21
122.7499799850988
 31
0.0
  0
LINE
  5
71
  8
DIMNSIONS
  6
CONTINUOUS
 62
     7
 10
111.99997999999999
 20
110.49998998509879
 30
0.0
 11
111.99997999999999
 21
122.7499799850988
 31
0.0
  0
LINE
  5
72
  8
DIMNSIONS
  6
CONTINUOUS
 62
     7
 10
0.0
 20
118.74997999999999
 30
0.0
 11
111.99997999999999
 21
118.74997999999999
 31
0.0
  0
LINE
  5
73
  8
DIMNSIONS
  6
CONTINUOUS
 62
     7
 10
0.0
 20
118.74997999999999
 30
0.0
 11
6.3499999999999934
 21
120.45145737193759
 31
0.0
  0
LINE
  5
74
  8
DIMNSIONS
  6
CONTINUOUS
 62
     7
 10
0.0
 20
118.74997999999999
 30
0.0
 11
6.3499999999999934
 21
117.04850262806229
 31
0.0
  0
LINE
  5
75
  8
DIMNSIONS
  6
CONTINUOUS
 62
     7
 10
111.99997999999999
 20
118.74997999999999
 30
0.0
 11
105.64998
 21
117.04850262806229
 31
0.0
  0
LINE
  5
76
  8
DIMNSIONS
  6
CONTINUOUS
 62
     7
 10
111.99997999999999
 20
118.74997999999999
 30
0.0
 11
105.64998
 21
120.45145737193759
 31
0.0
  0
TEXT
  5
77
  8
DIMNSIONS
 62
     7
 10
50.708327706989699
 20
121.7377469999999
 30
0.0
 40
5.4294662109375
  1
112
 41
0.7
 11
50.708327706989699
 21
127.1672132109374
 31
0.0
 73
     3
  0
LINE
  5
78
  8
DIMNSIONS
  6
CONTINUOUS
 62
     7
 10
-3.9999999850988388
 20
106.49999
 30
0.0
 11
-28.999999985098839
 21
106.49999
 31
0.0
  0
LINE
  5
79
  8
DIMNSIONS
  6
CONTINUOUS
 62
     7
 10
-3.9999999850988388
 20
70.999989999999997
 30
0.0
 11
-28.999999985098839
 21
70.999989999999997
 31
0.0
  0
LINE
  5
7A
  8
DIMNSIONS
  6
CONTINUOUS
 62
     7
 10
-25.0
 20
106.49999
 30
0.0
 11
-25.0
 21
70.999989999999997
 31
0.0
  0
LINE
  5
7B
  8
DIMNSIONS
  6
CONTINUOUS
 62
     7
 10
-25.0
 20
106.49999
 30
0.0
 11
-23.298522628062369
 21
100.14999
 31
0.0
  0
LINE
  5
7C
  8
DIMNSIONS
  6
CONTINUOUS
 62
     7
 10
-25.0
 20
106.49999
 30
0.0
 11
-26.701477371937631
 21
100.14999
 31
0.0
  0
LINE
  5
7D
  8
DIMNSIONS
  6
CONTINUOUS
 62
     7
 10
-25.0
 20
70.999989999999997
 30
0.0
 11
-26.701477371937631
 21
77.349989999999977
 31
0.0
  0
LINE
  5
7E
  8
DIMNSIONS
  6
CONTINUOUS
 62
     7
 10
-25.0
 20
70.999989999999997
 30
0.0
 11
-23.298522628062369
 21
77.349989999999977
 31
0.0
  0
TEXT
  5
7F
  8
DIMNSIONS
 62
     7
 10
-27.987767000000002
 20
80.472218575675925
 30
0.0
 40
5.4294662109375
  1
36
 50
90.0
 41
0.7
 11
-33.417233210937503
 21
80.472218575675925
 31
0.0
 73
     3
  0
LINE
  5
80
  8
DIMNSIONS
  6
CONTINUOUS
 62
     7
 10
-3.9999999850988388
 20
106.49999
 30
0.0
 11
-53.99998998509885
 21
106.49999
 31
0.0
  0
LINE
  5
81
  8
DIMNSIONS
  6
CONTINUOUS
 62
     7
 10
14.250000014901159
 20
-0.0000100000000032
 30
0.0
 11
-53.99998998509885
 21
-0.0000100000000032
 31
0.0
  0
LINE
  5
82
  8
DIMNSIONS
  6
CONTINUOUS
 62
     7
 10
-49.99998999999999
 20
106.49999
 30
0.0
 11
-49.99998999999999
 21
-0.0000100000000032
 31
0.0
  0
LINE
  5
83
  8
DIMNSIONS
  6
CONTINUOUS
 62
     7
 10
-49.99998999999999
 20
106.49999
 30
0.0
 11
-48.298512628062362
 21
100.14999
 31
0.0
  0
LINE
  5
84
  8
DIMNSIONS
  6
CONTINUOUS
 62
     7
 10
-49.99998999999999
 20
106.49999
 30
0.0
 11
-51.701467371937639
 21
100.14999
 31
0.0
  0
LINE
  5
85
  8
DIMNSIONS
  6
CONTINUOUS
 62
     7
 10
-49.99998999999999
 20
-0.0000100000000032
 30
0.0
 11
-51.701467371937639
 21
6.3499899999999911
 31
0.0
  0
LINE
  5
86
  8
DIMNSIONS
  6
CONTINUOUS
 62
     7
 10
-49.99998999999999
 20
-0.0000100000000032
 30
0.0
 11
-48.298512628062362
 21
6.3499899999999911
 31
0.0
  0
TEXT
  5
87
  8
DIMNSIONS
 62
     7
 10
-52.987756999999959
 20
47.958327706989699
 30
0.0
 40
5.4294662109375
  1
107
 50
90.0
 41
0.7
 11
-58.417223210937472
 21
47.958327706989699
 31
0.0
 73
     3
  0
LINE
  5
88
  8
DIMNSIONS
  6
CONTINUOUS
 62
     7
 10
-3.9999999850988388
 20
194.49999
 30
0.0
 11
-41.499999985098839
 21
194.49999
 31
0.0
  0
LINE
  5
89
  8
DIMNSIONS
  6
CONTINUOUS
 62
     7
 10
-3.9999999850988388
 20
162.5
 30
0.0
 11
-41.499999985098839
 21
162.5
 31
0.0
  0
LINE
  5
8A
  8
DIMNSIONS
  6
CONTINUOUS
 62
     7
 10
-37.5
 20
194.49999
 30
0.0
 11
-37.5
 21
162.5
 31
0.0
  0
LINE
  5
8B
  8
DIMNSIONS
  6
CONTINUOUS
 62
     7
 10
-37.5
 20
194.49999
 30
0.0
 11
-35.798522628062358
 21
188.14999
 31
0.0
  0
LINE
  5
8C
  8
DIMNSIONS
  6
CONTINUOUS
 62
     7
 10
-37.5
 20
194.49999
 30
0.0
 11
-39.201477371937642
 21
188.14999
 31
0.0
  0
LINE
  5
8D
  8
DIMNSIONS
  6
CONTINUOUS
 62
     7
 10
-37.5
 20
162.5
 30
0.0
 11
-39.201477371937642
 21
168.84999999999999
 31
0.0
  0
LINE
  5
8E
  8
DIMNSIONS
  6
CONTINUOUS
 62
     7
 10
-37.5
 20
162.5
 30
0.0
 11
-35.798522628062358
 21
168.84999999999999
 31
0.0
  0
TEXT
  5
8F
  8
DIMNSIONS
 62
     7
 10
-40.487766999999998
 20
174.97221991370299
 30
0.0
 40
5.4294662109375
  1
32
 50
90.0
 41
0.7
 11
-45.917233210937503
 21
174.97221991370299
 31
0.0
 73
     3
  0
LINE
  5
90
  8
DIMNSIONS
  6
CONTINUOUS
 62
     7
 10
205.46050077767219
 20
280.46050077767222
 30
0.0
 11
225.0
 21
300.0
 31
0.0
  0
LINE
  5
91
  8
DIMNSIONS
  6
CONTINUOUS
 62
     7
 10
205.46050077767219
 20
280.46050077767222
 30
0.0
 11
208.8463630112596
 21
286.09552182309722
 31
0.0
  0
LINE
  5
92
  8
DIMNSIONS
  6
CONTINUOUS
 62
     7
 10
205.46050077767219
 20
280.46050077767222
 30
0.0
 11
211.2102540083857
 21
283.64764103707648
 31
0.0
  0
LINE
  5
93
  8
DIMNSIONS
  6
CONTINUOUS
 62
     7
 10
225.0
 20
300.0
 30
0.0
 11
237.00000000260769
 21
300.0
 31
0.0
  0
TEXT
  5
94
  8
DIMNSIONS
 62
     7
 10
237.00000000260769
 20
297.46000199999997
 30
0.0
 40
5.4294662109375
  1
\U+03C650.8
 41
0.7
 11
237.00000000260769
 21
302.88946821093748
 31
0.0
 73
     3
  0
LINE
  5
95
  8
DIMNSIONS
  6
CONTINUOUS
 62
     7
 10
162.0388379227912
 20
247.799990830133
 30
0.0
 11
140.734610456627
 21
235.49999611366161
 31
0.0
  0
LINE
  5
96
  8
DIMNSIONS
  6
CONTINUOUS
 62
     7
 10
212.96113247090909
 20
247.7999915120426
 30
0.0
 11
234.26535485832761
 21
235.50000531943999
 31
0.0
  0
ARC
  5
97
  8
DIMNSIONS
  6
CONTINUOUS
 62
     7
 10
187.49997999999999
 20
262.49997999999999
 30
0.0
 40
49.99998999999999
 50
209.9999863929427
 51
330.00002488574972
  0
LINE
  5
98
  8
DIMNSIONS
  6
CONTINUOUS
 62
     7
 10
230.8012523874184
 20
237.50000380739741
 30
0.0
 11
229.0997750154807
 21
231.1500038073973
 31
0.0
  0
LINE
  5
99
  8
DIMNSIONS
  6
CONTINUOUS
 62
     7
 10
230.8012523874184
 20
237.50000380739741
 30
0.0
 11
226.15272975935599
 21
232.851481179335
 31
0.0
  0
LINE
  5
9A
  8
DIMNSIONS
  6
CONTINUOUS
 62
     7
 10
144.1987125338357
 20
237.49999528352859
 30
0.0
 11
148.7653992631484
 21
232.77105274174031
 31
0.0
  0
LINE
  5
9B
  8
DIMNSIONS
  6
CONTINUOUS
 62
     7
 10
144.1987125338357
 20
237.49999528352859
 30
0.0
 11
145.78910798165151
 21
231.1212675446466
 31
0.0
  0
TEXT
  5
9C
  8
DIMNSIONS
 62
     7
 10
178.6805486724557
 20
204.43222613194581
 30
0.0
 40
5.4294662109375
  1
120\U+00B0
 50
0.0000056393462312
 41
0.7
 11
178.68054813805969
 21
209.86169234288329
 31
0.0
 73
     3
  0
LINE
  5
9D
  8
DIMNSIONS
  6
CONTINUOUS
 62
     7
 10
189.85218
 20
290.21454999999992
 30
0.0
 11
212.4999790249222
 21
312.49998422418889
 31
0.0
  0
LINE
  5
9E
  8
DIMNSIONS
  6
CONTINUOUS
 62
     7
 10
189.85218
 20
290.21454999999992
 30
0.0
 11
193.23804223358741
 21
295.84957104542491
 31
0.0
  0
LINE
  5
9F
  8
DIMNSIONS
  6
CONTINUOUS
 62
     7
 10
189.85218
 20
290.21454999999992
 30
0.0
 11
195.6019332307134
 21
293.40169025940418
 31
0.0
  0
LINE
  5
A0
  8
DIMNSIONS
  6
CONTINUOUS
 62
     7
 10
212.4999790249222
 20
312.49998422418889
 30
0.0
 11
224.4999790275298
 21
312.49998422418889
 31
0.0
  0
TEXT
  5
A1
  8
DIMNSIONS
 62
     7
 10
224.49997902752989
 20
309.95998622418892
 30
0.0
 40
5.4294662109375
  1
3-M6サラ
 41
0.7
 11
224.49997902752989
 21
315.38945243512637
 31
0.0
 73
     3
  0
LINE
  5
A2
  8
DIMNSIONS
  6
CONTINUOUS
 62
     7
 10
38.250000014901161
 20
22.99999
 30
0.0
 11
-41.499999985098839
 21
22.99999
 31
0.0
  0
LINE
  5
A3
  8
DIMNSIONS
  6
CONTINUOUS
 62
     7
 10
-3.9999999850988388
 20
106.49999
 30
0.0
 11
-41.499999985098839
 21
106.49999
 31
0.0
  0
LINE
  5
A4
  8
DIMNSIONS
  6
CONTINUOUS
 62
     7
 10
-37.5
 20
22.99999
 30
0.0
 11
-37.5
 21
106.49999
 31
0.0
  0
LINE
  5
A5
  8
DIMNSIONS
  6
CONTINUOUS
 62
     7
 10
-37.5
 20
22.99999
 30
0.0
 11
-39.201477371937642
 21
29.349989999999991
 31
0.0
  0
LINE
  5
A6
  8
DIMNSIONS
  6
CONTINUOUS
 62
     7
 10
-37.5
 20
22.99999
 30
0.0
 11
-35.798522628062358
 21
29.349989999999991
 31
0.0
  0
LINE
  5
A7
  8
DIMNSIONS
  6
CONTINUOUS
 62
     7
 10
-37.5
 20
106.49999
 30
0.0
 11
-35.798522628062358
 21
100.14999
 31
0.0
  0
LINE
  5
A8
  8
DIMNSIONS
  6
CONTINUOUS
 62
     7
 10
-37.5
 20
106.49999
 30
0.0
 11
-39.201477371937642
 21
100.14999
 31
0.0
  0
TEXT
  5
A9
  8
DIMNSIONS
 62
     7
 10
-40.487766999999998
 20
51.647286630011642
 30
0.0
 40
5.4294662109375
  1
84
 50
90.0
 41
0.7
 11
-45.917233210937503
 21
51.647286630011642
 31
0.0
 73
     3
  0
LINE
  5
AA
  8
DIMNSIONS
  6
CONTINUOUS
 62
     7
 10
17.75
 20
-3.9999999850988388
 30
0.0
 11
17.75
 21
-28.999999985098839
 31
0.0
  0
LINE
  5
AB
  8
DIMNSIONS
  6
CONTINUOUS
 62
     7
 10
94.25
 20
-3.9999999850988388
 30
0.0
 11
94.25
 21
-28.999999985098839
 31
0.0
  0
LINE
  5
AC
  8
DIMNSIONS
  6
CONTINUOUS
 62
     7
 10
17.75
 20
-25.0
 30
0.0
 11
94.25
 21
-25.0
 31
0.0
  0
LINE
  5
AD
  8
DIMNSIONS
  6
CONTINUOUS
 62
     7
 10
17.75
 20
-25.0
 30
0.0
 11
24.100000000000001
 21
-23.298522628062361
 31
0.0
  0
LINE
  5
AE
  8
DIMNSIONS
  6
CONTINUOUS
 62
     7
 10
17.75
 20
-25.0
 30
0.0
 11
24.100000000000001
 21
-26.701477371937639
 31
0.0
  0
LINE
  5
AF
  8
DIMNSIONS
  6
CONTINUOUS
 62
     7
 10
94.25
 20
-25.0
 30
0.0
 11
87.900000000000006
 21
-26.701477371937639
 31
0.0
  0
LINE
  5
B0
  8
DIMNSIONS
  6
CONTINUOUS
 62
     7
 10
94.25
 20
-25.0
 30
0.0
 11
87.900000000000006
 21
-23.298522628062361
 31
0.0
  0
TEXT
  5
B1
  8
DIMNSIONS
 62
     7
 10
52.472222222222221
 20
-22.01222222967283
 30
0.0
 40
5.4294704861111107
  1
77
 41
0.7
 11
52.472222222222221
 21
-16.582751743561708
 31
0.0
 73
     3
  0
LINE
  5
B2
  8
DIMNSIONS
  6
CONTINUOUS
 62
     7
 10
51.999990014901151
 20
216.74997999999869
 30
0.0
 11
-53.999999985098839
 21
216.74997999999869
 31
0.0
  0
LINE
  5
B3
  8
DIMNSIONS
  6
CONTINUOUS
 62
     7
 10
51.999990014901151
 20
140.2499800000013
 30
0.0
 11
-53.999999985098839
 21
140.2499800000013
 31
0.0
  0
LINE
  5
B4
  8
DIMNSIONS
  6
CONTINUOUS
 62
     7
 10
-50.0
 20
216.74997999999869
 30
0.0
 11
-50.0
 21
140.2499800000013
 31
0.0
  0
LINE
  5
B5
  8
DIMNSIONS
  6
CONTINUOUS
 62
     7
 10
-50.0
 20
216.74997999999869
 30
0.0
 11
-48.298522628062372
 21
210.39997999999869
 31
0.0
  0
LINE
  5
B6
  8
DIMNSIONS
  6
CONTINUOUS
 62
     7
 10
-50.0
 20
216.74997999999869
 30
0.0
 11
-51.701477371937628
 21
210.39997999999869
 31
0.0
  0
LINE
  5
B7
  8
DIMNSIONS
  6
CONTINUOUS
 62
     7
 10
-50.0
 20
140.2499800000013
 30
0.0
 11
-51.701477371937628
 21
146.5999800000013
 31
0.0
  0
LINE
  5
B8
  8
DIMNSIONS
  6
CONTINUOUS
 62
     7
 10
-50.0
 20
140.2499800000013
 30
0.0
 11
-48.298522628062372
 21
146.5999800000013
 31
0.0
  0
TEXT
  5
B9
  8
DIMNSIONS
 62
     7
 10
-52.987777770327178
 20
174.97220222222219
 30
0.0
 40
5.4294704861111107
  1
77
 50
90.0
 41
0.7
 11
-58.417248256438292
 21
174.97220222222219
 31
0.0
 73
     3
  0
ARC
  5
BA
  8
DATA
  6
CONTINUOUS
 62
     7
 10
192.80017000000001
 20
51.974440000000001
 30
0.0
 40
14.682627359284179
 50
153.95892127979971
 51
200.01120169590601
  0
ARC
  5
BB
  8
DATA
  6
CONTINUOUS
 62
     7
 10
56.743580000000001
 20
53.738240000000012
 30
0.0
 40
10.289770609241
 50
94.143141154000674
 51
162.36012622033491
  0
ARC
  5
BC
  8
DATA
  6
CONTINUOUS
 62
     7
 10
162.15823
 20
23.65062
 30
0.0
 40
119.910004426393
 50
163.92339361968561
 51
180.31088286632161
  0
TEXT
  5
BD
  8
DATA
 62
     7
 10
194.19998000000001
 20
-42.206409999999991
 30
0.0
 40
4.8865234375000002
  1
SHURE
 41
0.7
 11
194.19998000000001
 21
-37.319886562499988
 31
0.0
 73
     3
  0
TEXT
  5
BE
  8
DATA
 62
     7
 10
194.19998000000001
 20
-56.195849999999993
 30
0.0
 40
4.8865234375000002
  1
UAPF
 41
0.7
 11
194.19998000000001
 21
-51.30932656249999
 31
0.0
 73
     3
  0
LINE
  5
BF
  8
DATA
  6
CONTINUOUS
 62
     7
 10
0.0
 20
71.0
 30
0.0
 11
0.0
 21
106.49999
 31
0.0
  0
LINE
  5
C0
  8
DATA
  6
CONTINUOUS
 62
     7
 10
17.75
 20
0.0
 30
0.0
 11
94.25
 21
0.0
 31
0.0
  0
LINE
  5
C1
  8
DATA
  6
CONTINUOUS
 62
     7
 10
111.99997999999999
 20
106.49999
 30
0.0
 11
111.99997999999999
 21
71.0
 31
0.0
  0
LINE
  5
C2
  8
DATA
  6
CONTINUOUS
 62
     7
 10
0.0
 20
106.49999
 30
0.0
 11
111.99997999999999
 21
106.49999
 31
0.0
  0
LINE
  5
C3
  8
DATA
  6
CONTINUOUS
 62
     7
 10
75.472389999999976
 20
71.0
 30
0.0
 11
111.99997999999999
 21
71.0
 31
0.0
  0
LINE
  5
C4
  8
DATA
  6
CONTINUOUS
 62
     7
 10
18.999994999999998
 20
7.0
 30
0.0
 11
92.999994999999998
 21
7.0
 31
0.0
  0
LINE
  5
C5
  8
DATA
  6
CONTINUOUS
 62
     7
 10
43.25
 20
11.0
 30
0.0
 11
68.75
 21
11.0
 31
0.0
  0
LINE
  5
C6
  8
DATA
  6
CONTINUOUS
 62
     7
 10
43.25
 20
11.0
 30
0.0
 11
43.25
 21
7.0
 31
0.0
  0
LINE
  5
C7
  8
DATA
  6
CONTINUOUS
 62
     7
 10
68.75
 20
11.0
 30
0.0
 11
68.75
 21
7.0
 31
0.0
  0
LINE
  5
C8
  8
DATA
  6
CONTINUOUS
 62
     7
 10
48.149999999999999
 20
18.99999
 30
0.0
 11
48.149999999999999
 21
11.0
 31
0.0
  0
LINE
  5
C9
  8
DATA
  6
CONTINUOUS
 62
     7
 10
63.849989999999998
 20
18.99999
 30
0.0
 11
63.849989999999998
 21
11.0
 31
0.0
  0
LINE
  5
CA
  8
DATA
  6
CONTINUOUS
 62
     7
 10
42.25
 20
22.99999
 30
0.0
 11
71.75
 21
22.99999
 31
0.0
  0
LINE
  5
CB
  8
DATA
  6
CONTINUOUS
 62
     7
 10
50.0
 20
52.950000000000003
 30
0.0
 11
61.999989999999997
 21
52.950000000000003
 31
0.0
  0
CIRCLE
  5
CC
  8
DATA
  6
CONTINUOUS
 62
     7
 10
56.0
 20
52.950000000000003
 30
0.0
 40
5.9999899999999959
  0
LINE
  5
CD
  8
DATA
  6
CONTINUOUS
 62
     7
 10
63.999989999999997
 20
53.000000000000021
 30
0.0
 11
63.999989999999997
 21
41.999989999999997
 31
0.0
  0
LINE
  5
CE
  8
DATA
  6
CONTINUOUS
 62
     7
 10
48.0
 20
53.000000000000021
 30
0.0
 11
48.0
 21
41.999989999999997
 31
0.0
  0
ARC
  5
CF
  8
DATA
  6
CONTINUOUS
 62
     7
 10
56.0
 20
53.000000000000021
 30
0.0
 40
7.9999899999999959
 50
0.0
 51
180.0
  0
ARC
  5
D0
  8
DATA
  6
CONTINUOUS
 62
     7
 10
56.0
 20
41.999989999999997
 30
0.0
 40
8.0
 50
180.0
 51
0.0
  0
LINE
  5
D1
  8
DATA
  6
CONTINUOUS
 62
     7
 10
38.437339999999999
 20
69.594030000000004
 30
0.0
 11
44.911289999999987
 21
48.781490000000019
 31
0.0
  0
LINE
  5
D2
  8
DATA
  6
CONTINUOUS
 62
     7
 10
0.0
 20
98.249989999999997
 30
0.0
 11
111.99997999999999
 21
98.249989999999997
 31
0.0
  0
LINE
  5
D3
  8
DATA
  6
CONTINUOUS
 62
     7
 10
0.0
 20
79.25
 30
0.0
 11
111.99997999999999
 21
79.25
 31
0.0
  0
LINE
  5
D4
  8
DATA
  6
CONTINUOUS
 62
     7
 10
94.299999999999983
 20
96.25
 30
0.0
 11
94.299999999999983
 21
81.25
 31
0.0
  0
LINE
  5
D5
  8
DATA
  6
CONTINUOUS
 62
     7
 10
17.69999
 20
81.25
 30
0.0
 11
17.69999
 21
96.25
 31
0.0
  0
LINE
  5
D6
  8
DATA
  6
CONTINUOUS
 62
     7
 10
0.0
 20
71.0
 30
0.0
 11
36.5276
 21
71.0
 31
0.0
  0
LINE
  5
D7
  8
DATA
  6
CONTINUOUS
 62
     7
 10
46.5
 20
18.99999
 30
0.0
 11
65.499989999999997
 21
18.99999
 31
0.0
  0
LINE
  5
D8
  8
DATA
  6
CONTINUOUS
 62
     7
 10
46.5
 20
18.99999
 30
0.0
 11
46.5
 21
22.99999
 31
0.0
  0
LINE
  5
D9
  8
DATA
  6
CONTINUOUS
 62
     7
 10
65.499989999999997
 20
18.99999
 30
0.0
 11
65.499989999999997
 21
22.99999
 31
0.0
  0
LINE
  5
DA
  8
DATA
  6
CONTINUOUS
 62
     7
 10
61.74998999999999
 20
22.99999
 30
0.0
 11
61.74998999999999
 21
18.99999
 31
0.0
  0
LINE
  5
DB
  8
DATA
  6
CONTINUOUS
 62
     7
 10
50.25
 20
22.99999
 30
0.0
 11
50.25
 21
18.99999
 31
0.0
  0
LINE
  5
DC
  8
DATA
  6
CONTINUOUS
 62
     7
 10
71.75
 20
25.49999
 30
0.0
 11
71.75
 21
22.99999
 31
0.0
  0
LINE
  5
DD
  8
DATA
  6
CONTINUOUS
 62
     7
 10
71.75
 20
25.49999
 30
0.0
 11
69.707520000000002
 21
26.90804
 31
0.0
  0
LINE
  5
DE
  8
DATA
  6
CONTINUOUS
 62
     7
 10
17.69999
 20
96.25
 30
0.0
 11
94.299999999999983
 21
96.25
 31
0.0
  0
LINE
  5
DF
  8
DATA
  6
CONTINUOUS
 62
     7
 10
17.69999
 20
81.25
 30
0.0
 11
94.299999999999983
 21
81.25
 31
0.0
  0
TEXT
  5
E0
  8
DATA
 62
     7
 10
10.649990000000001
 20
82.496744791666671
 30
0.0
 40
3.84765625
  1
SHURE
 50
90.0
 41
0.7
 72
     1
 11
6.8023337500000016
 21
88.78125
 31
0.0
 73
     3
  0
TEXT
  5
E1
  8
DATA
 62
     7
 10
101.34999000000001
 20
95.065755208333329
 30
0.0
 40
3.84765625
  1
SHURE
 50
270.0
 41
0.7
 72
     1
 11
105.19764625000001
 21
88.78125
 31
0.0
 73
     3
  0
LINE
  5
E2
  8
DATA
  6
CONTINUOUS
 62
     7
 10
0.0
 20
162.5
 30
0.0
 11
0.0
 21
194.49999
 31
0.0
  0
LINE
  5
E3
  8
DATA
  6
CONTINUOUS
 62
     7
 10
111.99997999999999
 20
162.5
 30
0.0
 11
111.99997999999999
 21
194.49999
 31
0.0
  0
LINE
  5
E4
  8
DATA
  6
CONTINUOUS
 62
     7
 10
0.0
 20
178.49997999999999
 30
0.0
 11
111.99997999999999
 21
178.49997999999999
 31
0.0
  0
LINE
  5
E5
  8
DATA
  6
CONTINUOUS
 62
     7
 10
0.0
 20
194.49999
 30
0.0
 11
111.99997999999999
 21
194.49999
 31
0.0
  0
LINE
  5
E6
  8
DATA
  6
CONTINUOUS
 62
     7
 10
0.0
 20
162.5
 30
0.0
 11
111.99997999999999
 21
162.5
 31
0.0
  0
LINE
  5
E7
  8
DATA
  6
CONTINUOUS
 62
     7
 10
0.0
 20
179.99999
 30
0.0
 11
111.99997999999999
 21
179.99999
 31
0.0
  0
LINE
  5
E8
  8
DATA
  6
CONTINUOUS
 62
     7
 10
0.0
 20
177.0
 30
0.0
 11
111.99997999999999
 21
177.0
 31
0.0
  0
LINE
  5
E9
  8
DATA
  6
CONTINUOUS
 62
     7
 10
204.24997999999999
 20
98.249989999999997
 30
0.0
 11
204.24997999999999
 21
79.25
 31
0.0
  0
LINE
  5
EA
  8
DATA
  6
CONTINUOUS
 62
     7
 10
172.24999
 20
98.249989999999997
 30
0.0
 11
172.24999
 21
79.25
 31
0.0
  0
LINE
  5
EB
  8
DATA
  6
CONTINUOUS
 62
     7
 10
186.53939
 20
106.49999
 30
0.0
 11
172.24999
 21
98.249989999999997
 31
0.0
  0
LINE
  5
EC
  8
DATA
  6
CONTINUOUS
 62
     7
 10
189.80151000000001
 20
106.49999
 30
0.0
 11
204.24997999999999
 21
98.249989999999997
 31
0.0
  0
LINE
  5
ED
  8
DATA
  6
CONTINUOUS
 62
     7
 10
204.24997999999999
 20
79.25
 30
0.0
 11
189.80151000000001
 21
71.0
 31
0.0
  0
LINE
  5
EE
  8
DATA
  6
CONTINUOUS
 62
     7
 10
186.69846000000001
 20
71.0
 30
0.0
 11
172.24999
 21
79.25
 31
0.0
  0
LINE
  5
EF
  8
DATA
  6
CONTINUOUS
 62
     7
 10
174.9499799999999
 20
96.942189999999997
 30
0.0
 11
174.9499799999999
 21
80.5578
 31
0.0
  0
LINE
  5
F0
  8
DATA
  6
CONTINUOUS
 62
     7
 10
201.54999000000001
 20
96.942189999999997
 30
0.0
 11
201.54999000000001
 21
80.5578
 31
0.0
  0
LINE
  5
F1
  8
DATA
  6
CONTINUOUS
 62
     7
 10
186.69846000000001
 20
103.8
 30
0.0
 11
174.9499799999999
 21
96.942189999999997
 31
0.0
  0
LINE
  5
F2
  8
DATA
  6
CONTINUOUS
 62
     7
 10
189.80151000000001
 20
103.8
 30
0.0
 11
201.54999000000001
 21
96.942189999999997
 31
0.0
  0
LINE
  5
F3
  8
DATA
  6
CONTINUOUS
 62
     7
 10
201.54999000000001
 20
80.5578
 30
0.0
 11
189.80151000000001
 21
73.699989999999985
 31
0.0
  0
LINE
  5
F4
  8
DATA
  6
CONTINUOUS
 62
     7
 10
186.69846000000001
 20
73.699989999999985
 30
0.0
 11
174.9499799999999
 21
80.5578
 31
0.0
  0
CIRCLE
  5
F5
  8
DATA
  6
CONTINUOUS
 62
     7
 10
188.24997999999999
 20
88.75
 30
0.0
 40
4.8499954476782863
  0
LINE
  5
F6
  8
DATA
  6
CONTINUOUS
 62
     7
 10
189.19998000000001
 20
93.599990000000005
 30
0.0
 11
189.19998000000001
 21
94.600000000000023
 31
0.0
  0
LINE
  5
F7
  8
DATA
  6
CONTINUOUS
 62
     7
 10
187.29999000000001
 20
93.599990000000005
 30
0.0
 11
187.29999000000001
 21
94.600000000000023
 31
0.0
  0
LINE
  5
F8
  8
DATA
  6
CONTINUOUS
 62
     7
 10
189.19998000000001
 20
83.899990000000017
 30
0.0
 11
189.19998000000001
 21
82.899989999999988
 31
0.0
  0
LINE
  5
F9
  8
DATA
  6
CONTINUOUS
 62
     7
 10
187.29999000000001
 20
83.899990000000017
 30
0.0
 11
187.29999000000001
 21
82.899989999999988
 31
0.0
  0
CIRCLE
  5
FA
  8
DATA
  6
CONTINUOUS
 62
     7
 10
188.24997999999999
 20
88.75
 30
0.0
 40
2.25
  0
CIRCLE
  5
FB
  8
DATA
  6
CONTINUOUS
 62
     7
 10
188.24997999999999
 20
88.75
 30
0.0
 40
1.0
  0
CIRCLE
  5
FC
  8
DATA
  6
CONTINUOUS
 62
     7
 10
188.24997999999999
 20
88.75
 30
0.0
 40
5.9266347955648548
  0
POLYLINE
  5
FD
  8
DATA
  6
CONTINUOUS
 62
     7
 66
     1
 10
0.0
 20
0.0
 30
0.0
 70
     1
  0
VERTEX
  5
420
  8
DATA
  6
CONTINUOUS
 62
     7
 10
196.24997999999999
 20
88.75
 30
0.0
  0
VERTEX
  5
421
  8
DATA
  6
CONTINUOUS
 62
     7
 10
192.25003000000001
 20
95.678269999999983
 30
0.0
  0
VERTEX
  5
422
  8
DATA
  6
CONTINUOUS
 62
     7
 10
184.25004000000001
 20
95.678340000000006
 30
0.0
  0
VERTEX
  5
423
  8
DATA
  6
CONTINUOUS
 62
     7
 10
180.24999
 20
88.750120000000024
 30
0.0
  0
VERTEX
  5
424
  8
DATA
  6
CONTINUOUS
 62
     7
 10
184.24994000000001
 20
81.821719999999985
 30
0.0
  0
VERTEX
  5
425
  8
DATA
  6
CONTINUOUS
 62
     7
 10
192.24992
 20
81.821640000000002
 30
0.0
  0
SEQEND
  5
426
  8
DATA
  6
CONTINUOUS
 62
     7
  0
LINE
  5
106
  8
DATA
  6
CONTINUOUS
 62
     7
 10
188.24997999999999
 20
71.0
 30
0.0
 11
188.24997999999999
 21
39.499989999999997
 31
0.0
  0
LINE
  5
107
  8
DATA
  6
CONTINUOUS
 62
     7
 10
188.24997999999999
 20
106.49999
 30
0.0
 11
188.24997999999999
 21
103.8
 31
0.0
  0
LINE
  5
108
  8
DATA
  6
CONTINUOUS
 62
     7
 10
188.24997999999999
 20
73.699989999999985
 30
0.0
 11
188.24997999999999
 21
71.0
 31
0.0
  0
LINE
  5
109
  8
DATA
  6
CONTINUOUS
 62
     7
 10
188.24997999999999
 20
71.800000000000026
 30
0.0
 11
188.24997999999999
 21
71.0
 31
0.0
  0
LINE
  5
10A
  8
DATA
  6
CONTINUOUS
 62
     7
 10
186.69846000000001
 20
73.699989999999985
 30
0.0
 11
189.80151000000001
 21
73.699989999999985
 31
0.0
  0
LINE
  5
10B
  8
DATA
  6
CONTINUOUS
 62
     7
 10
186.69846000000001
 20
106.49999
 30
0.0
 11
189.80151000000001
 21
106.49999
 31
0.0
  0
LINE
  5
10C
  8
DATA
  6
CONTINUOUS
 62
     7
 10
186.69846000000001
 20
103.8
 30
0.0
 11
189.80151000000001
 21
103.8
 31
0.0
  0
LINE
  5
10D
  8
DATA
  6
CONTINUOUS
 62
     7
 10
190.74997999999999
 20
70.380500000000012
 30
0.0
 11
190.74997999999999
 21
38.200000000000017
 31
0.0
  0
LINE
  5
10E
  8
DATA
  6
CONTINUOUS
 62
     7
 10
185.74997999999999
 20
70.380500000000012
 30
0.0
 11
185.74997999999999
 21
38.200000000000017
 31
0.0
  0
ARC
  5
10F
  8
DATA
  6
CONTINUOUS
 62
     7
 10
188.24997999999999
 20
41.70000000000001
 30
0.0
 40
2.5
 50
180.0
 51
0.0
  0
ARC
  5
110
  8
DATA
  6
CONTINUOUS
 62
     7
 10
183.74997999999999
 20
70.380500000000012
 30
0.0
 40
2.0
 50
0.0
 51
60.273595996571999
  0
ARC
  5
111
  8
DATA
  6
CONTINUOUS
 62
     7
 10
192.74997999999999
 20
70.380500000000012
 30
0.0
 40
1.9999907410035631
 50
119.7262972768871
 51
180.0
  0
LINE
  5
112
  8
DATA
  6
CONTINUOUS
 62
     7
 10
174.74999
 20
22.99999
 30
0.0
 11
201.74997999999999
 21
22.99999
 31
0.0
  0
LINE
  5
113
  8
DATA
  6
CONTINUOUS
 62
     7
 10
174.74999
 20
22.99999
 30
0.0
 11
174.74999
 21
34.300000000000011
 31
0.0
  0
LINE
  5
114
  8
DATA
  6
CONTINUOUS
 62
     7
 10
201.74997999999999
 20
22.99999
 30
0.0
 11
201.74997999999999
 21
34.499989999999997
 31
0.0
  0
LINE
  5
115
  8
DATA
  6
CONTINUOUS
 62
     7
 10
185.74997999999999
 20
64.0
 30
0.0
 11
185.59338
 21
64.0
 31
0.0
  0
ARC
  5
116
  8
DATA
  6
CONTINUOUS
 62
     7
 10
185.5934
 20
58.000000000000021
 30
0.0
 40
6.0000000000333191
 50
90.000190985931624
 51
175.98285457347379
  0
LINE
  5
117
  8
DATA
  6
CONTINUOUS
 62
     7
 10
190.74997999999999
 20
64.0
 30
0.0
 11
190.90658999999999
 21
64.0
 31
0.0
  0
ARC
  5
118
  8
DATA
  6
CONTINUOUS
 62
     7
 10
190.90657999999999
 20
58.000000000000021
 30
0.0
 40
6.0000019152663571
 50
4.0172406848479856
 51
89.999904507034046
  0
ARC
  5
119
  8
DATA
  6
CONTINUOUS
 62
     7
 10
188.24997999999999
 20
38.200000000000017
 30
0.0
 40
2.5
 50
180.0
 51
0.0
  0
LINE
  5
11A
  8
DATA
  6
CONTINUOUS
 62
     7
 10
191.24997999999999
 20
22.99999
 30
0.0
 11
191.24997999999999
 21
26.99999
 31
0.0
  0
LINE
  5
11B
  8
DATA
  6
CONTINUOUS
 62
     7
 10
185.24997999999999
 20
22.99999
 30
0.0
 11
185.24997999999999
 21
26.99999
 31
0.0
  0
LINE
  5
11C
  8
DATA
  6
CONTINUOUS
 62
     7
 10
185.24997999999999
 20
26.99999
 30
0.0
 11
191.24997999999999
 21
26.99999
 31
0.0
  0
LINE
  5
11D
  8
DATA
  6
CONTINUOUS
 62
     7
 10
185.24997999999999
 20
25.49999
 30
0.0
 11
191.24997999999999
 21
25.49999
 31
0.0
  0
LINE
  5
11E
  8
DATA
  6
CONTINUOUS
 62
     7
 10
196.09998999999999
 20
18.99999
 30
0.0
 11
196.09998999999999
 21
11.0
 31
0.0
  0
LINE
  5
11F
  8
DATA
  6
CONTINUOUS
 62
     7
 10
180.39998
 20
18.99999
 30
0.0
 11
180.39998
 21
11.0
 31
0.0
  0
LINE
  5
120
  8
DATA
  6
CONTINUOUS
 62
     7
 10
200.99997999999999
 20
11.0
 30
0.0
 11
200.99997999999999
 21
7.0
 31
0.0
  0
LINE
  5
121
  8
DATA
  6
CONTINUOUS
 62
     7
 10
175.49999
 20
11.0
 30
0.0
 11
175.49999
 21
7.0
 31
0.0
  0
LINE
  5
122
  8
DATA
  6
CONTINUOUS
 62
     7
 10
175.49999
 20
11.0
 30
0.0
 11
200.99997999999999
 21
11.0
 31
0.0
  0
LINE
  5
123
  8
DATA
  6
CONTINUOUS
 62
     7
 10
149.99997999999999
 20
0.0
 30
0.0
 11
226.49997999999999
 21
0.0
 31
0.0
  0
LINE
  5
124
  8
DATA
  6
CONTINUOUS
 62
     7
 10
151.24997999999999
 20
7.0
 30
0.0
 11
225.24997999999999
 21
7.0
 31
0.0
  0
LINE
  5
125
  8
DATA
  6
CONTINUOUS
 62
     7
 10
186.69846000000001
 20
71.0
 30
0.0
 11
189.80151000000001
 21
71.0
 31
0.0
  0
LINE
  5
126
  8
DATA
  6
CONTINUOUS
 62
     7
 10
178.74999
 20
18.99999
 30
0.0
 11
197.74997999999999
 21
18.99999
 31
0.0
  0
LINE
  5
127
  8
DATA
  6
CONTINUOUS
 62
     7
 10
178.74999
 20
18.99999
 30
0.0
 11
178.74999
 21
22.99999
 31
0.0
  0
LINE
  5
128
  8
DATA
  6
CONTINUOUS
 62
     7
 10
197.74997999999999
 20
18.99999
 30
0.0
 11
197.74997999999999
 21
22.99999
 31
0.0
  0
LINE
  5
129
  8
DATA
  6
CONTINUOUS
 62
     7
 10
193.99997999999999
 20
22.99999
 30
0.0
 11
193.99997999999999
 21
18.99999
 31
0.0
  0
LINE
  5
12A
  8
DATA
  6
CONTINUOUS
 62
     7
 10
182.49997999999999
 20
22.99999
 30
0.0
 11
182.49997999999999
 21
18.99999
 31
0.0
  0
LINE
  5
12B
  8
DATA
  6
CONTINUOUS
 62
     7
 10
124.99997999999999
 20
306.24999000000008
 30
0.0
 11
124.99997999999999
 21
212.49999
 31
0.0
  0
LINE
  5
12C
  8
DATA
  6
CONTINUOUS
 62
     7
 10
124.99997999999999
 20
212.49999
 30
0.0
 11
175.99999
 21
161.5
 31
0.0
  0
CIRCLE
  5
12D
  8
DATA
  6
CONTINUOUS
 62
     7
 10
187.49997999999999
 20
287.89999
 30
0.0
 40
3.2999899999999931
  0
CIRCLE
  5
12E
  8
DATA
  6
CONTINUOUS
 62
     7
 10
187.49997999999999
 20
287.89999
 30
0.0
 40
6.0
  0
LINE
  5
12F
  8
DATA
  6
CONTINUOUS
 62
     7
 10
176.74999
 20
231.00117
 30
0.0
 11
198.24997999999999
 21
231.00117
 31
0.0
  0
LINE
  5
130
  8
DATA
  6
CONTINUOUS
 62
     7
 10
176.74999
 20
236.00117
 30
0.0
 11
198.24997999999999
 21
236.00117
 31
0.0
  0
LINE
  5
131
  8
DATA
  6
CONTINUOUS
 62
     7
 10
176.74999
 20
236.00117
 30
0.0
 11
176.74999
 21
231.00117
 31
0.0
  0
LINE
  5
132
  8
DATA
  6
CONTINUOUS
 62
     7
 10
198.24997999999999
 20
236.00117
 30
0.0
 11
198.24997999999999
 21
231.00117
 31
0.0
  0
TEXT
  5
133
  8
DATA
 62
     7
 10
177.93037062499991
 20
231.55717999999999
 30
0.0
 40
4.1554687499999989
  1
S
 41
0.7
 72
     1
 11
178.89998
 21
235.71264875
 31
0.0
 73
     3
  0
TEXT
  5
134
  8
DATA
 62
     7
 10
182.23037062500001
 20
231.55717999999999
 30
0.0
 40
4.1554687499999989
  1
H
 41
0.7
 72
     1
 11
183.19998000000001
 21
235.71264875
 31
0.0
 73
     3
  0
TEXT
  5
135
  8
DATA
 62
     7
 10
186.53037062499999
 20
231.55717999999999
 30
0.0
 40
4.1554687499999989
  1
U
 41
0.7
 72
     1
 11
187.49997999999999
 21
235.71264875
 31
0.0
 73
     3
  0
TEXT
  5
136
  8
DATA
 62
     7
 10
190.830380625
 20
231.55717999999999
 30
0.0
 40
4.1554687499999989
  1
R
 41
0.7
 72
     1
 11
191.79999000000001
 21
235.71264875
 31
0.0
 73
     3
  0
TEXT
  5
137
  8
DATA
 62
     7
 10
195.23037062500001
 20
231.55717999999999
 30
0.0
 40
4.1554687499999989
  1
E
 41
0.7
 72
     1
 11
196.19998000000001
 21
235.71264875
 31
0.0
 73
     3
  0
CIRCLE
  5
138
  8
DATA
  6
CONTINUOUS
 62
     7
 10
187.49997999999999
 20
262.49997999999999
 30
0.0
 40
37.0
  0
CIRCLE
  5
139
  8
DATA
  6
CONTINUOUS
 62
     7
 10
187.49997999999999
 20
262.49997999999999
 30
0.0
 40
38.25
  0
CIRCLE
  5
13A
  8
DATA
  6
CONTINUOUS
 62
     7
 10
187.49997999999999
 20
262.49997999999999
 30
0.0
 40
12.74998999999999
  0
CIRCLE
  5
13B
  8
DATA
  6
CONTINUOUS
 62
     7
 10
187.49997999999999
 20
262.49997999999999
 30
0.0
 40
7.8500000000000068
  0
LINE
  5
13C
  8
DATA
  6
CONTINUOUS
 62
     7
 10
195.72746000000001
 20
267.24979000000002
 30
0.0
 11
187.50012000000001
 21
271.99997999999999
 31
0.0
  0
LINE
  5
13D
  8
DATA
  6
CONTINUOUS
 62
     7
 10
195.72723999999999
 20
257.74981000000002
 30
0.0
 11
195.72746000000001
 21
267.24979000000002
 31
0.0
  0
LINE
  5
13E
  8
DATA
  6
CONTINUOUS
 62
     7
 10
187.49969999999999
 20
252.99999
 30
0.0
 11
195.72723999999999
 21
257.74981000000002
 31
0.0
  0
LINE
  5
13F
  8
DATA
  6
CONTINUOUS
 62
     7
 10
179.27251000000001
 20
257.75017000000003
 30
0.0
 11
187.49969999999999
 21
252.99999
 31
0.0
  0
LINE
  5
140
  8
DATA
  6
CONTINUOUS
 62
     7
 10
179.27273
 20
267.25015999999999
 30
0.0
 11
179.27251000000001
 21
257.75017000000003
 31
0.0
  0
LINE
  5
141
  8
DATA
  6
CONTINUOUS
 62
     7
 10
187.50012000000001
 20
271.99997999999999
 30
0.0
 11
179.27273
 21
267.25015999999999
 31
0.0
  0
CIRCLE
  5
142
  8
DATA
  6
CONTINUOUS
 62
     7
 10
187.49997999999999
 20
262.49997999999999
 30
0.0
 40
4.5
  0
CIRCLE
  5
143
  8
DATA
  6
CONTINUOUS
 62
     7
 10
187.49997999999999
 20
262.49997999999999
 30
0.0
 40
12.99999478419126
  0
CIRCLE
  5
144
  8
DATA
  6
CONTINUOUS
 62
     7
 10
56.0
 20
203.00074000000001
 30
0.0
 40
3.2999999999999998
  0
CIRCLE
  5
145
  8
DATA
  6
CONTINUOUS
 62
     7
 10
56.0
 20
203.00074000000001
 30
0.0
 40
6.0
  0
LINE
  5
146
  8
DATA
  6
CONTINUOUS
 62
     7
 10
45.25
 20
147.00118000000001
 30
0.0
 11
66.749989999999997
 21
147.00118000000001
 31
0.0
  0
LINE
  5
147
  8
DATA
  6
CONTINUOUS
 62
     7
 10
45.25
 20
152.00118000000001
 30
0.0
 11
66.749989999999997
 21
152.00118000000001
 31
0.0
  0
LINE
  5
148
  8
DATA
  6
CONTINUOUS
 62
     7
 10
45.25
 20
152.00118000000001
 30
0.0
 11
45.25
 21
147.00118000000001
 31
0.0
  0
LINE
  5
149
  8
DATA
  6
CONTINUOUS
 62
     7
 10
66.749989999999997
 20
152.00118000000001
 30
0.0
 11
66.749989999999997
 21
147.00118000000001
 31
0.0
  0
TEXT
  5
14A
  8
DATA
 62
     7
 10
46.430390625000001
 20
147.55718999999999
 30
0.0
 40
4.1554687499999989
  1
S
 41
0.7
 72
     1
 11
47.399999999999999
 21
151.71265875
 31
0.0
 73
     3
  0
TEXT
  5
14B
  8
DATA
 62
     7
 10
50.730380625000002
 20
147.55718999999999
 30
0.0
 40
4.1554687499999989
  1
H
 41
0.7
 72
     1
 11
51.69999
 21
151.71265875
 31
0.0
 73
     3
  0
TEXT
  5
14C
  8
DATA
 62
     7
 10
55.030390625000003
 20
147.55718999999999
 30
0.0
 40
4.1554687499999989
  1
U
 41
0.7
 72
     1
 11
56.0
 21
151.71265875
 31
0.0
 73
     3
  0
TEXT
  5
14D
  8
DATA
 62
     7
 10
59.330390625
 20
147.55718999999999
 30
0.0
 40
4.1554687499999989
  1
R
 41
0.7
 72
     1
 11
60.299999999999997
 21
151.71265875
 31
0.0
 73
     3
  0
TEXT
  5
14E
  8
DATA
 62
     7
 10
63.730390625000013
 20
147.55718999999999
 30
0.0
 40
4.1554687499999989
  1
E
 41
0.7
 72
     1
 11
64.700000000000003
 21
151.71265875
 31
0.0
 73
     3
  0
ARC
  5
14F
  8
DATA
  6
CONTINUOUS
 62
     7
 10
56.0
 20
178.49997999999999
 30
0.0
 40
36.499995930653192
 50
25.999065494884071
 51
154.0009554951134
  0
ARC
  5
150
  8
DATA
  6
CONTINUOUS
 62
     7
 10
56.0
 20
178.49997999999999
 30
0.0
 40
38.25
 50
24.802864209042369
 51
154.92267429937601
  0
ARC
  5
151
  8
DATA
  6
CONTINUOUS
 62
     7
 10
56.0
 20
178.49997999999999
 30
0.0
 40
37.0
 50
205.99901628705871
 51
334.00096960402561
  0
ARC
  5
152
  8
DATA
  6
CONTINUOUS
 62
     7
 10
56.0
 20
178.49997999999999
 30
0.0
 40
38.25
 50
205.07729177372161
 51
334.92268804636552
  0
ARC
  5
153
  8
DATA
  6
CONTINUOUS
 62
     7
 10
34.781720000000007
 20
166.24960999999999
 30
0.0
 40
5.9999916295441604
 50
218.6774807714429
 51
321.3225192285571
  0
ARC
  5
154
  8
DATA
  6
CONTINUOUS
 62
     7
 10
77.218279999999979
 20
166.24960999999999
 30
0.0
 40
5.9999994363083067
 50
218.6774210944574
 51
321.32244467945571
  0
CIRCLE
  5
155
  8
DATA
  6
STYLE_01
 62
     7
 10
187.49997999999999
 20
262.49997999999999
 30
0.0
 40
25.39999910831888
  0
CIRCLE
  5
156
  8
DATA
  6
CONTINUOUS
 62
     7
 10
165.50294
 20
249.79999000000001
 30
0.0
 40
3.2999899999999931
  0
CIRCLE
  5
157
  8
DATA
  6
CONTINUOUS
 62
     7
 10
165.50294
 20
249.79999000000001
 30
0.0
 40
6.0
  0
CIRCLE
  5
158
  8
DATA
  6
CONTINUOUS
 62
     7
 10
209.49703
 20
249.79999000000001
 30
0.0
 40
3.2999899999999931
  0
CIRCLE
  5
159
  8
DATA
  6
CONTINUOUS
 62
     7
 10
209.49703
 20
249.79999000000001
 30
0.0
 40
6.0
  0
ARC
  5
15A
  8
DATA
  6
CONTINUOUS
 62
     7
 10
55.256399999999999
 20
53.738240000000012
 30
0.0
 40
10.28978369943702
 50
17.639840032557832
 51
85.856807332256224
  0
ARC
  5
15B
  8
DATA
  6
CONTINUOUS
 62
     7
 10
-50.158249999999981
 20
23.65062
 30
0.0
 40
119.9100151674554
 50
359.68911240736992
 51
16.07660964848105
  0
POLYLINE
  5
15C
  8
DATA
  6
CONTINUOUS
 62
     7
 66
     1
 10
0.0
 20
0.0
 30
0.0
 70
   128
  0
VERTEX
  5
427
  8
DATA
  6
CONTINUOUS
 62
     7
 10
174.7474399999999
 20
34.300000000000011
 30
0.0
  0
VERTEX
  5
428
  8
DATA
  6
CONTINUOUS
 62
     7
 10
174.74744031005861
 20
34.300000000000011
 30
0.0
  0
VERTEX
  5
429
  8
DATA
  6
CONTINUOUS
 62
     7
 10
174.74744124023431
 20
34.300000000000011
 30
0.0
  0
VERTEX
  5
42A
  8
DATA
  6
CONTINUOUS
 62
     7
 10
174.74744279052729
 20
34.300000000000011
 30
0.0
  0
VERTEX
  5
42B
  8
DATA
  6
CONTINUOUS
 62
     7
 10
174.7474449609374
 20
34.300000000000011
 30
0.0
  0
VERTEX
  5
42C
  8
DATA
  6
CONTINUOUS
 62
     7
 10
174.74744775146479
 20
34.300000000000011
 30
0.0
  0
VERTEX
  5
42D
  8
DATA
  6
CONTINUOUS
 62
     7
 10
174.74745116210929
 20
34.300000000000011
 30
0.0
  0
VERTEX
  5
42E
  8
DATA
  6
CONTINUOUS
 62
     7
 10
174.74745519287109
 20
34.300000000000011
 30
0.0
  0
VERTEX
  5
42F
  8
DATA
  6
CONTINUOUS
 62
     7
 10
174.74745984374999
 20
34.300000000000011
 30
0.0
  0
VERTEX
  5
430
  8
DATA
  6
CONTINUOUS
 62
     7
 10
174.74746511474601
 20
34.300000000000011
 30
0.0
  0
VERTEX
  5
431
  8
DATA
  6
CONTINUOUS
 62
     7
 10
174.74747100585941
 20
34.300000000000011
 30
0.0
  0
VERTEX
  5
432
  8
DATA
  6
CONTINUOUS
 62
     7
 10
174.74747751708981
 20
34.300000000000011
 30
0.0
  0
VERTEX
  5
433
  8
DATA
  6
CONTINUOUS
 62
     7
 10
174.74748464843739
 20
34.300000000000011
 30
0.0
  0
VERTEX
  5
434
  8
DATA
  6
CONTINUOUS
 62
     7
 10
174.74749239990231
 20
34.300000000000011
 30
0.0
  0
VERTEX
  5
435
  8
DATA
  6
CONTINUOUS
 62
     7
 10
174.74750077148431
 20
34.300000000000011
 30
0.0
  0
VERTEX
  5
436
  8
DATA
  6
CONTINUOUS
 62
     7
 10
174.74750976318359
 20
34.300000000000011
 30
0.0
  0
VERTEX
  5
437
  8
DATA
  6
CONTINUOUS
 62
     7
 10
174.74751937499991
 20
34.300000000000011
 30
0.0
  0
VERTEX
  5
438
  8
DATA
  6
CONTINUOUS
 62
     7
 10
174.7475296069336
 20
34.300000000000011
 30
0.0
  0
VERTEX
  5
439
  8
DATA
  6
CONTINUOUS
 62
     7
 10
174.74754045898439
 20
34.300000000000011
 30
0.0
  0
VERTEX
  5
43A
  8
DATA
  6
CONTINUOUS
 62
     7
 10
174.74755193115229
 20
34.300000000000011
 30
0.0
  0
VERTEX
  5
43B
  8
DATA
  6
CONTINUOUS
 62
     7
 10
174.74756402343741
 20
34.300000000000011
 30
0.0
  0
VERTEX
  5
43C
  8
DATA
  6
CONTINUOUS
 62
     7
 10
174.7475767358398
 20
34.300000000000011
 30
0.0
  0
VERTEX
  5
43D
  8
DATA
  6
CONTINUOUS
 62
     7
 10
174.74759006835939
 20
34.300000000000011
 30
0.0
  0
VERTEX
  5
43E
  8
DATA
  6
CONTINUOUS
 62
     7
 10
174.74760402099611
 20
34.300000000000011
 30
0.0
  0
VERTEX
  5
43F
  8
DATA
  6
CONTINUOUS
 62
     7
 10
174.74761859374999
 20
34.300000000000011
 30
0.0
  0
VERTEX
  5
440
  8
DATA
  6
CONTINUOUS
 62
     7
 10
174.74763378662109
 20
34.300000000000011
 30
0.0
  0
VERTEX
  5
441
  8
DATA
  6
CONTINUOUS
 62
     7
 10
174.74764959960939
 20
34.300000000000011
 30
0.0
  0
VERTEX
  5
442
  8
DATA
  6
CONTINUOUS
 62
     7
 10
174.74766603271479
 20
34.300000000000011
 30
0.0
  0
VERTEX
  5
443
  8
DATA
  6
CONTINUOUS
 62
     7
 10
174.74768308593741
 20
34.300000000000011
 30
0.0
  0
VERTEX
  5
444
  8
DATA
  6
CONTINUOUS
 62
     7
 10
174.74770075927731
 20
34.300000000000011
 30
0.0
  0
VERTEX
  5
445
  8
DATA
  6
CONTINUOUS
 62
     7
 10
174.74771905273431
 20
34.300000000000011
 30
0.0
  0
VERTEX
  5
446
  8
DATA
  6
CONTINUOUS
 62
     7
 10
174.74773796630859
 20
34.300000000000011
 30
0.0
  0
VERTEX
  5
447
  8
DATA
  6
CONTINUOUS
 62
     7
 10
174.74775749999989
 20
34.300000000000011
 30
0.0
  0
VERTEX
  5
448
  8
DATA
  6
CONTINUOUS
 62
     7
 10
174.7477776538085
 20
34.300000000000011
 30
0.0
  0
VERTEX
  5
449
  8
DATA
  6
CONTINUOUS
 62
     7
 10
174.74779842773441
 20
34.300000000000011
 30
0.0
  0
VERTEX
  5
44A
  8
DATA
  6
CONTINUOUS
 62
     7
 10
174.74781982177731
 20
34.300000000000011
 30
0.0
  0
VERTEX
  5
44B
  8
DATA
  6
CONTINUOUS
 62
     7
 10
174.74784183593741
 20
34.300000000000011
 30
0.0
  0
VERTEX
  5
44C
  8
DATA
  6
CONTINUOUS
 62
     7
 10
174.74786447021481
 20
34.300000000000011
 30
0.0
  0
VERTEX
  5
44D
  8
DATA
  6
CONTINUOUS
 62
     7
 10
174.74788772460931
 20
34.300000000000011
 30
0.0
  0
VERTEX
  5
44E
  8
DATA
  6
CONTINUOUS
 62
     7
 10
174.7479115991211
 20
34.300000000000011
 30
0.0
  0
VERTEX
  5
44F
  8
DATA
  6
CONTINUOUS
 62
     7
 10
174.7479360937499
 20
34.300000000000011
 30
0.0
  0
VERTEX
  5
450
  8
DATA
  6
CONTINUOUS
 62
     7
 10
174.74796120849601
 20
34.300000000000011
 30
0.0
  0
VERTEX
  5
451
  8
DATA
  6
CONTINUOUS
 62
     7
 10
174.74798694335931
 20
34.300000000000011
 30
0.0
  0
VERTEX
  5
452
  8
DATA
  6
CONTINUOUS
 62
     7
 10
174.7480132983398
 20
34.300000000000011
 30
0.0
  0
VERTEX
  5
453
  8
DATA
  6
CONTINUOUS
 62
     7
 10
174.7480402734374
 20
34.300000000000011
 30
0.0
  0
VERTEX
  5
454
  8
DATA
  6
CONTINUOUS
 62
     7
 10
174.7480678686523
 20
34.300000000000011
 30
0.0
  0
VERTEX
  5
455
  8
DATA
  6
CONTINUOUS
 62
     7
 10
174.74809608398431
 20
34.300000000000011
 30
0.0
  0
VERTEX
  5
456
  8
DATA
  6
CONTINUOUS
 62
     7
 10
174.74812491943351
 20
34.300000000000011
 30
0.0
  0
VERTEX
  5
457
  8
DATA
  6
CONTINUOUS
 62
     7
 10
174.7481543749999
 20
34.300000000000011
 30
0.0
  0
VERTEX
  5
458
  8
DATA
  6
CONTINUOUS
 62
     7
 10
174.7481844506836
 20
34.300000000000011
 30
0.0
  0
VERTEX
  5
459
  8
DATA
  6
CONTINUOUS
 62
     7
 10
174.74821514648431
 20
34.300000000000011
 30
0.0
  0
VERTEX
  5
45A
  8
DATA
  6
CONTINUOUS
 62
     7
 10
174.74824646240231
 20
34.300000000000011
 30
0.0
  0
VERTEX
  5
45B
  8
DATA
  6
CONTINUOUS
 62
     7
 10
174.74827839843741
 20
34.300000000000011
 30
0.0
  0
VERTEX
  5
45C
  8
DATA
  6
CONTINUOUS
 62
     7
 10
174.74831095458981
 20
34.300000000000011
 30
0.0
  0
VERTEX
  5
45D
  8
DATA
  6
CONTINUOUS
 62
     7
 10
174.74834413085941
 20
34.300000000000011
 30
0.0
  0
VERTEX
  5
45E
  8
DATA
  6
CONTINUOUS
 62
     7
 10
174.74837792724611
 20
34.300000000000011
 30
0.0
  0
VERTEX
  5
45F
  8
DATA
  6
CONTINUOUS
 62
     7
 10
174.74841234374989
 20
34.300000000000011
 30
0.0
  0
VERTEX
  5
460
  8
DATA
  6
CONTINUOUS
 62
     7
 10
174.74844738037109
 20
34.300000000000011
 30
0.0
  0
VERTEX
  5
461
  8
DATA
  6
CONTINUOUS
 62
     7
 10
174.74848303710931
 20
34.300000000000011
 30
0.0
  0
VERTEX
  5
462
  8
DATA
  6
CONTINUOUS
 62
     7
 10
174.74851931396481
 20
34.300000000000011
 30
0.0
  0
VERTEX
  5
463
  8
DATA
  6
CONTINUOUS
 62
     7
 10
174.74855621093749
 20
34.300000000000011
 30
0.0
  0
VERTEX
  5
464
  8
DATA
  6
CONTINUOUS
 62
     7
 10
174.74859372802729
 20
34.300000000000011
 30
0.0
  0
VERTEX
  5
465
  8
DATA
  6
CONTINUOUS
 62
     7
 10
174.74863186523439
 20
34.300000000000011
 30
0.0
  0
VERTEX
  5
466
  8
DATA
  6
CONTINUOUS
 62
     7
 10
174.74867062255859
 20
34.300000000000011
 30
0.0
  0
VERTEX
  5
467
  8
DATA
  6
CONTINUOUS
 62
     7
 10
174.74870999999999
 20
34.300000000000011
 30
0.0
  0
VERTEX
  5
468
  8
DATA
  6
CONTINUOUS
 62
     7
 10
174.74870999999999
 20
34.300000000000011
 30
0.0
  0
VERTEX
  5
469
  8
DATA
  6
CONTINUOUS
 62
     7
 10
174.7893577172851
 20
34.300788942871087
 30
0.0
  0
VERTEX
  5
46A
  8
DATA
  6
CONTINUOUS
 62
     7
 10
174.8299202441406
 20
34.30315577148437
 30
0.0
  0
VERTEX
  5
46B
  8
DATA
  6
CONTINUOUS
 62
     7
 10
174.87039758056639
 20
34.307100485839882
 30
0.0
  0
VERTEX
  5
46C
  8
DATA
  6
CONTINUOUS
 62
     7
 10
174.9107897265624
 20
34.312623085937531
 30
0.0
  0
VERTEX
  5
46D
  8
DATA
  6
CONTINUOUS
 62
     7
 10
174.95109668212891
 20
34.319723571777402
 30
0.0
  0
VERTEX
  5
46E
  8
DATA
  6
CONTINUOUS
 62
     7
 10
174.9913184472656
 20
34.32840194335941
 30
0.0
  0
VERTEX
  5
46F
  8
DATA
  6
CONTINUOUS
 62
     7
 10
175.03145502197259
 20
34.338658200683618
 30
0.0
  0
VERTEX
  5
470
  8
DATA
  6
CONTINUOUS
 62
     7
 10
175.07150640624999
 20
34.350492343749998
 30
0.0
  0
VERTEX
  5
471
  8
DATA
  6
CONTINUOUS
 62
     7
 10
175.11147260009761
 20
34.363904372558608
 30
0.0
  0
VERTEX
  5
472
  8
DATA
  6
CONTINUOUS
 62
     7
 10
175.15135360351559
 20
34.378894287109368
 30
0.0
  0
VERTEX
  5
473
  8
DATA
  6
CONTINUOUS
 62
     7
 10
175.19114941650381
 20
34.395462087402372
 30
0.0
  0
VERTEX
  5
474
  8
DATA
  6
CONTINUOUS
 62
     7
 10
175.23086003906241
 20
34.413607773437519
 30
0.0
  0
VERTEX
  5
475
  8
DATA
  6
CONTINUOUS
 62
     7
 10
175.27048547119139
 20
34.433331345214903
 30
0.0
  0
VERTEX
  5
476
  8
DATA
  6
CONTINUOUS
 62
     7
 10
175.31002571289059
 20
34.454632802734409
 30
0.0
  0
VERTEX
  5
477
  8
DATA
  6
CONTINUOUS
 62
     7
 10
175.34948076416009
 20
34.477512145996123
 30
0.0
  0
VERTEX
  5
478
  8
DATA
  6
CONTINUOUS
 62
     7
 10
175.388850625
 20
34.501969375000023
 30
0.0
  0
VERTEX
  5
479
  8
DATA
  6
CONTINUOUS
 62
     7
 10
175.4281352954101
 20
34.52800448974611
 30
0.0
  0
VERTEX
  5
47A
  8
DATA
  6
CONTINUOUS
 62
     7
 10
175.46733477539061
 20
34.555617490234368
 30
0.0
  0
VERTEX
  5
47B
  8
DATA
  6
CONTINUOUS
 62
     7
 10
175.50644906494139
 20
34.584808376464863
 30
0.0
  0
VERTEX
  5
47C
  8
DATA
  6
CONTINUOUS
 62
     7
 10
175.5454781640625
 20
34.615577148437488
 30
0.0
  0
VERTEX
  5
47D
  8
DATA
  6
CONTINUOUS
 62
     7
 10
175.58442207275391
 20
34.647923806152363
 30
0.0
  0
VERTEX
  5
47E
  8
DATA
  6
CONTINUOUS
 62
     7
 10
175.62328079101559
 20
34.681848349609403
 30
0.0
  0
VERTEX
  5
47F
  8
DATA
  6
CONTINUOUS
 62
     7
 10
175.66205431884759
 20
34.717350778808601
 30
0.0
  0
VERTEX
  5
480
  8
DATA
  6
CONTINUOUS
 62
     7
 10
175.70074265624999
 20
34.754431093750007
 30
0.0
  0
VERTEX
  5
481
  8
DATA
  6
CONTINUOUS
 62
     7
 10
175.7393458032227
 20
34.793089294433628
 30
0.0
  0
VERTEX
  5
482
  8
DATA
  6
CONTINUOUS
 62
     7
 10
175.77786375976561
 20
34.833325380859407
 30
0.0
  0
VERTEX
  5
483
  8
DATA
  6
CONTINUOUS
 62
     7
 10
175.8162965258789
 20
34.875139353027379
 30
0.0
  0
VERTEX
  5
484
  8
DATA
  6
CONTINUOUS
 62
     7
 10
175.85464410156251
 20
34.918531210937523
 30
0.0
  0
VERTEX
  5
485
  8
DATA
  6
CONTINUOUS
 62
     7
 10
175.8929064868164
 20
34.963500954589882
 30
0.0
  0
VERTEX
  5
486
  8
DATA
  6
CONTINUOUS
 62
     7
 10
175.93108368164059
 20
35.0100485839844
 30
0.0
  0
VERTEX
  5
487
  8
DATA
  6
CONTINUOUS
 62
     7
 10
175.9691756860351
 20
35.058174099121132
 30
0.0
  0
VERTEX
  5
488
  8
DATA
  6
CONTINUOUS
 62
     7
 10
176.0071825
 20
35.107877500000001
 30
0.0
  0
VERTEX
  5
489
  8
DATA
  6
CONTINUOUS
 62
     7
 10
176.04510412353511
 20
35.159158786621077
 30
0.0
  0
VERTEX
  5
48A
  8
DATA
  6
CONTINUOUS
 62
     7
 10
176.08294055664049
 20
35.212017958984383
 30
0.0
  0
VERTEX
  5
48B
  8
DATA
  6
CONTINUOUS
 62
     7
 10
176.1206917993164
 20
35.266455017089847
 30
0.0
  0
VERTEX
  5
48C
  8
DATA
  6
CONTINUOUS
 62
     7
 10
176.1583578515625
 20
35.322469960937489
 30
0.0
  0
VERTEX
  5
48D
  8
DATA
  6
CONTINUOUS
 62
     7
 10
176.19593871337881
 20
35.380062790527383
 30
0.0
  0
VERTEX
  5
48E
  8
DATA
  6
CONTINUOUS
 62
     7
 10
176.23343438476559
 20
35.439233505859391
 30
0.0
  0
VERTEX
  5
48F
  8
DATA
  6
CONTINUOUS
 62
     7
 10
176.27084486572269
 20
35.499982106933629
 30
0.0
  0
VERTEX
  5
490
  8
DATA
  6
CONTINUOUS
 62
     7
 10
176.30817015624999
 20
35.562308593750011
 30
0.0
  0
VERTEX
  5
491
  8
DATA
  6
CONTINUOUS
 62
     7
 10
176.34541025634761
 20
35.626212966308572
 30
0.0
  0
VERTEX
  5
492
  8
DATA
  6
CONTINUOUS
 62
     7
 10
176.38256516601561
 20
35.691695224609362
 30
0.0
  0
VERTEX
  5
493
  8
DATA
  6
CONTINUOUS
 62
     7
 10
176.41963488525391
 20
35.758755368652352
 30
0.0
  0
VERTEX
  5
494
  8
DATA
  6
CONTINUOUS
 62
     7
 10
176.45661941406249
 20
35.827393398437501
 30
0.0
  0
VERTEX
  5
495
  8
DATA
  6
CONTINUOUS
 62
     7
 10
176.49351875244139
 20
35.897609313964843
 30
0.0
  0
VERTEX
  5
496
  8
DATA
  6
CONTINUOUS
 62
     7
 10
176.53033290039059
 20
35.969403115234357
 30
0.0
  0
VERTEX
  5
497
  8
DATA
  6
CONTINUOUS
 62
     7
 10
176.5670618579102
 20
36.0427748022461
 30
0.0
  0
VERTEX
  5
498
  8
DATA
  6
CONTINUOUS
 62
     7
 10
176.603705625
 20
36.117724375000002
 30
0.0
  0
VERTEX
  5
499
  8
DATA
  6
CONTINUOUS
 62
     7
 10
176.6402642016601
 20
36.194251833496111
 30
0.0
  0
VERTEX
  5
49A
  8
DATA
  6
CONTINUOUS
 62
     7
 10
176.67673758789061
 20
36.272357177734399
 30
0.0
  0
VERTEX
  5
49B
  8
DATA
  6
CONTINUOUS
 62
     7
 10
176.7131257836914
 20
36.352040407714867
 30
0.0
  0
VERTEX
  5
49C
  8
DATA
  6
CONTINUOUS
 62
     7
 10
176.74942878906251
 20
36.433301523437507
 30
0.0
  0
VERTEX
  5
49D
  8
DATA
  6
CONTINUOUS
 62
     7
 10
176.78564660400389
 20
36.51614052490234
 30
0.0
  0
VERTEX
  5
49E
  8
DATA
  6
CONTINUOUS
 62
     7
 10
176.8217792285156
 20
36.600557412109403
 30
0.0
  0
VERTEX
  5
49F
  8
DATA
  6
CONTINUOUS
 62
     7
 10
176.8578266625976
 20
36.686552185058623
 30
0.0
  0
VERTEX
  5
4A0
  8
DATA
  6
CONTINUOUS
 62
     7
 10
176.89378890624999
 20
36.774124843750002
 30
0.0
  0
VERTEX
  5
4A1
  8
DATA
  6
CONTINUOUS
 62
     7
 10
176.9296659594726
 20
36.863275388183609
 30
0.0
  0
VERTEX
  5
4A2
  8
DATA
  6
CONTINUOUS
 62
     7
 10
176.96545782226559
 20
36.954003818359382
 30
0.0
  0
VERTEX
  5
4A3
  8
DATA
  6
CONTINUOUS
 62
     7
 10
177.00116449462891
 20
37.04631013427732
 30
0.0
  0
VERTEX
  5
4A4
  8
DATA
  6
CONTINUOUS
 62
     7
 10
177.0367859765625
 20
37.140194335937473
 30
0.0
  0
VERTEX
  5
4A5
  8
DATA
  6
CONTINUOUS
 62
     7
 10
177.07232226806639
 20
37.235656423339833
 30
0.0
  0
VERTEX
  5
4A6
  8
DATA
  6
CONTINUOUS
 62
     7
 10
177.1077733691406
 20
37.332696396484387
 30
0.0
  0
VERTEX
  5
4A7
  8
DATA
  6
CONTINUOUS
 62
     7
 10
177.14313927978509
 20
37.43131425537112
 30
0.0
  0
VERTEX
  5
4A8
  8
DATA
  6
CONTINUOUS
 62
     7
 10
177.17841999999999
 20
37.531509999999997
 30
0.0
  0
VERTEX
  5
4A9
  8
DATA
  6
CONTINUOUS
 62
     7
 10
177.17841999999999
 20
37.531509999999997
 30
0.0
  0
VERTEX
  5
4AA
  8
DATA
  6
CONTINUOUS
 62
     7
 10
177.21354208496089
 20
37.633072543945332
 30
0.0
  0
VERTEX
  5
4AB
  8
DATA
  6
CONTINUOUS
 62
     7
 10
177.24843146484369
 20
37.735790175781261
 30
0.0
  0
VERTEX
  5
4AC
  8
DATA
  6
CONTINUOUS
 62
     7
 10
177.28308813964841
 20
37.839662895507807
 30
0.0
  0
VERTEX
  5
4AD
  8
DATA
  6
CONTINUOUS
 62
     7
 10
177.317512109375
 20
37.944690703125012
 30
0.0
  0
VERTEX
  5
4AE
  8
DATA
  6
CONTINUOUS
 62
     7
 10
177.3517033740234
 20
38.050873598632847
 30
0.0
  0
VERTEX
  5
4AF
  8
DATA
  6
CONTINUOUS
 62
     7
 10
177.3856619335937
 20
38.158211582031271
 30
0.0
  0
VERTEX
  5
4B0
  8
DATA
  6
CONTINUOUS
 62
     7
 10
177.41938778808591
 20
38.266704653320318
 30
0.0
  0
VERTEX
  5
4B1
  8
DATA
  6
CONTINUOUS
 62
     7
 10
177.4528809375
 20
38.376352812500009
 30
0.0
  0
VERTEX
  5
4B2
  8
DATA
  6
CONTINUOUS
 62
     7
 10
177.48614138183589
 20
38.487156059570339
 30
0.0
  0
VERTEX
  5
4B3
  8
DATA
  6
CONTINUOUS
 62
     7
 10
177.51916912109371
 20
38.59911439453127
 30
0.0
  0
VERTEX
  5
4B4
  8
DATA
  6
CONTINUOUS
 62
     7
 10
177.5519641552734
 20
38.71222781738286
 30
0.0
  0
VERTEX
  5
4B5
  8
DATA
  6
CONTINUOUS
 62
     7
 10
177.58452648437489
 20
38.826496328125017
 30
0.0
  0
VERTEX
  5
4B6
  8
DATA
  6
CONTINUOUS
 62
     7
 10
177.61685610839839
 20
38.941919926757848
 30
0.0
  0
VERTEX
  5
4B7
  8
DATA
  6
CONTINUOUS
 62
     7
 10
177.64895302734371
 20
39.058498613281273
 30
0.0
  0
VERTEX
  5
4B8
  8
DATA
  6
CONTINUOUS
 62
     7
 10
177.68081724121089
 20
39.176232387695357
 30
0.0
  0
VERTEX
  5
4B9
  8
DATA
  6
CONTINUOUS
 62
     7
 10
177.71244874999999
 20
39.295121250000022
 30
0.0
  0
VERTEX
  5
4BA
  8
DATA
  6
CONTINUOUS
 62
     7
 10
177.74384755371091
 20
39.415165200195332
 30
0.0
  0
VERTEX
  5
4BB
  8
DATA
  6
CONTINUOUS
 62
     7
 10
177.77501365234369
 20
39.536364238281273
 30
0.0
  0
VERTEX
  5
4BC
  8
DATA
  6
CONTINUOUS
 62
     7
 10
177.80594704589839
 20
39.658718364257851
 30
0.0
  0
VERTEX
  5
4BD
  8
DATA
  6
CONTINUOUS
 62
     7
 10
177.83664773437499
 20
39.782227578125031
 30
0.0
  0
VERTEX
  5
4BE
  8
DATA
  6
CONTINUOUS
 62
     7
 10
177.8671157177734
 20
39.906891879882863
 30
0.0
  0
VERTEX
  5
4BF
  8
DATA
  6
CONTINUOUS
 62
     7
 10
177.89735099609371
 20
40.032711269531291
 30
0.0
  0
VERTEX
  5
4C0
  8
DATA
  6
CONTINUOUS
 62
     7
 10
177.92735356933591
 20
40.159685747070363
 30
0.0
  0
VERTEX
  5
4C1
  8
DATA
  6
CONTINUOUS
 62
     7
 10
177.9571234375
 20
40.287815312500051
 30
0.0
  0
VERTEX
  5
4C2
  8
DATA
  6
CONTINUOUS
 62
     7
 10
177.98666060058591
 20
40.417099965820363
 30
0.0
  0
VERTEX
  5
4C3
  8
DATA
  6
CONTINUOUS
 62
     7
 10
178.01596505859371
 20
40.547539707031291
 30
0.0
  0
VERTEX
  5
4C4
  8
DATA
  6
CONTINUOUS
 62
     7
 10
178.0450368115234
 20
40.679134536132857
 30
0.0
  0
VERTEX
  5
4C5
  8
DATA
  6
CONTINUOUS
 62
     7
 10
178.07387585937499
 20
40.811884453125032
 30
0.0
  0
VERTEX
  5
4C6
  8
DATA
  6
CONTINUOUS
 62
     7
 10
178.10248220214839
 20
40.945789458007852
 30
0.0
  0
VERTEX
  5
4C7
  8
DATA
  6
CONTINUOUS
 62
     7
 10
178.13085583984369
 20
41.080849550781267
 30
0.0
  0
VERTEX
  5
4C8
  8
DATA
  6
CONTINUOUS
 62
     7
 10
178.15899677246091
 20
41.217064731445319
 30
0.0
  0
VERTEX
  5
4C9
  8
DATA
  6
CONTINUOUS
 62
     7
 10
178.186905
 20
41.354435000000009
 30
0.0
  0
VERTEX
  5
4CA
  8
DATA
  6
CONTINUOUS
 62
     7
 10
178.21458052246089
 20
41.492960356445359
 30
0.0
  0
VERTEX
  5
4CB
  8
DATA
  6
CONTINUOUS
 62
     7
 10
178.24202333984371
 20
41.632640800781267
 30
0.0
  0
VERTEX
  5
4CC
  8
DATA
  6
CONTINUOUS
 62
     7
 10
178.2692334521484
 20
41.773476333007849
 30
0.0
  0
VERTEX
  5
4CD
  8
DATA
  6
CONTINUOUS
 62
     7
 10
178.2962108593749
 20
41.915466953125012
 30
0.0
  0
VERTEX
  5
4CE
  8
DATA
  6
CONTINUOUS
 62
     7
 10
178.3229555615234
 20
42.058612661132841
 30
0.0
  0
VERTEX
  5
4CF
  8
DATA
  6
CONTINUOUS
 62
     7
 10
178.34946755859369
 20
42.202913457031258
 30
0.0
  0
VERTEX
  5
4D0
  8
DATA
  6
CONTINUOUS
 62
     7
 10
178.3757468505859
 20
42.348369340820327
 30
0.0
  0
VERTEX
  5
4D1
  8
DATA
  6
CONTINUOUS
 62
     7
 10
178.4017934375
 20
42.494980312500012
 30
0.0
  0
VERTEX
  5
4D2
  8
DATA
  6
CONTINUOUS
 62
     7
 10
178.427607319336
 20
42.64274637207032
 30
0.0
  0
VERTEX
  5
4D3
  8
DATA
  6
CONTINUOUS
 62
     7
 10
178.4531884960937
 20
42.791667519531273
 30
0.0
  0
VERTEX
  5
4D4
  8
DATA
  6
CONTINUOUS
 62
     7
 10
178.47853696777341
 20
42.941743754882843
 30
0.0
  0
VERTEX
  5
4D5
  8
DATA
  6
CONTINUOUS
 62
     7
 10
178.50365273437501
 20
43.092975078125022
 30
0.0
  0
VERTEX
  5
4D6
  8
DATA
  6
CONTINUOUS
 62
     7
 10
178.52853579589839
 20
43.24536148925781
 30
0.0
  0
VERTEX
  5
4D7
  8
DATA
  6
CONTINUOUS
 62
     7
 10
178.5531861523437
 20
43.398902988281272
 30
0.0
  0
VERTEX
  5
4D8
  8
DATA
  6
CONTINUOUS
 62
     7
 10
178.5776038037109
 20
43.553599575195328
 30
0.0
  0
VERTEX
  5
4D9
  8
DATA
  6
CONTINUOUS
 62
     7
 10
178.60178875
 20
43.709451250000001
 30
0.0
  0
VERTEX
  5
4DA
  8
DATA
  6
CONTINUOUS
 62
     7
 10
178.6257409912109
 20
43.866458012695347
 30
0.0
  0
VERTEX
  5
4DB
  8
DATA
  6
CONTINUOUS
 62
     7
 10
178.64946052734371
 20
44.024619863281259
 30
0.0
  0
VERTEX
  5
4DC
  8
DATA
  6
CONTINUOUS
 62
     7
 10
178.6729473583984
 20
44.183936801757831
 30
0.0
  0
VERTEX
  5
4DD
  8
DATA
  6
CONTINUOUS
 62
     7
 10
178.696201484375
 20
44.344408828125012
 30
0.0
  0
VERTEX
  5
4DE
  8
DATA
  6
CONTINUOUS
 62
     7
 10
178.7192229052734
 20
44.506035942382852
 30
0.0
  0
VERTEX
  5
4DF
  8
DATA
  6
CONTINUOUS
 62
     7
 10
178.7420116210937
 20
44.668818144531279
 30
0.0
  0
VERTEX
  5
4E0
  8
DATA
  6
CONTINUOUS
 62
     7
 10
178.76456763183589
 20
44.832755434570331
 30
0.0
  0
VERTEX
  5
4E1
  8
DATA
  6
CONTINUOUS
 62
     7
 10
178.7868909375
 20
44.997847812500019
 30
0.0
  0
VERTEX
  5
4E2
  8
DATA
  6
CONTINUOUS
 62
     7
 10
178.8089815380859
 20
45.164095278320332
 30
0.0
  0
VERTEX
  5
4E3
  8
DATA
  6
CONTINUOUS
 62
     7
 10
178.8308394335937
 20
45.33149783203126
 30
0.0
  0
VERTEX
  5
4E4
  8
DATA
  6
CONTINUOUS
 62
     7
 10
178.85246462402341
 20
45.500055473632841
 30
0.0
  0
VERTEX
  5
4E5
  8
DATA
  6
CONTINUOUS
 62
     7
 10
178.873857109375
 20
45.66976820312501
 30
0.0
  0
VERTEX
  5
4E6
  8
DATA
  6
CONTINUOUS
 62
     7
 10
178.89501688964839
 20
45.840636020507837
 30
0.0
  0
VERTEX
  5
4E7
  8
DATA
  6
CONTINUOUS
 62
     7
 10
178.91594396484371
 20
46.01265892578126
 30
0.0
  0
VERTEX
  5
4E8
  8
DATA
  6
CONTINUOUS
 62
     7
 10
178.936638334961
 20
46.185836918945341
 30
0.0
  0
VERTEX
  5
4E9
  8
DATA
  6
CONTINUOUS
 62
     7
 10
178.9571
 20
46.360170000000011
 30
0.0
  0
VERTEX
  5
4EA
  8
DATA
  6
CONTINUOUS
 62
     7
 10
178.9571
 20
46.360170000000011
 30
0.0
  0
VERTEX
  5
4EB
  8
DATA
  6
CONTINUOUS
 62
     7
 10
178.9772857446288
 20
46.535291716308592
 30
0.0
  0
VERTEX
  5
4EC
  8
DATA
  6
CONTINUOUS
 62
     7
 10
178.99715360351561
 20
46.710836240234393
 30
0.0
  0
VERTEX
  5
4ED
  8
DATA
  6
CONTINUOUS
 62
     7
 10
179.01670357666009
 20
46.886803571777357
 30
0.0
  0
VERTEX
  5
4EE
  8
DATA
  6
CONTINUOUS
 62
     7
 10
179.03593566406241
 20
47.063193710937519
 30
0.0
  0
VERTEX
  5
4EF
  8
DATA
  6
CONTINUOUS
 62
     7
 10
179.05484986572259
 20
47.240006657714872
 30
0.0
  0
VERTEX
  5
4F0
  8
DATA
  6
CONTINUOUS
 62
     7
 10
179.07344618164061
 20
47.417242412109388
 30
0.0
  0
VERTEX
  5
4F1
  8
DATA
  6
CONTINUOUS
 62
     7
 10
179.0917246118164
 20
47.594900974121103
 30
0.0
  0
VERTEX
  5
4F2
  8
DATA
  6
CONTINUOUS
 62
     7
 10
179.10968515625001
 20
47.772982343750023
 30
0.0
  0
VERTEX
  5
4F3
  8
DATA
  6
CONTINUOUS
 62
     7
 10
179.1273278149414
 20
47.951486520996099
 30
0.0
  0
VERTEX
  5
4F4
  8
DATA
  6
CONTINUOUS
 62
     7
 10
179.14465258789059
 20
48.130413505859387
 30
0.0
  0
VERTEX
  5
4F5
  8
DATA
  6
CONTINUOUS
 62
     7
 10
179.16165947509759
 20
48.30976329833986
 30
0.0
  0
VERTEX
  5
4F6
  8
DATA
  6
CONTINUOUS
 62
     7
 10
179.17834847656241
 20
48.489535898437509
 30
0.0
  0
VERTEX
  5
4F7
  8
DATA
  6
CONTINUOUS
 62
     7
 10
179.19471959228511
 20
48.669731306152322
 30
0.0
  0
VERTEX
  5
4F8
  8
DATA
  6
CONTINUOUS
 62
     7
 10
179.2107728222656
 20
48.850349521484397
 30
0.0
  0
VERTEX
  5
4F9
  8
DATA
  6
CONTINUOUS
 62
     7
 10
179.22650816650381
 20
49.031390544433613
 30
0.0
  0
VERTEX
  5
4FA
  8
DATA
  6
CONTINUOUS
 62
     7
 10
179.24192562499999
 20
49.212854374999999
 30
0.0
  0
VERTEX
  5
4FB
  8
DATA
  6
CONTINUOUS
 62
     7
 10
179.2570251977539
 20
49.394741013183612
 30
0.0
  0
VERTEX
  5
4FC
  8
DATA
  6
CONTINUOUS
 62
     7
 10
179.2718068847656
 20
49.577050458984388
 30
0.0
  0
VERTEX
  5
4FD
  8
DATA
  6
CONTINUOUS
 62
     7
 10
179.2862706860351
 20
49.759782712402362
 30
0.0
  0
VERTEX
  5
4FE
  8
DATA
  6
CONTINUOUS
 62
     7
 10
179.3004166015624
 20
49.942937773437507
 30
0.0
  0
VERTEX
  5
4FF
  8
DATA
  6
CONTINUOUS
 62
     7
 10
179.31424463134761
 20
50.126515642089842
 30
0.0
  0
VERTEX
  5
500
  8
DATA
  6
CONTINUOUS
 62
     7
 10
179.32775477539059
 20
50.310516318359383
 30
0.0
  0
VERTEX
  5
501
  8
DATA
  6
CONTINUOUS
 62
     7
 10
179.34094703369141
 20
50.494939802246101
 30
0.0
  0
VERTEX
  5
502
  8
DATA
  6
CONTINUOUS
 62
     7
 10
179.35382140625001
 20
50.67978609375001
 30
0.0
  0
VERTEX
  5
503
  8
DATA
  6
CONTINUOUS
 62
     7
 10
179.36637789306641
 20
50.865055192871097
 30
0.0
  0
VERTEX
  5
504
  8
DATA
  6
CONTINUOUS
 62
     7
 10
179.3786164941406
 20
51.050747099609367
 30
0.0
  0
VERTEX
  5
505
  8
DATA
  6
CONTINUOUS
 62
     7
 10
179.3905372094726
 20
51.23686181396485
 30
0.0
  0
VERTEX
  5
506
  8
DATA
  6
CONTINUOUS
 62
     7
 10
179.4021400390624
 20
51.423399335937503
 30
0.0
  0
VERTEX
  5
507
  8
DATA
  6
CONTINUOUS
 62
     7
 10
179.4134249829101
 20
51.610359665527341
 30
0.0
  0
VERTEX
  5
508
  8
DATA
  6
CONTINUOUS
 62
     7
 10
179.42439204101561
 20
51.797742802734383
 30
0.0
  0
VERTEX
  5
509
  8
DATA
  6
CONTINUOUS
 62
     7
 10
179.4350412133789
 20
51.985548747558603
 30
0.0
  0
VERTEX
  5
50A
  8
DATA
  6
CONTINUOUS
 62
     7
 10
179.44537249999999
 20
52.1737775
 30
0.0
  0
VERTEX
  5
50B
  8
DATA
  6
CONTINUOUS
 62
     7
 10
179.45538590087881
 20
52.362429060058567
 30
0.0
  0
VERTEX
  5
50C
  8
DATA
  6
CONTINUOUS
 62
     7
 10
179.46508141601561
 20
52.551503427734353
 30
0.0
  0
VERTEX
  5
50D
  8
DATA
  6
CONTINUOUS
 62
     7
 10
179.4744590454101
 20
52.741000603027317
 30
0.0
  0
VERTEX
  5
50E
  8
DATA
  6
CONTINUOUS
 62
     7
 10
179.4835187890624
 20
52.930920585937493
 30
0.0
  0
VERTEX
  5
50F
  8
DATA
  6
CONTINUOUS
 62
     7
 10
179.4922606469726
 20
53.12126337646486
 30
0.0
  0
VERTEX
  5
510
  8
DATA
  6
CONTINUOUS
 62
     7
 10
179.5006846191406
 20
53.312028974609383
 30
0.0
  0
VERTEX
  5
511
  8
DATA
  6
CONTINUOUS
 62
     7
 10
179.50879070556641
 20
53.503217380371098
 30
0.0
  0
VERTEX
  5
512
  8
DATA
  6
CONTINUOUS
 62
     7
 10
179.51657890625
 20
53.69482859375001
 30
0.0
  0
VERTEX
  5
513
  8
DATA
  6
CONTINUOUS
 62
     7
 10
179.5240492211914
 20
53.886862614746093
 30
0.0
  0
VERTEX
  5
514
  8
DATA
  6
CONTINUOUS
 62
     7
 10
179.5312016503905
 20
54.079319443359367
 30
0.0
  0
VERTEX
  5
515
  8
DATA
  6
CONTINUOUS
 62
     7
 10
179.5380361938476
 20
54.272199079589853
 30
0.0
  0
VERTEX
  5
516
  8
DATA
  6
CONTINUOUS
 62
     7
 10
179.5445528515624
 20
54.465501523437503
 30
0.0
  0
VERTEX
  5
517
  8
DATA
  6
CONTINUOUS
 62
     7
 10
179.55075162353509
 20
54.659226774902351
 30
0.0
  0
VERTEX
  5
518
  8
DATA
  6
CONTINUOUS
 62
     7
 10
179.55663250976559
 20
54.853374833984383
 30
0.0
  0
VERTEX
  5
519
  8
DATA
  6
CONTINUOUS
 62
     7
 10
179.5621955102539
 20
55.047945700683599
 30
0.0
  0
VERTEX
  5
51A
  8
DATA
  6
CONTINUOUS
 62
     7
 10
179.56744062499999
 20
55.242939375000013
 30
0.0
  0
VERTEX
  5
51B
  8
DATA
  6
CONTINUOUS
 62
     7
 10
179.57236785400389
 20
55.438355856933597
 30
0.0
  0
VERTEX
  5
51C
  8
DATA
  6
CONTINUOUS
 62
     7
 10
179.57697719726559
 20
55.634195146484387
 30
0.0
  0
VERTEX
  5
51D
  8
DATA
  6
CONTINUOUS
 62
     7
 10
179.58126865478511
 20
55.830457243652361
 30
0.0
  0
VERTEX
  5
51E
  8
DATA
  6
CONTINUOUS
 62
     7
 10
179.5852422265624
 20
56.02714214843752
 30
0.0
  0
VERTEX
  5
51F
  8
DATA
  6
CONTINUOUS
 62
     7
 10
179.58889791259759
 20
56.224249860839862
 30
0.0
  0
VERTEX
  5
520
  8
DATA
  6
CONTINUOUS
 62
     7
 10
179.59223571289061
 20
56.421780380859381
 30
0.0
  0
VERTEX
  5
521
  8
DATA
  6
CONTINUOUS
 62
     7
 10
179.59525562744139
 20
56.619733708496121
 30
0.0
  0
VERTEX
  5
522
  8
DATA
  6
CONTINUOUS
 62
     7
 10
179.59795765625
 20
56.818109843750022
 30
0.0
  0
VERTEX
  5
523
  8
DATA
  6
CONTINUOUS
 62
     7
 10
179.6003417993164
 20
57.016908786621123
 30
0.0
  0
VERTEX
  5
524
  8
DATA
  6
CONTINUOUS
 62
     7
 10
179.6024080566406
 20
57.216130537109393
 30
0.0
  0
VERTEX
  5
525
  8
DATA
  6
CONTINUOUS
 62
     7
 10
179.60415642822261
 20
57.415775095214862
 30
0.0
  0
VERTEX
  5
526
  8
DATA
  6
CONTINUOUS
 62
     7
 10
179.6055869140624
 20
57.615842460937522
 30
0.0
  0
VERTEX
  5
527
  8
DATA
  6
CONTINUOUS
 62
     7
 10
179.60669951416011
 20
57.816332634277359
 30
0.0
  0
VERTEX
  5
528
  8
DATA
  6
CONTINUOUS
 62
     7
 10
179.60749422851561
 20
58.017245615234359
 30
0.0
  0
VERTEX
  5
529
  8
DATA
  6
CONTINUOUS
 62
     7
 10
179.60797105712891
 20
58.218581403808606
 30
0.0
  0
VERTEX
  5
52A
  8
DATA
  6
CONTINUOUS
 62
     7
 10
179.60812999999999
 20
58.42034000000001
 30
0.0
  0
VERTEX
  5
52B
  8
DATA
  6
CONTINUOUS
 62
     7
 10
179.60812999999999
 20
58.42034000000001
 30
0.0
  0
SEQEND
  5
52C
  8
DATA
  6
CONTINUOUS
 62
     7
  0
ARC
  5
263
  8
DATA
  6
CONTINUOUS
 62
     7
 10
183.69980000000001
 20
51.974440000000001
 30
0.0
 40
14.68260971555123
 50
339.98882161721963
 51
26.041060790591079
  0
POLYLINE
  5
264
  8
DATA
  6
CONTINUOUS
 62
     7
 66
     1
 10
0.0
 20
0.0
 30
0.0
 70
   128
  0
VERTEX
  5
52D
  8
DATA
  6
CONTINUOUS
 62
     7
 10
201.75253000000001
 20
34.300000000000011
 30
0.0
  0
VERTEX
  5
52E
  8
DATA
  6
CONTINUOUS
 62
     7
 10
201.75252968994141
 20
34.300000000000011
 30
0.0
  0
VERTEX
  5
52F
  8
DATA
  6
CONTINUOUS
 62
     7
 10
201.7525287597656
 20
34.300000000000011
 30
0.0
  0
VERTEX
  5
530
  8
DATA
  6
CONTINUOUS
 62
     7
 10
201.75252720947259
 20
34.300000000000011
 30
0.0
  0
VERTEX
  5
531
  8
DATA
  6
CONTINUOUS
 62
     7
 10
201.7525250390625
 20
34.300000000000011
 30
0.0
  0
VERTEX
  5
532
  8
DATA
  6
CONTINUOUS
 62
     7
 10
201.7525222485352
 20
34.300000000000011
 30
0.0
  0
VERTEX
  5
533
  8
DATA
  6
CONTINUOUS
 62
     7
 10
201.75251883789059
 20
34.300000000000011
 30
0.0
  0
VERTEX
  5
534
  8
DATA
  6
CONTINUOUS
 62
     7
 10
201.7525148071289
 20
34.300000000000011
 30
0.0
  0
VERTEX
  5
535
  8
DATA
  6
CONTINUOUS
 62
     7
 10
201.75251015625
 20
34.300000000000011
 30
0.0
  0
VERTEX
  5
536
  8
DATA
  6
CONTINUOUS
 62
     7
 10
201.7525048852539
 20
34.300000000000011
 30
0.0
  0
VERTEX
  5
537
  8
DATA
  6
CONTINUOUS
 62
     7
 10
201.75249899414061
 20
34.300000000000011
 30
0.0
  0
VERTEX
  5
538
  8
DATA
  6
CONTINUOUS
 62
     7
 10
201.75249248291021
 20
34.300000000000011
 30
0.0
  0
VERTEX
  5
539
  8
DATA
  6
CONTINUOUS
 62
     7
 10
201.75248535156251
 20
34.300000000000011
 30
0.0
  0
VERTEX
  5
53A
  8
DATA
  6
CONTINUOUS
 62
     7
 10
201.75247760009759
 20
34.300000000000011
 30
0.0
  0
VERTEX
  5
53B
  8
DATA
  6
CONTINUOUS
 62
     7
 10
201.75246922851559
 20
34.300000000000011
 30
0.0
  0
VERTEX
  5
53C
  8
DATA
  6
CONTINUOUS
 62
     7
 10
201.7524602368164
 20
34.300000000000011
 30
0.0
  0
VERTEX
  5
53D
  8
DATA
  6
CONTINUOUS
 62
     7
 10
201.75245062499999
 20
34.300000000000011
 30
0.0
  0
VERTEX
  5
53E
  8
DATA
  6
CONTINUOUS
 62
     7
 10
201.75244039306639
 20
34.300000000000011
 30
0.0
  0
VERTEX
  5
53F
  8
DATA
  6
CONTINUOUS
 62
     7
 10
201.7524295410156
 20
34.300000000000011
 30
0.0
  0
VERTEX
  5
540
  8
DATA
  6
CONTINUOUS
 62
     7
 10
201.75241806884759
 20
34.300000000000011
 30
0.0
  0
VERTEX
  5
541
  8
DATA
  6
CONTINUOUS
 62
     7
 10
201.7524059765625
 20
34.300000000000011
 30
0.0
  0
VERTEX
  5
542
  8
DATA
  6
CONTINUOUS
 62
     7
 10
201.7523932641601
 20
34.300000000000011
 30
0.0
  0
VERTEX
  5
543
  8
DATA
  6
CONTINUOUS
 62
     7
 10
201.7523799316406
 20
34.300000000000011
 30
0.0
  0
VERTEX
  5
544
  8
DATA
  6
CONTINUOUS
 62
     7
 10
201.75236597900391
 20
34.300000000000011
 30
0.0
  0
VERTEX
  5
545
  8
DATA
  6
CONTINUOUS
 62
     7
 10
201.75235140625
 20
34.300000000000011
 30
0.0
  0
VERTEX
  5
546
  8
DATA
  6
CONTINUOUS
 62
     7
 10
201.7523362133789
 20
34.300000000000011
 30
0.0
  0
VERTEX
  5
547
  8
DATA
  6
CONTINUOUS
 62
     7
 10
201.7523204003906
 20
34.300000000000011
 30
0.0
  0
VERTEX
  5
548
  8
DATA
  6
CONTINUOUS
 62
     7
 10
201.75230396728509
 20
34.300000000000011
 30
0.0
  0
VERTEX
  5
549
  8
DATA
  6
CONTINUOUS
 62
     7
 10
201.75228691406249
 20
34.300000000000011
 30
0.0
  0
VERTEX
  5
54A
  8
DATA
  6
CONTINUOUS
 62
     7
 10
201.7522692407226
 20
34.300000000000011
 30
0.0
  0
VERTEX
  5
54B
  8
DATA
  6
CONTINUOUS
 62
     7
 10
201.75225094726559
 20
34.300000000000011
 30
0.0
  0
VERTEX
  5
54C
  8
DATA
  6
CONTINUOUS
 62
     7
 10
201.7522320336914
 20
34.300000000000011
 30
0.0
  0
VERTEX
  5
54D
  8
DATA
  6
CONTINUOUS
 62
     7
 10
201.75221250000001
 20
34.300000000000011
 30
0.0
  0
VERTEX
  5
54E
  8
DATA
  6
CONTINUOUS
 62
     7
 10
201.75219234619141
 20
34.300000000000011
 30
0.0
  0
VERTEX
  5
54F
  8
DATA
  6
CONTINUOUS
 62
     7
 10
201.75217157226561
 20
34.300000000000011
 30
0.0
  0
VERTEX
  5
550
  8
DATA
  6
CONTINUOUS
 62
     7
 10
201.75215017822259
 20
34.300000000000011
 30
0.0
  0
VERTEX
  5
551
  8
DATA
  6
CONTINUOUS
 62
     7
 10
201.7521281640625
 20
34.300000000000011
 30
0.0
  0
VERTEX
  5
552
  8
DATA
  6
CONTINUOUS
 62
     7
 10
201.7521055297851
 20
34.300000000000011
 30
0.0
  0
VERTEX
  5
553
  8
DATA
  6
CONTINUOUS
 62
     7
 10
201.75208227539051
 20
34.300000000000011
 30
0.0
  0
VERTEX
  5
554
  8
DATA
  6
CONTINUOUS
 62
     7
 10
201.75205840087889
 20
34.300000000000011
 30
0.0
  0
VERTEX
  5
555
  8
DATA
  6
CONTINUOUS
 62
     7
 10
201.75203390625001
 20
34.300000000000011
 30
0.0
  0
VERTEX
  5
556
  8
DATA
  6
CONTINUOUS
 62
     7
 10
201.7520087915039
 20
34.300000000000011
 30
0.0
  0
VERTEX
  5
557
  8
DATA
  6
CONTINUOUS
 62
     7
 10
201.7519830566406
 20
34.300000000000011
 30
0.0
  0
VERTEX
  5
558
  8
DATA
  6
CONTINUOUS
 62
     7
 10
201.75195670166011
 20
34.300000000000011
 30
0.0
  0
VERTEX
  5
559
  8
DATA
  6
CONTINUOUS
 62
     7
 10
201.75192972656251
 20
34.300000000000011
 30
0.0
  0
VERTEX
  5
55A
  8
DATA
  6
CONTINUOUS
 62
     7
 10
201.75190213134761
 20
34.300000000000011
 30
0.0
  0
VERTEX
  5
55B
  8
DATA
  6
CONTINUOUS
 62
     7
 10
201.7518739160156
 20
34.300000000000011
 30
0.0
  0
VERTEX
  5
55C
  8
DATA
  6
CONTINUOUS
 62
     7
 10
201.7518450805664
 20
34.300000000000011
 30
0.0
  0
VERTEX
  5
55D
  8
DATA
  6
CONTINUOUS
 62
     7
 10
201.75181562500001
 20
34.300000000000011
 30
0.0
  0
VERTEX
  5
55E
  8
DATA
  6
CONTINUOUS
 62
     7
 10
201.75178554931639
 20
34.300000000000011
 30
0.0
  0
VERTEX
  5
55F
  8
DATA
  6
CONTINUOUS
 62
     7
 10
201.75175485351559
 20
34.300000000000011
 30
0.0
  0
VERTEX
  5
560
  8
DATA
  6
CONTINUOUS
 62
     7
 10
201.75172353759771
 20
34.300000000000011
 30
0.0
  0
VERTEX
  5
561
  8
DATA
  6
CONTINUOUS
 62
     7
 10
201.7516916015625
 20
34.300000000000011
 30
0.0
  0
VERTEX
  5
562
  8
DATA
  6
CONTINUOUS
 62
     7
 10
201.75165904541009
 20
34.300000000000011
 30
0.0
  0
VERTEX
  5
563
  8
DATA
  6
CONTINUOUS
 62
     7
 10
201.75162586914061
 20
34.300000000000011
 30
0.0
  0
VERTEX
  5
564
  8
DATA
  6
CONTINUOUS
 62
     7
 10
201.75159207275391
 20
34.300000000000011
 30
0.0
  0
VERTEX
  5
565
  8
DATA
  6
CONTINUOUS
 62
     7
 10
201.75155765624999
 20
34.300000000000011
 30
0.0
  0
VERTEX
  5
566
  8
DATA
  6
CONTINUOUS
 62
     7
 10
201.7515226196289
 20
34.300000000000011
 30
0.0
  0
VERTEX
  5
567
  8
DATA
  6
CONTINUOUS
 62
     7
 10
201.7514869628906
 20
34.300000000000011
 30
0.0
  0
VERTEX
  5
568
  8
DATA
  6
CONTINUOUS
 62
     7
 10
201.75145068603521
 20
34.300000000000011
 30
0.0
  0
VERTEX
  5
569
  8
DATA
  6
CONTINUOUS
 62
     7
 10
201.7514137890625
 20
34.300000000000011
 30
0.0
  0
VERTEX
  5
56A
  8
DATA
  6
CONTINUOUS
 62
     7
 10
201.75137627197259
 20
34.300000000000011
 30
0.0
  0
VERTEX
  5
56B
  8
DATA
  6
CONTINUOUS
 62
     7
 10
201.7513381347656
 20
34.300000000000011
 30
0.0
  0
VERTEX
  5
56C
  8
DATA
  6
CONTINUOUS
 62
     7
 10
201.7512993774414
 20
34.300000000000011
 30
0.0
  0
VERTEX
  5
56D
  8
DATA
  6
CONTINUOUS
 62
     7
 10
201.75126
 20
34.300000000000011
 30
0.0
  0
VERTEX
  5
56E
  8
DATA
  6
CONTINUOUS
 62
     7
 10
201.75126
 20
34.300000000000011
 30
0.0
  0
VERTEX
  5
56F
  8
DATA
  6
CONTINUOUS
 62
     7
 10
201.71061228271481
 20
34.300788942871087
 30
0.0
  0
VERTEX
  5
570
  8
DATA
  6
CONTINUOUS
 62
     7
 10
201.6700497558594
 20
34.30315577148437
 30
0.0
  0
VERTEX
  5
571
  8
DATA
  6
CONTINUOUS
 62
     7
 10
201.6295724194336
 20
34.307100485839882
 30
0.0
  0
VERTEX
  5
572
  8
DATA
  6
CONTINUOUS
 62
     7
 10
201.58918027343739
 20
34.312623085937531
 30
0.0
  0
VERTEX
  5
573
  8
DATA
  6
CONTINUOUS
 62
     7
 10
201.54887331787111
 20
34.319723571777402
 30
0.0
  0
VERTEX
  5
574
  8
DATA
  6
CONTINUOUS
 62
     7
 10
201.50865155273439
 20
34.32840194335941
 30
0.0
  0
VERTEX
  5
575
  8
DATA
  6
CONTINUOUS
 62
     7
 10
201.46851497802729
 20
34.338658200683618
 30
0.0
  0
VERTEX
  5
576
  8
DATA
  6
CONTINUOUS
 62
     7
 10
201.42846359375
 20
34.350492343749998
 30
0.0
  0
VERTEX
  5
577
  8
DATA
  6
CONTINUOUS
 62
     7
 10
201.38849739990241
 20
34.363904372558608
 30
0.0
  0
VERTEX
  5
578
  8
DATA
  6
CONTINUOUS
 62
     7
 10
201.3486163964844
 20
34.378894287109368
 30
0.0
  0
VERTEX
  5
579
  8
DATA
  6
CONTINUOUS
 62
     7
 10
201.3088205834961
 20
34.395462087402372
 30
0.0
  0
VERTEX
  5
57A
  8
DATA
  6
CONTINUOUS
 62
     7
 10
201.2691099609375
 20
34.413607773437519
 30
0.0
  0
VERTEX
  5
57B
  8
DATA
  6
CONTINUOUS
 62
     7
 10
201.2294845288086
 20
34.433331345214903
 30
0.0
  0
VERTEX
  5
57C
  8
DATA
  6
CONTINUOUS
 62
     7
 10
201.1899442871094
 20
34.454632802734409
 30
0.0
  0
VERTEX
  5
57D
  8
DATA
  6
CONTINUOUS
 62
     7
 10
201.15048923583981
 20
34.477512145996123
 30
0.0
  0
VERTEX
  5
57E
  8
DATA
  6
CONTINUOUS
 62
     7
 10
201.11111937499999
 20
34.501969375000023
 30
0.0
  0
VERTEX
  5
57F
  8
DATA
  6
CONTINUOUS
 62
     7
 10
201.0718347045898
 20
34.52800448974611
 30
0.0
  0
VERTEX
  5
580
  8
DATA
  6
CONTINUOUS
 62
     7
 10
201.03263522460929
 20
34.555617490234368
 30
0.0
  0
VERTEX
  5
581
  8
DATA
  6
CONTINUOUS
 62
     7
 10
200.9935209350586
 20
34.584808376464863
 30
0.0
  0
VERTEX
  5
582
  8
DATA
  6
CONTINUOUS
 62
     7
 10
200.95449183593749
 20
34.615577148437488
 30
0.0
  0
VERTEX
  5
583
  8
DATA
  6
CONTINUOUS
 62
     7
 10
200.91554792724611
 20
34.647923806152363
 30
0.0
  0
VERTEX
  5
584
  8
DATA
  6
CONTINUOUS
 62
     7
 10
200.8766892089844
 20
34.681848349609403
 30
0.0
  0
VERTEX
  5
585
  8
DATA
  6
CONTINUOUS
 62
     7
 10
200.8379156811524
 20
34.717350778808601
 30
0.0
  0
VERTEX
  5
586
  8
DATA
  6
CONTINUOUS
 62
     7
 10
200.79922734375
 20
34.754431093750007
 30
0.0
  0
VERTEX
  5
587
  8
DATA
  6
CONTINUOUS
 62
     7
 10
200.7606241967772
 20
34.793089294433628
 30
0.0
  0
VERTEX
  5
588
  8
DATA
  6
CONTINUOUS
 62
     7
 10
200.72210624023441
 20
34.833325380859407
 30
0.0
  0
VERTEX
  5
589
  8
DATA
  6
CONTINUOUS
 62
     7
 10
200.68367347412101
 20
34.875139353027379
 30
0.0
  0
VERTEX
  5
58A
  8
DATA
  6
CONTINUOUS
 62
     7
 10
200.64532589843739
 20
34.918531210937523
 30
0.0
  0
VERTEX
  5
58B
  8
DATA
  6
CONTINUOUS
 62
     7
 10
200.60706351318359
 20
34.963500954589882
 30
0.0
  0
VERTEX
  5
58C
  8
DATA
  6
CONTINUOUS
 62
     7
 10
200.5688863183594
 20
35.0100485839844
 30
0.0
  0
VERTEX
  5
58D
  8
DATA
  6
CONTINUOUS
 62
     7
 10
200.5307943139648
 20
35.058174099121132
 30
0.0
  0
VERTEX
  5
58E
  8
DATA
  6
CONTINUOUS
 62
     7
 10
200.49278749999999
 20
35.107877500000001
 30
0.0
  0
VERTEX
  5
58F
  8
DATA
  6
CONTINUOUS
 62
     7
 10
200.45486587646479
 20
35.159158786621077
 30
0.0
  0
VERTEX
  5
590
  8
DATA
  6
CONTINUOUS
 62
     7
 10
200.4170294433593
 20
35.212017958984383
 30
0.0
  0
VERTEX
  5
591
  8
DATA
  6
CONTINUOUS
 62
     7
 10
200.37927820068359
 20
35.266455017089847
 30
0.0
  0
VERTEX
  5
592
  8
DATA
  6
CONTINUOUS
 62
     7
 10
200.34161214843749
 20
35.322469960937489
 30
0.0
  0
VERTEX
  5
593
  8
DATA
  6
CONTINUOUS
 62
     7
 10
200.3040312866211
 20
35.380062790527383
 30
0.0
  0
VERTEX
  5
594
  8
DATA
  6
CONTINUOUS
 62
     7
 10
200.2665356152344
 20
35.439233505859391
 30
0.0
  0
VERTEX
  5
595
  8
DATA
  6
CONTINUOUS
 62
     7
 10
200.2291251342773
 20
35.499982106933629
 30
0.0
  0
VERTEX
  5
596
  8
DATA
  6
CONTINUOUS
 62
     7
 10
200.19179984375
 20
35.562308593750011
 30
0.0
  0
VERTEX
  5
597
  8
DATA
  6
CONTINUOUS
 62
     7
 10
200.15455974365241
 20
35.626212966308572
 30
0.0
  0
VERTEX
  5
598
  8
DATA
  6
CONTINUOUS
 62
     7
 10
200.11740483398441
 20
35.691695224609362
 30
0.0
  0
VERTEX
  5
599
  8
DATA
  6
CONTINUOUS
 62
     7
 10
200.08033511474611
 20
35.758755368652352
 30
0.0
  0
VERTEX
  5
59A
  8
DATA
  6
CONTINUOUS
 62
     7
 10
200.0433505859375
 20
35.827393398437501
 30
0.0
  0
VERTEX
  5
59B
  8
DATA
  6
CONTINUOUS
 62
     7
 10
200.0064512475586
 20
35.897609313964843
 30
0.0
  0
VERTEX
  5
59C
  8
DATA
  6
CONTINUOUS
 62
     7
 10
199.9696370996094
 20
35.969403115234357
 30
0.0
  0
VERTEX
  5
59D
  8
DATA
  6
CONTINUOUS
 62
     7
 10
199.93290814208979
 20
36.0427748022461
 30
0.0
  0
VERTEX
  5
59E
  8
DATA
  6
CONTINUOUS
 62
     7
 10
199.89626437499999
 20
36.117724375000002
 30
0.0
  0
VERTEX
  5
59F
  8
DATA
  6
CONTINUOUS
 62
     7
 10
199.8597057983398
 20
36.194251833496111
 30
0.0
  0
VERTEX
  5
5A0
  8
DATA
  6
CONTINUOUS
 62
     7
 10
199.82323241210929
 20
36.272357177734399
 30
0.0
  0
VERTEX
  5
5A1
  8
DATA
  6
CONTINUOUS
 62
     7
 10
199.78684421630851
 20
36.352040407714867
 30
0.0
  0
VERTEX
  5
5A2
  8
DATA
  6
CONTINUOUS
 62
     7
 10
199.7505412109374
 20
36.433301523437507
 30
0.0
  0
VERTEX
  5
5A3
  8
DATA
  6
CONTINUOUS
 62
     7
 10
199.7143233959961
 20
36.51614052490234
 30
0.0
  0
VERTEX
  5
5A4
  8
DATA
  6
CONTINUOUS
 62
     7
 10
199.6781907714844
 20
36.600557412109403
 30
0.0
  0
VERTEX
  5
5A5
  8
DATA
  6
CONTINUOUS
 62
     7
 10
199.64214333740239
 20
36.686552185058623
 30
0.0
  0
VERTEX
  5
5A6
  8
DATA
  6
CONTINUOUS
 62
     7
 10
199.60618109375
 20
36.774124843750002
 30
0.0
  0
VERTEX
  5
5A7
  8
DATA
  6
CONTINUOUS
 62
     7
 10
199.5703040405273
 20
36.863275388183609
 30
0.0
  0
VERTEX
  5
5A8
  8
DATA
  6
CONTINUOUS
 62
     7
 10
199.5345121777344
 20
36.954003818359382
 30
0.0
  0
VERTEX
  5
5A9
  8
DATA
  6
CONTINUOUS
 62
     7
 10
199.49880550537111
 20
37.04631013427732
 30
0.0
  0
VERTEX
  5
5AA
  8
DATA
  6
CONTINUOUS
 62
     7
 10
199.46318402343741
 20
37.140194335937473
 30
0.0
  0
VERTEX
  5
5AB
  8
DATA
  6
CONTINUOUS
 62
     7
 10
199.4276477319336
 20
37.235656423339833
 30
0.0
  0
VERTEX
  5
5AC
  8
DATA
  6
CONTINUOUS
 62
     7
 10
199.39219663085939
 20
37.332696396484387
 30
0.0
  0
VERTEX
  5
5AD
  8
DATA
  6
CONTINUOUS
 62
     7
 10
199.35683072021479
 20
37.43131425537112
 30
0.0
  0
VERTEX
  5
5AE
  8
DATA
  6
CONTINUOUS
 62
     7
 10
199.32155
 20
37.531509999999997
 30
0.0
  0
VERTEX
  5
5AF
  8
DATA
  6
CONTINUOUS
 62
     7
 10
199.32155
 20
37.531509999999997
 30
0.0
  0
VERTEX
  5
5B0
  8
DATA
  6
CONTINUOUS
 62
     7
 10
199.28642791503901
 20
37.633072543945332
 30
0.0
  0
VERTEX
  5
5B1
  8
DATA
  6
CONTINUOUS
 62
     7
 10
199.25153853515619
 20
37.735790175781261
 30
0.0
  0
VERTEX
  5
5B2
  8
DATA
  6
CONTINUOUS
 62
     7
 10
199.21688186035149
 20
37.839662895507807
 30
0.0
  0
VERTEX
  5
5B3
  8
DATA
  6
CONTINUOUS
 62
     7
 10
199.1824578906249
 20
37.944690703125012
 30
0.0
  0
VERTEX
  5
5B4
  8
DATA
  6
CONTINUOUS
 62
     7
 10
199.1482666259765
 20
38.050873598632847
 30
0.0
  0
VERTEX
  5
5B5
  8
DATA
  6
CONTINUOUS
 62
     7
 10
199.11430806640621
 20
38.158211582031271
 30
0.0
  0
VERTEX
  5
5B6
  8
DATA
  6
CONTINUOUS
 62
     7
 10
199.08058221191399
 20
38.266704653320318
 30
0.0
  0
VERTEX
  5
5B7
  8
DATA
  6
CONTINUOUS
 62
     7
 10
199.04708906249999
 20
38.376352812500009
 30
0.0
  0
VERTEX
  5
5B8
  8
DATA
  6
CONTINUOUS
 62
     7
 10
199.01382861816401
 20
38.487156059570339
 30
0.0
  0
VERTEX
  5
5B9
  8
DATA
  6
CONTINUOUS
 62
     7
 10
198.98080087890619
 20
38.59911439453127
 30
0.0
  0
VERTEX
  5
5BA
  8
DATA
  6
CONTINUOUS
 62
     7
 10
198.94800584472651
 20
38.71222781738286
 30
0.0
  0
VERTEX
  5
5BB
  8
DATA
  6
CONTINUOUS
 62
     7
 10
198.9154435156249
 20
38.826496328125017
 30
0.0
  0
VERTEX
  5
5BC
  8
DATA
  6
CONTINUOUS
 62
     7
 10
198.8831138916016
 20
38.941919926757848
 30
0.0
  0
VERTEX
  5
5BD
  8
DATA
  6
CONTINUOUS
 62
     7
 10
198.8510169726562
 20
39.058498613281273
 30
0.0
  0
VERTEX
  5
5BE
  8
DATA
  6
CONTINUOUS
 62
     7
 10
198.8191527587891
 20
39.176232387695357
 30
0.0
  0
VERTEX
  5
5BF
  8
DATA
  6
CONTINUOUS
 62
     7
 10
198.78752125
 20
39.295121250000022
 30
0.0
  0
VERTEX
  5
5C0
  8
DATA
  6
CONTINUOUS
 62
     7
 10
198.756122446289
 20
39.415165200195332
 30
0.0
  0
VERTEX
  5
5C1
  8
DATA
  6
CONTINUOUS
 62
     7
 10
198.72495634765619
 20
39.536364238281273
 30
0.0
  0
VERTEX
  5
5C2
  8
DATA
  6
CONTINUOUS
 62
     7
 10
198.6940229541016
 20
39.658718364257851
 30
0.0
  0
VERTEX
  5
5C3
  8
DATA
  6
CONTINUOUS
 62
     7
 10
198.663322265625
 20
39.782227578125031
 30
0.0
  0
VERTEX
  5
5C4
  8
DATA
  6
CONTINUOUS
 62
     7
 10
198.6328542822265
 20
39.906891879882863
 30
0.0
  0
VERTEX
  5
5C5
  8
DATA
  6
CONTINUOUS
 62
     7
 10
198.6026190039062
 20
40.032711269531291
 30
0.0
  0
VERTEX
  5
5C6
  8
DATA
  6
CONTINUOUS
 62
     7
 10
198.57261643066411
 20
40.159685747070363
 30
0.0
  0
VERTEX
  5
5C7
  8
DATA
  6
CONTINUOUS
 62
     7
 10
198.54284656249999
 20
40.287815312500051
 30
0.0
  0
VERTEX
  5
5C8
  8
DATA
  6
CONTINUOUS
 62
     7
 10
198.51330939941411
 20
40.417099965820363
 30
0.0
  0
VERTEX
  5
5C9
  8
DATA
  6
CONTINUOUS
 62
     7
 10
198.4840049414062
 20
40.547539707031291
 30
0.0
  0
VERTEX
  5
5CA
  8
DATA
  6
CONTINUOUS
 62
     7
 10
198.4549331884765
 20
40.679134536132857
 30
0.0
  0
VERTEX
  5
5CB
  8
DATA
  6
CONTINUOUS
 62
     7
 10
198.426094140625
 20
40.811884453125032
 30
0.0
  0
VERTEX
  5
5CC
  8
DATA
  6
CONTINUOUS
 62
     7
 10
198.3974877978516
 20
40.945789458007852
 30
0.0
  0
VERTEX
  5
5CD
  8
DATA
  6
CONTINUOUS
 62
     7
 10
198.36911416015619
 20
41.080849550781267
 30
0.0
  0
VERTEX
  5
5CE
  8
DATA
  6
CONTINUOUS
 62
     7
 10
198.340973227539
 20
41.217064731445319
 30
0.0
  0
VERTEX
  5
5CF
  8
DATA
  6
CONTINUOUS
 62
     7
 10
198.31306499999999
 20
41.354435000000009
 30
0.0
  0
VERTEX
  5
5D0
  8
DATA
  6
CONTINUOUS
 62
     7
 10
198.2853894775391
 20
41.492960356445359
 30
0.0
  0
VERTEX
  5
5D1
  8
DATA
  6
CONTINUOUS
 62
     7
 10
198.25794666015619
 20
41.632640800781267
 30
0.0
  0
VERTEX
  5
5D2
  8
DATA
  6
CONTINUOUS
 62
     7
 10
198.23073654785159
 20
41.773476333007849
 30
0.0
  0
VERTEX
  5
5D3
  8
DATA
  6
CONTINUOUS
 62
     7
 10
198.20375914062501
 20
41.915466953125012
 30
0.0
  0
VERTEX
  5
5D4
  8
DATA
  6
CONTINUOUS
 62
     7
 10
198.17701443847659
 20
42.058612661132841
 30
0.0
  0
VERTEX
  5
5D5
  8
DATA
  6
CONTINUOUS
 62
     7
 10
198.15050244140619
 20
42.202913457031258
 30
0.0
  0
VERTEX
  5
5D6
  8
DATA
  6
CONTINUOUS
 62
     7
 10
198.12422314941409
 20
42.348369340820327
 30
0.0
  0
VERTEX
  5
5D7
  8
DATA
  6
CONTINUOUS
 62
     7
 10
198.09817656249999
 20
42.494980312500012
 30
0.0
  0
VERTEX
  5
5D8
  8
DATA
  6
CONTINUOUS
 62
     7
 10
198.0723626806641
 20
42.64274637207032
 30
0.0
  0
VERTEX
  5
5D9
  8
DATA
  6
CONTINUOUS
 62
     7
 10
198.0467815039062
 20
42.791667519531273
 30
0.0
  0
VERTEX
  5
5DA
  8
DATA
  6
CONTINUOUS
 62
     7
 10
198.0214330322265
 20
42.941743754882843
 30
0.0
  0
VERTEX
  5
5DB
  8
DATA
  6
CONTINUOUS
 62
     7
 10
197.99631726562501
 20
43.092975078125022
 30
0.0
  0
VERTEX
  5
5DC
  8
DATA
  6
CONTINUOUS
 62
     7
 10
197.9714342041016
 20
43.24536148925781
 30
0.0
  0
VERTEX
  5
5DD
  8
DATA
  6
CONTINUOUS
 62
     7
 10
197.94678384765621
 20
43.398902988281272
 30
0.0
  0
VERTEX
  5
5DE
  8
DATA
  6
CONTINUOUS
 62
     7
 10
197.922366196289
 20
43.553599575195328
 30
0.0
  0
VERTEX
  5
5DF
  8
DATA
  6
CONTINUOUS
 62
     7
 10
197.89818124999999
 20
43.709451250000001
 30
0.0
  0
VERTEX
  5
5E0
  8
DATA
  6
CONTINUOUS
 62
     7
 10
197.874229008789
 20
43.866458012695347
 30
0.0
  0
VERTEX
  5
5E1
  8
DATA
  6
CONTINUOUS
 62
     7
 10
197.8505094726562
 20
44.024619863281259
 30
0.0
  0
VERTEX
  5
5E2
  8
DATA
  6
CONTINUOUS
 62
     7
 10
197.82702264160159
 20
44.183936801757831
 30
0.0
  0
VERTEX
  5
5E3
  8
DATA
  6
CONTINUOUS
 62
     7
 10
197.80376851562499
 20
44.344408828125012
 30
0.0
  0
VERTEX
  5
5E4
  8
DATA
  6
CONTINUOUS
 62
     7
 10
197.78074709472651
 20
44.506035942382852
 30
0.0
  0
VERTEX
  5
5E5
  8
DATA
  6
CONTINUOUS
 62
     7
 10
197.75795837890621
 20
44.668818144531279
 30
0.0
  0
VERTEX
  5
5E6
  8
DATA
  6
CONTINUOUS
 62
     7
 10
197.73540236816399
 20
44.832755434570331
 30
0.0
  0
VERTEX
  5
5E7
  8
DATA
  6
CONTINUOUS
 62
     7
 10
197.71307906249999
 20
44.997847812500019
 30
0.0
  0
VERTEX
  5
5E8
  8
DATA
  6
CONTINUOUS
 62
     7
 10
197.69098846191409
 20
45.164095278320332
 30
0.0
  0
VERTEX
  5
5E9
  8
DATA
  6
CONTINUOUS
 62
     7
 10
197.66913056640621
 20
45.33149783203126
 30
0.0
  0
VERTEX
  5
5EA
  8
DATA
  6
CONTINUOUS
 62
     7
 10
197.64750537597649
 20
45.500055473632841
 30
0.0
  0
VERTEX
  5
5EB
  8
DATA
  6
CONTINUOUS
 62
     7
 10
197.626112890625
 20
45.66976820312501
 30
0.0
  0
VERTEX
  5
5EC
  8
DATA
  6
CONTINUOUS
 62
     7
 10
197.6049531103516
 20
45.840636020507837
 30
0.0
  0
VERTEX
  5
5ED
  8
DATA
  6
CONTINUOUS
 62
     7
 10
197.5840260351562
 20
46.01265892578126
 30
0.0
  0
VERTEX
  5
5EE
  8
DATA
  6
CONTINUOUS
 62
     7
 10
197.5633316650391
 20
46.185836918945341
 30
0.0
  0
VERTEX
  5
5EF
  8
DATA
  6
CONTINUOUS
 62
     7
 10
197.54286999999999
 20
46.360170000000011
 30
0.0
  0
VERTEX
  5
5F0
  8
DATA
  6
CONTINUOUS
 62
     7
 10
197.54286999999999
 20
46.360170000000011
 30
0.0
  0
VERTEX
  5
5F1
  8
DATA
  6
CONTINUOUS
 62
     7
 10
197.5226842553711
 20
46.535291716308592
 30
0.0
  0
VERTEX
  5
5F2
  8
DATA
  6
CONTINUOUS
 62
     7
 10
197.50281639648441
 20
46.710836240234393
 30
0.0
  0
VERTEX
  5
5F3
  8
DATA
  6
CONTINUOUS
 62
     7
 10
197.48326642333981
 20
46.886803571777357
 30
0.0
  0
VERTEX
  5
5F4
  8
DATA
  6
CONTINUOUS
 62
     7
 10
197.4640343359375
 20
47.063193710937519
 30
0.0
  0
VERTEX
  5
5F5
  8
DATA
  6
CONTINUOUS
 62
     7
 10
197.44512013427729
 20
47.240006657714872
 30
0.0
  0
VERTEX
  5
5F6
  8
DATA
  6
CONTINUOUS
 62
     7
 10
197.42652381835941
 20
47.417242412109388
 30
0.0
  0
VERTEX
  5
5F7
  8
DATA
  6
CONTINUOUS
 62
     7
 10
197.40824538818359
 20
47.594900974121103
 30
0.0
  0
VERTEX
  5
5F8
  8
DATA
  6
CONTINUOUS
 62
     7
 10
197.39028484375001
 20
47.772982343750023
 30
0.0
  0
VERTEX
  5
5F9
  8
DATA
  6
CONTINUOUS
 62
     7
 10
197.37264218505851
 20
47.951486520996099
 30
0.0
  0
VERTEX
  5
5FA
  8
DATA
  6
CONTINUOUS
 62
     7
 10
197.35531741210929
 20
48.130413505859387
 30
0.0
  0
VERTEX
  5
5FB
  8
DATA
  6
CONTINUOUS
 62
     7
 10
197.3383105249024
 20
48.30976329833986
 30
0.0
  0
VERTEX
  5
5FC
  8
DATA
  6
CONTINUOUS
 62
     7
 10
197.3216215234375
 20
48.489535898437509
 30
0.0
  0
VERTEX
  5
5FD
  8
DATA
  6
CONTINUOUS
 62
     7
 10
197.30525040771479
 20
48.669731306152322
 30
0.0
  0
VERTEX
  5
5FE
  8
DATA
  6
CONTINUOUS
 62
     7
 10
197.28919717773439
 20
48.850349521484397
 30
0.0
  0
VERTEX
  5
5FF
  8
DATA
  6
CONTINUOUS
 62
     7
 10
197.2734618334961
 20
49.031390544433613
 30
0.0
  0
VERTEX
  5
600
  8
DATA
  6
CONTINUOUS
 62
     7
 10
197.258044375
 20
49.212854374999999
 30
0.0
  0
VERTEX
  5
601
  8
DATA
  6
CONTINUOUS
 62
     7
 10
197.24294480224609
 20
49.394741013183612
 30
0.0
  0
VERTEX
  5
602
  8
DATA
  6
CONTINUOUS
 62
     7
 10
197.22816311523439
 20
49.577050458984388
 30
0.0
  0
VERTEX
  5
603
  8
DATA
  6
CONTINUOUS
 62
     7
 10
197.2136993139649
 20
49.759782712402362
 30
0.0
  0
VERTEX
  5
604
  8
DATA
  6
CONTINUOUS
 62
     7
 10
197.1995533984375
 20
49.942937773437507
 30
0.0
  0
VERTEX
  5
605
  8
DATA
  6
CONTINUOUS
 62
     7
 10
197.18572536865241
 20
50.126515642089842
 30
0.0
  0
VERTEX
  5
606
  8
DATA
  6
CONTINUOUS
 62
     7
 10
197.17221522460929
 20
50.310516318359383
 30
0.0
  0
VERTEX
  5
607
  8
DATA
  6
CONTINUOUS
 62
     7
 10
197.15902296630861
 20
50.494939802246101
 30
0.0
  0
VERTEX
  5
608
  8
DATA
  6
CONTINUOUS
 62
     7
 10
197.14614859375001
 20
50.67978609375001
 30
0.0
  0
VERTEX
  5
609
  8
DATA
  6
CONTINUOUS
 62
     7
 10
197.13359210693361
 20
50.865055192871097
 30
0.0
  0
VERTEX
  5
60A
  8
DATA
  6
CONTINUOUS
 62
     7
 10
197.12135350585939
 20
51.050747099609367
 30
0.0
  0
VERTEX
  5
60B
  8
DATA
  6
CONTINUOUS
 62
     7
 10
197.10943279052731
 20
51.23686181396485
 30
0.0
  0
VERTEX
  5
60C
  8
DATA
  6
CONTINUOUS
 62
     7
 10
197.0978299609375
 20
51.423399335937503
 30
0.0
  0
VERTEX
  5
60D
  8
DATA
  6
CONTINUOUS
 62
     7
 10
197.0865450170898
 20
51.610359665527341
 30
0.0
  0
VERTEX
  5
60E
  8
DATA
  6
CONTINUOUS
 62
     7
 10
197.07557795898441
 20
51.797742802734383
 30
0.0
  0
VERTEX
  5
60F
  8
DATA
  6
CONTINUOUS
 62
     7
 10
197.0649287866211
 20
51.985548747558603
 30
0.0
  0
VERTEX
  5
610
  8
DATA
  6
CONTINUOUS
 62
     7
 10
197.0545975
 20
52.1737775
 30
0.0
  0
VERTEX
  5
611
  8
DATA
  6
CONTINUOUS
 62
     7
 10
197.0445840991211
 20
52.362429060058567
 30
0.0
  0
VERTEX
  5
612
  8
DATA
  6
CONTINUOUS
 62
     7
 10
197.03488858398441
 20
52.551503427734353
 30
0.0
  0
VERTEX
  5
613
  8
DATA
  6
CONTINUOUS
 62
     7
 10
197.02551095458981
 20
52.741000603027317
 30
0.0
  0
VERTEX
  5
614
  8
DATA
  6
CONTINUOUS
 62
     7
 10
197.0164512109375
 20
52.930920585937493
 30
0.0
  0
VERTEX
  5
615
  8
DATA
  6
CONTINUOUS
 62
     7
 10
197.00770935302731
 20
53.12126337646486
 30
0.0
  0
VERTEX
  5
616
  8
DATA
  6
CONTINUOUS
 62
     7
 10
196.99928538085931
 20
53.312028974609383
 30
0.0
  0
VERTEX
  5
617
  8
DATA
  6
CONTINUOUS
 62
     7
 10
196.99117929443361
 20
53.503217380371098
 30
0.0
  0
VERTEX
  5
618
  8
DATA
  6
CONTINUOUS
 62
     7
 10
196.98339109374999
 20
53.69482859375001
 30
0.0
  0
VERTEX
  5
619
  8
DATA
  6
CONTINUOUS
 62
     7
 10
196.9759207788085
 20
53.886862614746093
 30
0.0
  0
VERTEX
  5
61A
  8
DATA
  6
CONTINUOUS
 62
     7
 10
196.96876834960941
 20
54.079319443359367
 30
0.0
  0
VERTEX
  5
61B
  8
DATA
  6
CONTINUOUS
 62
     7
 10
196.96193380615239
 20
54.272199079589853
 30
0.0
  0
VERTEX
  5
61C
  8
DATA
  6
CONTINUOUS
 62
     7
 10
196.9554171484375
 20
54.465501523437503
 30
0.0
  0
VERTEX
  5
61D
  8
DATA
  6
CONTINUOUS
 62
     7
 10
196.94921837646481
 20
54.659226774902351
 30
0.0
  0
VERTEX
  5
61E
  8
DATA
  6
CONTINUOUS
 62
     7
 10
196.9433374902344
 20
54.853374833984383
 30
0.0
  0
VERTEX
  5
61F
  8
DATA
  6
CONTINUOUS
 62
     7
 10
196.93777448974609
 20
55.047945700683599
 30
0.0
  0
VERTEX
  5
620
  8
DATA
  6
CONTINUOUS
 62
     7
 10
196.932529375
 20
55.242939375000013
 30
0.0
  0
VERTEX
  5
621
  8
DATA
  6
CONTINUOUS
 62
     7
 10
196.9276021459961
 20
55.438355856933597
 30
0.0
  0
VERTEX
  5
622
  8
DATA
  6
CONTINUOUS
 62
     7
 10
196.9229928027344
 20
55.634195146484387
 30
0.0
  0
VERTEX
  5
623
  8
DATA
  6
CONTINUOUS
 62
     7
 10
196.91870134521491
 20
55.830457243652361
 30
0.0
  0
VERTEX
  5
624
  8
DATA
  6
CONTINUOUS
 62
     7
 10
196.91472777343751
 20
56.02714214843752
 30
0.0
  0
VERTEX
  5
625
  8
DATA
  6
CONTINUOUS
 62
     7
 10
196.91107208740229
 20
56.224249860839862
 30
0.0
  0
VERTEX
  5
626
  8
DATA
  6
CONTINUOUS
 62
     7
 10
196.90773428710941
 20
56.421780380859381
 30
0.0
  0
VERTEX
  5
627
  8
DATA
  6
CONTINUOUS
 62
     7
 10
196.9047143725586
 20
56.619733708496121
 30
0.0
  0
VERTEX
  5
628
  8
DATA
  6
CONTINUOUS
 62
     7
 10
196.90201234374999
 20
56.818109843750022
 30
0.0
  0
VERTEX
  5
629
  8
DATA
  6
CONTINUOUS
 62
     7
 10
196.89962820068359
 20
57.016908786621123
 30
0.0
  0
VERTEX
  5
62A
  8
DATA
  6
CONTINUOUS
 62
     7
 10
196.89756194335931
 20
57.216130537109393
 30
0.0
  0
VERTEX
  5
62B
  8
DATA
  6
CONTINUOUS
 62
     7
 10
196.89581357177721
 20
57.415775095214862
 30
0.0
  0
VERTEX
  5
62C
  8
DATA
  6
CONTINUOUS
 62
     7
 10
196.89438308593739
 20
57.615842460937522
 30
0.0
  0
VERTEX
  5
62D
  8
DATA
  6
CONTINUOUS
 62
     7
 10
196.89327048583979
 20
57.816332634277359
 30
0.0
  0
VERTEX
  5
62E
  8
DATA
  6
CONTINUOUS
 62
     7
 10
196.89247577148441
 20
58.017245615234359
 30
0.0
  0
VERTEX
  5
62F
  8
DATA
  6
CONTINUOUS
 62
     7
 10
196.89199894287111
 20
58.218581403808606
 30
0.0
  0
VERTEX
  5
630
  8
DATA
  6
CONTINUOUS
 62
     7
 10
196.89184
 20
58.42034000000001
 30
0.0
  0
VERTEX
  5
631
  8
DATA
  6
CONTINUOUS
 62
     7
 10
196.89184
 20
58.42034000000001
 30
0.0
  0
SEQEND
  5
632
  8
DATA
  6
CONTINUOUS
 62
     7
  0
LINE
  5
36B
  8
DATA
  6
CONTINUOUS
 62
     7
 10
73.562649999999977
 20
69.594030000000004
 30
0.0
 11
67.088709999999992
 21
48.781490000000019
 31
0.0
  0
ARC
  5
36C
  8
DATA
  6
CONTINUOUS
 62
     7
 10
36.5276
 20
69.0
 30
0.0
 40
1.9999946271177831
 50
17.278452881308791
 51
90.0
  0
ARC
  5
36D
  8
DATA
  6
CONTINUOUS
 62
     7
 10
75.472389999999976
 20
69.0
 30
0.0
 40
2.0
 50
90.0
 51
162.7212735675225
  0
LINE
  5
36E
  8
DATA
  6
CONTINUOUS
 62
     7
 10
18.999994999999998
 20
7.0
 30
0.0
 11
17.75
 21
0.0
 31
0.0
  0
LINE
  5
36F
  8
DATA
  6
CONTINUOUS
 62
     7
 10
92.999994999999998
 20
7.0
 30
0.0
 11
94.25
 21
0.0
 31
0.0
  0
LINE
  5
370
  8
DATA
  6
CONTINUOUS
 62
     7
 10
225.24997999999999
 20
7.0
 30
0.0
 11
226.49997999999999
 21
0.0
 31
0.0
  0
LINE
  5
371
  8
DATA
  6
CONTINUOUS
 62
     7
 10
151.24997999999999
 20
7.0
 30
0.0
 11
149.99997999999999
 21
0.0
 31
0.0
  0
LINE
  5
372
  8
DATA
  6
STYLE_01
 62
     7
 10
63.849989999999998
 20
31.0
 30
0.0
 11
48.149999999999999
 21
31.0
 31
0.0
  0
LINE
  5
373
  8
DATA
  6
STYLE_01
 62
     7
 10
48.149999999999999
 20
22.99999
 30
0.0
 11
48.149999999999999
 21
31.0
 31
0.0
  0
LINE
  5
374
  8
DATA
  6
STYLE_01
 62
     7
 10
63.849989999999998
 20
22.99999
 30
0.0
 11
63.849989999999998
 21
31.0
 31
0.0
  0
LINE
  5
375
  8
DATA
  6
STYLE_01
 62
     7
 10
180.39998
 20
31.0
 30
0.0
 11
196.09998999999999
 21
31.0
 31
0.0
  0
LINE
  5
376
  8
DATA
  6
STYLE_01
 62
     7
 10
196.09998999999999
 20
22.99999
 30
0.0
 11
196.09998999999999
 21
31.0
 31
0.0
  0
LINE
  5
377
  8
DATA
  6
STYLE_01
 62
     7
 10
180.39998
 20
22.99999
 30
0.0
 11
180.39998
 21
31.0
 31
0.0
  0
TEXT
  5
378
  8
DATA
 62
     7
 10
175.0
 20
185.64577777777771
 30
0.0
 40
4.3435763888888879
  1
マウンティングベース詳細
 41
0.7
 11
175.0
 21
189.9893541666666
 31
0.0
 73
     3
  0
TEXT
  5
379
  8
DATA
 62
     7
 10
194.19998000000001
 20
-48.567094444444443
 30
0.0
 40
3.8006293402777769
  1
パッシブRFフィルター
 41
0.7
 11
194.19998000000001
 21
-44.766465104166663
 31
0.0
 73
     3
  0
ENDSEC
  0
EOF
