  0
SECTION
  2
HEADER
  9
$ACADVER
  1
AC1009
  9
$INSBASE
 10
0.0
 20
0.0
 30
0.0
  9
$EXTMIN
 10
-80.01097548933717
 20
-131.7119772163976
 30
-0.0015258207003583
  9
$EXTMAX
 10
280.0109771657178
 20
403.54812151310119
 30
0.0000000349246037
  9
$LIMMIN
 10
0.0
 20
0.0
  9
$LIMMAX
 10
0.0
 20
0.0
  9
$ORTHOMODE
 70
     0
  9
$REGENMODE
 70
     1
  9
$FILLMODE
 70
     1
  9
$QTEXTMODE
 70
     0
  9
$MIRRTEXT
 70
     1
  9
$DRAGMODE
 70
     2
  9
$LTSCALE
 40
10.16
  9
$OSMODE
 70
   231
  9
$ATTMODE
 70
     1
  9
$TEXTSIZE
 40
0.0
  9
$TRACEWID
 40
1.0
  9
$TEXTSTYLE
  7
STANDARD
  9
$CLAYER
  8
DATA
  9
$CELTYPE
  6
CONTINUOUS
  9
$CECOLOR
 62
   256
  9
$DIMSCALE
 40
1.0
  9
$DIMASZ
 40
0.18
  9
$DIMEXO
 40
0.0625
  9
$DIMDLI
 40
0.38
  9
$DIMRND
 40
0.0
  9
$DIMDLE
 40
0.0
  9
$DIMEXE
 40
0.18
  9
$DIMTP
 40
0.0
  9
$DIMTM
 40
0.0
  9
$DIMTXT
 40
0.18
  9
$DIMCEN
 40
0.09
  9
$DIMTSZ
 40
0.0
  9
$DIMTOL
 70
     0
  9
$DIMLIM
 70
     0
  9
$DIMTIH
 70
     1
  9
$DIMTOH
 70
     1
  9
$DIMSE1
 70
     0
  9
$DIMSE2
 70
     0
  9
$DIMTAD
 70
     0
  9
$DIMZIN
 70
     0
  9
$DIMBLK
  1

  9
$DIMASO
 70
     1
  9
$DIMSHO
 70
     1
  9
$DIMPOST
  1

  9
$DIMAPOST
  1

  9
$DIMALT
 70
     0
  9
$DIMALTD
 70
     2
  9
$DIMALTF
 40
25.399999999999999
  9
$DIMLFAC
 40
1.0
  9
$DIMTOFL
 70
     0
  9
$DIMTVP
 40
0.0
  9
$DIMTIX
 70
     0
  9
$DIMSOXD
 70
     0
  9
$DIMSAH
 70
     0
  9
$DIMBLK1
  1

  9
$DIMBLK2
  1

  9
$DIMSTYLE
  2
STANDARD
  9
$DIMCLRD
 70
     0
  9
$DIMCLRE
 70
     0
  9
$DIMCLRT
 70
     0
  9
$DIMTFAC
 40
1.0
  9
$DIMGAP
 40
0.09
  9
$LUNITS
 70
     2
  9
$LUPREC
 70
     4
  9
$SKETCHINC
 40
0.1
  9
$FILLETRAD
 40
0.0
  9
$AUNITS
 70
     0
  9
$AUPREC
 70
     0
  9
$MENU
  1
acad
  9
$ELEVATION
 40
0.0
  9
$PELEVATION
 40
0.0
  9
$THICKNESS
 40
0.0
  9
$LIMCHECK
 70
     0
  9
$BLIPMODE
 70
     0
  9
$CHAMFERA
 40
0.0
  9
$CHAMFERB
 40
0.0
  9
$SKPOLY
 70
     0
  9
$TDCREATE
 40
2453875.672881945
  9
$TDUPDATE
 40
2453875.7292765048
  9
$TDINDWG
 40
0.0002969792
  9
$TDUSRTIMER
 40
0.0002949884
  9
$USRTIMER
 70
     1
  9
$ANGBASE
 50
0.0
  9
$ANGDIR
 70
     0
  9
$PDMODE
 70
     1
  9
$PDSIZE
 40
-2.0
  9
$PLINEWID
 40
0.0
  9
$COORDS
 70
     1
  9
$SPLFRAME
 70
     0
  9
$SPLINETYPE
 70
     6
  9
$SPLINESEGS
 70
     8
  9
$ATTDIA
 70
     0
  9
$ATTREQ
 70
     1
  9
$HANDLING
 70
     1
  9
$HANDSEED
  5
B0C
  9
$SURFTAB1
 70
     6
  9
$SURFTAB2
 70
     6
  9
$SURFTYPE
 70
     6
  9
$SURFU
 70
     6
  9
$SURFV
 70
     6
  9
$UCSNAME
  2

  9
$UCSORG
 10
0.0
 20
0.0
 30
0.0
  9
$UCSXDIR
 10
1.0
 20
0.0
 30
0.0
  9
$UCSYDIR
 10
0.0
 20
1.0
 30
0.0
  9
$PUCSNAME
  2

  9
$PUCSORG
 10
0.0
 20
0.0
 30
0.0
  9
$PUCSXDIR
 10
1.0
 20
0.0
 30
0.0
  9
$PUCSYDIR
 10
0.0
 20
1.0
 30
0.0
  9
$USERI1
 70
     0
  9
$USERI2
 70
     0
  9
$USERI3
 70
     0
  9
$USERI4
 70
     0
  9
$USERI5
 70
     0
  9
$USERR1
 40
0.0
  9
$USERR2
 40
0.0
  9
$USERR3
 40
0.0
  9
$USERR4
 40
0.0
  9
$USERR5
 40
0.0
  9
$WORLDVIEW
 70
     1
  9
$SHADEDGE
 70
     3
  9
$SHADEDIF
 70
    70
  9
$TILEMODE
 70
     1
  9
$MAXACTVP
 70
    64
  9
$PLIMCHECK
 70
     0
  9
$PEXTMIN
 10
1.0000000000000000E+020
 20
1.0000000000000000E+020
 30
1.0000000000000000E+020
  9
$PEXTMAX
 10
-1.0000000000000000E+020
 20
-1.0000000000000000E+020
 30
-1.0000000000000000E+020
  9
$PLIMMIN
 10
0.0
 20
0.0
  9
$PLIMMAX
 10
12.0
 20
9.0
  9
$UNITMODE
 70
     0
  9
$VISRETAIN
 70
     0
  9
$PLINEGEN
 70
     1
  9
$PSLTSCALE
 70
     0
  0
ENDSEC
  0
SECTION
  2
TABLES
  0
TABLE
  2
VPORT
 70
     1
  0
VPORT
  2
*ACTIVE
 70
     0
 10
0.0
 20
0.0
 11
1.0
 21
1.0
 12
100.0000008381903
 22
135.9180721483518
 13
0.0
 23
0.0
 14
1.0
 24
1.0
 15
0.0
 25
0.0
 16
0.0
 26
0.0
 36
1.0
 17
0.0
 27
0.0
 37
0.0
 40
539.70209125007557
 41
1.6703601108033239
 42
50.0
 43
0.0
 44
0.0
 50
0.0
 51
0.0
 71
     0
 72
  2000
 73
     1
 74
     1
 75
     0
 76
     0
 77
     0
 78
     0
  0
ENDTAB
  0
TABLE
  2
LTYPE
 70
    11
  0
LTYPE
  2
CONTINUOUS
 70
     0
  3
Solid line
 72
    65
 73
     0
 40
0.0
  0
ENDTAB
  0
TABLE
  2
LAYER
 70
     5
  0
LAYER
  2
0
 70
     0
 62
     7
  6
CONTINUOUS
  0
LAYER
  2
DATA
 70
     0
 62
     7
  6
CONTINUOUS
  0
LAYER
  2
HIBINO-BASE
 70
     0
 62
     7
  6
CONTINUOUS
  0
LAYER
  2
SPEC
 70
     0
 62
     7
  6
CONTINUOUS
  0
LAYER
  2
DIMNSIONS
 70
     0
 62
     7
  6
CONTINUOUS
  0
ENDTAB
  0
TABLE
  2
STYLE
 70
     2
  0
STYLE
  2
STANDARD
 70
     0
 40
0.0
 41
1.0
 50
0.0
 71
     0
 42
0.0
  3
txt
  4
BIGFONT.SHX
  0
ENDTAB
  0
TABLE
  2
VIEW
 70
     0
  0
ENDTAB
  0
TABLE
  2
UCS
 70
     0
  0
ENDTAB
  0
TABLE
  2
APPID
 70
     1
  0
APPID
  2
ACAD
 70
     0
  0
ENDTAB
  0
TABLE
  2
DIMSTYLE
 70
     1
  0
DIMSTYLE
  2
STANDARD
 70
     0
  3

  4

  5

  6

  7

 40
1.0
 41
0.18
 42
0.0625
 43
0.38
 44
0.18
 45
0.0
 46
0.0
 47
0.0
 48
0.0
140
0.18
141
0.09
142
0.0
143
25.399999999999999
144
1.0
145
0.0
146
1.0
147
0.09
 71
     0
 72
     0
 73
     1
 74
     1
 75
     0
 76
     0
 77
     0
 78
     0
170
     0
171
     2
172
     0
173
     0
174
     0
175
     0
176
     0
177
     0
178
     0
  0
ENDTAB
  0
ENDSEC
  0
SECTION
  2
BLOCKS
  0
BLOCK
  8
0
  2
$MODEL_SPACE
 70
     0
 10
0.0
 20
0.0
 30
0.0
  3
$MODEL_SPACE
  1

  0
ENDBLK
  5
6AF
  8
0
  0
BLOCK
 67
     1
  8
0
  2
$PAPER_SPACE
 70
     0
 10
0.0
 20
0.0
 30
0.0
  3
$PAPER_SPACE
  1

  0
ENDBLK
  5
6AB
 67
     1
  8
0
  0
ENDSEC
  0
SECTION
  2
ENTITIES
  0
LINE
  5
2C
  8
HIBINO-BASE
  6
CONTINUOUS
 62
     7
 10
-79.999990000000025
 20
403.53181999999993
 30
0.0
 11
279.99999000000003
 21
403.53181999999993
 31
0.0
  0
LINE
  5
2D
  8
HIBINO-BASE
  6
CONTINUOUS
 62
     7
 10
279.99999000000003
 20
-116.46817
 30
0.0
 11
-79.999990000000025
 21
-116.46817
 31
0.0
  0
LINE
  5
2E
  8
HIBINO-BASE
  6
CONTINUOUS
 62
     7
 10
-79.999990000000025
 20
-116.46817
 30
0.0
 11
-79.999990000000025
 21
403.53181999999993
 31
0.0
  0
TEXT
  5
2F
  8
HIBINO-BASE
 62
     7
 10
-65.631980000000013
 20
-129.2855084
 30
0.0
 40
7.2000729687499989
  1
Hibino Corporation
 41
0.8
 11
-65.631980000000013
 21
-122.08543543125
 31
0.0
 73
     3
  0
LINE
  5
30
  8
HIBINO-BASE
  6
CONTINUOUS
 62
     7
 10
279.99999000000003
 20
403.53181999999993
 30
0.0
 11
279.99999000000003
 21
-116.46817
 31
0.0
  0
LINE
  5
31
  8
HIBINO-BASE
  6
CONTINUOUS
 62
     7
 10
100.0
 20
-71.468179999999975
 30
0.0
 11
279.99999000000003
 21
-71.468179999999975
 31
0.0
  0
LINE
  5
32
  8
HIBINO-BASE
  6
CONTINUOUS
 62
     7
 10
100.0
 20
-116.46817
 30
0.0
 11
100.0
 21
-71.468179999999975
 31
0.0
  0
TEXT
  5
33
  8
HIBINO-BASE
 62
     7
 10
101.79998000000001
 20
-76.868186399999985
 30
0.0
 40
3.6000518750000001
  1
NOTE
 41
0.8
 11
101.79998000000001
 21
-73.268134524999965
 31
0.0
 73
     3
  0
LINE
  5
34
  8
HIBINO-BASE
  6
CONTINUOUS
 62
     7
 10
170.0
 20
-116.46817
 30
0.0
 11
170.0
 21
-71.468179999999975
 31
0.0
  0
TEXT
  5
35
  8
HIBINO-BASE
 62
     7
 10
171.7999999999999
 20
-76.868186399999985
 30
0.0
 40
3.6000518750000001
  1
TITLE
 41
0.8
 11
171.7999999999999
 21
-73.268134524999965
 31
0.0
 73
     3
  0
TEXT
  5
36
  8
HIBINO-BASE
 62
     7
 10
200.13676000000001
 20
-129.2855084
 30
0.0
 40
7.2000729687499989
  1
ヒビノ株式会社
 41
0.8
 11
200.13676000000001
 21
-122.08543543125
 31
0.0
 73
     3
  0
LINE
  5
37
  8
HIBINO-BASE
  6
CONTINUOUS
 62
     7
 10
100.0
 20
-96.468180000000004
 30
0.0
 11
279.99999000000003
 21
-96.468180000000004
 31
0.0
  0
TEXT
  5
38
  8
HIBINO-BASE
 62
     7
 10
196.80000000000001
 20
-101.75552639999999
 30
0.0
 40
3.6000518750000001
  1
DRAWN
 41
0.8
 11
196.80000000000001
 21
-98.155474525000002
 31
0.0
 73
     3
  0
TEXT
  5
39
  8
HIBINO-BASE
 62
     7
 10
146.7999999999999
 20
-101.75552639999999
 30
0.0
 40
3.6000518750000001
  1
DATE
 41
0.8
 11
146.7999999999999
 21
-98.155474525000002
 31
0.0
 73
     3
  0
TEXT
  5
3A
  8
HIBINO-BASE
 62
     7
 10
102.19998
 20
-101.7070652
 30
0.0
 40
3.2576720312499998
  1
図面サイズ
 41
0.8
 11
102.19998
 21
-98.449393168750007
 31
0.0
 73
     3
  0
TEXT
  5
3B
  8
HIBINO-BASE
 62
     7
 10
126.79998000000001
 20
-101.75552639999999
 30
0.0
 40
3.6000518750000001
  1
SCALE
 41
0.8
 11
126.79998000000001
 21
-98.155474525000002
 31
0.0
 73
     3
  0
TEXT
  5
3C
  8
HIBINO-BASE
 62
     7
 10
171.7999999999999
 20
-101.75552639999999
 30
0.0
 40
3.6000518750000001
  1
DESIGN
 41
0.8
 11
171.7999999999999
 21
-98.155474525000002
 31
0.0
 73
     3
  0
TEXT
  5
3D
  8
HIBINO-BASE
 62
     7
 10
246.79997999999989
 20
-101.75552639999999
 30
0.0
 40
3.6000518750000001
  1
DRAWING NO.
 41
0.8
 11
246.79997999999989
 21
-98.155474525000002
 31
0.0
 73
     3
  0
TEXT
  5
3E
  8
HIBINO-BASE
 62
     7
 10
221.79999000000001
 20
-101.75552639999999
 30
0.0
 40
3.6000518750000001
  1
CHECK
 41
0.8
 11
221.79999000000001
 21
-98.155474525000002
 31
0.0
 73
     3
  0
LINE
  5
3F
  8
HIBINO-BASE
  6
CONTINUOUS
 62
     7
 10
128.74997999999999
 20
-113.96818
 30
0.0
 11
136.25
 21
-106.46818
 31
0.0
  0
TEXT
  5
40
  8
HIBINO-BASE
 62
     7
 10
127.49997999999999
 20
-109.8995983999999
 30
0.0
 40
4.3435729687500002
  1
1
 41
0.8
 11
127.49997999999999
 21
-105.55602543124991
 31
0.0
 73
     3
  0
LINE
  5
41
  8
HIBINO-BASE
  6
CONTINUOUS
 62
     7
 10
124.99997999999999
 20
-116.46817
 30
0.0
 11
124.99997999999999
 21
-96.468180000000004
 31
0.0
  0
LINE
  5
42
  8
HIBINO-BASE
  6
CONTINUOUS
 62
     7
 10
144.99998999999991
 20
-116.46817
 30
0.0
 11
144.99998999999991
 21
-96.468180000000004
 31
0.0
  0
LINE
  5
43
  8
HIBINO-BASE
  6
CONTINUOUS
 62
     7
 10
194.99999
 20
-96.468180000000004
 30
0.0
 11
194.99999
 21
-116.46817
 31
0.0
  0
LINE
  5
44
  8
HIBINO-BASE
  6
CONTINUOUS
 62
     7
 10
245.0
 20
-96.468180000000004
 30
0.0
 11
245.0
 21
-116.46817
 31
0.0
  0
LINE
  5
45
  8
HIBINO-BASE
  6
CONTINUOUS
 62
     7
 10
219.99997999999999
 20
-116.46817
 30
0.0
 11
219.99997999999999
 21
-96.468180000000004
 31
0.0
  0
TEXT
  5
46
  8
HIBINO-BASE
 62
     7
 10
107.82178
 20
-111.4712389999999
 30
0.0
 40
6.5153517578124989
  1
A4
 41
0.8
 11
107.82178
 21
-104.9558872421874
 31
0.0
 73
     3
  0
TEXT
  5
47
  8
HIBINO-BASE
 62
     7
 10
145.95263750904979
 20
-111.1234863999999
 30
0.0
 40
3.6000518750000001
  1
'06.03.
 41
0.8
 11
145.95263750904979
 21
-107.5234345249999
 31
0.0
 73
     3
  0
TEXT
  5
48
  8
HIBINO-BASE
 62
     7
 10
135.0
 20
-113.6495983999999
 30
0.0
 40
4.3435729687500002
  1
2
 41
0.8
 11
135.0
 21
-109.30602543124991
 31
0.0
 73
     3
  0
TEXT
  5
49
  8
HIBINO-BASE
 62
     7
 10
198.01161002206919
 20
-110.7408816666666
 30
0.0
 40
3.2576822916666659
  1
N.Sasaki
 41
0.8
 11
198.01161002206919
 21
-107.4831993749999
 31
0.0
 73
     3
  0
TEXT
  5
4A
  8
SPEC
 62
     7
 10
-62.499990000000011
 20
386.31833999999998
 30
0.0
 40
4.8865234375000002
  1
仕様
 41
0.8
 11
-62.499990000000011
 21
391.20486343750002
 31
0.0
 73
     3
  0
LINE
  5
4B
  8
SPEC
  6
CONTINUOUS
 62
     7
 10
-64.999990000000011
 20
383.53181999999998
 30
0.0
 11
230.0
 21
383.53181999999998
 31
0.0
  0
LINE
  5
4C
  8
SPEC
  6
CONTINUOUS
 62
     7
 10
-64.999990000000011
 20
383.53181999999998
 30
0.0
 11
-64.999990000000011
 21
278.53179999999998
 31
0.0
  0
LINE
  5
4D
  8
SPEC
  6
CONTINUOUS
 62
     7
 10
0.000009999999989
 20
383.53181999999998
 30
0.0
 11
0.000009999999989
 21
278.53179999999998
 31
0.0
  0
LINE
  5
4E
  8
SPEC
  6
CONTINUOUS
 62
     7
 10
230.0
 20
383.53181999999998
 30
0.0
 11
230.0
 21
278.53179999999998
 31
0.0
  0
TEXT
  5
4F
  8
SPEC
 62
     7
 10
-63.230286222753229
 20
377.9107326275323
 30
0.0
 40
3.800607109375
  1
発振方式
 41
0.8
 11
-63.230286222753229
 21
381.71133973690729
 31
0.0
 73
     3
  0
TEXT
  5
50
  8
SPEC
 62
     7
 10
1.6535159150534751
 20
377.9006785698931
 30
0.0
 40
3.800607109375
  1
水晶制御PLLシンセサイザー方式
 41
0.8
 11
1.6535159150534751
 21
381.70128567926798
 31
0.0
 73
     3
  0
LINE
  5
51
  8
SPEC
  6
CONTINUOUS
 62
     7
 10
-64.999990000000011
 20
376.03181999999998
 30
0.0
 11
230.0
 21
376.03181999999998
 31
0.0
  0
TEXT
  5
52
  8
SPEC
 62
     7
 10
-63.199979999999996
 20
370.41074262753227
 30
0.0
 40
3.800607109375
  1
電波型式
 41
0.8
 11
-63.199979999999996
 21
374.21134973690732
 31
0.0
 73
     3
  0
TEXT
  5
53
  8
SPEC
 62
     7
 10
2.834679160826481
 20
370.37423067919809
 30
0.0
 40
3.800607109375
  1
F3E
 41
0.8
 11
2.8346791608264819
 21
374.17483778857309
 31
0.0
 73
     3
  0
LINE
  5
54
  8
SPEC
  6
CONTINUOUS
 62
     7
 10
-64.999990000000011
 20
368.53181999999998
 30
0.0
 11
230.0
 21
368.53181999999998
 31
0.0
  0
TEXT
  5
55
  8
SPEC
 62
     7
 10
-63.230286222753229
 20
362.60768039999988
 30
0.0
 40
3.800607109375
  1
送信周波数
 41
0.8
 11
-63.230286222753229
 21
366.40828750937487
 31
0.0
 73
     3
  0
TEXT
  5
56
  8
SPEC
 62
     7
 10
2.862174615862215
 20
362.60768039999988
 30
0.0
 40
3.800607109375
  1
U1-JBX:B型(806～810MHz)30チャンネルのうち任意の1チャンネル
 41
0.8
 11
2.862174615862215
 21
366.40828750937487
 31
0.0
 73
     3
  0
TEXT
  5
57
  8
SPEC
 62
     7
 10
-63.230286222753229
 20
340.41074262753227
 30
0.0
 40
3.800607109375
  1
空中線電力
 41
0.8
 11
-63.230286222753229
 21
344.21134973690732
 31
0.0
 73
     3
  0
TEXT
  5
58
  8
SPEC
 62
     7
 10
1.8000199999999891
 20
340.51056663360288
 30
0.0
 40
3.800607109375
  1
10mW
 41
0.8
 11
1.8000199999999891
 21
344.31117374297793
 31
0.0
 73
     3
  0
TEXT
  5
59
  8
SPEC
 62
     7
 10
-63.199979999999996
 20
332.85013018202591
 30
0.0
 40
3.800607109375
  1
到達距離
 41
0.8
 11
-63.199979999999996
 21
336.65073729140079
 31
0.0
 73
     3
  0
TEXT
  5
5A
  8
SPEC
 62
     7
 10
1.8000199999999891
 20
332.79081050618322
 30
0.0
 40
3.800607109375
  1
約100m(標準環境における最大値)
 41
0.8
 11
1.8000199999999891
 21
336.59141761555821
 31
0.0
 73
     3
  0
LINE
  5
5B
  8
SPEC
  6
CONTINUOUS
 62
     7
 10
-64.999990000000011
 20
346.03181999999998
 30
0.0
 11
230.0
 21
346.03181999999998
 31
0.0
  0
TEXT
  5
5C
  8
SPEC
 62
     7
 10
-63.472736004779151
 20
325.10768039999988
 30
0.0
 40
3.800607109375
  1
トーン信号周波数
 41
0.8
 11
-63.472736004779151
 21
328.90828750937487
 31
0.0
 73
     3
  0
TEXT
  5
5D
  8
SPEC
 62
     7
 10
1.8000199999999891
 20
325.25418448494651
 30
0.0
 40
3.800607109375
  1
32.768kHz
 41
0.8
 11
1.8000199999999891
 21
329.0547915943215
 31
0.0
 73
     3
  0
LINE
  5
5E
  8
SPEC
  6
CONTINUOUS
 62
     7
 10
-64.999990000000011
 20
338.53181999999998
 30
0.0
 11
230.0
 21
338.53181999999998
 31
0.0
  0
TEXT
  5
5F
  8
SPEC
 62
     7
 10
-63.260592445506482
 20
317.60768039999999
 30
0.0
 40
3.800607109375
  1
周波数特性
 41
0.8
 11
-63.260592445506482
 21
321.40828750937487
 31
0.0
 73
     3
  0
TEXT
  5
60
  8
SPEC
 62
     7
 10
1.8000199999999891
 20
317.82743652741982
 30
0.0
 40
3.800607109375
  1
50～15,000Hz ±2dB(システム全体の帯域はマイクヘッドにより変動)
 41
0.8
 11
1.8000199999999891
 21
321.62804363679481
 31
0.0
 73
     3
  0
LINE
  5
61
  8
SPEC
  6
CONTINUOUS
 62
     7
 10
-64.999990000000011
 20
331.03181999999998
 30
0.0
 11
230.0
 21
331.03181999999998
 31
0.0
  0
TEXT
  5
62
  8
SPEC
 62
     7
 10
-63.199979999999996
 20
310.35013018202591
 30
0.0
 40
3.800607109375
  1
ゲイン調整範囲
 41
0.8
 11
-63.199979999999996
 21
314.15073729140079
 31
0.0
 73
     3
  0
TEXT
  5
63
  8
SPEC
 62
     7
 10
2.862174615862215
 20
310.25418448494651
 30
0.0
 40
3.800607109375
  1
0～40dB(入力アッテネータスイッチ付、0/-6/-20dBa)
 41
0.8
 11
2.862174615862215
 21
314.0547915943215
 31
0.0
 73
     3
  0
LINE
  5
64
  8
SPEC
  6
CONTINUOUS
 62
     7
 10
-64.999990000000011
 20
323.53181999999998
 30
0.0
 11
230.0
 21
323.53181999999998
 31
0.0
  0
TEXT
  5
65
  8
SPEC
 62
     7
 10
-63.0484488862338
 20
302.97135507303881
 30
0.0
 40
3.800607109375
  1
アンテナ
 41
0.8
 11
-63.0484488862338
 21
306.7719621824138
 31
0.0
 73
     3
  0
TEXT
  5
66
  8
SPEC
 62
     7
 10
1.8366460212366169
 20
302.97394061236628
 30
0.0
 40
3.800607109375
  1
1/4波長ホイップ、50Ω
 41
0.8
 11
1.8366460212366169
 21
306.77454772174133
 31
0.0
 73
     3
  0
LINE
  5
67
  8
SPEC
  6
CONTINUOUS
 62
     7
 10
-64.999990000000011
 20
316.03181999999998
 30
0.0
 11
230.0
 21
316.03181999999998
 31
0.0
  0
TEXT
  5
68
  8
SPEC
 62
     7
 10
-63.199979999999996
 20
295.41074262753239
 30
0.0
 40
3.800607109375
  1
使用電池
 41
0.8
 11
-63.199979999999996
 21
299.21134973690738
 31
0.0
 73
     3
  0
TEXT
  5
69
  8
SPEC
 62
     7
 10
1.6535159150534751
 20
295.29081050618322
 30
0.0
 40
3.800607109375
  1
単3形アルカリ乾電池×2本
 41
0.8
 11
1.6535159150534751
 21
299.09141761555821
 31
0.0
 73
     3
  0
LINE
  5
6A
  8
SPEC
  6
CONTINUOUS
 62
     7
 10
-64.999990000000011
 20
308.53181999999998
 30
0.0
 11
230.0
 21
308.53181999999998
 31
0.0
  0
TEXT
  5
6B
  8
SPEC
 62
     7
 10
-63.199979999999996
 20
287.72890529101289
 30
0.0
 40
3.800607109375
  1
バッテリー・ライフ
 41
0.8
 11
-63.199979999999996
 21
291.52951240038789
 31
0.0
 73
     3
  0
TEXT
  5
6C
  8
SPEC
 62
     7
 10
1.8000199999999891
 20
287.82743652741982
 30
0.0
 40
3.800607109375
  1
約12時間(Dracell MN1500 1.5V単3形アルカリ乾電池　使用時)
 41
0.8
 11
1.8000199999999891
 21
291.62804363679481
 31
0.0
 73
     3
  0
LINE
  5
6D
  8
SPEC
  6
CONTINUOUS
 62
     7
 10
-64.999990000000011
 20
301.03179999999998
 30
0.0
 11
230.0
 21
301.03179999999998
 31
0.0
  0
TEXT
  5
6E
  8
SPEC
 62
     7
 10
-63.260592445506482
 20
280.4410488502856
 30
0.0
 40
3.800607109375
  1
外装
 41
0.8
 11
-63.260592445506482
 21
284.24165595966059
 31
0.0
 73
     3
  0
TEXT
  5
6F
  8
SPEC
 62
     7
 10
1.5802638725802181
 20
280.29081050618322
 30
0.0
 40
3.800607109375
  1
黒(ボディ本体)
 41
0.8
 11
1.5802638725802181
 21
284.09141761555821
 31
0.0
 73
     3
  0
LINE
  5
70
  8
SPEC
  6
CONTINUOUS
 62
     7
 10
-64.999990000000011
 20
293.53179999999998
 30
0.0
 11
230.0
 21
293.53179999999998
 31
0.0
  0
TEXT
  5
71
  8
SPEC
 62
     7
 10
-63.199979999999996
 20
272.91074262753239
 30
0.0
 40
3.800607109375
  1
寸法(W+H+D)
 41
0.8
 11
-63.199979999999996
 21
276.71134973690738
 31
0.0
 73
     3
  0
TEXT
  5
72
  8
SPEC
 62
     7
 10
1.8000199999999891
 20
272.86406254865642
 30
0.0
 40
3.800607109375
  1
64.7×99.2×24.2mm(アンテナ含まず)
 41
0.8
 11
1.8000199999999891
 21
276.66466965803141
 31
0.0
 73
     3
  0
LINE
  5
73
  8
SPEC
  6
CONTINUOUS
 62
     7
 10
-64.999990000000011
 20
286.03179999999998
 30
0.0
 11
230.0
 21
286.03179999999998
 31
0.0
  0
TEXT
  5
74
  8
SPEC
 62
     7
 10
-63.199979999999996
 20
265.35013018202591
 30
0.0
 40
3.800607109375
  1
質量
 41
0.8
 11
-63.199979999999996
 21
269.1507372914009
 31
0.0
 73
     3
  0
TEXT
  5
75
  8
SPEC
 62
     7
 10
1.8000199999999891
 20
265.51056663360288
 30
0.0
 40
3.800607109375
  1
約175.2g(除乾電池)
 41
0.8
 11
1.8000199999999891
 21
269.31117374297793
 31
0.0
 73
     3
  0
LINE
  5
76
  8
SPEC
  6
CONTINUOUS
 62
     7
 10
-64.999990000000011
 20
278.53179999999998
 30
0.0
 11
230.0
 21
278.53179999999998
 31
0.0
  0
LINE
  5
77
  8
SPEC
  6
CONTINUOUS
 62
     7
 10
-64.999990000000011
 20
271.03179999999998
 30
0.0
 11
230.0
 21
271.03179999999998
 31
0.0
  0
LINE
  5
78
  8
SPEC
  6
CONTINUOUS
 62
     7
 10
-64.999990000000011
 20
263.53179999999998
 30
0.0
 11
230.0
 21
263.53179999999998
 31
0.0
  0
TEXT
  5
79
  8
SPEC
 62
     7
 10
2.8255485946255869
 20
355.10768039999999
 30
0.0
 40
3.800607109375
  1
U1-A24:A型(797～806MHz)71チャンネルとA2型 (779～788MHz)71チャンネル
 41
0.8
 11
2.8255485946255869
 21
358.90828750937487
 31
0.0
 73
     3
  0
TEXT
  5
7A
  8
SPEC
 62
     7
 10
35.426927826395698
 20
347.60768039999988
 30
0.0
 40
3.800607109375
  1
合計142チャンネルのうち任意の1チャンネル
 41
0.8
 11
35.426927826395698
 21
351.40828750937487
 31
0.0
 73
     3
  0
LINE
  5
7B
  8
SPEC
  6
CONTINUOUS
 62
     7
 10
-64.999990000000011
 20
263.53179999999998
 30
0.0
 11
-64.999990000000011
 21
279.30000000000001
 31
0.0
  0
LINE
  5
7C
  8
SPEC
  6
CONTINUOUS
 62
     7
 10
0.000009999999989
 20
278.53179999999998
 30
0.0
 11
0.000009999999989
 21
263.53179999999998
 31
0.0
  0
LINE
  5
7D
  8
SPEC
  6
CONTINUOUS
 62
     7
 10
230.0
 20
263.53179999999998
 30
0.0
 11
230.0
 21
279.60000000000002
 31
0.0
  0
TEXT
  5
7E
  8
DIMNSIONS
 62
     7
 10
60.0
 20
-91.929190000000006
 30
0.0
 40
4.8865234375000002
  1
(単位：mm)
 41
0.8
 11
60.0
 21
-87.042666562500003
 31
0.0
 73
     3
  0
LINE
  5
7F
  8
DIMNSIONS
  6
CONTINUOUS
 62
     7
 10
-4.6549899850988501
 20
-35.789999999999992
 30
0.0
 11
-41.499999985098853
 21
-35.789999999999992
 31
0.0
  0
LINE
  5
80
  8
DIMNSIONS
  6
CONTINUOUS
 62
     7
 10
-21.99997998509885
 20
-59.999980000000001
 30
0.0
 11
-41.499999985098853
 21
-59.999980000000001
 31
0.0
  0
LINE
  5
81
  8
DIMNSIONS
  6
CONTINUOUS
 62
     7
 10
-37.500000000000021
 20
-35.789999999999992
 30
0.0
 11
-37.500000000000021
 21
-59.999980000000001
 31
0.0
  0
SOLID
  5
82
  8
DIMNSIONS
 62
     7
 10
-37.500000000000021
 20
-59.999980000000001
 30
0.0
 11
-39.201477371937649
 21
-53.649979999999992
 31
0.0
 12
-35.798522628062372
 22
-53.649979999999992
 32
0.0
 13
-35.798522628062372
 23
-53.649979999999992
 33
0.0
  0
TEXT
  5
83
  8
DIMNSIONS
 62
     7
 10
-40.487765599999989
 20
-54.950530079540691
 30
0.0
 40
5.429458515624999
  1
24.2
 50
90.0
 41
0.8
 11
-45.91722411562499
 21
-54.950530079540691
 31
0.0
 73
     3
  0
LINE
  5
84
  8
DIMNSIONS
  6
CONTINUOUS
 62
     7
 10
-10.55499998509884
 20
-66.999979999999994
 30
0.0
 11
-53.999999985098839
 21
-66.999979999999994
 31
0.0
  0
LINE
  5
85
  8
DIMNSIONS
  6
CONTINUOUS
 62
     7
 10
-3.999989985098849
 20
-35.789999999999992
 30
0.0
 11
-53.999999985098839
 21
-35.789999999999992
 31
0.0
  0
LINE
  5
86
  8
DIMNSIONS
  6
CONTINUOUS
 62
     7
 10
-50.000000000000021
 20
-66.999979999999994
 30
0.0
 11
-50.000000000000021
 21
-35.789999999999992
 31
0.0
  0
SOLID
  5
87
  8
DIMNSIONS
 62
     7
 10
-50.000000000000021
 20
-35.789999999999992
 30
0.0
 11
-48.298522628062372
 21
-42.139999999999993
 31
0.0
 12
-51.701477371937649
 22
-42.139999999999993
 32
0.0
 13
-51.701477371937649
 23
-42.139999999999993
 33
0.0
  0
TEXT
  5
88
  8
DIMNSIONS
 62
     7
 10
-52.987765599999989
 20
-58.450530079540698
 30
0.0
 40
5.429458515624999
  1
31.2
 50
90.0
 41
0.8
 11
-58.41722411562499
 21
-58.450530079540698
 31
0.0
 73
     3
  0
LINE
  5
89
  8
DIMNSIONS
  6
CONTINUOUS
 62
     7
 10
-20.99998998509885
 20
-10.0
 30
0.0
 11
-41.499999985098853
 21
-10.0
 31
0.0
  0
LINE
  5
8A
  8
DIMNSIONS
  6
CONTINUOUS
 62
     7
 10
-3.404989985098851
 20
89.218760000000003
 30
0.0
 11
-41.499999985098853
 21
89.218760000000003
 31
0.0
  0
LINE
  5
8B
  8
DIMNSIONS
  6
CONTINUOUS
 62
     7
 10
-37.500000000000021
 20
-10.0
 30
0.0
 11
-37.500000000000021
 21
89.218760000000003
 31
0.0
  0
SOLID
  5
8C
  8
DIMNSIONS
 62
     7
 10
-37.500000000000021
 20
89.218760000000003
 30
0.0
 11
-35.798522628062372
 21
82.868760000000023
 31
0.0
 12
-39.201477371937649
 22
82.868760000000023
 32
0.0
 13
-39.201477371937649
 23
82.868760000000023
 33
0.0
  0
TEXT
  5
8D
  8
DIMNSIONS
 62
     7
 10
-40.487765599999989
 20
32.553839920459332
 30
0.0
 40
5.429458515624999
  1
99.2
 50
90.0
 41
0.8
 11
-45.91722411562499
 21
32.553839920459332
 31
0.0
 73
     3
  0
LINE
  5
8E
  8
DIMNSIONS
  6
CONTINUOUS
 62
     7
 10
-3.404989985098851
 20
89.218760000000003
 30
0.0
 11
-41.499999985098853
 21
89.218760000000003
 31
0.0
  0
LINE
  5
8F
  8
DIMNSIONS
  6
CONTINUOUS
 62
     7
 10
-11.314899985098849
 20
183.69629
 30
0.0
 11
-41.499999985098853
 21
183.69629
 31
0.0
  0
LINE
  5
90
  8
DIMNSIONS
  6
CONTINUOUS
 62
     7
 10
-37.500000000000021
 20
89.218760000000003
 30
0.0
 11
-37.500000000000021
 21
183.69629
 31
0.0
  0
SOLID
  5
91
  8
DIMNSIONS
 62
     7
 10
-37.500000000000021
 20
183.69629
 30
0.0
 11
-35.798522628062372
 21
177.34629000000001
 31
0.0
 12
-39.201477371937649
 22
177.34629000000001
 32
0.0
 13
-39.201477371937649
 23
177.34629000000001
 33
0.0
  0
TEXT
  5
92
  8
DIMNSIONS
 62
     7
 10
-40.487765599999989
 20
129.40198492045931
 30
0.0
 40
5.429458515624999
  1
94.5
 50
90.0
 41
0.8
 11
-45.91722411562499
 21
129.40198492045931
 31
0.0
 73
     3
  0
LINE
  5
93
  8
DIMNSIONS
  6
CONTINUOUS
 62
     7
 10
-11.314899985098849
 20
183.69629
 30
0.0
 11
-53.999999985098839
 21
183.69629
 31
0.0
  0
LINE
  5
94
  8
DIMNSIONS
  6
CONTINUOUS
 62
     7
 10
-20.99998998509885
 20
-10.0
 30
0.0
 11
-53.999999985098839
 21
-10.0
 31
0.0
  0
LINE
  5
95
  8
DIMNSIONS
  6
CONTINUOUS
 62
     7
 10
-50.000000000000021
 20
183.69629
 30
0.0
 11
-50.000000000000021
 21
-10.0
 31
0.0
  0
SOLID
  5
96
  8
DIMNSIONS
 62
     7
 10
-50.000000000000021
 20
-10.0
 30
0.0
 11
-51.701477371937649
 21
-3.6500000000000048
 31
0.0
 12
-48.298522628062372
 22
-3.6500000000000048
 32
0.0
 13
-48.298522628062372
 23
-3.6500000000000048
 33
0.0
  0
TEXT
  5
97
  8
DIMNSIONS
 62
     7
 10
-52.987765600000017
 20
78.028720068791685
 30
0.0
 40
5.429458515624999
  1
193.7
 50
90.0
 41
0.8
 11
-58.417224115625018
 21
78.028720068791685
 31
0.0
 73
     3
  0
LINE
  5
98
  8
DIMNSIONS
  6
CONTINUOUS
 62
     7
 10
-19.999980000000011
 20
-36.20000001490115
 30
0.0
 11
-19.999980000000011
 21
-21.000000014901161
 31
0.0
  0
LINE
  5
99
  8
DIMNSIONS
  6
CONTINUOUS
 62
     7
 10
44.690019999999983
 20
-36.20000001490115
 30
0.0
 11
44.690019999999983
 21
-21.000000014901161
 31
0.0
  0
LINE
  5
9A
  8
DIMNSIONS
  6
CONTINUOUS
 62
     7
 10
-19.999980000000011
 20
-25.0
 30
0.0
 11
44.690019999999983
 21
-25.0
 31
0.0
  0
SOLID
  5
9B
  8
DIMNSIONS
 62
     7
 10
44.690019999999983
 20
-25.0
 30
0.0
 11
38.340019999999988
 21
-26.701477371937639
 31
0.0
 12
38.340019999999988
 22
-23.298522628062361
 32
0.0
 13
38.340019999999988
 23
-23.298522628062361
 33
0.0
  0
TEXT
  5
9C
  8
DIMNSIONS
 62
     7
 10
5.2894799204593133
 20
-22.012234400000001
 30
0.0
 40
5.429458515624999
  1
64.7
 41
0.8
 11
5.2894799204593133
 21
-16.582775884374989
 31
0.0
 73
     3
  0
LINE
  5
9D
  8
DIMNSIONS
  6
CONTINUOUS
 62
     7
 10
-21.799990000000012
 20
-62.799999985098822
 30
0.0
 11
-21.799990000000012
 21
-91.499999985098853
 31
0.0
  0
LINE
  5
9E
  8
DIMNSIONS
  6
CONTINUOUS
 62
     7
 10
46.489999999999988
 20
-62.799999985098822
 30
0.0
 11
46.489999999999988
 21
-91.499999985098853
 31
0.0
  0
LINE
  5
9F
  8
DIMNSIONS
  6
CONTINUOUS
 62
     7
 10
-21.799990000000012
 20
-87.5
 30
0.0
 11
46.489999999999988
 21
-87.5
 31
0.0
  0
SOLID
  5
A0
  8
DIMNSIONS
 62
     7
 10
46.489999999999988
 20
-87.5
 30
0.0
 11
40.139999999999993
 21
-89.201477371937614
 31
0.0
 12
40.139999999999993
 22
-85.798522628062372
 32
0.0
 13
40.139999999999993
 23
-85.798522628062372
 33
0.0
  0
TEXT
  5
A1
  8
DIMNSIONS
 62
     7
 10
5.2894649204593076
 20
-84.512234399999969
 30
0.0
 40
5.429458515624999
  1
68.3
 41
0.8
 11
5.2894649204593076
 21
-79.082775884374982
 31
0.0
 73
     3
  0
LINE
  5
A2
  8
DIMNSIONS
  6
CONTINUOUS
 62
     7
 10
79.999999999999986
 20
38.000010014901171
 30
0.0
 11
79.999999999999986
 21
-28.999999985098839
 31
0.0
  0
LINE
  5
A3
  8
DIMNSIONS
  6
CONTINUOUS
 62
     7
 10
104.20999999999999
 20
-2.9999999850988379
 30
0.0
 11
104.20999999999999
 21
-28.999999985098839
 31
0.0
  0
LINE
  5
A4
  8
DIMNSIONS
  6
CONTINUOUS
 62
     7
 10
79.999999999999986
 20
-25.0
 30
0.0
 11
104.20999999999999
 21
-25.0
 31
0.0
  0
SOLID
  5
A5
  8
DIMNSIONS
 62
     7
 10
104.20999999999999
 20
-25.0
 30
0.0
 11
97.859999999999985
 21
-26.701477371937639
 31
0.0
 12
97.859999999999985
 22
-23.298522628062361
 32
0.0
 13
97.859999999999985
 23
-23.298522628062361
 33
0.0
  0
TEXT
  5
A6
  8
DIMNSIONS
 62
     7
 10
85.049459920459299
 20
-22.012234400000001
 30
0.0
 40
5.429458515624999
  1
24.2
 41
0.8
 11
85.049459920459299
 21
-16.582775884374989
 31
0.0
 73
     3
  0
LINE
  5
A7
  8
DIMNSIONS
  6
CONTINUOUS
 62
     7
 10
111.20999999999999
 20
3.5000000149011599
 30
0.0
 11
111.20999999999999
 21
-41.499999985098839
 31
0.0
  0
LINE
  5
A8
  8
DIMNSIONS
  6
CONTINUOUS
 62
     7
 10
79.999999999999986
 20
38.000010014901171
 30
0.0
 11
79.999999999999986
 21
-41.499999985098839
 31
0.0
  0
LINE
  5
A9
  8
DIMNSIONS
  6
CONTINUOUS
 62
     7
 10
111.20999999999999
 20
-37.5
 30
0.0
 11
79.999999999999986
 21
-37.5
 31
0.0
  0
SOLID
  5
AA
  8
DIMNSIONS
 62
     7
 10
79.999999999999986
 20
-37.5
 30
0.0
 11
86.34999999999998
 21
-35.798522628062358
 31
0.0
 12
86.34999999999998
 22
-39.201477371937642
 32
0.0
 13
86.34999999999998
 23
-39.201477371937642
 33
0.0
  0
TEXT
  5
AB
  8
DIMNSIONS
 62
     7
 10
88.549459920459313
 20
-34.512234399999997
 30
0.0
 40
5.429458515624999
  1
31.2
 41
0.8
 11
88.549459920459313
 21
-29.082775884375
 31
0.0
 73
     3
  0
ARC
  5
AC
  8
DATA
  6
CONTINUOUS
 62
     7
 10
-18.799990000000012
 20
-58.79999999999999
 30
0.0
 40
3.0
 50
180.0
 51
270.0
  0
ARC
  5
AD
  8
DATA
  6
CONTINUOUS
 62
     7
 10
-20.900000000000009
 20
-54.399979999999971
 30
0.0
 40
0.9000199999999978
 50
0.0
 51
180.0
  0
ARC
  5
AE
  8
DATA
  6
CONTINUOUS
 62
     7
 10
-18.799990000000012
 20
-57.49998999999999
 30
0.0
 40
3.0
 50
180.0
 51
270.0
  0
LINE
  5
AF
  8
DATA
  6
CONTINUOUS
 62
     7
 10
-21.799990000000012
 20
-58.79999999999999
 30
0.0
 11
-21.799990000000012
 21
-54.399979999999971
 31
0.0
  0
LINE
  5
B0
  8
DATA
  6
CONTINUOUS
 62
     7
 10
-18.799990000000012
 20
-60.499980000000001
 30
0.0
 11
-14.999990000000009
 21
-60.499980000000001
 31
0.0
  0
LINE
  5
B1
  8
DATA
  6
CONTINUOUS
 62
     7
 10
-7.365310000000008
 20
-61.799999999999983
 30
0.0
 11
-18.799990000000012
 21
-61.799999999999983
 31
0.0
  0
LINE
  5
B2
  8
DATA
  6
CONTINUOUS
 62
     7
 10
32.264629999999997
 20
-62.504820000000002
 30
0.0
 11
32.724439999999987
 21
-65.252399999999994
 31
0.0
  0
LINE
  5
B3
  8
DATA
  6
CONTINUOUS
 62
     7
 10
30.489309999999989
 20
-62.801920000000003
 30
0.0
 11
30.656659999999992
 21
-63.801920000000003
 31
0.0
  0
LINE
  5
B4
  8
DATA
  6
CONTINUOUS
 62
     7
 10
32.055329999999998
 20
-61.799999999999983
 30
0.0
 11
43.489999999999988
 21
-61.799999999999983
 31
0.0
  0
LINE
  5
B5
  8
DATA
  6
CONTINUOUS
 62
     7
 10
27.96189
 20
-61.799999999999983
 30
0.0
 11
29.305789999999991
 21
-61.799999999999983
 31
0.0
  0
ARC
  5
B6
  8
DATA
  6
CONTINUOUS
 62
     7
 10
29.305789999999991
 20
-62.999980000000001
 30
0.0
 40
1.199978063966171
 50
9.5003143567600326
 51
90.0
  0
ARC
  5
B7
  8
DATA
  6
CONTINUOUS
 62
     7
 10
29.305779999999999
 20
-62.999980000000001
 30
0.0
 40
2.9999961246808282
 50
9.5003451092800937
 51
90.0
  0
TEXT
  5
B8
  8
DATA
 62
     7
 10
190.50303296006371
 20
-94.575107788457373
 30
0.0
 40
4.3435763888888879
  1
U1-JBX / U1-A24
 41
0.8
 11
190.50303296006371
 21
-90.231531399568482
 31
0.0
 73
     3
  0
TEXT
  5
B9
  8
DATA
 62
     7
 10
194.60281453608201
 20
-79.346588302405451
 30
0.0
 40
4.8865234375000002
  1
SHURE
 41
0.8
 11
194.60281453608201
 21
-74.460064864905448
 31
0.0
 73
     3
  0
TEXT
  5
BA
  8
DATA
 62
     7
 10
189.32432297521271
 20
-87.288964694169067
 30
0.0
 40
4.3435763888888879
  1
ボディパック型送信機
 41
0.8
 11
189.32432297521271
 21
-82.945388305280176
 31
0.0
 73
     3
  0
LINE
  5
BB
  8
DATA
  6
CONTINUOUS
 62
     7
 10
-19.999980000000011
 20
35.988730000000011
 30
0.0
 11
-19.999980000000011
 21
85.700000000000003
 31
0.0
  0
LINE
  5
BC
  8
DATA
  6
CONTINUOUS
 62
     7
 10
-19.999980000000011
 20
-7.0
 30
0.0
 11
-19.999980000000011
 21
31.011289999999999
 31
0.0
  0
LINE
  5
BD
  8
DATA
  6
CONTINUOUS
 62
     7
 10
-16.999990000000011
 20
-10.0
 30
0.0
 11
41.690019999999983
 21
-10.0
 31
0.0
  0
LINE
  5
BE
  8
DATA
  6
CONTINUOUS
 62
     7
 10
44.690019999999983
 20
31.011289999999999
 30
0.0
 11
44.690019999999983
 21
-7.0
 31
0.0
  0
LINE
  5
BF
  8
DATA
  6
CONTINUOUS
 62
     7
 10
44.690019999999983
 20
85.700000000000003
 30
0.0
 11
44.690019999999983
 21
35.988730000000011
 31
0.0
  0
LINE
  5
C0
  8
DATA
  6
CONTINUOUS
 62
     7
 10
-19.999980000000011
 20
42.500010000000003
 30
0.0
 11
44.690019999999983
 21
42.500010000000003
 31
0.0
  0
LINE
  5
C1
  8
DATA
  6
CONTINUOUS
 62
     7
 10
-16.999990000000011
 20
88.700000000000003
 30
0.0
 11
0.6164099999999877
 21
88.700000000000003
 31
0.0
  0
LINE
  5
C2
  8
DATA
  6
CONTINUOUS
 62
     7
 10
24.073609999999992
 20
88.700000000000003
 30
0.0
 11
41.690019999999983
 21
88.700000000000003
 31
0.0
  0
LINE
  5
C3
  8
DATA
  6
CONTINUOUS
 62
     7
 10
4.3450099999999869
 20
67.21875
 30
0.0
 11
3.1801299999999908
 21
46.251079999999988
 31
0.0
  0
LINE
  5
C4
  8
DATA
  6
CONTINUOUS
 62
     7
 10
20.345009999999991
 20
67.21875
 30
0.0
 11
21.509889999999999
 21
46.251079999999988
 31
0.0
  0
POLYLINE
  5
C5
  8
DATA
  6
CONTINUOUS
 62
     7
 66
     1
 10
0.0
 20
0.0
 30
0.0
 70
     1
  0
VERTEX
  5
6CC
  8
DATA
  6
CONTINUOUS
 62
     7
 10
13.169999999999989
 20
62.21875
 30
0.0
  0
VERTEX
  5
6CD
  8
DATA
  6
CONTINUOUS
 62
     7
 10
18.669999999999991
 20
62.21875
 30
0.0
  0
VERTEX
  5
6CE
  8
DATA
  6
CONTINUOUS
 62
     7
 10
18.669999999999991
 20
57.418750000000003
 30
0.0
  0
VERTEX
  5
6CF
  8
DATA
  6
CONTINUOUS
 62
     7
 10
13.169999999999989
 20
57.418750000000003
 30
0.0
  0
SEQEND
  5
6D0
  8
DATA
  6
CONTINUOUS
 62
     7
  0
POLYLINE
  5
CC
  8
DATA
  6
CONTINUOUS
 62
     7
 66
     1
 10
0.0
 20
0.0
 30
0.0
 70
     1
  0
VERTEX
  5
6D1
  8
DATA
  6
CONTINUOUS
 62
     7
 10
6.0200199999999882
 20
62.21875
 30
0.0
  0
VERTEX
  5
6D2
  8
DATA
  6
CONTINUOUS
 62
     7
 10
11.52001999999999
 20
62.21875
 30
0.0
  0
VERTEX
  5
6D3
  8
DATA
  6
CONTINUOUS
 62
     7
 10
11.52001999999999
 20
57.418750000000003
 30
0.0
  0
VERTEX
  5
6D4
  8
DATA
  6
CONTINUOUS
 62
     7
 10
6.0200199999999882
 20
57.418750000000003
 30
0.0
  0
SEQEND
  5
6D5
  8
DATA
  6
CONTINUOUS
 62
     7
  0
LINE
  5
D3
  8
DATA
  6
CONTINUOUS
 62
     7
 10
42.69001999999999
 20
-59.999980000000001
 30
0.0
 11
-17.999980000000011
 21
-59.999980000000001
 31
0.0
  0
LINE
  5
D4
  8
DATA
  6
CONTINUOUS
 62
     7
 10
42.69001999999999
 20
-59.999980000000001
 30
0.0
 11
44.690019999999983
 21
-57.99998999999999
 31
0.0
  0
LINE
  5
D5
  8
DATA
  6
CONTINUOUS
 62
     7
 10
-17.999980000000011
 20
-59.999980000000001
 30
0.0
 11
-19.999980000000011
 21
-57.99998999999999
 31
0.0
  0
LINE
  5
D6
  8
DATA
  6
CONTINUOUS
 62
     7
 10
25.345009999999991
 20
-35.789999999999992
 30
0.0
 11
-0.6549900000000122
 21
-35.789999999999992
 31
0.0
  0
LINE
  5
D7
  8
DATA
  6
CONTINUOUS
 62
     7
 10
79.999999999999986
 20
42.000010000000003
 30
0.0
 11
86.20999999999998
 21
42.000010000000003
 31
0.0
  0
LINE
  5
D8
  8
DATA
  6
CONTINUOUS
 62
     7
 10
93.710009999999968
 20
89.218760000000003
 30
0.0
 11
93.710009999999968
 21
-10.0
 31
0.0
  0
LINE
  5
D9
  8
DATA
  6
CONTINUOUS
 62
     7
 10
94.210009999999983
 20
89.218760000000003
 30
0.0
 11
94.210009999999983
 21
-9.9874699999999716
 31
0.0
  0
LINE
  5
DA
  8
DATA
  6
CONTINUOUS
 62
     7
 10
86.20999999999998
 20
42.000010000000003
 30
0.0
 11
86.20999999999998
 21
28.00001
 31
0.0
  0
CIRCLE
  5
DB
  8
DATA
  6
CONTINUOUS
 62
     7
 10
98.21002
 20
-7.0
 30
0.0
 40
0.7500100000000001
  0
LINE
  5
DC
  8
DATA
  6
CONTINUOUS
 62
     7
 10
86.709999999999965
 20
89.218760000000003
 30
0.0
 11
101.20999999999989
 21
89.218760000000003
 31
0.0
  0
LINE
  5
DD
  8
DATA
  6
CONTINUOUS
 62
     7
 10
0.5950099999999879
 20
89.218760000000003
 30
0.0
 11
24.095009999999991
 21
89.218760000000003
 31
0.0
  0
LINE
  5
DE
  8
DATA
  6
CONTINUOUS
 62
     7
 10
79.999999999999986
 20
42.500010000000003
 30
0.0
 11
93.710009999999968
 21
42.500010000000003
 31
0.0
  0
ARC
  5
DF
  8
DATA
  6
CONTINUOUS
 62
     7
 10
93.710009999999968
 20
0.5
 30
0.0
 40
10.5
 50
270.0
 51
0.0
  0
ARC
  5
E0
  8
DATA
  6
CONTINUOUS
 62
     7
 10
97.835009999999997
 20
-1.986829999999997
 30
0.0
 40
7.0100374464049757
 50
238.86102756302111
 51
273.0665671180011
  0
LINE
  5
E1
  8
DATA
  6
CONTINUOUS
 62
     7
 10
79.999999999999986
 20
42.500010000000003
 30
0.0
 11
79.999999999999986
 21
42.000010000000003
 31
0.0
  0
ARC
  5
E2
  8
DATA
  6
CONTINUOUS
 62
     7
 10
93.710009999999968
 20
0.0
 30
0.0
 40
10.000011033293911
 50
184.96159065135851
 51
270.0
  0
ARC
  5
E3
  8
DATA
  6
CONTINUOUS
 62
     7
 10
511.25416999999999
 20
58.002290000000002
 30
0.0
 40
431.55096119414122
 50
182.1250638559641
 51
187.87790894485039
  0
ARC
  5
E4
  8
DATA
  6
CONTINUOUS
 62
     7
 10
93.710009999999968
 20
28.00001
 30
0.0
 40
7.5000099999999978
 50
180.0
 51
270.0
  0
ARC
  5
E5
  8
DATA
  6
CONTINUOUS
 62
     7
 10
101.20999999999989
 20
86.218760000000003
 30
0.0
 40
3.0
 50
0.0
 51
90.0
  0
ARC
  5
E6
  8
DATA
  6
CONTINUOUS
 62
     7
 10
86.709999999999965
 20
86.218760000000003
 30
0.0
 40
3.0
 50
90.0
 51
180.0
  0
ARC
  5
E7
  8
DATA
  6
CONTINUOUS
 62
     7
 10
524.99529999999993
 20
26.754220000000011
 30
0.0
 40
445.27378938525192
 50
172.3254486362074
 51
177.9734805052131
  0
ARC
  5
E8
  8
DATA
  6
CONTINUOUS
 62
     7
 10
87.20999999999998
 20
86.218760000000003
 30
0.0
 40
3.0
 50
90.0
 51
180.0
  0
ARC
  5
E9
  8
DATA
  6
CONTINUOUS
 62
     7
 10
525.49529999999993
 20
26.754220000000011
 30
0.0
 40
445.27378938525192
 50
172.3254486362074
 51
177.9734805052131
  0
ARC
  5
EA
  8
DATA
  6
CONTINUOUS
 62
     7
 10
94.210009999999983
 20
0.0
 30
0.0
 40
9.9999911082360473
 50
184.9616005621512
 51
267.13751465985541
  0
ARC
  5
EB
  8
DATA
  6
CONTINUOUS
 62
     7
 10
511.75416999999999
 20
58.002290000000002
 30
0.0
 40
431.55096119414122
 50
182.1250638559641
 51
187.87790894485039
  0
LINE
  5
EC
  8
DATA
  6
CONTINUOUS
 62
     7
 10
82.999999999999986
 20
30.50001
 30
0.0
 11
82.999999999999986
 21
36.500010000000003
 31
0.0
  0
LINE
  5
ED
  8
DATA
  6
CONTINUOUS
 62
     7
 10
84.500019999999964
 20
30.50001
 30
0.0
 11
84.500019999999964
 21
36.500010000000003
 31
0.0
  0
LINE
  5
EE
  8
DATA
  6
CONTINUOUS
 62
     7
 10
82.999999999999986
 20
30.50001
 30
0.0
 11
84.500019999999964
 21
30.50001
 31
0.0
  0
LINE
  5
EF
  8
DATA
  6
CONTINUOUS
 62
     7
 10
82.999999999999986
 20
36.500010000000003
 30
0.0
 11
84.500019999999964
 21
36.500010000000003
 31
0.0
  0
LINE
  5
F0
  8
DATA
  6
CONTINUOUS
 62
     7
 10
43.17508999999999
 20
30.50001
 30
0.0
 11
43.17508999999999
 21
36.500010000000003
 31
0.0
  0
LINE
  5
F1
  8
DATA
  6
CONTINUOUS
 62
     7
 10
45.675079999999987
 20
34.000010000000003
 30
0.0
 11
45.675079999999987
 21
33.000010000000003
 31
0.0
  0
ARC
  5
F2
  8
DATA
  6
CONTINUOUS
 62
     7
 10
43.17508999999999
 20
33.000010000000003
 30
0.0
 40
2.5
 50
270.0
 51
0.0
  0
ARC
  5
F3
  8
DATA
  6
CONTINUOUS
 62
     7
 10
43.17508999999999
 20
34.000010000000003
 30
0.0
 40
2.4999899999999959
 50
0.0
 51
90.0
  0
LINE
  5
F4
  8
DATA
  6
CONTINUOUS
 62
     7
 10
-18.485070000000011
 20
30.50001
 30
0.0
 11
-18.485070000000011
 21
36.500010000000003
 31
0.0
  0
LINE
  5
F5
  8
DATA
  6
CONTINUOUS
 62
     7
 10
-20.985070000000011
 20
34.000010000000003
 30
0.0
 11
-20.985070000000011
 21
33.000010000000003
 31
0.0
  0
ARC
  5
F6
  8
DATA
  6
CONTINUOUS
 62
     7
 10
-18.485070000000011
 20
33.000010000000003
 30
0.0
 40
2.5
 50
180.0
 51
270.0
  0
ARC
  5
F7
  8
DATA
  6
CONTINUOUS
 62
     7
 10
-18.485070000000011
 20
34.000010000000003
 30
0.0
 40
2.5
 50
90.0
 51
180.0
  0
LINE
  5
F8
  8
DATA
  6
CONTINUOUS
 62
     7
 10
-19.999980000000011
 20
42.000010000000003
 30
0.0
 11
44.690019999999983
 21
42.000010000000003
 31
0.0
  0
ARC
  5
F9
  8
DATA
  6
CONTINUOUS
 62
     7
 10
-16.999990000000011
 20
-7.0
 30
0.0
 40
2.9999899999999959
 50
180.0
 51
270.0
  0
ARC
  5
FA
  8
DATA
  6
CONTINUOUS
 62
     7
 10
41.690019999999983
 20
-7.0
 30
0.0
 40
3.0
 50
270.0
 51
0.0
  0
TEXT
  5
FB
  8
DATA
 62
     7
 10
5.2505003020833207
 20
71.190764600000023
 30
0.0
 40
3.800630195312499
  1
SHURE
 41
0.8
 72
     1
 11
12.34500999999999
 21
74.991394795312516
 31
0.0
 73
     3
  0
POLYLINE
  5
FC
  8
DATA
  6
CONTINUOUS
 62
     7
 66
     1
 10
0.0
 20
0.0
 30
0.0
 70
     1
  0
VERTEX
  5
6D6
  8
DATA
  6
CONTINUOUS
 62
     7
 10
5.0950099999999869
 20
75.21875
 30
0.0
  0
VERTEX
  5
6D7
  8
DATA
  6
CONTINUOUS
 62
     7
 10
19.595009999999991
 20
75.21875
 30
0.0
  0
VERTEX
  5
6D8
  8
DATA
  6
CONTINUOUS
 62
     7
 10
19.595009999999991
 20
70.71875
 30
0.0
  0
VERTEX
  5
6D9
  8
DATA
  6
CONTINUOUS
 62
     7
 10
5.0950099999999869
 20
70.71875
 30
0.0
  0
SEQEND
  5
6DA
  8
DATA
  6
CONTINUOUS
 62
     7
  0
LINE
  5
103
  8
DATA
  6
CONTINUOUS
 62
     7
 10
4.3450099999999869
 20
67.21875
 30
0.0
 11
20.345009999999991
 21
67.21875
 31
0.0
  0
LINE
  5
104
  8
DATA
  6
CONTINUOUS
 62
     7
 10
3.3450099999999869
 20
49.21876000000001
 30
0.0
 11
21.345009999999991
 21
49.21876000000001
 31
0.0
  0
POLYLINE
  5
105
  8
DATA
  6
CONTINUOUS
 62
     7
 66
     1
 10
0.0
 20
0.0
 30
0.0
 70
     1
  0
VERTEX
  5
6DB
  8
DATA
  6
CONTINUOUS
 62
     7
 10
5.5950099999999869
 20
64.96875
 30
0.0
  0
VERTEX
  5
6DC
  8
DATA
  6
CONTINUOUS
 62
     7
 10
19.095009999999981
 20
64.96875
 30
0.0
  0
VERTEX
  5
6DD
  8
DATA
  6
CONTINUOUS
 62
     7
 10
19.095009999999981
 20
51.468760000000003
 30
0.0
  0
VERTEX
  5
6DE
  8
DATA
  6
CONTINUOUS
 62
     7
 10
5.5950099999999869
 20
51.468760000000003
 30
0.0
  0
SEQEND
  5
6DF
  8
DATA
  6
CONTINUOUS
 62
     7
  0
TEXT
  5
10C
  8
DATA
 62
     7
 10
6.4716866666666526
 20
62.642759999999988
 30
0.0
 40
1.2312499999999991
  1
GROUP
 41
0.8
 72
     1
 11
8.7700199999999864
 21
63.874009999999998
 31
0.0
 73
     3
  0
TEXT
  5
10D
  8
DATA
 62
     7
 10
12.636666666666651
 20
62.642759999999988
 30
0.0
 40
1.2312499999999991
  1
CHANNEL
 41
0.8
 72
     1
 11
15.91999999999998
 21
63.874009999999998
 31
0.0
 73
     3
  0
TEXT
  5
10E
  8
DATA
 62
     7
 10
9.0616766666666546
 20
51.892769999999999
 30
0.0
 40
1.2312499999999991
  1
BATTERY
 41
0.8
 72
     1
 11
12.34500999999999
 21
53.124020000000002
 31
0.0
 73
     3
  0
TEXT
  5
10F
  8
DATA
 62
     7
 10
6.6666666666666572
 20
51.892769999999999
 30
0.0
 40
1.2312499999999991
  1
E
 41
0.8
 72
     1
 11
6.9949999999999903
 21
53.124020000000002
 31
0.0
 73
     3
  0
TEXT
  5
110
  8
DATA
 62
     7
 10
17.366686666666659
 20
51.892769999999999
 30
0.0
 40
1.2312499999999991
  1
F
 41
0.8
 72
     1
 11
17.69502
 21
53.124020000000002
 31
0.0
 73
     3
  0
ARC
  5
111
  8
DATA
  6
CONTINUOUS
 62
     7
 10
-16.999990000000011
 20
85.700000000000003
 30
0.0
 40
3.0
 50
90.0
 51
180.0
  0
ARC
  5
112
  8
DATA
  6
CONTINUOUS
 62
     7
 10
41.690019999999983
 20
85.700000000000003
 30
0.0
 40
3.0
 50
0.0
 51
90.0
  0
LINE
  5
113
  8
DATA
  6
CONTINUOUS
 62
     7
 10
-16.999990000000011
 20
23.00001
 30
0.0
 11
-11.10842000000001
 21
12.02553000000001
 31
0.0
  0
LINE
  5
114
  8
DATA
  6
CONTINUOUS
 62
     7
 10
41.690019999999983
 20
23.00001
 30
0.0
 11
35.798439999999992
 21
12.02553000000001
 31
0.0
  0
POLYLINE
  5
115
  8
DATA
  6
CONTINUOUS
 62
     7
 66
     1
 10
0.0
 20
0.0
 30
0.0
 70
   128
  0
VERTEX
  5
6E0
  8
DATA
  6
CONTINUOUS
 62
     7
 10
-4.0315000000000083
 20
42.500140000000002
 30
0.0
  0
VERTEX
  5
6E1
  8
DATA
  6
CONTINUOUS
 62
     7
 10
-4.0043230541992179
 20
42.939705449218771
 30
0.0
  0
VERTEX
  5
6E2
  8
DATA
  6
CONTINUOUS
 62
     7
 10
-3.9775740917968809
 20
43.380304921875009
 30
0.0
  0
VERTEX
  5
6E3
  8
DATA
  6
CONTINUOUS
 62
     7
 10
-3.9512531127929682
 20
43.821938417968752
 30
0.0
  0
VERTEX
  5
6E4
  8
DATA
  6
CONTINUOUS
 62
     7
 10
-3.9253601171875081
 20
44.264605937500001
 30
0.0
  0
VERTEX
  5
6E5
  8
DATA
  6
CONTINUOUS
 62
     7
 10
-3.8998951049804722
 20
44.708307480468761
 30
0.0
  0
VERTEX
  5
6E6
  8
DATA
  6
CONTINUOUS
 62
     7
 10
-3.8748580761718889
 20
45.153043046875013
 30
0.0
  0
VERTEX
  5
6E7
  8
DATA
  6
CONTINUOUS
 62
     7
 10
-3.8502490307617299
 20
45.598812636718762
 30
0.0
  0
VERTEX
  5
6E8
  8
DATA
  6
CONTINUOUS
 62
     7
 10
-3.8260679687500092
 20
46.045616250000009
 30
0.0
  0
VERTEX
  5
6E9
  8
DATA
  6
CONTINUOUS
 62
     7
 10
-3.8023148901367132
 20
46.49345388671874
 30
0.0
  0
VERTEX
  5
6EA
  8
DATA
  6
CONTINUOUS
 62
     7
 10
-3.778989794921884
 20
46.94232554687499
 30
0.0
  0
VERTEX
  5
6EB
  8
DATA
  6
CONTINUOUS
 62
     7
 10
-3.7560926831054791
 20
47.392231230468752
 30
0.0
  0
VERTEX
  5
6EC
  8
DATA
  6
CONTINUOUS
 62
     7
 10
-3.7336235546875121
 20
47.843170937500012
 30
0.0
  0
VERTEX
  5
6ED
  8
DATA
  6
CONTINUOUS
 62
     7
 10
-3.7115824096679679
 20
48.295144667968763
 30
0.0
  0
VERTEX
  5
6EE
  8
DATA
  6
CONTINUOUS
 62
     7
 10
-3.689969248046892
 20
48.748152421875012
 30
0.0
  0
VERTEX
  5
6EF
  8
DATA
  6
CONTINUOUS
 62
     7
 10
-3.668784069824226
 20
49.202194199218752
 30
0.0
  0
VERTEX
  5
6F0
  8
DATA
  6
CONTINUOUS
 62
     7
 10
-3.6480268750000131
 20
49.657270000000011
 30
0.0
  0
VERTEX
  5
6F1
  8
DATA
  6
CONTINUOUS
 62
     7
 10
-3.6276976635742391
 20
50.113379824218768
 30
0.0
  0
VERTEX
  5
6F2
  8
DATA
  6
CONTINUOUS
 62
     7
 10
-3.607796435546887
 20
50.570523671875009
 30
0.0
  0
VERTEX
  5
6F3
  8
DATA
  6
CONTINUOUS
 62
     7
 10
-3.588323190917976
 20
51.028701542968768
 30
0.0
  0
VERTEX
  5
6F4
  8
DATA
  6
CONTINUOUS
 62
     7
 10
-3.569277929687515
 20
51.487913437500012
 30
0.0
  0
VERTEX
  5
6F5
  8
DATA
  6
CONTINUOUS
 62
     7
 10
-3.5506606518554662
 20
51.948159355468761
 30
0.0
  0
VERTEX
  5
6F6
  8
DATA
  6
CONTINUOUS
 62
     7
 10
-3.5324713574218829
 20
52.409439296875
 30
0.0
  0
VERTEX
  5
6F7
  8
DATA
  6
CONTINUOUS
 62
     7
 10
-3.5147100463867238
 20
52.871753261718759
 30
0.0
  0
VERTEX
  5
6F8
  8
DATA
  6
CONTINUOUS
 62
     7
 10
-3.497376718750004
 20
53.335101250000001
 30
0.0
  0
VERTEX
  5
6F9
  8
DATA
  6
CONTINUOUS
 62
     7
 10
-3.480471374511708
 20
53.799483261718763
 30
0.0
  0
VERTEX
  5
6FA
  8
DATA
  6
CONTINUOUS
 62
     7
 10
-3.4639940136718792
 20
54.264899296875001
 30
0.0
  0
VERTEX
  5
6FB
  8
DATA
  6
CONTINUOUS
 62
     7
 10
-3.4479446362304742
 20
54.731349355468772
 30
0.0
  0
VERTEX
  5
6FC
  8
DATA
  6
CONTINUOUS
 62
     7
 10
-3.4323232421875081
 20
55.198833437500021
 30
0.0
  0
VERTEX
  5
6FD
  8
DATA
  6
CONTINUOUS
 62
     7
 10
-3.4171298315429639
 20
55.66735154296876
 30
0.0
  0
VERTEX
  5
6FE
  8
DATA
  6
CONTINUOUS
 62
     7
 10
-3.402364404296875
 20
56.136903671875011
 30
0.0
  0
VERTEX
  5
6FF
  8
DATA
  6
CONTINUOUS
 62
     7
 10
-3.3880269604492241
 20
56.607489824218767
 30
0.0
  0
VERTEX
  5
700
  8
DATA
  6
CONTINUOUS
 62
     7
 10
-3.3741175000000112
 20
57.079110000000021
 30
0.0
  0
VERTEX
  5
701
  8
DATA
  6
CONTINUOUS
 62
     7
 10
-3.3606360229492358
 20
57.551764199218752
 30
0.0
  0
VERTEX
  5
702
  8
DATA
  6
CONTINUOUS
 62
     7
 10
-3.3475825292969001
 20
58.025452421875002
 30
0.0
  0
VERTEX
  5
703
  8
DATA
  6
CONTINUOUS
 62
     7
 10
-3.3349570190429878
 20
58.500174667968771
 30
0.0
  0
VERTEX
  5
704
  8
DATA
  6
CONTINUOUS
 62
     7
 10
-3.322759492187529
 20
58.97593093750001
 30
0.0
  0
VERTEX
  5
705
  8
DATA
  6
CONTINUOUS
 62
     7
 10
-3.3109899487304939
 20
59.452721230468761
 30
0.0
  0
VERTEX
  5
706
  8
DATA
  6
CONTINUOUS
 62
     7
 10
-3.2996483886718968
 20
59.93054554687501
 30
0.0
  0
VERTEX
  5
707
  8
DATA
  6
CONTINUOUS
 62
     7
 10
-3.2887348120117239
 20
60.409403886718749
 30
0.0
  0
VERTEX
  5
708
  8
DATA
  6
CONTINUOUS
 62
     7
 10
-3.2782492187500201
 20
60.889296250000001
 30
0.0
  0
VERTEX
  5
709
  8
DATA
  6
CONTINUOUS
 62
     7
 10
-3.2681916088867382
 20
61.370222636718751
 30
0.0
  0
VERTEX
  5
70A
  8
DATA
  6
CONTINUOUS
 62
     7
 10
-3.2585619824218952
 20
61.852183046874998
 30
0.0
  0
VERTEX
  5
70B
  8
DATA
  6
CONTINUOUS
 62
     7
 10
-3.249360339355476
 20
62.335177480468751
 30
0.0
  0
VERTEX
  5
70C
  8
DATA
  6
CONTINUOUS
 62
     7
 10
-3.240586679687524
 20
62.819205937500008
 30
0.0
  0
VERTEX
  5
70D
  8
DATA
  6
CONTINUOUS
 62
     7
 10
-3.232241003417982
 20
63.304268417968771
 30
0.0
  0
VERTEX
  5
70E
  8
DATA
  6
CONTINUOUS
 62
     7
 10
-3.2243233105468918
 20
63.79036492187501
 30
0.0
  0
VERTEX
  5
70F
  8
DATA
  6
CONTINUOUS
 62
     7
 10
-3.2168336010742422
 20
64.277495449218776
 30
0.0
  0
VERTEX
  5
710
  8
DATA
  6
CONTINUOUS
 62
     7
 10
-3.209771875000015
 20
64.765660000000011
 30
0.0
  0
VERTEX
  5
711
  8
DATA
  6
CONTINUOUS
 62
     7
 10
-3.2031381323242272
 20
65.254858574218758
 30
0.0
  0
VERTEX
  5
712
  8
DATA
  6
CONTINUOUS
 62
     7
 10
-3.196932373046891
 20
65.745091171875004
 30
0.0
  0
VERTEX
  5
713
  8
DATA
  6
CONTINUOUS
 62
     7
 10
-3.1911545971679942
 20
66.236357792968761
 30
0.0
  0
VERTEX
  5
714
  8
DATA
  6
CONTINUOUS
 62
     7
 10
-3.1858048046875198
 20
66.728658437500016
 30
0.0
  0
VERTEX
  5
715
  8
DATA
  6
CONTINUOUS
 62
     7
 10
-3.180882995605486
 20
67.221993105468783
 30
0.0
  0
VERTEX
  5
716
  8
DATA
  6
CONTINUOUS
 62
     7
 10
-3.1763891699218898
 20
67.71636179687502
 30
0.0
  0
VERTEX
  5
717
  8
DATA
  6
CONTINUOUS
 62
     7
 10
-3.172323327636732
 20
68.211764511718769
 30
0.0
  0
VERTEX
  5
718
  8
DATA
  6
CONTINUOUS
 62
     7
 10
-3.168685468750013
 20
68.708201250000016
 30
0.0
  0
VERTEX
  5
719
  8
DATA
  6
CONTINUOUS
 62
     7
 10
-3.165475593261732
 20
69.205672011718775
 30
0.0
  0
VERTEX
  5
71A
  8
DATA
  6
CONTINUOUS
 62
     7
 10
-3.162693701171889
 20
69.704176796875018
 30
0.0
  0
VERTEX
  5
71B
  8
DATA
  6
CONTINUOUS
 62
     7
 10
-3.1603397924804839
 20
70.203715605468759
 30
0.0
  0
VERTEX
  5
71C
  8
DATA
  6
CONTINUOUS
 62
     7
 10
-3.158413867187519
 20
70.704288437500026
 30
0.0
  0
VERTEX
  5
71D
  8
DATA
  6
CONTINUOUS
 62
     7
 10
-3.156915925292977
 20
71.205895292968762
 30
0.0
  0
VERTEX
  5
71E
  8
DATA
  6
CONTINUOUS
 62
     7
 10
-3.1558459667968881
 20
71.708536171875025
 30
0.0
  0
VERTEX
  5
71F
  8
DATA
  6
CONTINUOUS
 62
     7
 10
-3.1552039916992238
 20
72.212211074218743
 30
0.0
  0
VERTEX
  5
720
  8
DATA
  6
CONTINUOUS
 62
     7
 10
-3.1549900000000122
 20
72.716920000000002
 30
0.0
  0
VERTEX
  5
721
  8
DATA
  6
CONTINUOUS
 62
     7
 10
-3.1549900000000122
 20
72.716920000000002
 30
0.0
  0
VERTEX
  5
722
  8
DATA
  6
CONTINUOUS
 62
     7
 10
-3.1549900000000122
 20
72.716920000000002
 30
0.0
  0
VERTEX
  5
723
  8
DATA
  6
CONTINUOUS
 62
     7
 10
-3.1550459741211081
 20
72.975169853515624
 30
0.0
  0
VERTEX
  5
724
  8
DATA
  6
CONTINUOUS
 62
     7
 10
-3.155213896484383
 20
73.233149414062495
 30
0.0
  0
VERTEX
  5
725
  8
DATA
  6
CONTINUOUS
 62
     7
 10
-3.1554937670898511
 20
73.490858681640603
 30
0.0
  0
VERTEX
  5
726
  8
DATA
  6
CONTINUOUS
 62
     7
 10
-3.155885585937511
 20
73.748297656250003
 30
0.0
  0
VERTEX
  5
727
  8
DATA
  6
CONTINUOUS
 62
     7
 10
-3.156389353027365
 20
74.005466337890624
 30
0.0
  0
VERTEX
  5
728
  8
DATA
  6
CONTINUOUS
 62
     7
 10
-3.1570050683593962
 20
74.262364726562524
 30
0.0
  0
VERTEX
  5
729
  8
DATA
  6
CONTINUOUS
 62
     7
 10
-3.1577327319336059
 20
74.518992822265631
 30
0.0
  0
VERTEX
  5
72A
  8
DATA
  6
CONTINUOUS
 62
     7
 10
-3.1585723437500088
 20
74.775350625000002
 30
0.0
  0
VERTEX
  5
72B
  8
DATA
  6
CONTINUOUS
 62
     7
 10
-3.159523903808604
 20
75.031438134765622
 30
0.0
  0
VERTEX
  5
72C
  8
DATA
  6
CONTINUOUS
 62
     7
 10
-3.1605874121093929
 20
75.287255351562493
 30
0.0
  0
VERTEX
  5
72D
  8
DATA
  6
CONTINUOUS
 62
     7
 10
-3.1617628686523589
 20
75.542802275390585
 30
0.0
  0
VERTEX
  5
72E
  8
DATA
  6
CONTINUOUS
 62
     7
 10
-3.1630502734375048
 20
75.798078906249984
 30
0.0
  0
VERTEX
  5
72F
  8
DATA
  6
CONTINUOUS
 62
     7
 10
-3.164449626464843
 20
76.053085244140604
 30
0.0
  0
VERTEX
  5
730
  8
DATA
  6
CONTINUOUS
 62
     7
 10
-3.1659609277343739
 20
76.307821289062503
 30
0.0
  0
VERTEX
  5
731
  8
DATA
  6
CONTINUOUS
 62
     7
 10
-3.167584177246098
 20
76.562287041015622
 30
0.0
  0
VERTEX
  5
732
  8
DATA
  6
CONTINUOUS
 62
     7
 10
-3.1693193750000139
 20
76.816482500000006
 30
0.0
  0
VERTEX
  5
733
  8
DATA
  6
CONTINUOUS
 62
     7
 10
-3.1711665209961089
 20
77.070407666015626
 30
0.0
  0
VERTEX
  5
734
  8
DATA
  6
CONTINUOUS
 62
     7
 10
-3.173125615234397
 20
77.324062539062524
 30
0.0
  0
VERTEX
  5
735
  8
DATA
  6
CONTINUOUS
 62
     7
 10
-3.175196657714864
 20
77.577447119140643
 30
0.0
  0
VERTEX
  5
736
  8
DATA
  6
CONTINUOUS
 62
     7
 10
-3.1773796484375221
 20
77.830561406250013
 30
0.0
  0
VERTEX
  5
737
  8
DATA
  6
CONTINUOUS
 62
     7
 10
-3.1796745874023742
 20
78.083405400390632
 30
0.0
  0
VERTEX
  5
738
  8
DATA
  6
CONTINUOUS
 62
     7
 10
-3.1820814746094039
 20
78.335979101562501
 30
0.0
  0
VERTEX
  5
739
  8
DATA
  6
CONTINUOUS
 62
     7
 10
-3.1846003100586122
 20
78.588282509765619
 30
0.0
  0
VERTEX
  5
73A
  8
DATA
  6
CONTINUOUS
 62
     7
 10
-3.1872310937500141
 20
78.840315625000002
 30
0.0
  0
VERTEX
  5
73B
  8
DATA
  6
CONTINUOUS
 62
     7
 10
-3.1899738256836079
 20
79.092078447265621
 30
0.0
  0
VERTEX
  5
73C
  8
DATA
  6
CONTINUOUS
 62
     7
 10
-3.1928285058593961
 20
79.343570976562503
 30
0.0
  0
VERTEX
  5
73D
  8
DATA
  6
CONTINUOUS
 62
     7
 10
-3.1957951342773598
 20
79.594793212890622
 30
0.0
  0
VERTEX
  5
73E
  8
DATA
  6
CONTINUOUS
 62
     7
 10
-3.1988737109375038
 20
79.845745156250004
 30
0.0
  0
VERTEX
  5
73F
  8
DATA
  6
CONTINUOUS
 62
     7
 10
-3.202064235839841
 20
80.096426806640636
 30
0.0
  0
VERTEX
  5
740
  8
DATA
  6
CONTINUOUS
 62
     7
 10
-3.2053667089843709
 20
80.346838164062504
 30
0.0
  0
VERTEX
  5
741
  8
DATA
  6
CONTINUOUS
 62
     7
 10
-3.2087811303710931
 20
80.596979228515622
 30
0.0
  0
VERTEX
  5
742
  8
DATA
  6
CONTINUOUS
 62
     7
 10
-3.2123075000000081
 20
80.846850000000003
 30
0.0
  0
VERTEX
  5
743
  8
DATA
  6
CONTINUOUS
 62
     7
 10
-3.2159458178711162
 20
81.096450478515635
 30
0.0
  0
VERTEX
  5
744
  8
DATA
  6
CONTINUOUS
 62
     7
 10
-3.2196960839843869
 20
81.345780664062502
 30
0.0
  0
VERTEX
  5
745
  8
DATA
  6
CONTINUOUS
 62
     7
 10
-3.223558298339853
 20
81.594840556640619
 30
0.0
  0
VERTEX
  5
746
  8
DATA
  6
CONTINUOUS
 62
     7
 10
-3.22753246093751
 20
81.843630156250015
 30
0.0
  0
VERTEX
  5
747
  8
DATA
  6
CONTINUOUS
 62
     7
 10
-3.2316185717773598
 20
82.092149462890646
 30
0.0
  0
VERTEX
  5
748
  8
DATA
  6
CONTINUOUS
 62
     7
 10
-3.235816630859389
 20
82.340398476562498
 30
0.0
  0
VERTEX
  5
749
  8
DATA
  6
CONTINUOUS
 62
     7
 10
-3.24012663818361
 20
82.588377197265615
 30
0.0
  0
VERTEX
  5
74A
  8
DATA
  6
CONTINUOUS
 62
     7
 10
-3.24454859375001
 20
82.836085625000024
 30
0.0
  0
VERTEX
  5
74B
  8
DATA
  6
CONTINUOUS
 62
     7
 10
-3.2490824975586041
 20
83.083523759765626
 30
0.0
  0
VERTEX
  5
74C
  8
DATA
  6
CONTINUOUS
 62
     7
 10
-3.2537283496093878
 20
83.330691601562506
 30
0.0
  0
VERTEX
  5
74D
  8
DATA
  6
CONTINUOUS
 62
     7
 10
-3.258486149902367
 20
83.577589150390608
 30
0.0
  0
VERTEX
  5
74E
  8
DATA
  6
CONTINUOUS
 62
     7
 10
-3.2633558984375091
 20
83.824216406250002
 30
0.0
  0
VERTEX
  5
74F
  8
DATA
  6
CONTINUOUS
 62
     7
 10
-3.2683375952148439
 20
84.070573369140604
 30
0.0
  0
VERTEX
  5
750
  8
DATA
  6
CONTINUOUS
 62
     7
 10
-3.2734312402343728
 20
84.316660039062484
 30
0.0
  0
VERTEX
  5
751
  8
DATA
  6
CONTINUOUS
 62
     7
 10
-3.2786368334960931
 20
84.562476416015613
 30
0.0
  0
VERTEX
  5
752
  8
DATA
  6
CONTINUOUS
 62
     7
 10
-3.2839543750000071
 20
84.808022499999979
 30
0.0
  0
VERTEX
  5
753
  8
DATA
  6
CONTINUOUS
 62
     7
 10
-3.2893838647461129
 20
85.053298291015622
 30
0.0
  0
VERTEX
  5
754
  8
DATA
  6
CONTINUOUS
 62
     7
 10
-3.2949253027343981
 20
85.298303789062501
 30
0.0
  0
VERTEX
  5
755
  8
DATA
  6
CONTINUOUS
 62
     7
 10
-3.300578688964861
 20
85.543038994140645
 30
0.0
  0
VERTEX
  5
756
  8
DATA
  6
CONTINUOUS
 62
     7
 10
-3.306344023437517
 20
85.787503906249981
 30
0.0
  0
VERTEX
  5
757
  8
DATA
  6
CONTINUOUS
 62
     7
 10
-3.312221306152352
 20
86.031698525390624
 30
0.0
  0
VERTEX
  5
758
  8
DATA
  6
CONTINUOUS
 62
     7
 10
-3.3182105371093802
 20
86.275622851562488
 30
0.0
  0
VERTEX
  5
759
  8
DATA
  6
CONTINUOUS
 62
     7
 10
-3.3243117163085989
 20
86.519276884765631
 30
0.0
  0
VERTEX
  5
75A
  8
DATA
  6
CONTINUOUS
 62
     7
 10
-3.330524843750013
 20
86.762660624999981
 30
0.0
  0
VERTEX
  5
75B
  8
DATA
  6
CONTINUOUS
 62
     7
 10
-3.3368499194336181
 20
87.005774072265623
 30
0.0
  0
VERTEX
  5
75C
  8
DATA
  6
CONTINUOUS
 62
     7
 10
-3.343286943359387
 20
87.248617226562502
 30
0.0
  0
VERTEX
  5
75D
  8
DATA
  6
CONTINUOUS
 62
     7
 10
-3.34983591552735
 20
87.491190087890644
 30
0.0
  0
VERTEX
  5
75E
  8
DATA
  6
CONTINUOUS
 62
     7
 10
-3.3564968359375049
 20
87.733492656249979
 30
0.0
  0
VERTEX
  5
75F
  8
DATA
  6
CONTINUOUS
 62
     7
 10
-3.363269704589853
 20
87.975524931640621
 30
0.0
  0
VERTEX
  5
760
  8
DATA
  6
CONTINUOUS
 62
     7
 10
-3.37015452148438
 20
88.217286914062484
 30
0.0
  0
VERTEX
  5
761
  8
DATA
  6
CONTINUOUS
 62
     7
 10
-3.3771512866211002
 20
88.458778603515626
 30
0.0
  0
VERTEX
  5
762
  8
DATA
  6
CONTINUOUS
 62
     7
 10
-3.3842600000000109
 20
88.700000000000003
 30
0.0
  0
VERTEX
  5
763
  8
DATA
  6
CONTINUOUS
 62
     7
 10
-3.3842600000000109
 20
88.700000000000003
 30
0.0
  0
SEQEND
  5
764
  8
DATA
  6
CONTINUOUS
 62
     7
  0
POLYLINE
  5
19B
  8
DATA
  6
CONTINUOUS
 62
     7
 66
     1
 10
0.0
 20
0.0
 30
0.0
 70
   128
  0
VERTEX
  5
765
  8
DATA
  6
CONTINUOUS
 62
     7
 10
-4.0630200000000078
 20
42.000049999999987
 30
0.0
  0
VERTEX
  5
766
  8
DATA
  6
CONTINUOUS
 62
     7
 10
-4.0631754003906204
 20
41.997606787109369
 30
0.0
  0
VERTEX
  5
767
  8
DATA
  6
CONTINUOUS
 62
     7
 10
-4.0633303515624979
 20
41.995170898437507
 30
0.0
  0
VERTEX
  5
768
  8
DATA
  6
CONTINUOUS
 62
     7
 10
-4.0634848535156172
 20
41.992742333984381
 30
0.0
  0
VERTEX
  5
769
  8
DATA
  6
CONTINUOUS
 62
     7
 10
-4.0636389062500049
 20
41.990321093749991
 30
0.0
  0
VERTEX
  5
76A
  8
DATA
  6
CONTINUOUS
 62
     7
 10
-4.0637925097656327
 20
41.987907177734357
 30
0.0
  0
VERTEX
  5
76B
  8
DATA
  6
CONTINUOUS
 62
     7
 10
-4.0639456640624996
 20
41.985500585937508
 30
0.0
  0
VERTEX
  5
76C
  8
DATA
  6
CONTINUOUS
 62
     7
 10
-4.0640983691406243
 20
41.983101318359367
 30
0.0
  0
VERTEX
  5
76D
  8
DATA
  6
CONTINUOUS
 62
     7
 10
-4.0642506249999988
 20
41.980709375000004
 30
0.0
  0
VERTEX
  5
76E
  8
DATA
  6
CONTINUOUS
 62
     7
 10
-4.0644024316406302
 20
41.978324755859369
 30
0.0
  0
VERTEX
  5
76F
  8
DATA
  6
CONTINUOUS
 62
     7
 10
-4.0645537890625141
 20
41.975947460937512
 30
0.0
  0
VERTEX
  5
770
  8
DATA
  6
CONTINUOUS
 62
     7
 10
-4.0647046972656389
 20
41.973577490234391
 30
0.0
  0
VERTEX
  5
771
  8
DATA
  6
CONTINUOUS
 62
     7
 10
-4.0648551562500037
 20
41.971214843750012
 30
0.0
  0
VERTEX
  5
772
  8
DATA
  6
CONTINUOUS
 62
     7
 10
-4.0650051660156228
 20
41.968859521484369
 30
0.0
  0
VERTEX
  5
773
  8
DATA
  6
CONTINUOUS
 62
     7
 10
-4.0651547265625112
 20
41.966511523437511
 30
0.0
  0
VERTEX
  5
774
  8
DATA
  6
CONTINUOUS
 62
     7
 10
-4.0653038378906237
 20
41.964170849609381
 30
0.0
  0
VERTEX
  5
775
  8
DATA
  6
CONTINUOUS
 62
     7
 10
-4.0654525000000064
 20
41.961837500000001
 30
0.0
  0
VERTEX
  5
776
  8
DATA
  6
CONTINUOUS
 62
     7
 10
-4.0656007128906282
 20
41.959511474609357
 30
0.0
  0
VERTEX
  5
777
  8
DATA
  6
CONTINUOUS
 62
     7
 10
-4.0657484765625194
 20
41.957192773437491
 30
0.0
  0
VERTEX
  5
778
  8
DATA
  6
CONTINUOUS
 62
     7
 10
-4.0658957910156337
 20
41.954881396484382
 30
0.0
  0
VERTEX
  5
779
  8
DATA
  6
CONTINUOUS
 62
     7
 10
-4.0660426562500191
 20
41.952577343750001
 30
0.0
  0
VERTEX
  5
77A
  8
DATA
  6
CONTINUOUS
 62
     7
 10
-4.0661890722656286
 20
41.950280615234362
 30
0.0
  0
VERTEX
  5
77B
  8
DATA
  6
CONTINUOUS
 62
     7
 10
-4.0663350390625084
 20
41.947991210937481
 30
0.0
  0
VERTEX
  5
77C
  8
DATA
  6
CONTINUOUS
 62
     7
 10
-4.0664805566406272
 20
41.945709130859363
 30
0.0
  0
VERTEX
  5
77D
  8
DATA
  6
CONTINUOUS
 62
     7
 10
-4.0666256250000146
 20
41.943434375000002
 30
0.0
  0
VERTEX
  5
77E
  8
DATA
  6
CONTINUOUS
 62
     7
 10
-4.066770244140641
 20
41.941166943359377
 30
0.0
  0
VERTEX
  5
77F
  8
DATA
  6
CONTINUOUS
 62
     7
 10
-4.0669144140625244
 20
41.938906835937509
 30
0.0
  0
VERTEX
  5
780
  8
DATA
  6
CONTINUOUS
 62
     7
 10
-4.0670581347656451
 20
41.936654052734369
 30
0.0
  0
VERTEX
  5
781
  8
DATA
  6
CONTINUOUS
 62
     7
 10
-4.067201406250021
 20
41.934408593749993
 30
0.0
  0
VERTEX
  5
782
  8
DATA
  6
CONTINUOUS
 62
     7
 10
-4.067344228515636
 20
41.932170458984352
 30
0.0
  0
VERTEX
  5
783
  8
DATA
  6
CONTINUOUS
 62
     7
 10
-4.0674866015625204
 20
41.92993964843749
 30
0.0
  0
VERTEX
  5
784
  8
DATA
  6
CONTINUOUS
 62
     7
 10
-4.0676285253906324
 20
41.927716162109363
 30
0.0
  0
VERTEX
  5
785
  8
DATA
  6
CONTINUOUS
 62
     7
 10
-4.0677700000000092
 20
41.925499999999992
 30
0.0
  0
VERTEX
  5
786
  8
DATA
  6
CONTINUOUS
 62
     7
 10
-4.0679110253906421
 20
41.923291162109372
 30
0.0
  0
VERTEX
  5
787
  8
DATA
  6
CONTINUOUS
 62
     7
 10
-4.068051601562515
 20
41.921089648437501
 30
0.0
  0
VERTEX
  5
788
  8
DATA
  6
CONTINUOUS
 62
     7
 10
-4.0681917285156279
 20
41.918895458984387
 30
0.0
  0
VERTEX
  5
789
  8
DATA
  6
CONTINUOUS
 62
     7
 10
-4.0683314062500093
 20
41.916708593750002
 30
0.0
  0
VERTEX
  5
78A
  8
DATA
  6
CONTINUOUS
 62
     7
 10
-4.0684706347656308
 20
41.914529052734359
 30
0.0
  0
VERTEX
  5
78B
  8
DATA
  6
CONTINUOUS
 62
     7
 10
-4.0686094140625073
 20
41.912356835937508
 30
0.0
  0
VERTEX
  5
78C
  8
DATA
  6
CONTINUOUS
 62
     7
 10
-4.068747744140623
 20
41.910191943359358
 30
0.0
  0
VERTEX
  5
78D
  8
DATA
  6
CONTINUOUS
 62
     7
 10
-4.0688856250000072
 20
41.908034375
 30
0.0
  0
VERTEX
  5
78E
  8
DATA
  6
CONTINUOUS
 62
     7
 10
-4.0690230566406322
 20
41.90588413085937
 30
0.0
  0
VERTEX
  5
78F
  8
DATA
  6
CONTINUOUS
 62
     7
 10
-4.0691600390625089
 20
41.903741210937511
 30
0.0
  0
VERTEX
  5
790
  8
DATA
  6
CONTINUOUS
 62
     7
 10
-4.0692965722656282
 20
41.901605615234381
 30
0.0
  0
VERTEX
  5
791
  8
DATA
  6
CONTINUOUS
 62
     7
 10
-4.0694326562500152
 20
41.89947734375
 30
0.0
  0
VERTEX
  5
792
  8
DATA
  6
CONTINUOUS
 62
     7
 10
-4.0695682910156412
 20
41.897356396484383
 30
0.0
  0
VERTEX
  5
793
  8
DATA
  6
CONTINUOUS
 62
     7
 10
-4.0697034765625233
 20
41.895242773437509
 30
0.0
  0
VERTEX
  5
794
  8
DATA
  6
CONTINUOUS
 62
     7
 10
-4.0698382128906436
 20
41.893136474609371
 30
0.0
  0
VERTEX
  5
795
  8
DATA
  6
CONTINUOUS
 62
     7
 10
-4.0699725000000191
 20
41.89103750000001
 30
0.0
  0
VERTEX
  5
796
  8
DATA
  6
CONTINUOUS
 62
     7
 10
-4.0701063378906364
 20
41.888945849609378
 30
0.0
  0
VERTEX
  5
797
  8
DATA
  6
CONTINUOUS
 62
     7
 10
-4.0702397265625203
 20
41.886861523437517
 30
0.0
  0
VERTEX
  5
798
  8
DATA
  6
CONTINUOUS
 62
     7
 10
-4.0703726660156434
 20
41.884784521484391
 30
0.0
  0
VERTEX
  5
799
  8
DATA
  6
CONTINUOUS
 62
     7
 10
-4.0705051562500083
 20
41.882714843750001
 30
0.0
  0
VERTEX
  5
79A
  8
DATA
  6
CONTINUOUS
 62
     7
 10
-4.0706371972656248
 20
41.880652490234382
 30
0.0
  0
VERTEX
  5
79B
  8
DATA
  6
CONTINUOUS
 62
     7
 10
-4.0707687890625124
 20
41.878597460937492
 30
0.0
  0
VERTEX
  5
79C
  8
DATA
  6
CONTINUOUS
 62
     7
 10
-4.070899931640624
 20
41.876549755859358
 30
0.0
  0
VERTEX
  5
79D
  8
DATA
  6
CONTINUOUS
 62
     7
 10
-4.071030625000005
 20
41.874509375000002
 30
0.0
  0
VERTEX
  5
79E
  8
DATA
  6
CONTINUOUS
 62
     7
 10
-4.071160869140626
 20
41.872476318359382
 30
0.0
  0
VERTEX
  5
79F
  8
DATA
  6
CONTINUOUS
 62
     7
 10
-4.0712906640625164
 20
41.870450585937512
 30
0.0
  0
VERTEX
  5
7A0
  8
DATA
  6
CONTINUOUS
 62
     7
 10
-4.0714200097656308
 20
41.868432177734377
 30
0.0
  0
VERTEX
  5
7A1
  8
DATA
  6
CONTINUOUS
 62
     7
 10
-4.0715489062500163
 20
41.866421093750013
 30
0.0
  0
VERTEX
  5
7A2
  8
DATA
  6
CONTINUOUS
 62
     7
 10
-4.0716773535156241
 20
41.864417333984392
 30
0.0
  0
VERTEX
  5
7A3
  8
DATA
  6
CONTINUOUS
 62
     7
 10
-4.071805351562503
 20
41.862420898437513
 30
0.0
  0
VERTEX
  5
7A4
  8
DATA
  6
CONTINUOUS
 62
     7
 10
-4.0719329003906211
 20
41.860431787109377
 30
0.0
  0
VERTEX
  5
7A5
  8
DATA
  6
CONTINUOUS
 62
     7
 10
-4.0720600000000067
 20
41.858450000000012
 30
0.0
  0
VERTEX
  5
7A6
  8
DATA
  6
CONTINUOUS
 62
     7
 10
-4.0720600000000067
 20
41.858450000000012
 30
0.0
  0
VERTEX
  5
7A7
  8
DATA
  6
CONTINUOUS
 62
     7
 10
-4.1008817114257852
 20
41.412382153320323
 30
0.0
  0
VERTEX
  5
7A8
  8
DATA
  6
CONTINUOUS
 62
     7
 10
-4.1300312207031311
 20
40.969269863281262
 30
0.0
  0
VERTEX
  5
7A9
  8
DATA
  6
CONTINUOUS
 62
     7
 10
-4.1595085278320436
 20
40.529113129882809
 30
0.0
  0
VERTEX
  5
7AA
  8
DATA
  6
CONTINUOUS
 62
     7
 10
-4.1893136328125129
 20
40.091911953124999
 30
0.0
  0
VERTEX
  5
7AB
  8
DATA
  6
CONTINUOUS
 62
     7
 10
-4.2194465356445514
 20
39.657666333007832
 30
0.0
  0
VERTEX
  5
7AC
  8
DATA
  6
CONTINUOUS
 62
     7
 10
-4.2499072363281396
 20
39.226376269531258
 30
0.0
  0
VERTEX
  5
7AD
  8
DATA
  6
CONTINUOUS
 62
     7
 10
-4.2806957348632864
 20
38.79804176269532
 30
0.0
  0
VERTEX
  5
7AE
  8
DATA
  6
CONTINUOUS
 62
     7
 10
-4.311812031250013
 20
38.37266281250001
 30
0.0
  0
VERTEX
  5
7AF
  8
DATA
  6
CONTINUOUS
 62
     7
 10
-4.3432561254883089
 20
37.95023941894533
 30
0.0
  0
VERTEX
  5
7B0
  8
DATA
  6
CONTINUOUS
 62
     7
 10
-4.3750280175781446
 20
37.530771582031257
 30
0.0
  0
VERTEX
  5
7B1
  8
DATA
  6
CONTINUOUS
 62
     7
 10
-4.4071277075195363
 20
37.114259301757812
 30
0.0
  0
VERTEX
  5
7B2
  8
DATA
  6
CONTINUOUS
 62
     7
 10
-4.439555195312507
 20
36.700702578125011
 30
0.0
  0
VERTEX
  5
7B3
  8
DATA
  6
CONTINUOUS
 62
     7
 10
-4.4723104809570478
 20
36.29010141113281
 30
0.0
  0
VERTEX
  5
7B4
  8
DATA
  6
CONTINUOUS
 62
     7
 10
-4.5053935644531444
 20
35.882455800781258
 30
0.0
  0
VERTEX
  5
7B5
  8
DATA
  6
CONTINUOUS
 62
     7
 10
-4.5388044458007917
 20
35.477765747070322
 30
0.0
  0
VERTEX
  5
7B6
  8
DATA
  6
CONTINUOUS
 62
     7
 10
-4.572543125000009
 20
35.07603125
 30
0.0
  0
VERTEX
  5
7B7
  8
DATA
  6
CONTINUOUS
 62
     7
 10
-4.6066096020507947
 20
34.677252309570321
 30
0.0
  0
VERTEX
  5
7B8
  8
DATA
  6
CONTINUOUS
 62
     7
 10
-4.6410038769531363
 20
34.281428925781263
 30
0.0
  0
VERTEX
  5
7B9
  8
DATA
  6
CONTINUOUS
 62
     7
 10
-4.6757259497070427
 20
33.88856109863282
 30
0.0
  0
VERTEX
  5
7BA
  8
DATA
  6
CONTINUOUS
 62
     7
 10
-4.710775820312505
 20
33.498648828124999
 30
0.0
  0
VERTEX
  5
7BB
  8
DATA
  6
CONTINUOUS
 62
     7
 10
-4.7461534887695214
 20
33.111692114257806
 30
0.0
  0
VERTEX
  5
7BC
  8
DATA
  6
CONTINUOUS
 62
     7
 10
-4.7818589550781212
 20
32.727690957031257
 30
0.0
  0
VERTEX
  5
7BD
  8
DATA
  6
CONTINUOUS
 62
     7
 10
-4.8178922192382876
 20
32.346645356445322
 30
0.0
  0
VERTEX
  5
7BE
  8
DATA
  6
CONTINUOUS
 62
     7
 10
-4.854253281250009
 20
31.968555312500001
 30
0.0
  0
VERTEX
  5
7BF
  8
DATA
  6
CONTINUOUS
 62
     7
 10
-4.8909421411132987
 20
31.593420825195331
 30
0.0
  0
VERTEX
  5
7C0
  8
DATA
  6
CONTINUOUS
 62
     7
 10
-4.9279587988281444
 20
31.221241894531261
 30
0.0
  0
VERTEX
  5
7C1
  8
DATA
  6
CONTINUOUS
 62
     7
 10
-4.9653032543945406
 20
30.852018520507809
 30
0.0
  0
VERTEX
  5
7C2
  8
DATA
  6
CONTINUOUS
 62
     7
 10
-5.0029755078125211
 20
30.48575070312501
 30
0.0
  0
VERTEX
  5
7C3
  8
DATA
  6
CONTINUOUS
 62
     7
 10
-5.0409755590820557
 20
30.12243844238283
 30
0.0
  0
VERTEX
  5
7C4
  8
DATA
  6
CONTINUOUS
 62
     7
 10
-5.0793034082031454
 20
29.762081738281271
 30
0.0
  0
VERTEX
  5
7C5
  8
DATA
  6
CONTINUOUS
 62
     7
 10
-5.1179590551758016
 20
29.40468059082033
 30
0.0
  0
VERTEX
  5
7C6
  8
DATA
  6
CONTINUOUS
 62
     7
 10
-5.1569425000000129
 20
29.050235000000001
 30
0.0
  0
VERTEX
  5
7C7
  8
DATA
  6
CONTINUOUS
 62
     7
 10
-5.1962537426757924
 20
28.69874496582031
 30
0.0
  0
VERTEX
  5
7C8
  8
DATA
  6
CONTINUOUS
 62
     7
 10
-5.2358927832031412
 20
28.350210488281249
 30
0.0
  0
VERTEX
  5
7C9
  8
DATA
  6
CONTINUOUS
 62
     7
 10
-5.2758596215820432
 20
28.004631567382809
 30
0.0
  0
VERTEX
  5
7CA
  8
DATA
  6
CONTINUOUS
 62
     7
 10
-5.3161542578124994
 20
27.662008203125001
 30
0.0
  0
VERTEX
  5
7CB
  8
DATA
  6
CONTINUOUS
 62
     7
 10
-5.3567766918945372
 20
27.322340395507808
 30
0.0
  0
VERTEX
  5
7CC
  8
DATA
  6
CONTINUOUS
 62
     7
 10
-5.39772692382813
 20
26.985628144531269
 30
0.0
  0
VERTEX
  5
7CD
  8
DATA
  6
CONTINUOUS
 62
     7
 10
-5.4390049536132921
 20
26.65187145019533
 30
0.0
  0
VERTEX
  5
7CE
  8
DATA
  6
CONTINUOUS
 62
     7
 10
-5.4806107812500073
 20
26.321070312500002
 30
0.0
  0
VERTEX
  5
7CF
  8
DATA
  6
CONTINUOUS
 62
     7
 10
-5.5225444067382901
 20
25.993224731445309
 30
0.0
  0
VERTEX
  5
7D0
  8
DATA
  6
CONTINUOUS
 62
     7
 10
-5.564805830078142
 20
25.668334707031249
 30
0.0
  0
VERTEX
  5
7D1
  8
DATA
  6
CONTINUOUS
 62
     7
 10
-5.6073950512695632
 20
25.3464002392578
 30
0.0
  0
VERTEX
  5
7D2
  8
DATA
  6
CONTINUOUS
 62
     7
 10
-5.6503120703125234
 20
25.027421328125001
 30
0.0
  0
VERTEX
  5
7D3
  8
DATA
  6
CONTINUOUS
 62
     7
 10
-5.6935568872070652
 20
24.711397973632831
 30
0.0
  0
VERTEX
  5
7D4
  8
DATA
  6
CONTINUOUS
 62
     7
 10
-5.7371295019531479
 20
24.398330175781268
 30
0.0
  0
VERTEX
  5
7D5
  8
DATA
  6
CONTINUOUS
 62
     7
 10
-5.7810299145507988
 20
24.088217934570331
 30
0.0
  0
VERTEX
  5
7D6
  8
DATA
  6
CONTINUOUS
 62
     7
 10
-5.825258125000019
 20
23.781061250000011
 30
0.0
  0
VERTEX
  5
7D7
  8
DATA
  6
CONTINUOUS
 62
     7
 10
-5.8698141333007916
 20
23.47686012207032
 30
0.0
  0
VERTEX
  5
7D8
  8
DATA
  6
CONTINUOUS
 62
     7
 10
-5.9146979394531343
 20
23.175614550781269
 30
0.0
  0
VERTEX
  5
7D9
  8
DATA
  6
CONTINUOUS
 62
     7
 10
-5.9599095434570444
 20
22.877324536132829
 30
0.0
  0
VERTEX
  5
7DA
  8
DATA
  6
CONTINUOUS
 62
     7
 10
-6.0054489453125077
 20
22.58199007812502
 30
0.0
  0
VERTEX
  5
7DB
  8
DATA
  6
CONTINUOUS
 62
     7
 10
-6.0513161450195412
 20
22.28961117675783
 30
0.0
  0
VERTEX
  5
7DC
  8
DATA
  6
CONTINUOUS
 62
     7
 10
-6.0975111425781421
 20
22.000187832031251
 30
0.0
  0
VERTEX
  5
7DD
  8
DATA
  6
CONTINUOUS
 62
     7
 10
-6.1440339379882971
 20
21.71372004394533
 30
0.0
  0
VERTEX
  5
7DE
  8
DATA
  6
CONTINUOUS
 62
     7
 10
-6.1908845312500063
 20
21.430207812500011
 30
0.0
  0
VERTEX
  5
7DF
  8
DATA
  6
CONTINUOUS
 62
     7
 10
-6.2380629223632829
 20
21.149651137695329
 30
0.0
  0
VERTEX
  5
7E0
  8
DATA
  6
CONTINUOUS
 62
     7
 10
-6.2855691113281429
 20
20.872050019531269
 30
0.0
  0
VERTEX
  5
7E1
  8
DATA
  6
CONTINUOUS
 62
     7
 10
-6.333403098144557
 20
20.597404458007841
 30
0.0
  0
VERTEX
  5
7E2
  8
DATA
  6
CONTINUOUS
 62
     7
 10
-6.381564882812512
 20
20.32571445312502
 30
0.0
  0
VERTEX
  5
7E3
  8
DATA
  6
CONTINUOUS
 62
     7
 10
-6.4300544653320326
 20
20.056980004882831
 30
0.0
  0
VERTEX
  5
7E4
  8
DATA
  6
CONTINUOUS
 62
     7
 10
-6.4788718457031393
 20
19.791201113281261
 30
0.0
  0
VERTEX
  5
7E5
  8
DATA
  6
CONTINUOUS
 62
     7
 10
-6.5280170239257984
 20
19.528377778320319
 30
0.0
  0
VERTEX
  5
7E6
  8
DATA
  6
CONTINUOUS
 62
     7
 10
-6.5774900000000107
 20
19.268509999999999
 30
0.0
  0
VERTEX
  5
7E7
  8
DATA
  6
CONTINUOUS
 62
     7
 10
-6.5774900000000107
 20
19.268509999999999
 30
0.0
  0
VERTEX
  5
7E8
  8
DATA
  6
CONTINUOUS
 62
     7
 10
-6.6271868701171988
 20
19.012137741699199
 30
0.0
  0
VERTEX
  5
7E9
  8
DATA
  6
CONTINUOUS
 62
     7
 10
-6.677003730468754
 20
18.759802841796869
 30
0.0
  0
VERTEX
  5
7EA
  8
DATA
  6
CONTINUOUS
 62
     7
 10
-6.7269405810546914
 20
18.511505300292949
 30
0.0
  0
VERTEX
  5
7EB
  8
DATA
  6
CONTINUOUS
 62
     7
 10
-6.7769974218750084
 20
18.2672451171875
 30
0.0
  0
VERTEX
  5
7EC
  8
DATA
  6
CONTINUOUS
 62
     7
 10
-6.8271742529296944
 20
18.027022292480471
 30
0.0
  0
VERTEX
  5
7ED
  8
DATA
  6
CONTINUOUS
 62
     7
 10
-6.8774710742187599
 20
17.790836826171869
 30
0.0
  0
VERTEX
  5
7EE
  8
DATA
  6
CONTINUOUS
 62
     7
 10
-6.9278878857422077
 20
17.55868871826172
 30
0.0
  0
VERTEX
  5
7EF
  8
DATA
  6
CONTINUOUS
 62
     7
 10
-6.9784246875000084
 20
17.330577968749989
 30
0.0
  0
VERTEX
  5
7F0
  8
DATA
  6
CONTINUOUS
 62
     7
 10
-7.0290814794922047
 20
17.106504577636699
 30
0.0
  0
VERTEX
  5
7F1
  8
DATA
  6
CONTINUOUS
 62
     7
 10
-7.0798582617187531
 20
16.886468544921851
 30
0.0
  0
VERTEX
  5
7F2
  8
DATA
  6
CONTINUOUS
 62
     7
 10
-7.1307550341796846
 20
16.670469870605441
 30
0.0
  0
VERTEX
  5
7F3
  8
DATA
  6
CONTINUOUS
 62
     7
 10
-7.1817717968749957
 20
16.45850855468748
 30
0.0
  0
VERTEX
  5
7F4
  8
DATA
  6
CONTINUOUS
 62
     7
 10
-7.2329085498046899
 20
16.25058459716794
 30
0.0
  0
VERTEX
  5
7F5
  8
DATA
  6
CONTINUOUS
 62
     7
 10
-7.2841652929687504
 20
16.046697998046849
 30
0.0
  0
VERTEX
  5
7F6
  8
DATA
  6
CONTINUOUS
 62
     7
 10
-7.3355420263671931
 20
15.846848757324191
 30
0.0
  0
VERTEX
  5
7F7
  8
DATA
  6
CONTINUOUS
 62
     7
 10
-7.3870387500000012
 20
15.65103687499999
 30
0.0
  0
VERTEX
  5
7F8
  8
DATA
  6
CONTINUOUS
 62
     7
 10
-7.4386554638671907
 20
15.45926235107421
 30
0.0
  0
VERTEX
  5
7F9
  8
DATA
  6
CONTINUOUS
 62
     7
 10
-7.4903921679687491
 20
15.27152518554686
 30
0.0
  0
VERTEX
  5
7FA
  8
DATA
  6
CONTINUOUS
 62
     7
 10
-7.5422488623046871
 20
15.087825378417961
 30
0.0
  0
VERTEX
  5
7FB
  8
DATA
  6
CONTINUOUS
 62
     7
 10
-7.594225546874994
 20
14.90816292968749
 30
0.0
  0
VERTEX
  5
7FC
  8
DATA
  6
CONTINUOUS
 62
     7
 10
-7.6463222216796813
 20
14.732537839355439
 30
0.0
  0
VERTEX
  5
7FD
  8
DATA
  6
CONTINUOUS
 62
     7
 10
-7.6985388867187501
 20
14.56095010742186
 30
0.0
  0
VERTEX
  5
7FE
  8
DATA
  6
CONTINUOUS
 62
     7
 10
-7.750875541992186
 20
14.393399733886691
 30
0.0
  0
VERTEX
  5
7FF
  8
DATA
  6
CONTINUOUS
 62
     7
 10
-7.8033321875000032
 20
14.22988671874999
 30
0.0
  0
VERTEX
  5
800
  8
DATA
  6
CONTINUOUS
 62
     7
 10
-7.8559088232421876
 20
14.07041106201171
 30
0.0
  0
VERTEX
  5
801
  8
DATA
  6
CONTINUOUS
 62
     7
 10
-7.9086054492187534
 20
13.914972763671869
 30
0.0
  0
VERTEX
  5
802
  8
DATA
  6
CONTINUOUS
 62
     7
 10
-7.9614220654296863
 20
13.763571823730469
 30
0.0
  0
VERTEX
  5
803
  8
DATA
  6
CONTINUOUS
 62
     7
 10
-8.0143586718750015
 20
13.61620824218749
 30
0.0
  0
VERTEX
  5
804
  8
DATA
  6
CONTINUOUS
 62
     7
 10
-8.0674152685546971
 20
13.472882019042951
 30
0.0
  0
VERTEX
  5
805
  8
DATA
  6
CONTINUOUS
 62
     7
 10
-8.1205918554687582
 20
13.33359315429686
 30
0.0
  0
VERTEX
  5
806
  8
DATA
  6
CONTINUOUS
 62
     7
 10
-8.1738884326172023
 20
13.198341647949199
 30
0.0
  0
VERTEX
  5
807
  8
DATA
  6
CONTINUOUS
 62
     7
 10
-8.2273050000000136
 20
13.0671275
 30
0.0
  0
VERTEX
  5
808
  8
DATA
  6
CONTINUOUS
 62
     7
 10
-8.2808415576172081
 20
12.93995071044921
 30
0.0
  0
VERTEX
  5
809
  8
DATA
  6
CONTINUOUS
 62
     7
 10
-8.3344981054687661
 20
12.81681127929687
 30
0.0
  0
VERTEX
  5
80A
  8
DATA
  6
CONTINUOUS
 62
     7
 10
-8.3882746435546967
 20
12.69770920654296
 30
0.0
  0
VERTEX
  5
80B
  8
DATA
  6
CONTINUOUS
 62
     7
 10
-8.4421711718750032
 20
12.5826444921875
 30
0.0
  0
VERTEX
  5
80C
  8
DATA
  6
CONTINUOUS
 62
     7
 10
-8.4961876904296947
 20
12.47161713623046
 30
0.0
  0
VERTEX
  5
80D
  8
DATA
  6
CONTINUOUS
 62
     7
 10
-8.5503241992187462
 20
12.36462713867188
 30
0.0
  0
VERTEX
  5
80E
  8
DATA
  6
CONTINUOUS
 62
     7
 10
-8.6045806982421862
 20
12.26167449951172
 30
0.0
  0
VERTEX
  5
80F
  8
DATA
  6
CONTINUOUS
 62
     7
 10
-8.6589571875000058
 20
12.16275921874999
 30
0.0
  0
VERTEX
  5
810
  8
DATA
  6
CONTINUOUS
 62
     7
 10
-8.7134536669921943
 20
12.0678812963867
 30
0.0
  0
VERTEX
  5
811
  8
DATA
  6
CONTINUOUS
 62
     7
 10
-8.7680701367187623
 20
11.97704073242187
 30
0.0
  0
VERTEX
  5
812
  8
DATA
  6
CONTINUOUS
 62
     7
 10
-8.8228065966797118
 20
11.890237526855451
 30
0.0
  0
VERTEX
  5
813
  8
DATA
  6
CONTINUOUS
 62
     7
 10
-8.8776630468750142
 20
11.80747167968749
 30
0.0
  0
VERTEX
  5
814
  8
DATA
  6
CONTINUOUS
 62
     7
 10
-8.9326394873047121
 20
11.72874319091795
 30
0.0
  0
VERTEX
  5
815
  8
DATA
  6
CONTINUOUS
 62
     7
 10
-8.9877359179687613
 20
11.65405206054686
 30
0.0
  0
VERTEX
  5
816
  8
DATA
  6
CONTINUOUS
 62
     7
 10
-9.0429523388671971
 20
11.583398288574211
 30
0.0
  0
VERTEX
  5
817
  8
DATA
  6
CONTINUOUS
 62
     7
 10
-9.0982887500000071
 20
11.516781874999991
 30
0.0
  0
VERTEX
  5
818
  8
DATA
  6
CONTINUOUS
 62
     7
 10
-9.1537451513671861
 20
11.454202819824211
 30
0.0
  0
VERTEX
  5
819
  8
DATA
  6
CONTINUOUS
 62
     7
 10
-9.2093215429687518
 20
11.39566112304686
 30
0.0
  0
VERTEX
  5
81A
  8
DATA
  6
CONTINUOUS
 62
     7
 10
-9.2650179248046953
 20
11.341156784667961
 30
0.0
  0
VERTEX
  5
81B
  8
DATA
  6
CONTINUOUS
 62
     7
 10
-9.3208342968750042
 20
11.290689804687471
 30
0.0
  0
VERTEX
  5
81C
  8
DATA
  6
CONTINUOUS
 62
     7
 10
-9.3767706591796962
 20
11.244260183105441
 30
0.0
  0
VERTEX
  5
81D
  8
DATA
  6
CONTINUOUS
 62
     7
 10
-9.4328270117187714
 20
11.201867919921879
 30
0.0
  0
VERTEX
  5
81E
  8
DATA
  6
CONTINUOUS
 62
     7
 10
-9.4890033544922137
 20
11.16351301513674
 30
0.0
  0
VERTEX
  5
81F
  8
DATA
  6
CONTINUOUS
 62
     7
 10
-9.5452996875000196
 20
11.12919546875
 30
0.0
  0
VERTEX
  5
820
  8
DATA
  6
CONTINUOUS
 62
     7
 10
-9.6017160107422086
 20
11.0989152807617
 30
0.0
  0
VERTEX
  5
821
  8
DATA
  6
CONTINUOUS
 62
     7
 10
-9.6582523242187648
 20
11.072672451171879
 30
0.0
  0
VERTEX
  5
822
  8
DATA
  6
CONTINUOUS
 62
     7
 10
-9.7149086279297023
 20
11.050466979980481
 30
0.0
  0
VERTEX
  5
823
  8
DATA
  6
CONTINUOUS
 62
     7
 10
-9.7716849218750088
 20
11.0322988671875
 30
0.0
  0
VERTEX
  5
824
  8
DATA
  6
CONTINUOUS
 62
     7
 10
-9.8285812060546913
 20
11.018168112792971
 30
0.0
  0
VERTEX
  5
825
  8
DATA
  6
CONTINUOUS
 62
     7
 10
-9.8855974804687605
 20
11.00807471679687
 30
0.0
  0
VERTEX
  5
826
  8
DATA
  6
CONTINUOUS
 62
     7
 10
-9.9427337451171969
 20
11.00201867919921
 30
0.0
  0
VERTEX
  5
827
  8
DATA
  6
CONTINUOUS
 62
     7
 10
-9.999990000000011
 20
11.0
 30
0.0
  0
VERTEX
  5
828
  8
DATA
  6
CONTINUOUS
 62
     7
 10
-9.999990000000011
 20
11.0
 30
0.0
  0
VERTEX
  5
829
  8
DATA
  6
CONTINUOUS
 62
     7
 10
-10.019919619140641
 20
11.00024425292969
 30
0.0
  0
VERTEX
  5
82A
  8
DATA
  6
CONTINUOUS
 62
     7
 10
-10.039834726562511
 20
11.00097701171876
 30
0.0
  0
VERTEX
  5
82B
  8
DATA
  6
CONTINUOUS
 62
     7
 10
-10.059735322265629
 20
11.00219827636718
 30
0.0
  0
VERTEX
  5
82C
  8
DATA
  6
CONTINUOUS
 62
     7
 10
-10.079621406250009
 20
11.003908046874979
 30
0.0
  0
VERTEX
  5
82D
  8
DATA
  6
CONTINUOUS
 62
     7
 10
-10.09949297851564
 20
11.006106323242189
 30
0.0
  0
VERTEX
  5
82E
  8
DATA
  6
CONTINUOUS
 62
     7
 10
-10.11935003906251
 20
11.008793105468749
 30
0.0
  0
VERTEX
  5
82F
  8
DATA
  6
CONTINUOUS
 62
     7
 10
-10.13919258789063
 20
11.011968393554691
 30
0.0
  0
VERTEX
  5
830
  8
DATA
  6
CONTINUOUS
 62
     7
 10
-10.159020625000011
 20
11.015632187499991
 30
0.0
  0
VERTEX
  5
831
  8
DATA
  6
CONTINUOUS
 62
     7
 10
-10.178834150390641
 20
11.01978448730469
 30
0.0
  0
VERTEX
  5
832
  8
DATA
  6
CONTINUOUS
 62
     7
 10
-10.19863316406251
 20
11.02442529296877
 30
0.0
  0
VERTEX
  5
833
  8
DATA
  6
CONTINUOUS
 62
     7
 10
-10.21841766601564
 20
11.029554604492199
 30
0.0
  0
VERTEX
  5
834
  8
DATA
  6
CONTINUOUS
 62
     7
 10
-10.23818765625
 20
11.035172421875011
 30
0.0
  0
VERTEX
  5
835
  8
DATA
  6
CONTINUOUS
 62
     7
 10
-10.25794313476562
 20
11.041278745117211
 30
0.0
  0
VERTEX
  5
836
  8
DATA
  6
CONTINUOUS
 62
     7
 10
-10.2776841015625
 20
11.04787357421878
 30
0.0
  0
VERTEX
  5
837
  8
DATA
  6
CONTINUOUS
 62
     7
 10
-10.29741055664063
 20
11.054956909179699
 30
0.0
  0
VERTEX
  5
838
  8
DATA
  6
CONTINUOUS
 62
     7
 10
-10.317122500000011
 20
11.062528750000009
 30
0.0
  0
VERTEX
  5
839
  8
DATA
  6
CONTINUOUS
 62
     7
 10
-10.336819931640649
 20
11.07058909667969
 30
0.0
  0
VERTEX
  5
83A
  8
DATA
  6
CONTINUOUS
 62
     7
 10
-10.356502851562521
 20
11.07913794921876
 30
0.0
  0
VERTEX
  5
83B
  8
DATA
  6
CONTINUOUS
 62
     7
 10
-10.376171259765639
 20
11.088175307617179
 30
0.0
  0
VERTEX
  5
83C
  8
DATA
  6
CONTINUOUS
 62
     7
 10
-10.395825156250011
 20
11.097701171875
 30
0.0
  0
VERTEX
  5
83D
  8
DATA
  6
CONTINUOUS
 62
     7
 10
-10.415464541015631
 20
11.107715541992199
 30
0.0
  0
VERTEX
  5
83E
  8
DATA
  6
CONTINUOUS
 62
     7
 10
-10.43508941406251
 20
11.118218417968761
 30
0.0
  0
VERTEX
  5
83F
  8
DATA
  6
CONTINUOUS
 62
     7
 10
-10.45469977539063
 20
11.1292097998047
 30
0.0
  0
VERTEX
  5
840
  8
DATA
  6
CONTINUOUS
 62
     7
 10
-10.474295625000011
 20
11.140689687499981
 30
0.0
  0
VERTEX
  5
841
  8
DATA
  6
CONTINUOUS
 62
     7
 10
-10.49387696289064
 20
11.15265808105465
 30
0.0
  0
VERTEX
  5
842
  8
DATA
  6
CONTINUOUS
 62
     7
 10
-10.513443789062521
 20
11.16511498046872
 30
0.0
  0
VERTEX
  5
843
  8
DATA
  6
CONTINUOUS
 62
     7
 10
-10.532996103515639
 20
11.17806038574215
 30
0.0
  0
VERTEX
  5
844
  8
DATA
  6
CONTINUOUS
 62
     7
 10
-10.552533906250019
 20
11.191494296874961
 30
0.0
  0
VERTEX
  5
845
  8
DATA
  6
CONTINUOUS
 62
     7
 10
-10.572057197265639
 20
11.20541671386718
 30
0.0
  0
VERTEX
  5
846
  8
DATA
  6
CONTINUOUS
 62
     7
 10
-10.59156597656251
 20
11.219827636718749
 30
0.0
  0
VERTEX
  5
847
  8
DATA
  6
CONTINUOUS
 62
     7
 10
-10.61106024414063
 20
11.23472706542969
 30
0.0
  0
VERTEX
  5
848
  8
DATA
  6
CONTINUOUS
 62
     7
 10
-10.630540000000011
 20
11.25011499999999
 30
0.0
  0
VERTEX
  5
849
  8
DATA
  6
CONTINUOUS
 62
     7
 10
-10.65000524414064
 20
11.265991440429669
 30
0.0
  0
VERTEX
  5
84A
  8
DATA
  6
CONTINUOUS
 62
     7
 10
-10.66945597656251
 20
11.28235638671873
 30
0.0
  0
VERTEX
  5
84B
  8
DATA
  6
CONTINUOUS
 62
     7
 10
-10.688892197265639
 20
11.299209838867171
 30
0.0
  0
VERTEX
  5
84C
  8
DATA
  6
CONTINUOUS
 62
     7
 10
-10.708313906250011
 20
11.31655179687499
 30
0.0
  0
VERTEX
  5
84D
  8
DATA
  6
CONTINUOUS
 62
     7
 10
-10.727721103515631
 20
11.33438226074218
 30
0.0
  0
VERTEX
  5
84E
  8
DATA
  6
CONTINUOUS
 62
     7
 10
-10.74711378906251
 20
11.35270123046876
 30
0.0
  0
VERTEX
  5
84F
  8
DATA
  6
CONTINUOUS
 62
     7
 10
-10.76649196289064
 20
11.3715087060547
 30
0.0
  0
VERTEX
  5
850
  8
DATA
  6
CONTINUOUS
 62
     7
 10
-10.785855625000011
 20
11.390804687499999
 30
0.0
  0
VERTEX
  5
851
  8
DATA
  6
CONTINUOUS
 62
     7
 10
-10.80520477539064
 20
11.4105891748047
 30
0.0
  0
VERTEX
  5
852
  8
DATA
  6
CONTINUOUS
 62
     7
 10
-10.82453941406251
 20
11.43086216796876
 30
0.0
  0
VERTEX
  5
853
  8
DATA
  6
CONTINUOUS
 62
     7
 10
-10.84385954101565
 20
11.451623666992189
 30
0.0
  0
VERTEX
  5
854
  8
DATA
  6
CONTINUOUS
 62
     7
 10
-10.86316515625002
 20
11.472873671874989
 30
0.0
  0
VERTEX
  5
855
  8
DATA
  6
CONTINUOUS
 62
     7
 10
-10.88245625976565
 20
11.494612182617169
 30
0.0
  0
VERTEX
  5
856
  8
DATA
  6
CONTINUOUS
 62
     7
 10
-10.90173285156251
 20
11.51683919921873
 30
0.0
  0
VERTEX
  5
857
  8
DATA
  6
CONTINUOUS
 62
     7
 10
-10.92099493164063
 20
11.53955472167968
 30
0.0
  0
VERTEX
  5
858
  8
DATA
  6
CONTINUOUS
 62
     7
 10
-10.940242500000011
 20
11.56275875
 30
0.0
  0
VERTEX
  5
859
  8
DATA
  6
CONTINUOUS
 62
     7
 10
-10.959475556640641
 20
11.5864512841797
 30
0.0
  0
VERTEX
  5
85A
  8
DATA
  6
CONTINUOUS
 62
     7
 10
-10.97869410156251
 20
11.61063232421875
 30
0.0
  0
VERTEX
  5
85B
  8
DATA
  6
CONTINUOUS
 62
     7
 10
-10.997898134765631
 20
11.63530187011718
 30
0.0
  0
VERTEX
  5
85C
  8
DATA
  6
CONTINUOUS
 62
     7
 10
-11.017087656250011
 20
11.66045992187497
 30
0.0
  0
VERTEX
  5
85D
  8
DATA
  6
CONTINUOUS
 62
     7
 10
-11.03626266601564
 20
11.686106479492169
 30
0.0
  0
VERTEX
  5
85E
  8
DATA
  6
CONTINUOUS
 62
     7
 10
-11.055423164062519
 20
11.712241542968741
 30
0.0
  0
VERTEX
  5
85F
  8
DATA
  6
CONTINUOUS
 62
     7
 10
-11.074569150390641
 20
11.73886511230466
 30
0.0
  0
VERTEX
  5
860
  8
DATA
  6
CONTINUOUS
 62
     7
 10
-11.093700625000009
 20
11.765977187500001
 30
0.0
  0
VERTEX
  5
861
  8
DATA
  6
CONTINUOUS
 62
     7
 10
-11.11281758789063
 20
11.793577768554711
 30
0.0
  0
VERTEX
  5
862
  8
DATA
  6
CONTINUOUS
 62
     7
 10
-11.131920039062511
 20
11.82166685546877
 30
0.0
  0
VERTEX
  5
863
  8
DATA
  6
CONTINUOUS
 62
     7
 10
-11.151007978515629
 20
11.85024444824222
 30
0.0
  0
VERTEX
  5
864
  8
DATA
  6
CONTINUOUS
 62
     7
 10
-11.17008140625002
 20
11.87931054687501
 30
0.0
  0
VERTEX
  5
865
  8
DATA
  6
CONTINUOUS
 62
     7
 10
-11.18914032226564
 20
11.908865151367189
 30
0.0
  0
VERTEX
  5
866
  8
DATA
  6
CONTINUOUS
 62
     7
 10
-11.20818472656252
 20
11.93890826171878
 30
0.0
  0
VERTEX
  5
867
  8
DATA
  6
CONTINUOUS
 62
     7
 10
-11.227214619140639
 20
11.969439877929689
 30
0.0
  0
VERTEX
  5
868
  8
DATA
  6
CONTINUOUS
 62
     7
 10
-11.246230000000009
 20
12.000460000000009
 30
0.0
  0
VERTEX
  5
869
  8
DATA
  6
CONTINUOUS
 62
     7
 10
-11.246230000000009
 20
12.000460000000009
 30
0.0
  0
SEQEND
  5
86A
  8
DATA
  6
CONTINUOUS
 62
     7
  0
ARC
  5
2A2
  8
DATA
  6
CONTINUOUS
 62
     7
 10
-344.46983999999998
 20
74.72757
 30
0.0
 40
345.3690092679447
 50
354.6457459073273
 51
2.4047566340584581
  0
ARC
  5
2A3
  8
DATA
  6
CONTINUOUS
 62
     7
 10
-344.46983999999998
 20
74.72757
 30
0.0
 40
345.36900786683867
 50
345.79897298228121
 51
354.56242801859202
  0
ARC
  5
2A4
  8
DATA
  6
CONTINUOUS
 62
     7
 10
369.15983
 20
74.72757
 30
0.0
 40
345.36896738877113
 50
185.43757261023271
 51
194.2010274443781
  0
ARC
  5
2A5
  8
DATA
  6
CONTINUOUS
 62
     7
 10
369.15983
 20
74.72757
 30
0.0
 40
345.36896876999322
 50
177.59524474502081
 51
185.35425321496029
  0
POLYLINE
  5
2A6
  8
DATA
  6
CONTINUOUS
 62
     7
 66
     1
 10
0.0
 20
0.0
 30
0.0
 70
   128
  0
VERTEX
  5
86B
  8
DATA
  6
CONTINUOUS
 62
     7
 10
28.721529999999991
 20
42.500050000000002
 30
0.0
  0
VERTEX
  5
86C
  8
DATA
  6
CONTINUOUS
 62
     7
 10
28.69435274414062
 20
42.939628083496089
 30
0.0
  0
VERTEX
  5
86D
  8
DATA
  6
CONTINUOUS
 62
     7
 10
28.667603476562491
 20
43.380239833984369
 30
0.0
  0
VERTEX
  5
86E
  8
DATA
  6
CONTINUOUS
 62
     7
 10
28.64128219726561
 20
43.821885251464849
 30
0.0
  0
VERTEX
  5
86F
  8
DATA
  6
CONTINUOUS
 62
     7
 10
28.615388906249979
 20
44.264564335937507
 30
0.0
  0
VERTEX
  5
870
  8
DATA
  6
CONTINUOUS
 62
     7
 10
28.589923603515601
 20
44.708277087402351
 30
0.0
  0
VERTEX
  5
871
  8
DATA
  6
CONTINUOUS
 62
     7
 10
28.564886289062471
 20
45.153023505859387
 30
0.0
  0
VERTEX
  5
872
  8
DATA
  6
CONTINUOUS
 62
     7
 10
28.540276962890601
 20
45.598803591308602
 30
0.0
  0
VERTEX
  5
873
  8
DATA
  6
CONTINUOUS
 62
     7
 10
28.516095624999981
 20
46.045617343750003
 30
0.0
  0
VERTEX
  5
874
  8
DATA
  6
CONTINUOUS
 62
     7
 10
28.492342275390609
 20
46.493464763183567
 30
0.0
  0
VERTEX
  5
875
  8
DATA
  6
CONTINUOUS
 62
     7
 10
28.469016914062479
 20
46.942345849609367
 30
0.0
  0
VERTEX
  5
876
  8
DATA
  6
CONTINUOUS
 62
     7
 10
28.446119541015609
 20
47.392260603027353
 30
0.0
  0
VERTEX
  5
877
  8
DATA
  6
CONTINUOUS
 62
     7
 10
28.42365015624998
 20
47.843209023437502
 30
0.0
  0
VERTEX
  5
878
  8
DATA
  6
CONTINUOUS
 62
     7
 10
28.40160875976559
 20
48.295191110839852
 30
0.0
  0
VERTEX
  5
879
  8
DATA
  6
CONTINUOUS
 62
     7
 10
28.379995351562471
 20
48.74820686523438
 30
0.0
  0
VERTEX
  5
87A
  8
DATA
  6
CONTINUOUS
 62
     7
 10
28.358809931640611
 20
49.202256286621093
 30
0.0
  0
VERTEX
  5
87B
  8
DATA
  6
CONTINUOUS
 62
     7
 10
28.338052499999989
 20
49.657339375000006
 30
0.0
  0
VERTEX
  5
87C
  8
DATA
  6
CONTINUOUS
 62
     7
 10
28.31772305664062
 20
50.113456130371112
 30
0.0
  0
VERTEX
  5
87D
  8
DATA
  6
CONTINUOUS
 62
     7
 10
28.297821601562489
 20
50.570606552734382
 30
0.0
  0
VERTEX
  5
87E
  8
DATA
  6
CONTINUOUS
 62
     7
 10
28.278348134765629
 20
51.028790642089852
 30
0.0
  0
VERTEX
  5
87F
  8
DATA
  6
CONTINUOUS
 62
     7
 10
28.25930265625
 20
51.488008398437501
 30
0.0
  0
VERTEX
  5
880
  8
DATA
  6
CONTINUOUS
 62
     7
 10
28.24068516601562
 20
51.948259821777363
 30
0.0
  0
VERTEX
  5
881
  8
DATA
  6
CONTINUOUS
 62
     7
 10
28.222495664062489
 20
52.409544912109382
 30
0.0
  0
VERTEX
  5
882
  8
DATA
  6
CONTINUOUS
 62
     7
 10
28.204734150390621
 20
52.871863669433601
 30
0.0
  0
VERTEX
  5
883
  8
DATA
  6
CONTINUOUS
 62
     7
 10
28.187400624999999
 20
53.335216093750013
 30
0.0
  0
VERTEX
  5
884
  8
DATA
  6
CONTINUOUS
 62
     7
 10
28.170495087890611
 20
53.79960218505861
 30
0.0
  0
VERTEX
  5
885
  8
DATA
  6
CONTINUOUS
 62
     7
 10
28.15401753906248
 20
54.265021943359379
 30
0.0
  0
VERTEX
  5
886
  8
DATA
  6
CONTINUOUS
 62
     7
 10
28.137967978515611
 20
54.731475368652362
 30
0.0
  0
VERTEX
  5
887
  8
DATA
  6
CONTINUOUS
 62
     7
 10
28.122346406249989
 20
55.198962460937501
 30
0.0
  0
VERTEX
  5
888
  8
DATA
  6
CONTINUOUS
 62
     7
 10
28.107152822265618
 20
55.667483220214848
 30
0.0
  0
VERTEX
  5
889
  8
DATA
  6
CONTINUOUS
 62
     7
 10
28.09238722656249
 20
56.137037646484373
 30
0.0
  0
VERTEX
  5
88A
  8
DATA
  6
CONTINUOUS
 62
     7
 10
28.078049619140629
 20
56.607625739746112
 30
0.0
  0
VERTEX
  5
88B
  8
DATA
  6
CONTINUOUS
 62
     7
 10
28.064139999999998
 20
57.079247500000001
 30
0.0
  0
VERTEX
  5
88C
  8
DATA
  6
CONTINUOUS
 62
     7
 10
28.050658369140621
 20
57.551902927246097
 30
0.0
  0
VERTEX
  5
88D
  8
DATA
  6
CONTINUOUS
 62
     7
 10
28.037604726562488
 20
58.025592021484393
 30
0.0
  0
VERTEX
  5
88E
  8
DATA
  6
CONTINUOUS
 62
     7
 10
28.02497907226563
 20
58.500314782714852
 30
0.0
  0
VERTEX
  5
88F
  8
DATA
  6
CONTINUOUS
 62
     7
 10
28.012781406249999
 20
58.976071210937512
 30
0.0
  0
VERTEX
  5
890
  8
DATA
  6
CONTINUOUS
 62
     7
 10
28.001011728515621
 20
59.452861306152343
 30
0.0
  0
VERTEX
  5
891
  8
DATA
  6
CONTINUOUS
 62
     7
 10
27.989670039062489
 20
59.930685068359359
 30
0.0
  0
VERTEX
  5
892
  8
DATA
  6
CONTINUOUS
 62
     7
 10
27.978756337890619
 20
60.40954249755859
 30
0.0
  0
VERTEX
  5
893
  8
DATA
  6
CONTINUOUS
 62
     7
 10
27.968270624999992
 20
60.889433593749999
 30
0.0
  0
VERTEX
  5
894
  8
DATA
  6
CONTINUOUS
 62
     7
 10
27.95821290039061
 20
61.370358356933593
 30
0.0
  0
VERTEX
  5
895
  8
DATA
  6
CONTINUOUS
 62
     7
 10
27.948583164062491
 20
61.852316787109373
 30
0.0
  0
VERTEX
  5
896
  8
DATA
  6
CONTINUOUS
 62
     7
 10
27.939381416015621
 20
62.335308884277339
 30
0.0
  0
VERTEX
  5
897
  8
DATA
  6
CONTINUOUS
 62
     7
 10
27.93060765624999
 20
62.81933464843749
 30
0.0
  0
VERTEX
  5
898
  8
DATA
  6
CONTINUOUS
 62
     7
 10
27.922261884765621
 20
63.304394079589862
 30
0.0
  0
VERTEX
  5
899
  8
DATA
  6
CONTINUOUS
 62
     7
 10
27.914344101562492
 20
63.790487177734377
 30
0.0
  0
VERTEX
  5
89A
  8
DATA
  6
CONTINUOUS
 62
     7
 10
27.906854306640621
 20
64.277613942871085
 30
0.0
  0
VERTEX
  5
89B
  8
DATA
  6
CONTINUOUS
 62
     7
 10
27.89979249999999
 20
64.765774375000007
 30
0.0
  0
VERTEX
  5
89C
  8
DATA
  6
CONTINUOUS
 62
     7
 10
27.89315868164061
 20
65.2549684741211
 30
0.0
  0
VERTEX
  5
89D
  8
DATA
  6
CONTINUOUS
 62
     7
 10
27.886952851562491
 20
65.745196240234364
 30
0.0
  0
VERTEX
  5
89E
  8
DATA
  6
CONTINUOUS
 62
     7
 10
27.881175009765599
 20
66.236457673339856
 30
0.0
  0
VERTEX
  5
89F
  8
DATA
  6
CONTINUOUS
 62
     7
 10
27.87582515624997
 20
66.728752773437506
 30
0.0
  0
VERTEX
  5
8A0
  8
DATA
  6
CONTINUOUS
 62
     7
 10
27.87090329101559
 20
67.222081540527341
 30
0.0
  0
VERTEX
  5
8A1
  8
DATA
  6
CONTINUOUS
 62
     7
 10
27.866409414062481
 20
67.71644397460939
 30
0.0
  0
VERTEX
  5
8A2
  8
DATA
  6
CONTINUOUS
 62
     7
 10
27.86234352539061
 20
68.211840075683597
 30
0.0
  0
VERTEX
  5
8A3
  8
DATA
  6
CONTINUOUS
 62
     7
 10
27.858705624999988
 20
68.708269843750003
 30
0.0
  0
VERTEX
  5
8A4
  8
DATA
  6
CONTINUOUS
 62
     7
 10
27.855495712890612
 20
69.205733278808594
 30
0.0
  0
VERTEX
  5
8A5
  8
DATA
  6
CONTINUOUS
 62
     7
 10
27.852713789062491
 20
69.704230380859372
 30
0.0
  0
VERTEX
  5
8A6
  8
DATA
  6
CONTINUOUS
 62
     7
 10
27.850359853515609
 20
70.203761149902334
 30
0.0
  0
VERTEX
  5
8A7
  8
DATA
  6
CONTINUOUS
 62
     7
 10
27.84843390624998
 20
70.704325585937497
 30
0.0
  0
VERTEX
  5
8A8
  8
DATA
  6
CONTINUOUS
 62
     7
 10
27.84693594726561
 20
71.20592368896483
 30
0.0
  0
VERTEX
  5
8A9
  8
DATA
  6
CONTINUOUS
 62
     7
 10
27.845865976562479
 20
71.708555458984364
 30
0.0
  0
VERTEX
  5
8AA
  8
DATA
  6
CONTINUOUS
 62
     7
 10
27.845223994140611
 20
72.212220895996055
 30
0.0
  0
VERTEX
  5
8AB
  8
DATA
  6
CONTINUOUS
 62
     7
 10
27.845009999999991
 20
72.716920000000002
 30
0.0
  0
VERTEX
  5
8AC
  8
DATA
  6
CONTINUOUS
 62
     7
 10
27.845009999999991
 20
72.716920000000002
 30
0.0
  0
VERTEX
  5
8AD
  8
DATA
  6
CONTINUOUS
 62
     7
 10
27.845009999999991
 20
72.716920000000002
 30
0.0
  0
VERTEX
  5
8AE
  8
DATA
  6
CONTINUOUS
 62
     7
 10
27.845065974121091
 20
72.975169853515624
 30
0.0
  0
VERTEX
  5
8AF
  8
DATA
  6
CONTINUOUS
 62
     7
 10
27.845233896484359
 20
73.233149414062495
 30
0.0
  0
VERTEX
  5
8B0
  8
DATA
  6
CONTINUOUS
 62
     7
 10
27.84551376708983
 20
73.490858681640603
 30
0.0
  0
VERTEX
  5
8B1
  8
DATA
  6
CONTINUOUS
 62
     7
 10
27.845905585937491
 20
73.748297656250003
 30
0.0
  0
VERTEX
  5
8B2
  8
DATA
  6
CONTINUOUS
 62
     7
 10
27.84640935302734
 20
74.005466337890624
 30
0.0
  0
VERTEX
  5
8B3
  8
DATA
  6
CONTINUOUS
 62
     7
 10
27.847025068359368
 20
74.262364726562524
 30
0.0
  0
VERTEX
  5
8B4
  8
DATA
  6
CONTINUOUS
 62
     7
 10
27.847752731933589
 20
74.518992822265631
 30
0.0
  0
VERTEX
  5
8B5
  8
DATA
  6
CONTINUOUS
 62
     7
 10
27.848592343749981
 20
74.775350625000002
 30
0.0
  0
VERTEX
  5
8B6
  8
DATA
  6
CONTINUOUS
 62
     7
 10
27.849543903808581
 20
75.031438134765622
 30
0.0
  0
VERTEX
  5
8B7
  8
DATA
  6
CONTINUOUS
 62
     7
 10
27.850607412109369
 20
75.287255351562493
 30
0.0
  0
VERTEX
  5
8B8
  8
DATA
  6
CONTINUOUS
 62
     7
 10
27.851782868652339
 20
75.542802275390585
 30
0.0
  0
VERTEX
  5
8B9
  8
DATA
  6
CONTINUOUS
 62
     7
 10
27.853070273437481
 20
75.798078906249984
 30
0.0
  0
VERTEX
  5
8BA
  8
DATA
  6
CONTINUOUS
 62
     7
 10
27.854469626464819
 20
76.053085244140604
 30
0.0
  0
VERTEX
  5
8BB
  8
DATA
  6
CONTINUOUS
 62
     7
 10
27.85598092773435
 20
76.307821289062503
 30
0.0
  0
VERTEX
  5
8BC
  8
DATA
  6
CONTINUOUS
 62
     7
 10
27.857604177246081
 20
76.562287041015622
 30
0.0
  0
VERTEX
  5
8BD
  8
DATA
  6
CONTINUOUS
 62
     7
 10
27.85933937499999
 20
76.816482500000006
 30
0.0
  0
VERTEX
  5
8BE
  8
DATA
  6
CONTINUOUS
 62
     7
 10
27.861186520996089
 20
77.070407666015626
 30
0.0
  0
VERTEX
  5
8BF
  8
DATA
  6
CONTINUOUS
 62
     7
 10
27.86314561523437
 20
77.324062539062524
 30
0.0
  0
VERTEX
  5
8C0
  8
DATA
  6
CONTINUOUS
 62
     7
 10
27.865216657714839
 20
77.577447119140643
 30
0.0
  0
VERTEX
  5
8C1
  8
DATA
  6
CONTINUOUS
 62
     7
 10
27.867399648437502
 20
77.830561406250013
 30
0.0
  0
VERTEX
  5
8C2
  8
DATA
  6
CONTINUOUS
 62
     7
 10
27.86969458740236
 20
78.083405400390632
 30
0.0
  0
VERTEX
  5
8C3
  8
DATA
  6
CONTINUOUS
 62
     7
 10
27.87210147460938
 20
78.335979101562501
 30
0.0
  0
VERTEX
  5
8C4
  8
DATA
  6
CONTINUOUS
 62
     7
 10
27.874620310058589
 20
78.588282509765619
 30
0.0
  0
VERTEX
  5
8C5
  8
DATA
  6
CONTINUOUS
 62
     7
 10
27.87725109374999
 20
78.840315625000002
 30
0.0
  0
VERTEX
  5
8C6
  8
DATA
  6
CONTINUOUS
 62
     7
 10
27.879993825683581
 20
79.092078447265621
 30
0.0
  0
VERTEX
  5
8C7
  8
DATA
  6
CONTINUOUS
 62
     7
 10
27.882848505859371
 20
79.343570976562503
 30
0.0
  0
VERTEX
  5
8C8
  8
DATA
  6
CONTINUOUS
 62
     7
 10
27.88581513427733
 20
79.594793212890622
 30
0.0
  0
VERTEX
  5
8C9
  8
DATA
  6
CONTINUOUS
 62
     7
 10
27.888893710937481
 20
79.845745156250004
 30
0.0
  0
VERTEX
  5
8CA
  8
DATA
  6
CONTINUOUS
 62
     7
 10
27.892084235839821
 20
80.096426806640636
 30
0.0
  0
VERTEX
  5
8CB
  8
DATA
  6
CONTINUOUS
 62
     7
 10
27.895386708984351
 20
80.346838164062504
 30
0.0
  0
VERTEX
  5
8CC
  8
DATA
  6
CONTINUOUS
 62
     7
 10
27.898801130371069
 20
80.596979228515622
 30
0.0
  0
VERTEX
  5
8CD
  8
DATA
  6
CONTINUOUS
 62
     7
 10
27.902327499999991
 20
80.846850000000003
 30
0.0
  0
VERTEX
  5
8CE
  8
DATA
  6
CONTINUOUS
 62
     7
 10
27.905965817871088
 20
81.096450478515635
 30
0.0
  0
VERTEX
  5
8CF
  8
DATA
  6
CONTINUOUS
 62
     7
 10
27.90971608398436
 20
81.345780664062502
 30
0.0
  0
VERTEX
  5
8D0
  8
DATA
  6
CONTINUOUS
 62
     7
 10
27.913578298339829
 20
81.594840556640619
 30
0.0
  0
VERTEX
  5
8D1
  8
DATA
  6
CONTINUOUS
 62
     7
 10
27.91755246093749
 20
81.843630156250015
 30
0.0
  0
VERTEX
  5
8D2
  8
DATA
  6
CONTINUOUS
 62
     7
 10
27.92163857177734
 20
82.092149462890646
 30
0.0
  0
VERTEX
  5
8D3
  8
DATA
  6
CONTINUOUS
 62
     7
 10
27.925836630859369
 20
82.340398476562498
 30
0.0
  0
VERTEX
  5
8D4
  8
DATA
  6
CONTINUOUS
 62
     7
 10
27.93014663818359
 20
82.588377197265615
 30
0.0
  0
VERTEX
  5
8D5
  8
DATA
  6
CONTINUOUS
 62
     7
 10
27.93456859374999
 20
82.836085625000024
 30
0.0
  0
VERTEX
  5
8D6
  8
DATA
  6
CONTINUOUS
 62
     7
 10
27.939102497558579
 20
83.083523759765626
 30
0.0
  0
VERTEX
  5
8D7
  8
DATA
  6
CONTINUOUS
 62
     7
 10
27.943748349609368
 20
83.330691601562506
 30
0.0
  0
VERTEX
  5
8D8
  8
DATA
  6
CONTINUOUS
 62
     7
 10
27.94850614990235
 20
83.577589150390608
 30
0.0
  0
VERTEX
  5
8D9
  8
DATA
  6
CONTINUOUS
 62
     7
 10
27.953375898437489
 20
83.824216406250002
 30
0.0
  0
VERTEX
  5
8DA
  8
DATA
  6
CONTINUOUS
 62
     7
 10
27.958357595214821
 20
84.070573369140604
 30
0.0
  0
VERTEX
  5
8DB
  8
DATA
  6
CONTINUOUS
 62
     7
 10
27.96345124023436
 20
84.316660039062484
 30
0.0
  0
VERTEX
  5
8DC
  8
DATA
  6
CONTINUOUS
 62
     7
 10
27.96865683349607
 20
84.562476416015613
 30
0.0
  0
VERTEX
  5
8DD
  8
DATA
  6
CONTINUOUS
 62
     7
 10
27.97397437499999
 20
84.808022499999979
 30
0.0
  0
VERTEX
  5
8DE
  8
DATA
  6
CONTINUOUS
 62
     7
 10
27.979403864746089
 20
85.053298291015622
 30
0.0
  0
VERTEX
  5
8DF
  8
DATA
  6
CONTINUOUS
 62
     7
 10
27.984945302734371
 20
85.298303789062501
 30
0.0
  0
VERTEX
  5
8E0
  8
DATA
  6
CONTINUOUS
 62
     7
 10
27.990598688964841
 20
85.543038994140645
 30
0.0
  0
VERTEX
  5
8E1
  8
DATA
  6
CONTINUOUS
 62
     7
 10
27.99636402343749
 20
85.787503906249981
 30
0.0
  0
VERTEX
  5
8E2
  8
DATA
  6
CONTINUOUS
 62
     7
 10
28.002241306152332
 20
86.031698525390624
 30
0.0
  0
VERTEX
  5
8E3
  8
DATA
  6
CONTINUOUS
 62
     7
 10
28.008230537109348
 20
86.275622851562488
 30
0.0
  0
VERTEX
  5
8E4
  8
DATA
  6
CONTINUOUS
 62
     7
 10
28.014331716308568
 20
86.519276884765631
 30
0.0
  0
VERTEX
  5
8E5
  8
DATA
  6
CONTINUOUS
 62
     7
 10
28.020544843749992
 20
86.762660624999981
 30
0.0
  0
VERTEX
  5
8E6
  8
DATA
  6
CONTINUOUS
 62
     7
 10
28.02686991943359
 20
87.005774072265623
 30
0.0
  0
VERTEX
  5
8E7
  8
DATA
  6
CONTINUOUS
 62
     7
 10
28.033306943359371
 20
87.248617226562502
 30
0.0
  0
VERTEX
  5
8E8
  8
DATA
  6
CONTINUOUS
 62
     7
 10
28.03985591552733
 20
87.491190087890644
 30
0.0
  0
VERTEX
  5
8E9
  8
DATA
  6
CONTINUOUS
 62
     7
 10
28.046516835937481
 20
87.733492656249979
 30
0.0
  0
VERTEX
  5
8EA
  8
DATA
  6
CONTINUOUS
 62
     7
 10
28.05328970458983
 20
87.975524931640621
 30
0.0
  0
VERTEX
  5
8EB
  8
DATA
  6
CONTINUOUS
 62
     7
 10
28.06017452148436
 20
88.217286914062484
 30
0.0
  0
VERTEX
  5
8EC
  8
DATA
  6
CONTINUOUS
 62
     7
 10
28.067171286621068
 20
88.458778603515626
 30
0.0
  0
VERTEX
  5
8ED
  8
DATA
  6
CONTINUOUS
 62
     7
 10
28.074279999999991
 20
88.700000000000003
 30
0.0
  0
VERTEX
  5
8EE
  8
DATA
  6
CONTINUOUS
 62
     7
 10
28.074279999999991
 20
88.700000000000003
 30
0.0
  0
SEQEND
  5
8EF
  8
DATA
  6
CONTINUOUS
 62
     7
  0
POLYLINE
  5
32C
  8
DATA
  6
CONTINUOUS
 62
     7
 66
     1
 10
0.0
 20
0.0
 30
0.0
 70
   128
  0
VERTEX
  5
8F0
  8
DATA
  6
CONTINUOUS
 62
     7
 10
28.753039999999999
 20
42.000109999999999
 30
0.0
  0
VERTEX
  5
8F1
  8
DATA
  6
CONTINUOUS
 62
     7
 10
28.75320462890625
 20
41.997523115234387
 30
0.0
  0
VERTEX
  5
8F2
  8
DATA
  6
CONTINUOUS
 62
     7
 10
28.753368515624999
 20
41.994948085937502
 30
0.0
  0
VERTEX
  5
8F3
  8
DATA
  6
CONTINUOUS
 62
     7
 10
28.753531660156259
 20
41.99238491210938
 30
0.0
  0
VERTEX
  5
8F4
  8
DATA
  6
CONTINUOUS
 62
     7
 10
28.75369406250001
 20
41.989833593750006
 30
0.0
  0
VERTEX
  5
8F5
  8
DATA
  6
CONTINUOUS
 62
     7
 10
28.753855722656251
 20
41.987294130859389
 30
0.0
  0
VERTEX
  5
8F6
  8
DATA
  6
CONTINUOUS
 62
     7
 10
28.754016640625011
 20
41.984766523437521
 30
0.0
  0
VERTEX
  5
8F7
  8
DATA
  6
CONTINUOUS
 62
     7
 10
28.75417681640625
 20
41.982250771484381
 30
0.0
  0
VERTEX
  5
8F8
  8
DATA
  6
CONTINUOUS
 62
     7
 10
28.754336250000009
 20
41.979746875000018
 30
0.0
  0
VERTEX
  5
8F9
  8
DATA
  6
CONTINUOUS
 62
     7
 10
28.754494941406271
 20
41.977254833984389
 30
0.0
  0
VERTEX
  5
8FA
  8
DATA
  6
CONTINUOUS
 62
     7
 10
28.754652890625021
 20
41.974774648437517
 30
0.0
  0
VERTEX
  5
8FB
  8
DATA
  6
CONTINUOUS
 62
     7
 10
28.754810097656261
 20
41.972306318359379
 30
0.0
  0
VERTEX
  5
8FC
  8
DATA
  6
CONTINUOUS
 62
     7
 10
28.754966562500019
 20
41.969849843750012
 30
0.0
  0
VERTEX
  5
8FD
  8
DATA
  6
CONTINUOUS
 62
     7
 10
28.755122285156261
 20
41.967405224609379
 30
0.0
  0
VERTEX
  5
8FE
  8
DATA
  6
CONTINUOUS
 62
     7
 10
28.755277265625011
 20
41.964972460937517
 30
0.0
  0
VERTEX
  5
8FF
  8
DATA
  6
CONTINUOUS
 62
     7
 10
28.755431503906259
 20
41.962551552734404
 30
0.0
  0
VERTEX
  5
900
  8
DATA
  6
CONTINUOUS
 62
     7
 10
28.755585000000011
 20
41.960142500000011
 30
0.0
  0
VERTEX
  5
901
  8
DATA
  6
CONTINUOUS
 62
     7
 10
28.75573775390626
 20
41.957745302734402
 30
0.0
  0
VERTEX
  5
902
  8
DATA
  6
CONTINUOUS
 62
     7
 10
28.75588976562501
 20
41.955359960937507
 30
0.0
  0
VERTEX
  5
903
  8
DATA
  6
CONTINUOUS
 62
     7
 10
28.756041035156251
 20
41.952986474609382
 30
0.0
  0
VERTEX
  5
904
  8
DATA
  6
CONTINUOUS
 62
     7
 10
28.75619156250001
 20
41.950624843749999
 30
0.0
  0
VERTEX
  5
905
  8
DATA
  6
CONTINUOUS
 62
     7
 10
28.75634134765626
 20
41.948275068359372
 30
0.0
  0
VERTEX
  5
906
  8
DATA
  6
CONTINUOUS
 62
     7
 10
28.756490390625022
 20
41.945937148437501
 30
0.0
  0
VERTEX
  5
907
  8
DATA
  6
CONTINUOUS
 62
     7
 10
28.756638691406248
 20
41.943611083984379
 30
0.0
  0
VERTEX
  5
908
  8
DATA
  6
CONTINUOUS
 62
     7
 10
28.756786250000012
 20
41.941296875000013
 30
0.0
  0
VERTEX
  5
909
  8
DATA
  6
CONTINUOUS
 62
     7
 10
28.756933066406251
 20
41.938994521484368
 30
0.0
  0
VERTEX
  5
90A
  8
DATA
  6
CONTINUOUS
 62
     7
 10
28.757079140624999
 20
41.936704023437521
 30
0.0
  0
VERTEX
  5
90B
  8
DATA
  6
CONTINUOUS
 62
     7
 10
28.757224472656251
 20
41.934425380859373
 30
0.0
  0
VERTEX
  5
90C
  8
DATA
  6
CONTINUOUS
 62
     7
 10
28.757369062500011
 20
41.93215859375001
 30
0.0
  0
VERTEX
  5
90D
  8
DATA
  6
CONTINUOUS
 62
     7
 10
28.757512910156269
 20
41.929903662109389
 30
0.0
  0
VERTEX
  5
90E
  8
DATA
  6
CONTINUOUS
 62
     7
 10
28.75765601562502
 20
41.927660585937517
 30
0.0
  0
VERTEX
  5
90F
  8
DATA
  6
CONTINUOUS
 62
     7
 10
28.757798378906259
 20
41.925429365234379
 30
0.0
  0
VERTEX
  5
910
  8
DATA
  6
CONTINUOUS
 62
     7
 10
28.757940000000008
 20
41.923210000000012
 30
0.0
  0
VERTEX
  5
911
  8
DATA
  6
CONTINUOUS
 62
     7
 10
28.758080878906249
 20
41.921002490234393
 30
0.0
  0
VERTEX
  5
912
  8
DATA
  6
CONTINUOUS
 62
     7
 10
28.758221015625011
 20
41.918806835937517
 30
0.0
  0
VERTEX
  5
913
  8
DATA
  6
CONTINUOUS
 62
     7
 10
28.758360410156261
 20
41.916623037109382
 30
0.0
  0
VERTEX
  5
914
  8
DATA
  6
CONTINUOUS
 62
     7
 10
28.758499062500011
 20
41.914451093750003
 30
0.0
  0
VERTEX
  5
915
  8
DATA
  6
CONTINUOUS
 62
     7
 10
28.758636972656252
 20
41.912291005859359
 30
0.0
  0
VERTEX
  5
916
  8
DATA
  6
CONTINUOUS
 62
     7
 10
28.758774140625011
 20
41.910142773437492
 30
0.0
  0
VERTEX
  5
917
  8
DATA
  6
CONTINUOUS
 62
     7
 10
28.758910566406261
 20
41.908006396484382
 30
0.0
  0
VERTEX
  5
918
  8
DATA
  6
CONTINUOUS
 62
     7
 10
28.759046250000001
 20
41.905881875000013
 30
0.0
  0
VERTEX
  5
919
  8
DATA
  6
CONTINUOUS
 62
     7
 10
28.759181191406238
 20
41.903769208984379
 30
0.0
  0
VERTEX
  5
91A
  8
DATA
  6
CONTINUOUS
 62
     7
 10
28.759315390624991
 20
41.901668398437501
 30
0.0
  0
VERTEX
  5
91B
  8
DATA
  6
CONTINUOUS
 62
     7
 10
28.759448847656252
 20
41.899579443359379
 30
0.0
  0
VERTEX
  5
91C
  8
DATA
  6
CONTINUOUS
 62
     7
 10
28.75958156250001
 20
41.897502343750013
 30
0.0
  0
VERTEX
  5
91D
  8
DATA
  6
CONTINUOUS
 62
     7
 10
28.759713535156251
 20
41.895437099609367
 30
0.0
  0
VERTEX
  5
91E
  8
DATA
  6
CONTINUOUS
 62
     7
 10
28.759844765625001
 20
41.893383710937499
 30
0.0
  0
VERTEX
  5
91F
  8
DATA
  6
CONTINUOUS
 62
     7
 10
28.759975253906251
 20
41.891342177734401
 30
0.0
  0
VERTEX
  5
920
  8
DATA
  6
CONTINUOUS
 62
     7
 10
28.760104999999999
 20
41.889312500000017
 30
0.0
  0
VERTEX
  5
921
  8
DATA
  6
CONTINUOUS
 62
     7
 10
28.760234003906248
 20
41.887294677734388
 30
0.0
  0
VERTEX
  5
922
  8
DATA
  6
CONTINUOUS
 62
     7
 10
28.760362265625009
 20
41.885288710937523
 30
0.0
  0
VERTEX
  5
923
  8
DATA
  6
CONTINUOUS
 62
     7
 10
28.760489785156249
 20
41.883294599609393
 30
0.0
  0
VERTEX
  5
924
  8
DATA
  6
CONTINUOUS
 62
     7
 10
28.760616562500001
 20
41.881312343750011
 30
0.0
  0
VERTEX
  5
925
  8
DATA
  6
CONTINUOUS
 62
     7
 10
28.76074259765625
 20
41.879341943359371
 30
0.0
  0
VERTEX
  5
926
  8
DATA
  6
CONTINUOUS
 62
     7
 10
28.760867890625001
 20
41.877383398437523
 30
0.0
  0
VERTEX
  5
927
  8
DATA
  6
CONTINUOUS
 62
     7
 10
28.760992441406248
 20
41.875436708984367
 30
0.0
  0
VERTEX
  5
928
  8
DATA
  6
CONTINUOUS
 62
     7
 10
28.761116250000001
 20
41.873501875000009
 30
0.0
  0
VERTEX
  5
929
  8
DATA
  6
CONTINUOUS
 62
     7
 10
28.761239316406261
 20
41.871578896484401
 30
0.0
  0
VERTEX
  5
92A
  8
DATA
  6
CONTINUOUS
 62
     7
 10
28.761361640625012
 20
41.869667773437513
 30
0.0
  0
VERTEX
  5
92B
  8
DATA
  6
CONTINUOUS
 62
     7
 10
28.761483222656249
 20
41.867768505859381
 30
0.0
  0
VERTEX
  5
92C
  8
DATA
  6
CONTINUOUS
 62
     7
 10
28.761604062500009
 20
41.865881093750012
 30
0.0
  0
VERTEX
  5
92D
  8
DATA
  6
CONTINUOUS
 62
     7
 10
28.761724160156248
 20
41.864005537109392
 30
0.0
  0
VERTEX
  5
92E
  8
DATA
  6
CONTINUOUS
 62
     7
 10
28.76184351562501
 20
41.8621418359375
 30
0.0
  0
VERTEX
  5
92F
  8
DATA
  6
CONTINUOUS
 62
     7
 10
28.761962128906251
 20
41.860289990234371
 30
0.0
  0
VERTEX
  5
930
  8
DATA
  6
CONTINUOUS
 62
     7
 10
28.762080000000001
 20
41.858450000000012
 30
0.0
  0
VERTEX
  5
931
  8
DATA
  6
CONTINUOUS
 62
     7
 10
28.762080000000001
 20
41.858450000000012
 30
0.0
  0
VERTEX
  5
932
  8
DATA
  6
CONTINUOUS
 62
     7
 10
28.790901711425761
 20
41.412382153320323
 30
0.0
  0
VERTEX
  5
933
  8
DATA
  6
CONTINUOUS
 62
     7
 10
28.82005122070311
 20
40.969269863281262
 30
0.0
  0
VERTEX
  5
934
  8
DATA
  6
CONTINUOUS
 62
     7
 10
28.849528527832021
 20
40.529113129882809
 30
0.0
  0
VERTEX
  5
935
  8
DATA
  6
CONTINUOUS
 62
     7
 10
28.879333632812489
 20
40.091911953124999
 30
0.0
  0
VERTEX
  5
936
  8
DATA
  6
CONTINUOUS
 62
     7
 10
28.90946653564453
 20
39.657666333007832
 30
0.0
  0
VERTEX
  5
937
  8
DATA
  6
CONTINUOUS
 62
     7
 10
28.939927236328121
 20
39.226376269531258
 30
0.0
  0
VERTEX
  5
938
  8
DATA
  6
CONTINUOUS
 62
     7
 10
28.970715734863269
 20
38.79804176269532
 30
0.0
  0
VERTEX
  5
939
  8
DATA
  6
CONTINUOUS
 62
     7
 10
29.00183203124999
 20
38.37266281250001
 30
0.0
  0
VERTEX
  5
93A
  8
DATA
  6
CONTINUOUS
 62
     7
 10
29.033276125488278
 20
37.95023941894533
 30
0.0
  0
VERTEX
  5
93B
  8
DATA
  6
CONTINUOUS
 62
     7
 10
29.065048017578121
 20
37.530771582031257
 30
0.0
  0
VERTEX
  5
93C
  8
DATA
  6
CONTINUOUS
 62
     7
 10
29.097147707519511
 20
37.114259301757812
 30
0.0
  0
VERTEX
  5
93D
  8
DATA
  6
CONTINUOUS
 62
     7
 10
29.129575195312491
 20
36.700702578125011
 30
0.0
  0
VERTEX
  5
93E
  8
DATA
  6
CONTINUOUS
 62
     7
 10
29.162330480957021
 20
36.29010141113281
 30
0.0
  0
VERTEX
  5
93F
  8
DATA
  6
CONTINUOUS
 62
     7
 10
29.195413564453119
 20
35.882455800781258
 30
0.0
  0
VERTEX
  5
940
  8
DATA
  6
CONTINUOUS
 62
     7
 10
29.228824445800772
 20
35.477765747070322
 30
0.0
  0
VERTEX
  5
941
  8
DATA
  6
CONTINUOUS
 62
     7
 10
29.262563124999989
 20
35.07603125
 30
0.0
  0
VERTEX
  5
942
  8
DATA
  6
CONTINUOUS
 62
     7
 10
29.296629602050771
 20
34.677252309570321
 30
0.0
  0
VERTEX
  5
943
  8
DATA
  6
CONTINUOUS
 62
     7
 10
29.331023876953111
 20
34.281428925781263
 30
0.0
  0
VERTEX
  5
944
  8
DATA
  6
CONTINUOUS
 62
     7
 10
29.365745949707019
 20
33.88856109863282
 30
0.0
  0
VERTEX
  5
945
  8
DATA
  6
CONTINUOUS
 62
     7
 10
29.400795820312482
 20
33.498648828124999
 30
0.0
  0
VERTEX
  5
946
  8
DATA
  6
CONTINUOUS
 62
     7
 10
29.436173488769501
 20
33.111692114257806
 30
0.0
  0
VERTEX
  5
947
  8
DATA
  6
CONTINUOUS
 62
     7
 10
29.4718789550781
 20
32.727690957031257
 30
0.0
  0
VERTEX
  5
948
  8
DATA
  6
CONTINUOUS
 62
     7
 10
29.507912219238271
 20
32.346645356445322
 30
0.0
  0
VERTEX
  5
949
  8
DATA
  6
CONTINUOUS
 62
     7
 10
29.544273281249989
 20
31.968555312500001
 30
0.0
  0
VERTEX
  5
94A
  8
DATA
  6
CONTINUOUS
 62
     7
 10
29.580962141113272
 20
31.593420825195331
 30
0.0
  0
VERTEX
  5
94B
  8
DATA
  6
CONTINUOUS
 62
     7
 10
29.617978798828119
 20
31.221241894531261
 30
0.0
  0
VERTEX
  5
94C
  8
DATA
  6
CONTINUOUS
 62
     7
 10
29.655323254394521
 20
30.852018520507809
 30
0.0
  0
VERTEX
  5
94D
  8
DATA
  6
CONTINUOUS
 62
     7
 10
29.692995507812491
 20
30.48575070312501
 30
0.0
  0
VERTEX
  5
94E
  8
DATA
  6
CONTINUOUS
 62
     7
 10
29.730995559082029
 20
30.12243844238283
 30
0.0
  0
VERTEX
  5
94F
  8
DATA
  6
CONTINUOUS
 62
     7
 10
29.769323408203121
 20
29.762081738281271
 30
0.0
  0
VERTEX
  5
950
  8
DATA
  6
CONTINUOUS
 62
     7
 10
29.807979055175771
 20
29.40468059082033
 30
0.0
  0
VERTEX
  5
951
  8
DATA
  6
CONTINUOUS
 62
     7
 10
29.846962499999989
 20
29.050235000000001
 30
0.0
  0
VERTEX
  5
952
  8
DATA
  6
CONTINUOUS
 62
     7
 10
29.886273742675769
 20
28.69874496582031
 30
0.0
  0
VERTEX
  5
953
  8
DATA
  6
CONTINUOUS
 62
     7
 10
29.92591278320312
 20
28.350210488281249
 30
0.0
  0
VERTEX
  5
954
  8
DATA
  6
CONTINUOUS
 62
     7
 10
29.965879621582019
 20
28.004631567382809
 30
0.0
  0
VERTEX
  5
955
  8
DATA
  6
CONTINUOUS
 62
     7
 10
30.006174257812479
 20
27.662008203125001
 30
0.0
  0
VERTEX
  5
956
  8
DATA
  6
CONTINUOUS
 62
     7
 10
30.046796691894521
 20
27.322340395507808
 30
0.0
  0
VERTEX
  5
957
  8
DATA
  6
CONTINUOUS
 62
     7
 10
30.08774692382811
 20
26.985628144531269
 30
0.0
  0
VERTEX
  5
958
  8
DATA
  6
CONTINUOUS
 62
     7
 10
30.129024953613271
 20
26.65187145019533
 30
0.0
  0
VERTEX
  5
959
  8
DATA
  6
CONTINUOUS
 62
     7
 10
30.17063078124999
 20
26.321070312500002
 30
0.0
  0
VERTEX
  5
95A
  8
DATA
  6
CONTINUOUS
 62
     7
 10
30.21256440673827
 20
25.993224731445309
 30
0.0
  0
VERTEX
  5
95B
  8
DATA
  6
CONTINUOUS
 62
     7
 10
30.254825830078119
 20
25.668334707031249
 30
0.0
  0
VERTEX
  5
95C
  8
DATA
  6
CONTINUOUS
 62
     7
 10
30.297415051269539
 20
25.3464002392578
 30
0.0
  0
VERTEX
  5
95D
  8
DATA
  6
CONTINUOUS
 62
     7
 10
30.340332070312499
 20
25.027421328125001
 30
0.0
  0
VERTEX
  5
95E
  8
DATA
  6
CONTINUOUS
 62
     7
 10
30.383576887207042
 20
24.711397973632831
 30
0.0
  0
VERTEX
  5
95F
  8
DATA
  6
CONTINUOUS
 62
     7
 10
30.427149501953132
 20
24.398330175781268
 30
0.0
  0
VERTEX
  5
960
  8
DATA
  6
CONTINUOUS
 62
     7
 10
30.471049914550768
 20
24.088217934570331
 30
0.0
  0
VERTEX
  5
961
  8
DATA
  6
CONTINUOUS
 62
     7
 10
30.515278124999998
 20
23.781061250000011
 30
0.0
  0
VERTEX
  5
962
  8
DATA
  6
CONTINUOUS
 62
     7
 10
30.559834133300772
 20
23.47686012207032
 30
0.0
  0
VERTEX
  5
963
  8
DATA
  6
CONTINUOUS
 62
     7
 10
30.60471793945311
 20
23.175614550781269
 30
0.0
  0
VERTEX
  5
964
  8
DATA
  6
CONTINUOUS
 62
     7
 10
30.64992954345702
 20
22.877324536132829
 30
0.0
  0
VERTEX
  5
965
  8
DATA
  6
CONTINUOUS
 62
     7
 10
30.695468945312481
 20
22.58199007812502
 30
0.0
  0
VERTEX
  5
966
  8
DATA
  6
CONTINUOUS
 62
     7
 10
30.74133614501952
 20
22.28961117675783
 30
0.0
  0
VERTEX
  5
967
  8
DATA
  6
CONTINUOUS
 62
     7
 10
30.787531142578121
 20
22.000187832031251
 30
0.0
  0
VERTEX
  5
968
  8
DATA
  6
CONTINUOUS
 62
     7
 10
30.834053937988269
 20
21.71372004394533
 30
0.0
  0
VERTEX
  5
969
  8
DATA
  6
CONTINUOUS
 62
     7
 10
30.880904531249989
 20
21.430207812500011
 30
0.0
  0
VERTEX
  5
96A
  8
DATA
  6
CONTINUOUS
 62
     7
 10
30.928082922363259
 20
21.149651137695329
 30
0.0
  0
VERTEX
  5
96B
  8
DATA
  6
CONTINUOUS
 62
     7
 10
30.975589111328119
 20
20.872050019531269
 30
0.0
  0
VERTEX
  5
96C
  8
DATA
  6
CONTINUOUS
 62
     7
 10
31.02342309814453
 20
20.597404458007841
 30
0.0
  0
VERTEX
  5
96D
  8
DATA
  6
CONTINUOUS
 62
     7
 10
31.071584882812491
 20
20.32571445312502
 30
0.0
  0
VERTEX
  5
96E
  8
DATA
  6
CONTINUOUS
 62
     7
 10
31.120074465332021
 20
20.056980004882831
 30
0.0
  0
VERTEX
  5
96F
  8
DATA
  6
CONTINUOUS
 62
     7
 10
31.168891845703111
 20
19.791201113281261
 30
0.0
  0
VERTEX
  5
970
  8
DATA
  6
CONTINUOUS
 62
     7
 10
31.218037023925771
 20
19.528377778320319
 30
0.0
  0
VERTEX
  5
971
  8
DATA
  6
CONTINUOUS
 62
     7
 10
31.267509999999991
 20
19.268509999999999
 30
0.0
  0
VERTEX
  5
972
  8
DATA
  6
CONTINUOUS
 62
     7
 10
31.267509999999991
 20
19.268509999999999
 30
0.0
  0
VERTEX
  5
973
  8
DATA
  6
CONTINUOUS
 62
     7
 10
31.317206870117172
 20
19.012137741699199
 30
0.0
  0
VERTEX
  5
974
  8
DATA
  6
CONTINUOUS
 62
     7
 10
31.36702373046873
 20
18.759802841796869
 30
0.0
  0
VERTEX
  5
975
  8
DATA
  6
CONTINUOUS
 62
     7
 10
31.416960581054681
 20
18.511505300292949
 30
0.0
  0
VERTEX
  5
976
  8
DATA
  6
CONTINUOUS
 62
     7
 10
31.467017421874989
 20
18.2672451171875
 30
0.0
  0
VERTEX
  5
977
  8
DATA
  6
CONTINUOUS
 62
     7
 10
31.51719425292967
 20
18.027022292480471
 30
0.0
  0
VERTEX
  5
978
  8
DATA
  6
CONTINUOUS
 62
     7
 10
31.56749107421874
 20
17.790836826171869
 30
0.0
  0
VERTEX
  5
979
  8
DATA
  6
CONTINUOUS
 62
     7
 10
31.617907885742191
 20
17.55868871826172
 30
0.0
  0
VERTEX
  5
97A
  8
DATA
  6
CONTINUOUS
 62
     7
 10
31.668444687499989
 20
17.330577968749989
 30
0.0
  0
VERTEX
  5
97B
  8
DATA
  6
CONTINUOUS
 62
     7
 10
31.719101479492181
 20
17.106504577636699
 30
0.0
  0
VERTEX
  5
97C
  8
DATA
  6
CONTINUOUS
 62
     7
 10
31.769878261718731
 20
16.886468544921851
 30
0.0
  0
VERTEX
  5
97D
  8
DATA
  6
CONTINUOUS
 62
     7
 10
31.820775034179661
 20
16.670469870605441
 30
0.0
  0
VERTEX
  5
97E
  8
DATA
  6
CONTINUOUS
 62
     7
 10
31.87179179687497
 20
16.45850855468748
 30
0.0
  0
VERTEX
  5
97F
  8
DATA
  6
CONTINUOUS
 62
     7
 10
31.922928549804659
 20
16.25058459716794
 30
0.0
  0
VERTEX
  5
980
  8
DATA
  6
CONTINUOUS
 62
     7
 10
31.97418529296873
 20
16.046697998046849
 30
0.0
  0
VERTEX
  5
981
  8
DATA
  6
CONTINUOUS
 62
     7
 10
32.025562026367183
 20
15.846848757324191
 30
0.0
  0
VERTEX
  5
982
  8
DATA
  6
CONTINUOUS
 62
     7
 10
32.077058749999978
 20
15.65103687499999
 30
0.0
  0
VERTEX
  5
983
  8
DATA
  6
CONTINUOUS
 62
     7
 10
32.128675463867182
 20
15.45926235107421
 30
0.0
  0
VERTEX
  5
984
  8
DATA
  6
CONTINUOUS
 62
     7
 10
32.180412167968733
 20
15.27152518554686
 30
0.0
  0
VERTEX
  5
985
  8
DATA
  6
CONTINUOUS
 62
     7
 10
32.232268862304672
 20
15.087825378417961
 30
0.0
  0
VERTEX
  5
986
  8
DATA
  6
CONTINUOUS
 62
     7
 10
32.284245546874963
 20
14.90816292968749
 30
0.0
  0
VERTEX
  5
987
  8
DATA
  6
CONTINUOUS
 62
     7
 10
32.336342221679651
 20
14.732537839355439
 30
0.0
  0
VERTEX
  5
988
  8
DATA
  6
CONTINUOUS
 62
     7
 10
32.388558886718727
 20
14.56095010742186
 30
0.0
  0
VERTEX
  5
989
  8
DATA
  6
CONTINUOUS
 62
     7
 10
32.440895541992163
 20
14.393399733886691
 30
0.0
  0
VERTEX
  5
98A
  8
DATA
  6
CONTINUOUS
 62
     7
 10
32.49335218749998
 20
14.22988671874999
 30
0.0
  0
VERTEX
  5
98B
  8
DATA
  6
CONTINUOUS
 62
     7
 10
32.545928823242157
 20
14.07041106201171
 30
0.0
  0
VERTEX
  5
98C
  8
DATA
  6
CONTINUOUS
 62
     7
 10
32.59862544921873
 20
13.914972763671869
 30
0.0
  0
VERTEX
  5
98D
  8
DATA
  6
CONTINUOUS
 62
     7
 10
32.651442065429663
 20
13.763571823730469
 30
0.0
  0
VERTEX
  5
98E
  8
DATA
  6
CONTINUOUS
 62
     7
 10
32.704378671874977
 20
13.61620824218749
 30
0.0
  0
VERTEX
  5
98F
  8
DATA
  6
CONTINUOUS
 62
     7
 10
32.75743526855468
 20
13.472882019042951
 30
0.0
  0
VERTEX
  5
990
  8
DATA
  6
CONTINUOUS
 62
     7
 10
32.810611855468743
 20
13.33359315429686
 30
0.0
  0
VERTEX
  5
991
  8
DATA
  6
CONTINUOUS
 62
     7
 10
32.86390843261718
 20
13.198341647949199
 30
0.0
  0
VERTEX
  5
992
  8
DATA
  6
CONTINUOUS
 62
     7
 10
32.917324999999991
 20
13.0671275
 30
0.0
  0
VERTEX
  5
993
  8
DATA
  6
CONTINUOUS
 62
     7
 10
32.970861557617177
 20
12.93995071044921
 30
0.0
  0
VERTEX
  5
994
  8
DATA
  6
CONTINUOUS
 62
     7
 10
33.024518105468736
 20
12.81681127929687
 30
0.0
  0
VERTEX
  5
995
  8
DATA
  6
CONTINUOUS
 62
     7
 10
33.078294643554692
 20
12.69770920654296
 30
0.0
  0
VERTEX
  5
996
  8
DATA
  6
CONTINUOUS
 62
     7
 10
33.132191171874993
 20
12.5826444921875
 30
0.0
  0
VERTEX
  5
997
  8
DATA
  6
CONTINUOUS
 62
     7
 10
33.186207690429697
 20
12.47161713623046
 30
0.0
  0
VERTEX
  5
998
  8
DATA
  6
CONTINUOUS
 62
     7
 10
33.240344199218761
 20
12.36462713867188
 30
0.0
  0
VERTEX
  5
999
  8
DATA
  6
CONTINUOUS
 62
     7
 10
33.294600698242192
 20
12.26167449951172
 30
0.0
  0
VERTEX
  5
99A
  8
DATA
  6
CONTINUOUS
 62
     7
 10
33.348977187499997
 20
12.16275921874999
 30
0.0
  0
VERTEX
  5
99B
  8
DATA
  6
CONTINUOUS
 62
     7
 10
33.40347366699217
 20
12.0678812963867
 30
0.0
  0
VERTEX
  5
99C
  8
DATA
  6
CONTINUOUS
 62
     7
 10
33.458090136718738
 20
11.97704073242187
 30
0.0
  0
VERTEX
  5
99D
  8
DATA
  6
CONTINUOUS
 62
     7
 10
33.512826596679687
 20
11.890237526855451
 30
0.0
  0
VERTEX
  5
99E
  8
DATA
  6
CONTINUOUS
 62
     7
 10
33.56768304687499
 20
11.80747167968749
 30
0.0
  0
VERTEX
  5
99F
  8
DATA
  6
CONTINUOUS
 62
     7
 10
33.622659487304702
 20
11.72874319091795
 30
0.0
  0
VERTEX
  5
9A0
  8
DATA
  6
CONTINUOUS
 62
     7
 10
33.677755917968739
 20
11.65405206054686
 30
0.0
  0
VERTEX
  5
9A1
  8
DATA
  6
CONTINUOUS
 62
     7
 10
33.732972338867171
 20
11.583398288574211
 30
0.0
  0
VERTEX
  5
9A2
  8
DATA
  6
CONTINUOUS
 62
     7
 10
33.788308749999977
 20
11.516781874999991
 30
0.0
  0
VERTEX
  5
9A3
  8
DATA
  6
CONTINUOUS
 62
     7
 10
33.843765151367172
 20
11.454202819824211
 30
0.0
  0
VERTEX
  5
9A4
  8
DATA
  6
CONTINUOUS
 62
     7
 10
33.899341542968727
 20
11.39566112304686
 30
0.0
  0
VERTEX
  5
9A5
  8
DATA
  6
CONTINUOUS
 62
     7
 10
33.955037924804671
 20
11.341156784667961
 30
0.0
  0
VERTEX
  5
9A6
  8
DATA
  6
CONTINUOUS
 62
     7
 10
34.010854296874989
 20
11.290689804687471
 30
0.0
  0
VERTEX
  5
9A7
  8
DATA
  6
CONTINUOUS
 62
     7
 10
34.066790659179681
 20
11.244260183105441
 30
0.0
  0
VERTEX
  5
9A8
  8
DATA
  6
CONTINUOUS
 62
     7
 10
34.122847011718747
 20
11.201867919921879
 30
0.0
  0
VERTEX
  5
9A9
  8
DATA
  6
CONTINUOUS
 62
     7
 10
34.179023354492202
 20
11.16351301513674
 30
0.0
  0
VERTEX
  5
9AA
  8
DATA
  6
CONTINUOUS
 62
     7
 10
34.235319687500002
 20
11.12919546875
 30
0.0
  0
VERTEX
  5
9AB
  8
DATA
  6
CONTINUOUS
 62
     7
 10
34.291736010742177
 20
11.0989152807617
 30
0.0
  0
VERTEX
  5
9AC
  8
DATA
  6
CONTINUOUS
 62
     7
 10
34.34827232421874
 20
11.072672451171879
 30
0.0
  0
VERTEX
  5
9AD
  8
DATA
  6
CONTINUOUS
 62
     7
 10
34.404928627929678
 20
11.050466979980481
 30
0.0
  0
VERTEX
  5
9AE
  8
DATA
  6
CONTINUOUS
 62
     7
 10
34.461704921874983
 20
11.0322988671875
 30
0.0
  0
VERTEX
  5
9AF
  8
DATA
  6
CONTINUOUS
 62
     7
 10
34.518601206054683
 20
11.018168112792971
 30
0.0
  0
VERTEX
  5
9B0
  8
DATA
  6
CONTINUOUS
 62
     7
 10
34.575617480468743
 20
11.00807471679687
 30
0.0
  0
VERTEX
  5
9B1
  8
DATA
  6
CONTINUOUS
 62
     7
 10
34.632753745117171
 20
11.00201867919921
 30
0.0
  0
VERTEX
  5
9B2
  8
DATA
  6
CONTINUOUS
 62
     7
 10
34.690010000000001
 20
11.0
 30
0.0
  0
VERTEX
  5
9B3
  8
DATA
  6
CONTINUOUS
 62
     7
 10
34.690010000000001
 20
11.0
 30
0.0
  0
VERTEX
  5
9B4
  8
DATA
  6
CONTINUOUS
 62
     7
 10
34.709939619140613
 20
11.00024425292969
 30
0.0
  0
VERTEX
  5
9B5
  8
DATA
  6
CONTINUOUS
 62
     7
 10
34.7298547265625
 20
11.00097701171876
 30
0.0
  0
VERTEX
  5
9B6
  8
DATA
  6
CONTINUOUS
 62
     7
 10
34.749755322265621
 20
11.00219827636718
 30
0.0
  0
VERTEX
  5
9B7
  8
DATA
  6
CONTINUOUS
 62
     7
 10
34.769641406249988
 20
11.003908046874979
 30
0.0
  0
VERTEX
  5
9B8
  8
DATA
  6
CONTINUOUS
 62
     7
 10
34.789512978515617
 20
11.006106323242189
 30
0.0
  0
VERTEX
  5
9B9
  8
DATA
  6
CONTINUOUS
 62
     7
 10
34.809370039062493
 20
11.008793105468749
 30
0.0
  0
VERTEX
  5
9BA
  8
DATA
  6
CONTINUOUS
 62
     7
 10
34.829212587890609
 20
11.011968393554691
 30
0.0
  0
VERTEX
  5
9BB
  8
DATA
  6
CONTINUOUS
 62
     7
 10
34.849040624999986
 20
11.015632187499991
 30
0.0
  0
VERTEX
  5
9BC
  8
DATA
  6
CONTINUOUS
 62
     7
 10
34.868854150390618
 20
11.01978448730469
 30
0.0
  0
VERTEX
  5
9BD
  8
DATA
  6
CONTINUOUS
 62
     7
 10
34.88865316406249
 20
11.02442529296877
 30
0.0
  0
VERTEX
  5
9BE
  8
DATA
  6
CONTINUOUS
 62
     7
 10
34.908437666015608
 20
11.029554604492199
 30
0.0
  0
VERTEX
  5
9BF
  8
DATA
  6
CONTINUOUS
 62
     7
 10
34.928207656249981
 20
11.035172421875011
 30
0.0
  0
VERTEX
  5
9C0
  8
DATA
  6
CONTINUOUS
 62
     7
 10
34.947963134765601
 20
11.041278745117211
 30
0.0
  0
VERTEX
  5
9C1
  8
DATA
  6
CONTINUOUS
 62
     7
 10
34.967704101562482
 20
11.04787357421878
 30
0.0
  0
VERTEX
  5
9C2
  8
DATA
  6
CONTINUOUS
 62
     7
 10
34.987430556640611
 20
11.054956909179699
 30
0.0
  0
VERTEX
  5
9C3
  8
DATA
  6
CONTINUOUS
 62
     7
 10
35.007142499999993
 20
11.062528750000009
 30
0.0
  0
VERTEX
  5
9C4
  8
DATA
  6
CONTINUOUS
 62
     7
 10
35.026839931640623
 20
11.07058909667969
 30
0.0
  0
VERTEX
  5
9C5
  8
DATA
  6
CONTINUOUS
 62
     7
 10
35.0465228515625
 20
11.07913794921876
 30
0.0
  0
VERTEX
  5
9C6
  8
DATA
  6
CONTINUOUS
 62
     7
 10
35.066191259765617
 20
11.088175307617179
 30
0.0
  0
VERTEX
  5
9C7
  8
DATA
  6
CONTINUOUS
 62
     7
 10
35.085845156249988
 20
11.097701171875
 30
0.0
  0
VERTEX
  5
9C8
  8
DATA
  6
CONTINUOUS
 62
     7
 10
35.10548454101562
 20
11.107715541992199
 30
0.0
  0
VERTEX
  5
9C9
  8
DATA
  6
CONTINUOUS
 62
     7
 10
35.1251094140625
 20
11.118218417968761
 30
0.0
  0
VERTEX
  5
9CA
  8
DATA
  6
CONTINUOUS
 62
     7
 10
35.14471977539062
 20
11.1292097998047
 30
0.0
  0
VERTEX
  5
9CB
  8
DATA
  6
CONTINUOUS
 62
     7
 10
35.164315624999993
 20
11.140689687499981
 30
0.0
  0
VERTEX
  5
9CC
  8
DATA
  6
CONTINUOUS
 62
     7
 10
35.183896962890607
 20
11.15265808105465
 30
0.0
  0
VERTEX
  5
9CD
  8
DATA
  6
CONTINUOUS
 62
     7
 10
35.203463789062489
 20
11.16511498046872
 30
0.0
  0
VERTEX
  5
9CE
  8
DATA
  6
CONTINUOUS
 62
     7
 10
35.223016103515619
 20
11.17806038574215
 30
0.0
  0
VERTEX
  5
9CF
  8
DATA
  6
CONTINUOUS
 62
     7
 10
35.242553906249988
 20
11.191494296874961
 30
0.0
  0
VERTEX
  5
9D0
  8
DATA
  6
CONTINUOUS
 62
     7
 10
35.262077197265612
 20
11.20541671386718
 30
0.0
  0
VERTEX
  5
9D1
  8
DATA
  6
CONTINUOUS
 62
     7
 10
35.281585976562468
 20
11.219827636718749
 30
0.0
  0
VERTEX
  5
9D2
  8
DATA
  6
CONTINUOUS
 62
     7
 10
35.301080244140621
 20
11.23472706542969
 30
0.0
  0
VERTEX
  5
9D3
  8
DATA
  6
CONTINUOUS
 62
     7
 10
35.320559999999993
 20
11.25011499999999
 30
0.0
  0
VERTEX
  5
9D4
  8
DATA
  6
CONTINUOUS
 62
     7
 10
35.34002524414062
 20
11.265991440429669
 30
0.0
  0
VERTEX
  5
9D5
  8
DATA
  6
CONTINUOUS
 62
     7
 10
35.359475976562493
 20
11.28235638671873
 30
0.0
  0
VERTEX
  5
9D6
  8
DATA
  6
CONTINUOUS
 62
     7
 10
35.378912197265613
 20
11.299209838867171
 30
0.0
  0
VERTEX
  5
9D7
  8
DATA
  6
CONTINUOUS
 62
     7
 10
35.398333906249988
 20
11.31655179687499
 30
0.0
  0
VERTEX
  5
9D8
  8
DATA
  6
CONTINUOUS
 62
     7
 10
35.41774110351561
 20
11.33438226074218
 30
0.0
  0
VERTEX
  5
9D9
  8
DATA
  6
CONTINUOUS
 62
     7
 10
35.437133789062493
 20
11.35270123046876
 30
0.0
  0
VERTEX
  5
9DA
  8
DATA
  6
CONTINUOUS
 62
     7
 10
35.456511962890623
 20
11.3715087060547
 30
0.0
  0
VERTEX
  5
9DB
  8
DATA
  6
CONTINUOUS
 62
     7
 10
35.475875624999993
 20
11.390804687499999
 30
0.0
  0
VERTEX
  5
9DC
  8
DATA
  6
CONTINUOUS
 62
     7
 10
35.495224775390611
 20
11.4105891748047
 30
0.0
  0
VERTEX
  5
9DD
  8
DATA
  6
CONTINUOUS
 62
     7
 10
35.514559414062489
 20
11.43086216796876
 30
0.0
  0
VERTEX
  5
9DE
  8
DATA
  6
CONTINUOUS
 62
     7
 10
35.533879541015622
 20
11.451623666992189
 30
0.0
  0
VERTEX
  5
9DF
  8
DATA
  6
CONTINUOUS
 62
     7
 10
35.553185156249988
 20
11.472873671874989
 30
0.0
  0
VERTEX
  5
9E0
  8
DATA
  6
CONTINUOUS
 62
     7
 10
35.572476259765622
 20
11.494612182617169
 30
0.0
  0
VERTEX
  5
9E1
  8
DATA
  6
CONTINUOUS
 62
     7
 10
35.591752851562489
 20
11.51683919921873
 30
0.0
  0
VERTEX
  5
9E2
  8
DATA
  6
CONTINUOUS
 62
     7
 10
35.611014931640611
 20
11.53955472167968
 30
0.0
  0
VERTEX
  5
9E3
  8
DATA
  6
CONTINUOUS
 62
     7
 10
35.630262499999994
 20
11.56275875
 30
0.0
  0
VERTEX
  5
9E4
  8
DATA
  6
CONTINUOUS
 62
     7
 10
35.649495556640623
 20
11.5864512841797
 30
0.0
  0
VERTEX
  5
9E5
  8
DATA
  6
CONTINUOUS
 62
     7
 10
35.668714101562493
 20
11.61063232421875
 30
0.0
  0
VERTEX
  5
9E6
  8
DATA
  6
CONTINUOUS
 62
     7
 10
35.68791813476561
 20
11.63530187011718
 30
0.0
  0
VERTEX
  5
9E7
  8
DATA
  6
CONTINUOUS
 62
     7
 10
35.707107656249988
 20
11.66045992187497
 30
0.0
  0
VERTEX
  5
9E8
  8
DATA
  6
CONTINUOUS
 62
     7
 10
35.726282666015621
 20
11.686106479492169
 30
0.0
  0
VERTEX
  5
9E9
  8
DATA
  6
CONTINUOUS
 62
     7
 10
35.7454431640625
 20
11.712241542968741
 30
0.0
  0
VERTEX
  5
9EA
  8
DATA
  6
CONTINUOUS
 62
     7
 10
35.764589150390613
 20
11.73886511230466
 30
0.0
  0
VERTEX
  5
9EB
  8
DATA
  6
CONTINUOUS
 62
     7
 10
35.783720625000001
 20
11.765977187500001
 30
0.0
  0
VERTEX
  5
9EC
  8
DATA
  6
CONTINUOUS
 62
     7
 10
35.802837587890608
 20
11.793577768554711
 30
0.0
  0
VERTEX
  5
9ED
  8
DATA
  6
CONTINUOUS
 62
     7
 10
35.821940039062483
 20
11.82166685546877
 30
0.0
  0
VERTEX
  5
9EE
  8
DATA
  6
CONTINUOUS
 62
     7
 10
35.841027978515612
 20
11.85024444824222
 30
0.0
  0
VERTEX
  5
9EF
  8
DATA
  6
CONTINUOUS
 62
     7
 10
35.860101406250003
 20
11.87931054687501
 30
0.0
  0
VERTEX
  5
9F0
  8
DATA
  6
CONTINUOUS
 62
     7
 10
35.879160322265612
 20
11.908865151367189
 30
0.0
  0
VERTEX
  5
9F1
  8
DATA
  6
CONTINUOUS
 62
     7
 10
35.89820472656249
 20
11.93890826171878
 30
0.0
  0
VERTEX
  5
9F2
  8
DATA
  6
CONTINUOUS
 62
     7
 10
35.917234619140608
 20
11.969439877929689
 30
0.0
  0
VERTEX
  5
9F3
  8
DATA
  6
CONTINUOUS
 62
     7
 10
35.936249999999987
 20
12.000460000000009
 30
0.0
  0
VERTEX
  5
9F4
  8
DATA
  6
CONTINUOUS
 62
     7
 10
35.936249999999987
 20
12.000460000000009
 30
0.0
  0
SEQEND
  5
9F5
  8
DATA
  6
CONTINUOUS
 62
     7
  0
LINE
  5
433
  8
DATA
  6
CONTINUOUS
 62
     7
 10
-10.999990000000009
 20
88.700000000000003
 30
0.0
 11
-9.749990000000011
 21
98.700019999999995
 31
0.0
  0
LINE
  5
434
  8
DATA
  6
CONTINUOUS
 62
     7
 10
-5.249990000000011
 20
98.700019999999995
 30
0.0
 11
-3.999990000000011
 21
88.700000000000003
 31
0.0
  0
LINE
  5
435
  8
DATA
  6
CONTINUOUS
 62
     7
 10
-9.749990000000011
 20
98.700019999999995
 30
0.0
 11
-5.249990000000011
 21
98.700019999999995
 31
0.0
  0
LINE
  5
436
  8
DATA
  6
CONTINUOUS
 62
     7
 10
-6.2867000000000086
 20
98.700019999999995
 30
0.0
 11
-6.2867000000000086
 21
172.19999000000001
 31
0.0
  0
LINE
  5
437
  8
DATA
  6
CONTINUOUS
 62
     7
 10
-8.5867000000000058
 20
98.700019999999995
 30
0.0
 11
-8.5867000000000058
 21
172.19999000000001
 31
0.0
  0
LINE
  5
438
  8
DATA
  6
CONTINUOUS
 62
     7
 10
-9.4366800000000062
 20
172.19999000000001
 30
0.0
 11
-5.4366800000000088
 21
172.19999000000001
 31
0.0
  0
LINE
  5
439
  8
DATA
  6
CONTINUOUS
 62
     7
 10
-9.4366800000000062
 20
172.19999000000001
 30
0.0
 11
-9.4366800000000062
 21
181.69999000000001
 31
0.0
  0
LINE
  5
43A
  8
DATA
  6
CONTINUOUS
 62
     7
 10
-5.4366800000000088
 20
172.19999000000001
 30
0.0
 11
-5.4366800000000088
 21
181.69999000000001
 31
0.0
  0
ARC
  5
43B
  8
DATA
  6
CONTINUOUS
 62
     7
 10
-7.4366800000000088
 20
181.69999000000001
 30
0.0
 40
2.0
 50
0.0
 51
180.0
  0
LINE
  5
43C
  8
DATA
  6
CONTINUOUS
 62
     7
 10
90.024859999999975
 20
89.218760000000003
 30
0.0
 11
91.210009999999968
 21
98.700019999999995
 31
0.0
  0
LINE
  5
43D
  8
DATA
  6
CONTINUOUS
 62
     7
 10
95.709999999999965
 20
98.700019999999995
 30
0.0
 11
96.895160000000004
 21
89.218760000000003
 31
0.0
  0
LINE
  5
43E
  8
DATA
  6
CONTINUOUS
 62
     7
 10
91.210009999999968
 20
98.700019999999995
 30
0.0
 11
95.709999999999965
 21
98.700019999999995
 31
0.0
  0
LINE
  5
43F
  8
DATA
  6
CONTINUOUS
 62
     7
 10
94.673299999999983
 20
98.700019999999995
 30
0.0
 11
94.673299999999983
 21
172.19999000000001
 31
0.0
  0
LINE
  5
440
  8
DATA
  6
CONTINUOUS
 62
     7
 10
92.373299999999986
 20
98.700019999999995
 30
0.0
 11
92.373299999999986
 21
172.19999000000001
 31
0.0
  0
LINE
  5
441
  8
DATA
  6
CONTINUOUS
 62
     7
 10
91.523309999999981
 20
172.19999000000001
 30
0.0
 11
95.523319999999984
 21
172.19999000000001
 31
0.0
  0
LINE
  5
442
  8
DATA
  6
CONTINUOUS
 62
     7
 10
91.523309999999981
 20
172.19999000000001
 30
0.0
 11
91.523309999999981
 21
181.69999000000001
 31
0.0
  0
LINE
  5
443
  8
DATA
  6
CONTINUOUS
 62
     7
 10
95.523319999999984
 20
172.19999000000001
 30
0.0
 11
95.523319999999984
 21
181.69999000000001
 31
0.0
  0
ARC
  5
444
  8
DATA
  6
CONTINUOUS
 62
     7
 10
93.523309999999967
 20
181.69999000000001
 30
0.0
 40
2.0000100000000001
 50
0.0
 51
180.0
  0
ARC
  5
445
  8
DATA
  6
CONTINUOUS
 62
     7
 10
101.20999999999989
 20
85.698750000000004
 30
0.0
 40
2.99999938513327
 50
9.8339503604919987
 51
90.0
  0
ARC
  5
446
  8
DATA
  6
CONTINUOUS
 62
     7
 10
87.20999999999998
 20
85.698750000000004
 30
0.0
 40
3.0
 50
90.0
 51
170.166049639508
  0
LINE
  5
447
  8
DATA
  6
CONTINUOUS
 62
     7
 10
94.210009999999983
 20
88.698750000000004
 30
0.0
 11
101.20999999999989
 21
88.698750000000004
 31
0.0
  0
LINE
  5
448
  8
DATA
  6
CONTINUOUS
 62
     7
 10
86.709999999999965
 20
88.698750000000004
 30
0.0
 11
93.710009999999968
 21
88.698750000000004
 31
0.0
  0
ARC
  5
449
  8
DATA
  6
CONTINUOUS
 62
     7
 10
103.93917
 20
34.500010000000003
 30
0.0
 40
1.7708328235324751
 50
278.7973041279152
 51
81.202695872084831
  0
LINE
  5
44A
  8
DATA
  6
CONTINUOUS
 62
     7
 10
104.20999999999999
 20
32.750010000000003
 30
0.0
 11
102.70999999999999
 21
32.750010000000003
 31
0.0
  0
POLYLINE
  5
44B
  8
DATA
  6
CONTINUOUS
 62
     7
 66
     1
 10
0.0
 20
0.0
 30
0.0
 70
   128
  0
VERTEX
  5
9F6
  8
DATA
  6
CONTINUOUS
 62
     7
 10
98.208699999999993
 20
-8.9868299999999977
 30
0.0
  0
VERTEX
  5
9F7
  8
DATA
  6
CONTINUOUS
 62
     7
 10
98.208700322265585
 20
-8.9868299999999977
 30
0.0
  0
VERTEX
  5
9F8
  8
DATA
  6
CONTINUOUS
 62
     7
 10
98.208701289062503
 20
-8.9868299999999977
 30
0.0
  0
VERTEX
  5
9F9
  8
DATA
  6
CONTINUOUS
 62
     7
 10
98.208702900390605
 20
-8.9868299999999977
 30
0.0
  0
VERTEX
  5
9FA
  8
DATA
  6
CONTINUOUS
 62
     7
 10
98.208705156250005
 20
-8.9868299999999977
 30
0.0
  0
VERTEX
  5
9FB
  8
DATA
  6
CONTINUOUS
 62
     7
 10
98.208708056640589
 20
-8.9868299999999977
 30
0.0
  0
VERTEX
  5
9FC
  8
DATA
  6
CONTINUOUS
 62
     7
 10
98.208711601562484
 20
-8.9868299999999977
 30
0.0
  0
VERTEX
  5
9FD
  8
DATA
  6
CONTINUOUS
 62
     7
 10
98.208715791015592
 20
-8.9868299999999977
 30
0.0
  0
VERTEX
  5
9FE
  8
DATA
  6
CONTINUOUS
 62
     7
 10
98.208720624999984
 20
-8.9868299999999977
 30
0.0
  0
VERTEX
  5
9FF
  8
DATA
  6
CONTINUOUS
 62
     7
 10
98.208726103515588
 20
-8.9868299999999977
 30
0.0
  0
VERTEX
  5
A00
  8
DATA
  6
CONTINUOUS
 62
     7
 10
98.208732226562503
 20
-8.9868299999999977
 30
0.0
  0
VERTEX
  5
A01
  8
DATA
  6
CONTINUOUS
 62
     7
 10
98.208738994140603
 20
-8.9868299999999977
 30
0.0
  0
VERTEX
  5
A02
  8
DATA
  6
CONTINUOUS
 62
     7
 10
98.20874640625
 20
-8.9868299999999977
 30
0.0
  0
VERTEX
  5
A03
  8
DATA
  6
CONTINUOUS
 62
     7
 10
98.208754462890582
 20
-8.9868299999999977
 30
0.0
  0
VERTEX
  5
A04
  8
DATA
  6
CONTINUOUS
 62
     7
 10
98.208763164062503
 20
-8.9868299999999977
 30
0.0
  0
VERTEX
  5
A05
  8
DATA
  6
CONTINUOUS
 62
     7
 10
98.208772509765623
 20
-8.9868299999999977
 30
0.0
  0
VERTEX
  5
A06
  8
DATA
  6
CONTINUOUS
 62
     7
 10
98.208782499999984
 20
-8.9868299999999977
 30
0.0
  0
VERTEX
  5
A07
  8
DATA
  6
CONTINUOUS
 62
     7
 10
98.208793134765585
 20
-8.9868299999999977
 30
0.0
  0
VERTEX
  5
A08
  8
DATA
  6
CONTINUOUS
 62
     7
 10
98.208804414062485
 20
-8.9868299999999977
 30
0.0
  0
VERTEX
  5
A09
  8
DATA
  6
CONTINUOUS
 62
     7
 10
98.208816337890582
 20
-8.9868299999999977
 30
0.0
  0
VERTEX
  5
A0A
  8
DATA
  6
CONTINUOUS
 62
     7
 10
98.208828906250005
 20
-8.9868299999999977
 30
0.0
  0
VERTEX
  5
A0B
  8
DATA
  6
CONTINUOUS
 62
     7
 10
98.208842119140584
 20
-8.9868299999999977
 30
0.0
  0
VERTEX
  5
A0C
  8
DATA
  6
CONTINUOUS
 62
     7
 10
98.208855976562504
 20
-8.9868299999999977
 30
0.0
  0
VERTEX
  5
A0D
  8
DATA
  6
CONTINUOUS
 62
     7
 10
98.208870478515593
 20
-8.9868299999999977
 30
0.0
  0
VERTEX
  5
A0E
  8
DATA
  6
CONTINUOUS
 62
     7
 10
98.208885624999979
 20
-8.9868299999999977
 30
0.0
  0
VERTEX
  5
A0F
  8
DATA
  6
CONTINUOUS
 62
     7
 10
98.208901416015593
 20
-8.9868299999999977
 30
0.0
  0
VERTEX
  5
A10
  8
DATA
  6
CONTINUOUS
 62
     7
 10
98.208917851562504
 20
-8.9868299999999977
 30
0.0
  0
VERTEX
  5
A11
  8
DATA
  6
CONTINUOUS
 62
     7
 10
98.208934931640584
 20
-8.9868299999999977
 30
0.0
  0
VERTEX
  5
A12
  8
DATA
  6
CONTINUOUS
 62
     7
 10
98.208952656250005
 20
-8.9868299999999977
 30
0.0
  0
VERTEX
  5
A13
  8
DATA
  6
CONTINUOUS
 62
     7
 10
98.208971025390582
 20
-8.9868299999999977
 30
0.0
  0
VERTEX
  5
A14
  8
DATA
  6
CONTINUOUS
 62
     7
 10
98.208990039062485
 20
-8.9868299999999977
 30
0.0
  0
VERTEX
  5
A15
  8
DATA
  6
CONTINUOUS
 62
     7
 10
98.209009697265586
 20
-8.9868299999999977
 30
0.0
  0
VERTEX
  5
A16
  8
DATA
  6
CONTINUOUS
 62
     7
 10
98.209029999999984
 20
-8.9868299999999977
 30
0.0
  0
VERTEX
  5
A17
  8
DATA
  6
CONTINUOUS
 62
     7
 10
98.209050947265624
 20
-8.9868299999999977
 30
0.0
  0
VERTEX
  5
A18
  8
DATA
  6
CONTINUOUS
 62
     7
 10
98.209072539062475
 20
-8.9868299999999977
 30
0.0
  0
VERTEX
  5
A19
  8
DATA
  6
CONTINUOUS
 62
     7
 10
98.209094775390597
 20
-8.9868299999999977
 30
0.0
  0
VERTEX
  5
A1A
  8
DATA
  6
CONTINUOUS
 62
     7
 10
98.209117656249987
 20
-8.9868299999999977
 30
0.0
  0
VERTEX
  5
A1B
  8
DATA
  6
CONTINUOUS
 62
     7
 10
98.209141181640604
 20
-8.9868299999999977
 30
0.0
  0
VERTEX
  5
A1C
  8
DATA
  6
CONTINUOUS
 62
     7
 10
98.209165351562476
 20
-8.9868299999999977
 30
0.0
  0
VERTEX
  5
A1D
  8
DATA
  6
CONTINUOUS
 62
     7
 10
98.209190166015588
 20
-8.9868299999999977
 30
0.0
  0
VERTEX
  5
A1E
  8
DATA
  6
CONTINUOUS
 62
     7
 10
98.209215624999985
 20
-8.9868299999999977
 30
0.0
  0
VERTEX
  5
A1F
  8
DATA
  6
CONTINUOUS
 62
     7
 10
98.209241728515593
 20
-8.9868299999999977
 30
0.0
  0
VERTEX
  5
A20
  8
DATA
  6
CONTINUOUS
 62
     7
 10
98.209268476562485
 20
-8.9868299999999977
 30
0.0
  0
VERTEX
  5
A21
  8
DATA
  6
CONTINUOUS
 62
     7
 10
98.209295869140604
 20
-8.9868299999999977
 30
0.0
  0
VERTEX
  5
A22
  8
DATA
  6
CONTINUOUS
 62
     7
 10
98.209323906250006
 20
-8.9868299999999977
 30
0.0
  0
VERTEX
  5
A23
  8
DATA
  6
CONTINUOUS
 62
     7
 10
98.209352587890592
 20
-8.9868299999999977
 30
0.0
  0
VERTEX
  5
A24
  8
DATA
  6
CONTINUOUS
 62
     7
 10
98.20938191406249
 20
-8.9868299999999977
 30
0.0
  0
VERTEX
  5
A25
  8
DATA
  6
CONTINUOUS
 62
     7
 10
98.209411884765601
 20
-8.9868299999999977
 30
0.0
  0
VERTEX
  5
A26
  8
DATA
  6
CONTINUOUS
 62
     7
 10
98.20944249999998
 20
-8.9868299999999977
 30
0.0
  0
VERTEX
  5
A27
  8
DATA
  6
CONTINUOUS
 62
     7
 10
98.209473759765586
 20
-8.9868299999999977
 30
0.0
  0
VERTEX
  5
A28
  8
DATA
  6
CONTINUOUS
 62
     7
 10
98.209505664062476
 20
-8.9868299999999977
 30
0.0
  0
VERTEX
  5
A29
  8
DATA
  6
CONTINUOUS
 62
     7
 10
98.209538212890592
 20
-8.9868299999999977
 30
0.0
  0
VERTEX
  5
A2A
  8
DATA
  6
CONTINUOUS
 62
     7
 10
98.209571406250006
 20
-8.9868299999999977
 30
0.0
  0
VERTEX
  5
A2B
  8
DATA
  6
CONTINUOUS
 62
     7
 10
98.209605244140604
 20
-8.9868299999999977
 30
0.0
  0
VERTEX
  5
A2C
  8
DATA
  6
CONTINUOUS
 62
     7
 10
98.209639726562486
 20
-8.9868299999999977
 30
0.0
  0
VERTEX
  5
A2D
  8
DATA
  6
CONTINUOUS
 62
     7
 10
98.209674853515622
 20
-8.9868299999999977
 30
0.0
  0
VERTEX
  5
A2E
  8
DATA
  6
CONTINUOUS
 62
     7
 10
98.209710624999985
 20
-8.9868299999999977
 30
0.0
  0
VERTEX
  5
A2F
  8
DATA
  6
CONTINUOUS
 62
     7
 10
98.209747041015646
 20
-8.9868299999999977
 30
0.0
  0
VERTEX
  5
A30
  8
DATA
  6
CONTINUOUS
 62
     7
 10
98.209784101562477
 20
-8.9868299999999977
 30
0.0
  0
VERTEX
  5
A31
  8
DATA
  6
CONTINUOUS
 62
     7
 10
98.209821806640605
 20
-8.9868299999999977
 30
0.0
  0
VERTEX
  5
A32
  8
DATA
  6
CONTINUOUS
 62
     7
 10
98.209860156249988
 20
-8.9868299999999977
 30
0.0
  0
VERTEX
  5
A33
  8
DATA
  6
CONTINUOUS
 62
     7
 10
98.209899150390584
 20
-8.9868299999999977
 30
0.0
  0
VERTEX
  5
A34
  8
DATA
  6
CONTINUOUS
 62
     7
 10
98.209938789062477
 20
-8.9868299999999977
 30
0.0
  0
VERTEX
  5
A35
  8
DATA
  6
CONTINUOUS
 62
     7
 10
98.209979072265583
 20
-8.9868299999999977
 30
0.0
  0
VERTEX
  5
A36
  8
DATA
  6
CONTINUOUS
 62
     7
 10
98.21002
 20
-8.9868299999999977
 30
0.0
  0
VERTEX
  5
A37
  8
DATA
  6
CONTINUOUS
 62
     7
 10
98.21002
 20
-8.9868299999999977
 30
0.0
  0
VERTEX
  5
A38
  8
DATA
  6
CONTINUOUS
 62
     7
 10
98.230931218261702
 20
-8.9865033398437504
 30
0.0
  0
VERTEX
  5
A39
  8
DATA
  6
CONTINUOUS
 62
     7
 10
98.251798623046867
 20
-8.9855233593750086
 30
0.0
  0
VERTEX
  5
A3A
  8
DATA
  6
CONTINUOUS
 62
     7
 10
98.272622214355437
 20
-8.9838900585937438
 30
0.0
  0
VERTEX
  5
A3B
  8
DATA
  6
CONTINUOUS
 62
     7
 10
98.293401992187484
 20
-8.9816034374999845
 30
0.0
  0
VERTEX
  5
A3C
  8
DATA
  6
CONTINUOUS
 62
     7
 10
98.31413795654295
 20
-8.978663496093759
 30
0.0
  0
VERTEX
  5
A3D
  8
DATA
  6
CONTINUOUS
 62
     7
 10
98.334830107421851
 20
-8.9750702343750088
 30
0.0
  0
VERTEX
  5
A3E
  8
DATA
  6
CONTINUOUS
 62
     7
 10
98.3554784448242
 20
-8.9708236523437659
 30
0.0
  0
VERTEX
  5
A3F
  8
DATA
  6
CONTINUOUS
 62
     7
 10
98.376082968749984
 20
-8.9659237500000017
 30
0.0
  0
VERTEX
  5
A40
  8
DATA
  6
CONTINUOUS
 62
     7
 10
98.396643679199215
 20
-8.9603705273437413
 30
0.0
  0
VERTEX
  5
A41
  8
DATA
  6
CONTINUOUS
 62
     7
 10
98.417160576171852
 20
-8.9541639843749863
 30
0.0
  0
VERTEX
  5
A42
  8
DATA
  6
CONTINUOUS
 62
     7
 10
98.437633659667952
 20
-8.9473041210937367
 30
0.0
  0
VERTEX
  5
A43
  8
DATA
  6
CONTINUOUS
 62
     7
 10
98.458062929687486
 20
-8.9397909374999927
 30
0.0
  0
VERTEX
  5
A44
  8
DATA
  6
CONTINUOUS
 62
     7
 10
98.478448386230426
 20
-8.931624433593754
 30
0.0
  0
VERTEX
  5
A45
  8
DATA
  6
CONTINUOUS
 62
     7
 10
98.498790029296842
 20
-8.9228046093750208
 30
0.0
  0
VERTEX
  5
A46
  8
DATA
  6
CONTINUOUS
 62
     7
 10
98.519087858886706
 20
-8.9133314648437612
 30
0.0
  0
VERTEX
  5
A47
  8
DATA
  6
CONTINUOUS
 62
     7
 10
98.539341875000005
 20
-8.9032050000000122
 30
0.0
  0
VERTEX
  5
A48
  8
DATA
  6
CONTINUOUS
 62
     7
 10
98.559552077636724
 20
-8.8924252148437688
 30
0.0
  0
VERTEX
  5
A49
  8
DATA
  6
CONTINUOUS
 62
     7
 10
98.579718466796876
 20
-8.880992109375029
 30
0.0
  0
VERTEX
  5
A4A
  8
DATA
  6
CONTINUOUS
 62
     7
 10
98.599841042480449
 20
-8.8689056835937663
 30
0.0
  0
VERTEX
  5
A4B
  8
DATA
  6
CONTINUOUS
 62
     7
 10
98.619919804687484
 20
-8.856165937500009
 30
0.0
  0
VERTEX
  5
A4C
  8
DATA
  6
CONTINUOUS
 62
     7
 10
98.639954753417953
 20
-8.8427728710937572
 30
0.0
  0
VERTEX
  5
A4D
  8
DATA
  6
CONTINUOUS
 62
     7
 10
98.659945888671842
 20
-8.8287264843750108
 30
0.0
  0
VERTEX
  5
A4E
  8
DATA
  6
CONTINUOUS
 62
     7
 10
98.679893210449237
 20
-8.8140267773437717
 30
0.0
  0
VERTEX
  5
A4F
  8
DATA
  6
CONTINUOUS
 62
     7
 10
98.699796718749994
 20
-8.7986737500000061
 30
0.0
  0
VERTEX
  5
A50
  8
DATA
  6
CONTINUOUS
 62
     7
 10
98.719656413574214
 20
-8.7826674023437477
 30
0.0
  0
VERTEX
  5
A51
  8
DATA
  6
CONTINUOUS
 62
     7
 10
98.739472294921853
 20
-8.7660077343749911
 30
0.0
  0
VERTEX
  5
A52
  8
DATA
  6
CONTINUOUS
 62
     7
 10
98.759244362792955
 20
-8.7486947460937472
 30
0.0
  0
VERTEX
  5
A53
  8
DATA
  6
CONTINUOUS
 62
     7
 10
98.778972617187478
 20
-8.7307284375000052
 30
0.0
  0
VERTEX
  5
A54
  8
DATA
  6
CONTINUOUS
 62
     7
 10
98.798657058105434
 20
-8.7121088085937686
 30
0.0
  0
VERTEX
  5
A55
  8
DATA
  6
CONTINUOUS
 62
     7
 10
98.818297685546867
 20
-8.692835859375009
 30
0.0
  0
VERTEX
  5
A56
  8
DATA
  6
CONTINUOUS
 62
     7
 10
98.837894499511705
 20
-8.6729095898437532
 30
0.0
  0
VERTEX
  5
A57
  8
DATA
  6
CONTINUOUS
 62
     7
 10
98.857447500000006
 20
-8.6523300000000063
 30
0.0
  0
VERTEX
  5
A58
  8
DATA
  6
CONTINUOUS
 62
     7
 10
98.876956687011685
 20
-8.6310970898437631
 30
0.0
  0
VERTEX
  5
A59
  8
DATA
  6
CONTINUOUS
 62
     7
 10
98.89642206054684
 20
-8.6092108593750254
 30
0.0
  0
VERTEX
  5
A5A
  8
DATA
  6
CONTINUOUS
 62
     7
 10
98.915843620605429
 20
-8.5866713085937612
 30
0.0
  0
VERTEX
  5
A5B
  8
DATA
  6
CONTINUOUS
 62
     7
 10
98.935221367187495
 20
-8.5634784375000095
 30
0.0
  0
VERTEX
  5
A5C
  8
DATA
  6
CONTINUOUS
 62
     7
 10
98.954555300292952
 20
-8.5396322460937562
 30
0.0
  0
VERTEX
  5
A5D
  8
DATA
  6
CONTINUOUS
 62
     7
 10
98.973845419921858
 20
-8.5151327343750136
 30
0.0
  0
VERTEX
  5
A5E
  8
DATA
  6
CONTINUOUS
 62
     7
 10
98.993091726074198
 20
-8.4899799023437463
 30
0.0
  0
VERTEX
  5
A5F
  8
DATA
  6
CONTINUOUS
 62
     7
 10
99.012294218749986
 20
-8.4641737499999863
 30
0.0
  0
VERTEX
  5
A60
  8
DATA
  6
CONTINUOUS
 62
     7
 10
99.031452897949222
 20
-8.4377142773437317
 30
0.0
  0
VERTEX
  5
A61
  8
DATA
  6
CONTINUOUS
 62
     7
 10
99.05056776367185
 20
-8.410601484374979
 30
0.0
  0
VERTEX
  5
A62
  8
DATA
  6
CONTINUOUS
 62
     7
 10
99.069638815917955
 20
-8.3828353710937336
 30
0.0
  0
VERTEX
  5
A63
  8
DATA
  6
CONTINUOUS
 62
     7
 10
99.088666054687494
 20
-8.3544159374999651
 30
0.0
  0
VERTEX
  5
A64
  8
DATA
  6
CONTINUOUS
 62
     7
 10
99.107649479980424
 20
-8.3253431835937022
 30
0.0
  0
VERTEX
  5
A65
  8
DATA
  6
CONTINUOUS
 62
     7
 10
99.126589091796831
 20
-8.2956171093749731
 30
0.0
  0
VERTEX
  5
A66
  8
DATA
  6
CONTINUOUS
 62
     7
 10
99.1454848901367
 20
-8.2652377148437211
 30
0.0
  0
VERTEX
  5
A67
  8
DATA
  6
CONTINUOUS
 62
     7
 10
99.164336875000004
 20
-8.2342049999999745
 30
0.0
  0
VERTEX
  5
A68
  8
DATA
  6
CONTINUOUS
 62
     7
 10
99.183145046386699
 20
-8.2025189648437333
 30
0.0
  0
VERTEX
  5
A69
  8
DATA
  6
CONTINUOUS
 62
     7
 10
99.201909404296842
 20
-8.1701796093749977
 30
0.0
  0
VERTEX
  5
A6A
  8
DATA
  6
CONTINUOUS
 62
     7
 10
99.220629948730434
 20
-8.1371869335937372
 30
0.0
  0
VERTEX
  5
A6B
  8
DATA
  6
CONTINUOUS
 62
     7
 10
99.239306679687488
 20
-8.1035409374999876
 30
0.0
  0
VERTEX
  5
A6C
  8
DATA
  6
CONTINUOUS
 62
     7
 10
99.257939597167947
 20
-8.0692416210937381
 30
0.0
  0
VERTEX
  5
A6D
  8
DATA
  6
CONTINUOUS
 62
     7
 10
99.276528701171856
 20
-8.0342889843749958
 30
0.0
  0
VERTEX
  5
A6E
  8
DATA
  6
CONTINUOUS
 62
     7
 10
99.295073991699212
 20
-7.9986830273437288
 30
0.0
  0
VERTEX
  5
A6F
  8
DATA
  6
CONTINUOUS
 62
     7
 10
99.313575468749974
 20
-7.9624237499999699
 30
0.0
  0
VERTEX
  5
A70
  8
DATA
  6
CONTINUOUS
 62
     7
 10
99.332033132324199
 20
-7.9255111523437147
 30
0.0
  0
VERTEX
  5
A71
  8
DATA
  6
CONTINUOUS
 62
     7
 10
99.350446982421843
 20
-7.8879452343749659
 30
0.0
  0
VERTEX
  5
A72
  8
DATA
  6
CONTINUOUS
 62
     7
 10
99.368817019042964
 20
-7.8497259960936949
 30
0.0
  0
VERTEX
  5
A73
  8
DATA
  6
CONTINUOUS
 62
     7
 10
99.387143242187477
 20
-7.8108534374999579
 30
0.0
  0
VERTEX
  5
A74
  8
DATA
  6
CONTINUOUS
 62
     7
 10
99.405425651855424
 20
-7.7713275585937236
 30
0.0
  0
VERTEX
  5
A75
  8
DATA
  6
CONTINUOUS
 62
     7
 10
99.423664248046876
 20
-7.7311483593749699
 30
0.0
  0
VERTEX
  5
A76
  8
DATA
  6
CONTINUOUS
 62
     7
 10
99.441859030761705
 20
-7.690315839843719
 30
0.0
  0
VERTEX
  5
A77
  8
DATA
  6
CONTINUOUS
 62
     7
 10
99.460009999999983
 20
-7.6488299999999736
 30
0.0
  0
VERTEX
  5
A78
  8
DATA
  6
CONTINUOUS
 62
     7
 10
99.460009999999983
 20
-7.6488299999999736
 30
0.0
  0
VERTEX
  5
A79
  8
DATA
  6
CONTINUOUS
 62
     7
 10
99.478078886718706
 20
-7.6067796118163651
 30
0.0
  0
VERTEX
  5
A7A
  8
DATA
  6
CONTINUOUS
 62
     7
 10
99.496028046874983
 20
-7.5642509472656059
 30
0.0
  0
VERTEX
  5
A7B
  8
DATA
  6
CONTINUOUS
 62
     7
 10
99.513857480468744
 20
-7.5212440063476143
 30
0.0
  0
VERTEX
  5
A7C
  8
DATA
  6
CONTINUOUS
 62
     7
 10
99.531567187500016
 20
-7.4777587890624764
 30
0.0
  0
VERTEX
  5
A7D
  8
DATA
  6
CONTINUOUS
 62
     7
 10
99.549157167968715
 20
-7.433795295410162
 30
0.0
  0
VERTEX
  5
A7E
  8
DATA
  6
CONTINUOUS
 62
     7
 10
99.566627421874983
 20
-7.3893535253906171
 30
0.0
  0
VERTEX
  5
A7F
  8
DATA
  6
CONTINUOUS
 62
     7
 10
99.58397794921872
 20
-7.3444334790038948
 30
0.0
  0
VERTEX
  5
A80
  8
DATA
  6
CONTINUOUS
 62
     7
 10
99.601208749999984
 20
-7.2990351562499978
 30
0.0
  0
VERTEX
  5
A81
  8
DATA
  6
CONTINUOUS
 62
     7
 10
99.618319824218716
 20
-7.253158557128927
 30
0.0
  0
VERTEX
  5
A82
  8
DATA
  6
CONTINUOUS
 62
     7
 10
99.635311171875003
 20
-7.206803681640622
 30
0.0
  0
VERTEX
  5
A83
  8
DATA
  6
CONTINUOUS
 62
     7
 10
99.652182792968716
 20
-7.1599705297851406
 30
0.0
  0
VERTEX
  5
A84
  8
DATA
  6
CONTINUOUS
 62
     7
 10
99.668934687499984
 20
-7.1126591015624836
 30
0.0
  0
VERTEX
  5
A85
  8
DATA
  6
CONTINUOUS
 62
     7
 10
99.685566855468721
 20
-7.0648693969726528
 30
0.0
  0
VERTEX
  5
A86
  8
DATA
  6
CONTINUOUS
 62
     7
 10
99.702079296874984
 20
-7.0166014160156163
 30
0.0
  0
VERTEX
  5
A87
  8
DATA
  6
CONTINUOUS
 62
     7
 10
99.718472011718717
 20
-6.9678551586914059
 30
0.0
  0
VERTEX
  5
A88
  8
DATA
  6
CONTINUOUS
 62
     7
 10
99.734745000000004
 20
-6.9186306249999907
 30
0.0
  0
VERTEX
  5
A89
  8
DATA
  6
CONTINUOUS
 62
     7
 10
99.750898261718717
 20
-6.8689278149413999
 30
0.0
  0
VERTEX
  5
A8A
  8
DATA
  6
CONTINUOUS
 62
     7
 10
99.766931796874985
 20
-6.818746728515606
 30
0.0
  0
VERTEX
  5
A8B
  8
DATA
  6
CONTINUOUS
 62
     7
 10
99.782845605468708
 20
-6.7680873657226348
 30
0.0
  0
VERTEX
  5
A8C
  8
DATA
  6
CONTINUOUS
 62
     7
 10
99.798639687499985
 20
-6.7169497265624889
 30
0.0
  0
VERTEX
  5
A8D
  8
DATA
  6
CONTINUOUS
 62
     7
 10
99.814314042968718
 20
-6.6653338110351683
 30
0.0
  0
VERTEX
  5
A8E
  8
DATA
  6
CONTINUOUS
 62
     7
 10
99.829868671875005
 20
-6.6132396191406144
 30
0.0
  0
VERTEX
  5
A8F
  8
DATA
  6
CONTINUOUS
 62
     7
 10
99.845303574218718
 20
-6.5606671508788841
 30
0.0
  0
VERTEX
  5
A90
  8
DATA
  6
CONTINUOUS
 62
     7
 10
99.860618749999986
 20
-6.5076164062499791
 30
0.0
  0
VERTEX
  5
A91
  8
DATA
  6
CONTINUOUS
 62
     7
 10
99.875814199218709
 20
-6.4540873852538994
 30
0.0
  0
VERTEX
  5
A92
  8
DATA
  6
CONTINUOUS
 62
     7
 10
99.890889921874987
 20
-6.4000800878906139
 30
0.0
  0
VERTEX
  5
A93
  8
DATA
  6
CONTINUOUS
 62
     7
 10
99.905845917968705
 20
-6.3455945141601262
 30
0.0
  0
VERTEX
  5
A94
  8
DATA
  6
CONTINUOUS
 62
     7
 10
99.920682187500006
 20
-6.2906306640624621
 30
0.0
  0
VERTEX
  5
A95
  8
DATA
  6
CONTINUOUS
 62
     7
 10
99.935398730468705
 20
-6.2351885375976499
 30
0.0
  0
VERTEX
  5
A96
  8
DATA
  6
CONTINUOUS
 62
     7
 10
99.949995546874987
 20
-6.1792681347656071
 30
0.0
  0
VERTEX
  5
A97
  8
DATA
  6
CONTINUOUS
 62
     7
 10
99.964472636718725
 20
-6.122869455566387
 30
0.0
  0
VERTEX
  5
A98
  8
DATA
  6
CONTINUOUS
 62
     7
 10
99.978830000000016
 20
-6.0659924999999912
 30
0.0
  0
VERTEX
  5
A99
  8
DATA
  6
CONTINUOUS
 62
     7
 10
99.993067636718706
 20
-6.0086372680664226
 30
0.0
  0
VERTEX
  5
A9A
  8
DATA
  6
CONTINUOUS
 62
     7
 10
100.00718554687489
 20
-5.9508037597656189
 30
0.0
  0
VERTEX
  5
A9B
  8
DATA
  6
CONTINUOUS
 62
     7
 10
100.02118373046871
 20
-5.8924919750976414
 30
0.0
  0
VERTEX
  5
A9C
  8
DATA
  6
CONTINUOUS
 62
     7
 10
100.0350621875
 20
-5.8337019140624884
 30
0.0
  0
VERTEX
  5
A9D
  8
DATA
  6
CONTINUOUS
 62
     7
 10
100.0488209179687
 20
-5.7744335766601571
 30
0.0
  0
VERTEX
  5
A9E
  8
DATA
  6
CONTINUOUS
 62
     7
 10
100.062459921875
 20
-5.7146869628906236
 30
0.0
  0
VERTEX
  5
A9F
  8
DATA
  6
CONTINUOUS
 62
     7
 10
100.07597919921869
 20
-5.6544620727539154
 30
0.0
  0
VERTEX
  5
AA0
  8
DATA
  6
CONTINUOUS
 62
     7
 10
100.08937874999999
 20
-5.5937589062500006
 30
0.0
  0
VERTEX
  5
AA1
  8
DATA
  6
CONTINUOUS
 62
     7
 10
100.10265857421869
 20
-5.5325774633789129
 30
0.0
  0
VERTEX
  5
AA2
  8
DATA
  6
CONTINUOUS
 62
     7
 10
100.115818671875
 20
-5.4709177441406212
 30
0.0
  0
VERTEX
  5
AA3
  8
DATA
  6
CONTINUOUS
 62
     7
 10
100.1288590429687
 20
-5.408779748535153
 30
0.0
  0
VERTEX
  5
AA4
  8
DATA
  6
CONTINUOUS
 62
     7
 10
100.14177968750001
 20
-5.3461634765624799
 30
0.0
  0
VERTEX
  5
AA5
  8
DATA
  6
CONTINUOUS
 62
     7
 10
100.15458060546869
 20
-5.2830689282226331
 30
0.0
  0
VERTEX
  5
AA6
  8
DATA
  6
CONTINUOUS
 62
     7
 10
100.167261796875
 20
-5.2194961035156089
 30
0.0
  0
VERTEX
  5
AA7
  8
DATA
  6
CONTINUOUS
 62
     7
 10
100.1798232617187
 20
-5.15544500244141
 30
0.0
  0
VERTEX
  5
AA8
  8
DATA
  6
CONTINUOUS
 62
     7
 10
100.19226500000001
 20
-5.0909156249999787
 30
0.0
  0
VERTEX
  5
AA9
  8
DATA
  6
CONTINUOUS
 62
     7
 10
100.2045870117187
 20
-5.0259079711913719
 30
0.0
  0
VERTEX
  5
AAA
  8
DATA
  6
CONTINUOUS
 62
     7
 10
100.21678929687501
 20
-4.9604220410156179
 30
0.0
  0
VERTEX
  5
AAB
  8
DATA
  6
CONTINUOUS
 62
     7
 10
100.2288718554687
 20
-4.8944578344726324
 30
0.0
  0
VERTEX
  5
AAC
  8
DATA
  6
CONTINUOUS
 62
     7
 10
100.2408346875
 20
-4.8280153515624979
 30
0.0
  0
VERTEX
  5
AAD
  8
DATA
  6
CONTINUOUS
 62
     7
 10
100.2526777929687
 20
-4.7610945922851604
 30
0.0
  0
VERTEX
  5
AAE
  8
DATA
  6
CONTINUOUS
 62
     7
 10
100.26440117187499
 20
-4.6936955566406189
 30
0.0
  0
VERTEX
  5
AAF
  8
DATA
  6
CONTINUOUS
 62
     7
 10
100.2760048242187
 20
-4.6258182446289027
 30
0.0
  0
VERTEX
  5
AB0
  8
DATA
  6
CONTINUOUS
 62
     7
 10
100.28748874999989
 20
-4.5574626562499807
 30
0.0
  0
VERTEX
  5
AB1
  8
DATA
  6
CONTINUOUS
 62
     7
 10
100.2988529492187
 20
-4.4886287915039134
 30
0.0
  0
VERTEX
  5
AB2
  8
DATA
  6
CONTINUOUS
 62
     7
 10
100.310097421875
 20
-4.4193166503906118
 30
0.0
  0
VERTEX
  5
AB3
  8
DATA
  6
CONTINUOUS
 62
     7
 10
100.3212221679687
 20
-4.3495262329101356
 30
0.0
  0
VERTEX
  5
AB4
  8
DATA
  6
CONTINUOUS
 62
     7
 10
100.3322271875
 20
-4.2792575390624839
 30
0.0
  0
VERTEX
  5
AB5
  8
DATA
  6
CONTINUOUS
 62
     7
 10
100.3431124804687
 20
-4.2085105688476574
 30
0.0
  0
VERTEX
  5
AB6
  8
DATA
  6
CONTINUOUS
 62
     7
 10
100.353878046875
 20
-4.1372853222656252
 30
0.0
  0
VERTEX
  5
AB7
  8
DATA
  6
CONTINUOUS
 62
     7
 10
100.3645238867187
 20
-4.0655817993163907
 30
0.0
  0
VERTEX
  5
AB8
  8
DATA
  6
CONTINUOUS
 62
     7
 10
100.37505
 20
-3.993399999999979
 30
0.0
  0
VERTEX
  5
AB9
  8
DATA
  6
CONTINUOUS
 62
     7
 10
100.37505
 20
-3.993399999999979
 30
0.0
  0
VERTEX
  5
ABA
  8
DATA
  6
CONTINUOUS
 62
     7
 10
100.3854354125976
 20
-3.920892163085909
 30
0.0
  0
VERTEX
  5
ABB
  8
DATA
  6
CONTINUOUS
 62
     7
 10
100.3956572753906
 20
-3.8482092773437562
 30
0.0
  0
VERTEX
  5
ABC
  8
DATA
  6
CONTINUOUS
 62
     7
 10
100.4057155883789
 20
-3.775351342773432
 30
0.0
  0
VERTEX
  5
ABD
  8
DATA
  6
CONTINUOUS
 62
     7
 10
100.41561035156251
 20
-3.7023183593749991
 30
0.0
  0
VERTEX
  5
ABE
  8
DATA
  6
CONTINUOUS
 62
     7
 10
100.42534156494141
 20
-3.6291103271484242
 30
0.0
  0
VERTEX
  5
ABF
  8
DATA
  6
CONTINUOUS
 62
     7
 10
100.43490922851559
 20
-3.5557272460937379
 30
0.0
  0
VERTEX
  5
AC0
  8
DATA
  6
CONTINUOUS
 62
     7
 10
100.4443133422851
 20
-3.4821691162109398
 30
0.0
  0
VERTEX
  5
AC1
  8
DATA
  6
CONTINUOUS
 62
     7
 10
100.45355390624989
 20
-3.4084359375000011
 30
0.0
  0
VERTEX
  5
AC2
  8
DATA
  6
CONTINUOUS
 62
     7
 10
100.46263092041011
 20
-3.334527709960923
 30
0.0
  0
VERTEX
  5
AC3
  8
DATA
  6
CONTINUOUS
 62
     7
 10
100.47154438476559
 20
-3.260444433593761
 30
0.0
  0
VERTEX
  5
AC4
  8
DATA
  6
CONTINUOUS
 62
     7
 10
100.4802942993164
 20
-3.18618610839843
 30
0.0
  0
VERTEX
  5
AC5
  8
DATA
  6
CONTINUOUS
 62
     7
 10
100.48888066406241
 20
-3.111752734374988
 30
0.0
  0
VERTEX
  5
AC6
  8
DATA
  6
CONTINUOUS
 62
     7
 10
100.4973034790038
 20
-3.0371443115234338
 30
0.0
  0
VERTEX
  5
AC7
  8
DATA
  6
CONTINUOUS
 62
     7
 10
100.5055627441406
 20
-2.9623608398437402
 30
0.0
  0
VERTEX
  5
AC8
  8
DATA
  6
CONTINUOUS
 62
     7
 10
100.51365845947259
 20
-2.8874023193359331
 30
0.0
  0
VERTEX
  5
AC9
  8
DATA
  6
CONTINUOUS
 62
     7
 10
100.521590625
 20
-2.8122687499999861
 30
0.0
  0
VERTEX
  5
ACA
  8
DATA
  6
CONTINUOUS
 62
     7
 10
100.5293592407226
 20
-2.7369601318359278
 30
0.0
  0
VERTEX
  5
ACB
  8
DATA
  6
CONTINUOUS
 62
     7
 10
100.5369643066406
 20
-2.6614764648437301
 30
0.0
  0
VERTEX
  5
ACC
  8
DATA
  6
CONTINUOUS
 62
     7
 10
100.5444058227539
 20
-2.5858177490234202
 30
0.0
  0
VERTEX
  5
ACD
  8
DATA
  6
CONTINUOUS
 62
     7
 10
100.55168378906239
 20
-2.5099839843749678
 30
0.0
  0
VERTEX
  5
ACE
  8
DATA
  6
CONTINUOUS
 62
     7
 10
100.5587982055664
 20
-2.4339751708984059
 30
0.0
  0
VERTEX
  5
ACF
  8
DATA
  6
CONTINUOUS
 62
     7
 10
100.5657490722656
 20
-2.3577913085937321
 30
0.0
  0
VERTEX
  5
AD0
  8
DATA
  6
CONTINUOUS
 62
     7
 10
100.57253638916011
 20
-2.2814323974609181
 30
0.0
  0
VERTEX
  5
AD1
  8
DATA
  6
CONTINUOUS
 62
     7
 10
100.57916015625
 20
-2.2048984374999909
 30
0.0
  0
VERTEX
  5
AD2
  8
DATA
  6
CONTINUOUS
 62
     7
 10
100.58562037353509
 20
-2.1281894287109249
 30
0.0
  0
VERTEX
  5
AD3
  8
DATA
  6
CONTINUOUS
 62
     7
 10
100.59191704101561
 20
-2.0513053710937461
 30
0.0
  0
VERTEX
  5
AD4
  8
DATA
  6
CONTINUOUS
 62
     7
 10
100.59805015869139
 20
-1.974246264648428
 30
0.0
  0
VERTEX
  5
AD5
  8
DATA
  6
CONTINUOUS
 62
     7
 10
100.6040197265624
 20
-1.8970121093749981
 30
0.0
  0
VERTEX
  5
AD6
  8
DATA
  6
CONTINUOUS
 62
     7
 10
100.60982574462879
 20
-1.8196029052734271
 30
0.0
  0
VERTEX
  5
AD7
  8
DATA
  6
CONTINUOUS
 62
     7
 10
100.6154682128906
 20
-1.7420186523437451
 30
0.0
  0
VERTEX
  5
AD8
  8
DATA
  6
CONTINUOUS
 62
     7
 10
100.62094713134761
 20
-1.664259350585922
 30
0.0
  0
VERTEX
  5
AD9
  8
DATA
  6
CONTINUOUS
 62
     7
 10
100.6262624999999
 20
-1.5863249999999871
 30
0.0
  0
VERTEX
  5
ADA
  8
DATA
  6
CONTINUOUS
 62
     7
 10
100.6314143188476
 20
-1.5082156005859411
 30
0.0
  0
VERTEX
  5
ADB
  8
DATA
  6
CONTINUOUS
 62
     7
 10
100.6364025878906
 20
-1.429931152343755
 30
0.0
  0
VERTEX
  5
ADC
  8
DATA
  6
CONTINUOUS
 62
     7
 10
100.6412273071288
 20
-1.3514716552734281
 30
0.0
  0
VERTEX
  5
ADD
  8
DATA
  6
CONTINUOUS
 62
     7
 10
100.6458884765625
 20
-1.2728371093750179
 30
0.0
  0
VERTEX
  5
ADE
  8
DATA
  6
CONTINUOUS
 62
     7
 10
100.6503860961914
 20
-1.1940275146484389
 30
0.0
  0
VERTEX
  5
ADF
  8
DATA
  6
CONTINUOUS
 62
     7
 10
100.65472016601559
 20
-1.1150428710937479
 30
0.0
  0
VERTEX
  5
AE0
  8
DATA
  6
CONTINUOUS
 62
     7
 10
100.65889068603509
 20
-1.0358831787109459
 30
0.0
  0
VERTEX
  5
AE1
  8
DATA
  6
CONTINUOUS
 62
     7
 10
100.66289765625
 20
-0.9565484375000041
 30
0.0
  0
VERTEX
  5
AE2
  8
DATA
  6
CONTINUOUS
 62
     7
 10
100.6667410766601
 20
-0.8770386474609495
 30
0.0
  0
VERTEX
  5
AE3
  8
DATA
  6
CONTINUOUS
 62
     7
 10
100.6704209472656
 20
-0.7973538085937549
 30
0.0
  0
VERTEX
  5
AE4
  8
DATA
  6
CONTINUOUS
 62
     7
 10
100.6739372680664
 20
-0.7174939208984484
 30
0.0
  0
VERTEX
  5
AE5
  8
DATA
  6
CONTINUOUS
 62
     7
 10
100.6772900390625
 20
-0.6374589843750301
 30
0.0
  0
VERTEX
  5
AE6
  8
DATA
  6
CONTINUOUS
 62
     7
 10
100.6804792602538
 20
-0.5572489990234431
 30
0.0
  0
VERTEX
  5
AE7
  8
DATA
  6
CONTINUOUS
 62
     7
 10
100.6835049316405
 20
-0.4768639648437727
 30
0.0
  0
VERTEX
  5
AE8
  8
DATA
  6
CONTINUOUS
 62
     7
 10
100.6863670532226
 20
-0.3963038818359621
 30
0.0
  0
VERTEX
  5
AE9
  8
DATA
  6
CONTINUOUS
 62
     7
 10
100.689065625
 20
-0.3155687500000113
 30
0.0
  0
VERTEX
  5
AEA
  8
DATA
  6
CONTINUOUS
 62
     7
 10
100.6916006469726
 20
-0.2346585693359486
 30
0.0
  0
VERTEX
  5
AEB
  8
DATA
  6
CONTINUOUS
 62
     7
 10
100.6939721191405
 20
-0.1535733398437458
 30
0.0
  0
VERTEX
  5
AEC
  8
DATA
  6
CONTINUOUS
 62
     7
 10
100.69618004150379
 20
-0.0723130615234311
 30
0.0
  0
VERTEX
  5
AED
  8
DATA
  6
CONTINUOUS
 62
     7
 10
100.69822441406249
 20
0.0091222656249954
 30
0.0
  0
VERTEX
  5
AEE
  8
DATA
  6
CONTINUOUS
 62
     7
 10
100.7001052368164
 20
0.0907326416015621
 30
0.0
  0
VERTEX
  5
AEF
  8
DATA
  6
CONTINUOUS
 62
     7
 10
100.70182250976561
 20
0.1725180664062407
 30
0.0
  0
VERTEX
  5
AF0
  8
DATA
  6
CONTINUOUS
 62
     7
 10
100.7033762329101
 20
0.2544785400390595
 30
0.0
  0
VERTEX
  5
AF1
  8
DATA
  6
CONTINUOUS
 62
     7
 10
100.70476640625
 20
0.33661406249999
 30
0.0
  0
VERTEX
  5
AF2
  8
DATA
  6
CONTINUOUS
 62
     7
 10
100.70599302978511
 20
0.4189246337890324
 30
0.0
  0
VERTEX
  5
AF3
  8
DATA
  6
CONTINUOUS
 62
     7
 10
100.7070561035156
 20
0.5014102539062435
 30
0.0
  0
VERTEX
  5
AF4
  8
DATA
  6
CONTINUOUS
 62
     7
 10
100.70795562744139
 20
0.5840709228515664
 30
0.0
  0
VERTEX
  5
AF5
  8
DATA
  6
CONTINUOUS
 62
     7
 10
100.70869160156251
 20
0.6669066406250011
 30
0.0
  0
VERTEX
  5
AF6
  8
DATA
  6
CONTINUOUS
 62
     7
 10
100.7092640258788
 20
0.749917407226576
 30
0.0
  0
VERTEX
  5
AF7
  8
DATA
  6
CONTINUOUS
 62
     7
 10
100.7096729003906
 20
0.8331032226562342
 30
0.0
  0
VERTEX
  5
AF8
  8
DATA
  6
CONTINUOUS
 62
     7
 10
100.7099182250976
 20
0.9164640869140612
 30
0.0
  0
VERTEX
  5
AF9
  8
DATA
  6
CONTINUOUS
 62
     7
 10
100.70999999999999
 20
1.0
 30
0.0
  0
VERTEX
  5
AFA
  8
DATA
  6
CONTINUOUS
 62
     7
 10
100.70999999999999
 20
1.0
 30
0.0
  0
SEQEND
  5
AFB
  8
DATA
  6
CONTINUOUS
 62
     7
  0
LINE
  5
552
  8
DATA
  6
CONTINUOUS
 62
     7
 10
104.20999999999999
 20
36.25001000000001
 30
0.0
 11
102.70999999999999
 21
36.25001000000001
 31
0.0
  0
LINE
  5
553
  8
DATA
  6
CONTINUOUS
 62
     7
 10
104.20999999999999
 20
32.750010000000003
 30
0.0
 11
104.20999999999999
 21
1.0
 31
0.0
  0
LINE
  5
554
  8
DATA
  6
CONTINUOUS
 62
     7
 10
104.20999999999999
 20
32.750010000000003
 30
0.0
 11
104.20999999999999
 21
0.5
 31
0.0
  0
LINE
  5
555
  8
DATA
  6
CONTINUOUS
 62
     7
 10
-0.6549900000000122
 20
-35.789999999999992
 30
0.0
 11
-5.9724500000000091
 21
-38.711849999999998
 31
0.0
  0
ARC
  5
556
  8
DATA
  6
CONTINUOUS
 62
     7
 10
12.357739999999991
 20
-49.097050000000003
 30
0.0
 40
22.016413220949492
 50
159.34213661756311
 51
181.04867426122499
  0
ARC
  5
557
  8
DATA
  6
CONTINUOUS
 62
     7
 10
-3.5645900000000088
 20
-43.093899999999991
 30
0.0
 40
5.0000151981868939
 50
118.7880265363415
 51
159.34186334696079
  0
LINE
  5
558
  8
DATA
  6
CONTINUOUS
 62
     7
 10
25.345009999999991
 20
-35.789999999999992
 30
0.0
 11
30.662469999999988
 21
-38.711849999999998
 31
0.0
  0
ARC
  5
559
  8
DATA
  6
CONTINUOUS
 62
     7
 10
12.332259999999989
 20
-49.097050000000003
 30
0.0
 40
22.01642757013952
 50
358.95132621506281
 51
20.657845020519972
  0
ARC
  5
55A
  8
DATA
  6
CONTINUOUS
 62
     7
 10
28.254609999999989
 20
-43.093899999999991
 30
0.0
 40
4.9999975422593961
 50
20.658069856350551
 51
61.212073892332832
  0
LINE
  5
55B
  8
DATA
  6
CONTINUOUS
 62
     7
 10
-19.999980000000011
 20
-57.99998999999999
 30
0.0
 11
-19.999980000000011
 21
-40.199999999999982
 31
0.0
  0
LINE
  5
55C
  8
DATA
  6
CONTINUOUS
 62
     7
 10
44.690019999999983
 20
-57.99998999999999
 30
0.0
 11
44.690019999999983
 21
-40.199999999999982
 31
0.0
  0
LINE
  5
55D
  8
DATA
  6
CONTINUOUS
 62
     7
 10
-17.101700000000012
 20
-37.201720000000002
 30
0.0
 11
-2.3111500000000111
 21
-36.700029999999998
 31
0.0
  0
ARC
  5
55E
  8
DATA
  6
CONTINUOUS
 62
     7
 10
-16.999990000000011
 20
-40.199999999999982
 30
0.0
 40
3.0000046470797281
 50
91.942887226643407
 51
180.0
  0
LINE
  5
55F
  8
DATA
  6
CONTINUOUS
 62
     7
 10
-9.6549800000000072
 20
-49.499989999999997
 30
0.0
 11
-9.6549800000000072
 21
-57.49998999999999
 31
0.0
  0
LINE
  5
560
  8
DATA
  6
CONTINUOUS
 62
     7
 10
34.344999999999978
 20
-49.499989999999997
 30
0.0
 11
34.344999999999978
 21
-57.49998999999999
 31
0.0
  0
LINE
  5
561
  8
DATA
  6
CONTINUOUS
 62
     7
 10
34.344999999999978
 20
-57.49998999999999
 30
0.0
 11
-9.6549800000000072
 21
-57.49998999999999
 31
0.0
  0
LINE
  5
562
  8
DATA
  6
CONTINUOUS
 62
     7
 10
-9.6549800000000072
 20
-49.99998999999999
 30
0.0
 11
-19.999980000000011
 21
-49.99998999999999
 31
0.0
  0
LINE
  5
563
  8
DATA
  6
CONTINUOUS
 62
     7
 10
44.690019999999983
 20
-49.99998999999999
 30
0.0
 11
34.344999999999978
 21
-49.99998999999999
 31
0.0
  0
LINE
  5
564
  8
DATA
  6
CONTINUOUS
 62
     7
 10
-9.6549800000000072
 20
-49.499989999999997
 30
0.0
 11
-19.999980000000011
 21
-49.499989999999997
 31
0.0
  0
LINE
  5
565
  8
DATA
  6
CONTINUOUS
 62
     7
 10
44.690019999999983
 20
-49.499989999999997
 30
0.0
 11
34.344999999999978
 21
-49.499989999999997
 31
0.0
  0
LINE
  5
566
  8
DATA
  6
CONTINUOUS
 62
     7
 10
39.69001999999999
 20
-61.499980000000001
 30
0.0
 11
39.69001999999999
 21
-59.999980000000001
 31
0.0
  0
LINE
  5
567
  8
DATA
  6
CONTINUOUS
 62
     7
 10
39.69001999999999
 20
-61.499980000000001
 30
0.0
 11
34.190010000000001
 21
-61.499980000000001
 31
0.0
  0
ARC
  5
568
  8
DATA
  6
CONTINUOUS
 62
     7
 10
34.190010000000001
 20
-59.999980000000001
 30
0.0
 40
1.5
 50
180.0
 51
270.0
  0
LINE
  5
569
  8
DATA
  6
CONTINUOUS
 62
     7
 10
97.710009999999983
 20
66.600020000000001
 30
0.0
 11
97.710009999999983
 21
36.600000000000009
 31
0.0
  0
LINE
  5
56A
  8
DATA
  6
CONTINUOUS
 62
     7
 10
99.510009999999966
 20
66.600020000000001
 30
0.0
 11
99.510009999999966
 21
36.600000000000009
 31
0.0
  0
LINE
  5
56B
  8
DATA
  6
CONTINUOUS
 62
     7
 10
103.93917
 20
35.400000000000013
 30
0.0
 11
100.70999999999999
 21
35.400000000000013
 31
0.0
  0
LINE
  5
56C
  8
DATA
  6
CONTINUOUS
 62
     7
 10
103.93917
 20
33.600000000000009
 30
0.0
 11
100.70999999999999
 21
33.600000000000009
 31
0.0
  0
ARC
  5
56D
  8
DATA
  6
CONTINUOUS
 62
     7
 10
100.70999999999999
 20
36.600000000000009
 30
0.0
 40
2.9999899999999999
 50
180.0
 51
270.0
  0
ARC
  5
56E
  8
DATA
  6
CONTINUOUS
 62
     7
 10
100.70999999999999
 20
36.600000000000009
 30
0.0
 40
1.199989999999999
 50
180.0
 51
270.0
  0
ARC
  5
56F
  8
DATA
  6
CONTINUOUS
 62
     7
 10
103.93917
 20
34.500010000000003
 30
0.0
 40
0.9000099999999947
 50
270.0
 51
90.0
  0
LINE
  5
570
  8
DATA
  6
CONTINUOUS
 62
     7
 10
103.01000000000001
 20
69.600020000000001
 30
0.0
 11
100.70999999999999
 21
69.600020000000001
 31
0.0
  0
LINE
  5
571
  8
DATA
  6
CONTINUOUS
 62
     7
 10
103.01000000000001
 20
67.80001
 30
0.0
 11
100.70999999999999
 21
67.80001
 31
0.0
  0
ARC
  5
572
  8
DATA
  6
CONTINUOUS
 62
     7
 10
100.70999999999999
 20
66.600020000000001
 30
0.0
 40
1.199989999999999
 50
90.0
 51
180.0
  0
ARC
  5
573
  8
DATA
  6
CONTINUOUS
 62
     7
 10
100.70999999999999
 20
66.600020000000001
 30
0.0
 40
3.0
 50
90.0
 51
180.0
  0
LINE
  5
574
  8
DATA
  6
CONTINUOUS
 62
     7
 10
100.70999999999999
 20
33.600000000000009
 30
0.0
 11
100.70999999999999
 21
1.0
 31
0.0
  0
LINE
  5
575
  8
DATA
  6
CONTINUOUS
 62
     7
 10
102.70999999999999
 20
33.600000000000009
 30
0.0
 11
102.70999999999999
 21
32.750010000000003
 31
0.0
  0
LINE
  5
576
  8
DATA
  6
CONTINUOUS
 62
     7
 10
102.70999999999999
 20
36.25001000000001
 30
0.0
 11
102.70999999999999
 21
35.400000000000013
 31
0.0
  0
LINE
  5
577
  8
DATA
  6
CONTINUOUS
 62
     7
 10
100.70999999999999
 20
67.80001
 30
0.0
 11
100.70999999999999
 21
35.400000000000013
 31
0.0
  0
LINE
  5
578
  8
DATA
  6
CONTINUOUS
 62
     7
 10
100.70999999999999
 20
88.698750000000004
 30
0.0
 11
100.70999999999999
 21
69.600020000000001
 31
0.0
  0
LINE
  5
579
  8
DATA
  6
CONTINUOUS
 62
     7
 10
106.01000000000001
 20
66.600020000000001
 30
0.0
 11
106.01000000000001
 21
13.785470000000011
 31
0.0
  0
ARC
  5
57A
  8
DATA
  6
CONTINUOUS
 62
     7
 10
103.01000000000001
 20
66.600020000000001
 30
0.0
 40
3.0
 50
0.0
 51
90.0
  0
ARC
  5
57B
  8
DATA
  6
CONTINUOUS
 62
     7
 10
103.01000000000001
 20
66.600020000000001
 30
0.0
 40
1.2
 50
0.0
 51
90.0
  0
LINE
  5
57C
  8
DATA
  6
CONTINUOUS
 62
     7
 10
104.20999999999999
 20
66.600020000000001
 30
0.0
 11
104.20999999999999
 21
36.25001000000001
 31
0.0
  0
LINE
  5
57D
  8
DATA
  6
CONTINUOUS
 62
     7
 10
104.20999999999999
 20
86.226910000000004
 30
0.0
 11
104.20999999999999
 21
69.34957
 31
0.0
  0
LINE
  5
57E
  8
DATA
  6
CONTINUOUS
 62
     7
 10
109.67358
 20
6.8636200000000249
 30
0.0
 11
105.2449
 21
10.7029
 31
0.0
  0
LINE
  5
57F
  8
DATA
  6
CONTINUOUS
 62
     7
 10
110.94638999999989
 20
8.1364000000000072
 30
0.0
 11
107.04489
 21
11.518649999999999
 31
0.0
  0
ARC
  5
580
  8
DATA
  6
CONTINUOUS
 62
     7
 10
110.30998
 20
7.5
 30
0.0
 40
0.8999913690697079
 50
224.9990996750486
 51
45.000000000000632
  0
LINE
  5
581
  8
DATA
  6
CONTINUOUS
 62
     7
 10
-6.5550000000000059
 20
-66.999979999999994
 30
0.0
 11
31.24499999999999
 21
-66.999979999999994
 31
0.0
  0
ARC
  5
582
  8
DATA
  6
CONTINUOUS
 62
     7
 10
109.01000000000001
 20
13.785439999999999
 30
0.0
 40
3.00000000015
 50
179.9994270422047
 51
229.0772843543578
  0
ARC
  5
583
  8
DATA
  6
CONTINUOUS
 62
     7
 10
107.20999
 20
12.96970000000001
 30
0.0
 40
2.999989999999999
 50
180.0
 51
229.07796748622789
  0
LINE
  5
584
  8
DATA
  6
CONTINUOUS
 62
     7
 10
-7.5746100000000069
 20
-62.504820000000002
 30
0.0
 11
-8.0344200000000114
 21
-65.252399999999994
 31
0.0
  0
ARC
  5
585
  8
DATA
  6
CONTINUOUS
 62
     7
 10
-6.5550000000000059
 20
-65.499979999999994
 30
0.0
 40
1.4999931309176091
 50
170.4996233676703
 51
270.0
  0
LINE
  5
586
  8
DATA
  6
CONTINUOUS
 62
     7
 10
29.47501999999999
 20
-65.199999999999989
 30
0.0
 11
-4.7850000000000099
 21
-65.199999999999989
 31
0.0
  0
LINE
  5
587
  8
DATA
  6
CONTINUOUS
 62
     7
 10
149.99998999999991
 20
36.600000000000009
 30
0.0
 11
149.99998999999991
 21
66.600020000000001
 31
0.0
  0
LINE
  5
588
  8
DATA
  6
CONTINUOUS
 62
     7
 10
149.99998999999991
 20
-7.0
 30
0.0
 11
149.99998999999991
 21
33.850450000000009
 31
0.0
  0
LINE
  5
589
  8
DATA
  6
CONTINUOUS
 62
     7
 10
152.99998999999991
 20
-10.0
 30
0.0
 11
211.68998999999999
 21
-10.0
 31
0.0
  0
LINE
  5
58A
  8
DATA
  6
CONTINUOUS
 62
     7
 10
214.68998999999999
 20
33.850450000000009
 30
0.0
 11
214.68998999999999
 21
-7.0
 31
0.0
  0
LINE
  5
58B
  8
DATA
  6
CONTINUOUS
 62
     7
 10
214.68998999999999
 20
85.700000000000003
 30
0.0
 11
214.68998999999999
 21
69.34957
 31
0.0
  0
LINE
  5
58C
  8
DATA
  6
CONTINUOUS
 62
     7
 10
152.99998999999991
 20
88.700000000000003
 30
0.0
 11
170.6164
 21
88.700000000000003
 31
0.0
  0
LINE
  5
58D
  8
DATA
  6
CONTINUOUS
 62
     7
 10
194.07359
 20
88.700000000000003
 30
0.0
 11
211.68998999999999
 21
88.700000000000003
 31
0.0
  0
LINE
  5
58E
  8
DATA
  6
CONTINUOUS
 62
     7
 10
184.595
 20
89.718759999999989
 30
0.0
 11
186.095
 21
89.718759999999989
 31
0.0
  0
LINE
  5
58F
  8
DATA
  6
CONTINUOUS
 62
     7
 10
186.095
 20
89.218760000000003
 30
0.0
 11
186.095
 21
89.718759999999989
 31
0.0
  0
LINE
  5
590
  8
DATA
  6
CONTINUOUS
 62
     7
 10
184.595
 20
89.218760000000003
 30
0.0
 11
184.595
 21
89.718759999999989
 31
0.0
  0
LINE
  5
591
  8
DATA
  6
CONTINUOUS
 62
     7
 10
170.59499999999991
 20
89.218760000000003
 30
0.0
 11
194.09499
 21
89.218760000000003
 31
0.0
  0
ARC
  5
592
  8
DATA
  6
CONTINUOUS
 62
     7
 10
152.99998999999991
 20
-7.0
 30
0.0
 40
3.0
 50
180.0
 51
270.0
  0
ARC
  5
593
  8
DATA
  6
CONTINUOUS
 62
     7
 10
211.68998999999999
 20
-7.0
 30
0.0
 40
3.0
 50
270.0
 51
0.0
  0
ARC
  5
594
  8
DATA
  6
CONTINUOUS
 62
     7
 10
152.99998999999991
 20
85.700000000000003
 30
0.0
 40
3.0
 50
90.0
 51
180.0
  0
ARC
  5
595
  8
DATA
  6
CONTINUOUS
 62
     7
 10
211.68998999999999
 20
85.700000000000003
 30
0.0
 40
3.0
 50
0.0
 51
90.0
  0
LINE
  5
596
  8
DATA
  6
CONTINUOUS
 62
     7
 10
166.84499999999991
 20
88.700000000000003
 30
0.0
 11
197.84499
 21
88.700000000000003
 31
0.0
  0
ARC
  5
597
  8
DATA
  6
CONTINUOUS
 62
     7
 10
-174.46983
 20
74.72757
 30
0.0
 40
345.36897375704342
 50
2.3186211682812981
 51
2.404755254979162
  0
ARC
  5
598
  8
DATA
  6
CONTINUOUS
 62
     7
 10
539.15983999999992
 20
74.72757
 30
0.0
 40
345.36899874357368
 50
177.59524495384531
 51
177.68137571783831
  0
LINE
  5
599
  8
DATA
  6
CONTINUOUS
 62
     7
 10
158.99999
 20
88.700000000000003
 30
0.0
 11
160.24998999999991
 21
98.700019999999995
 31
0.0
  0
LINE
  5
59A
  8
DATA
  6
CONTINUOUS
 62
     7
 10
164.75
 20
98.700019999999995
 30
0.0
 11
166.0
 21
88.700000000000003
 31
0.0
  0
LINE
  5
59B
  8
DATA
  6
CONTINUOUS
 62
     7
 10
160.24998999999991
 20
98.700019999999995
 30
0.0
 11
164.75
 21
98.700019999999995
 31
0.0
  0
LINE
  5
59C
  8
DATA
  6
CONTINUOUS
 62
     7
 10
163.71329999999989
 20
98.700019999999995
 30
0.0
 11
163.71329999999989
 21
172.19999000000001
 31
0.0
  0
LINE
  5
59D
  8
DATA
  6
CONTINUOUS
 62
     7
 10
161.41328999999999
 20
98.700019999999995
 30
0.0
 11
161.41328999999999
 21
172.19999000000001
 31
0.0
  0
LINE
  5
59E
  8
DATA
  6
CONTINUOUS
 62
     7
 10
160.56329999999991
 20
172.19999000000001
 30
0.0
 11
164.56329999999991
 21
172.19999000000001
 31
0.0
  0
LINE
  5
59F
  8
DATA
  6
CONTINUOUS
 62
     7
 10
160.56329999999991
 20
172.19999000000001
 30
0.0
 11
160.56329999999991
 21
181.69999000000001
 31
0.0
  0
LINE
  5
5A0
  8
DATA
  6
CONTINUOUS
 62
     7
 10
164.56329999999991
 20
172.19999000000001
 30
0.0
 11
164.56329999999991
 21
181.69999000000001
 31
0.0
  0
ARC
  5
5A1
  8
DATA
  6
CONTINUOUS
 62
     7
 10
162.56327999999991
 20
181.69999000000001
 30
0.0
 40
2.0000200000000059
 50
0.0
 51
180.0
  0
LINE
  5
5A2
  8
DATA
  6
CONTINUOUS
 62
     7
 10
154.99998999999991
 20
32.750010000000003
 30
0.0
 11
154.99998999999991
 21
36.25001000000001
 31
0.0
  0
LINE
  5
5A3
  8
DATA
  6
CONTINUOUS
 62
     7
 10
160.24998999999991
 20
32.750010000000003
 30
0.0
 11
154.99998999999991
 21
32.750010000000003
 31
0.0
  0
LINE
  5
5A4
  8
DATA
  6
CONTINUOUS
 62
     7
 10
154.99998999999991
 20
36.25001000000001
 30
0.0
 11
160.24998999999991
 21
36.25001000000001
 31
0.0
  0
ARC
  5
5A5
  8
DATA
  6
CONTINUOUS
 62
     7
 10
160.24998999999991
 20
34.500010000000003
 30
0.0
 40
1.75
 50
270.0
 51
90.0
  0
LINE
  5
5A6
  8
DATA
  6
CONTINUOUS
 62
     7
 10
209.68998999999999
 20
32.750010000000003
 30
0.0
 11
209.68998999999999
 21
36.25001000000001
 31
0.0
  0
LINE
  5
5A7
  8
DATA
  6
CONTINUOUS
 62
     7
 10
204.44
 20
32.750010000000003
 30
0.0
 11
209.68998999999999
 21
32.750010000000003
 31
0.0
  0
LINE
  5
5A8
  8
DATA
  6
CONTINUOUS
 62
     7
 10
209.68998999999999
 20
36.25001000000001
 30
0.0
 11
204.44
 21
36.25001000000001
 31
0.0
  0
ARC
  5
5A9
  8
DATA
  6
CONTINUOUS
 62
     7
 10
204.44
 20
34.500010000000003
 30
0.0
 40
1.75
 50
90.0
 51
270.0
  0
LINE
  5
5AA
  8
DATA
  6
CONTINUOUS
 62
     7
 10
151.19999999999999
 20
35.400000000000013
 30
0.0
 11
154.99998999999991
 21
35.400000000000013
 31
0.0
  0
LINE
  5
5AB
  8
DATA
  6
CONTINUOUS
 62
     7
 10
151.19999999999999
 20
33.600000000000009
 30
0.0
 11
154.99998999999991
 21
33.600000000000009
 31
0.0
  0
LINE
  5
5AC
  8
DATA
  6
CONTINUOUS
 62
     7
 10
148.19999999999999
 20
36.600000000000009
 30
0.0
 11
148.19999999999999
 21
66.600020000000001
 31
0.0
  0
LINE
  5
5AD
  8
DATA
  6
CONTINUOUS
 62
     7
 10
151.19999999999999
 20
69.600020000000001
 30
0.0
 11
161.69999999999999
 21
69.600020000000001
 31
0.0
  0
ARC
  5
5AE
  8
DATA
  6
CONTINUOUS
 62
     7
 10
151.19999999999999
 20
36.600000000000009
 30
0.0
 40
3.0
 50
180.0
 51
270.0
  0
ARC
  5
5AF
  8
DATA
  6
CONTINUOUS
 62
     7
 10
151.19999999999999
 20
36.600000000000009
 30
0.0
 40
1.200009999999998
 50
180.0
 51
270.0
  0
LINE
  5
5B0
  8
DATA
  6
CONTINUOUS
 62
     7
 10
151.19999999999999
 20
67.80001
 30
0.0
 11
161.69999999999999
 21
67.80001
 31
0.0
  0
ARC
  5
5B1
  8
DATA
  6
CONTINUOUS
 62
     7
 10
151.19999999999999
 20
66.600020000000001
 30
0.0
 40
1.199989999999999
 50
90.0
 51
180.0
  0
LINE
  5
5B2
  8
DATA
  6
CONTINUOUS
 62
     7
 10
149.99998999999991
 20
69.34957
 30
0.0
 11
149.99998999999991
 21
85.700000000000003
 31
0.0
  0
ARC
  5
5B3
  8
DATA
  6
CONTINUOUS
 62
     7
 10
151.19999999999999
 20
66.600020000000001
 30
0.0
 40
3.0
 50
90.0
 51
180.0
  0
LINE
  5
5B4
  8
DATA
  6
CONTINUOUS
 62
     7
 10
167.58873
 20
35.695760000000007
 30
0.0
 11
164.68709999999999
 21
66.877960000000002
 31
0.0
  0
ARC
  5
5B5
  8
DATA
  6
CONTINUOUS
 62
     7
 10
161.69999999999999
 20
66.600020000000001
 30
0.0
 40
3.0000028422653249
 50
5.3158812455907203
 51
89.999999999999986
  0
LINE
  5
5B6
  8
DATA
  6
CONTINUOUS
 62
     7
 10
165.78944999999999
 20
35.604300000000009
 30
0.0
 11
162.8948199999999
 21
66.711190000000002
 31
0.0
  0
ARC
  5
5B7
  8
DATA
  6
CONTINUOUS
 62
     7
 10
161.69999999999999
 20
66.600020000000001
 30
0.0
 40
1.199980667052599
 50
5.3156844666183991
 51
90.0
  0
LINE
  5
5B8
  8
DATA
  6
CONTINUOUS
 62
     7
 10
164.96395999999999
 20
6.6000099999999966
 30
0.0
 11
199.72604000000001
 21
6.6000099999999966
 31
0.0
  0
LINE
  5
5B9
  8
DATA
  6
CONTINUOUS
 62
     7
 10
164.96395999999999
 20
8.3999900000000007
 30
0.0
 11
199.72604000000001
 21
8.3999900000000007
 31
0.0
  0
LINE
  5
5BA
  8
DATA
  6
CONTINUOUS
 62
     7
 10
165.71776
 20
33.404739999999997
 30
0.0
 11
162.00130999999999
 21
10.071899999999999
 31
0.0
  0
LINE
  5
5BB
  8
DATA
  6
CONTINUOUS
 62
     7
 10
167.50725
 20
33.196250000000013
 30
0.0
 11
163.77888999999999
 21
9.7887699999999995
 31
0.0
  0
ARC
  5
5BC
  8
DATA
  6
CONTINUOUS
 62
     7
 10
164.96395999999999
 20
9.6000099999999975
 30
0.0
 40
2.9999958657638222
 50
170.949967661172
 51
270.0
  0
ARC
  5
5BD
  8
DATA
  6
CONTINUOUS
 62
     7
 10
157.6317499999999
 20
34.769219999999997
 30
0.0
 40
9.9999867435362155
 50
350.94994880030532
 51
5.3163778910267183
  0
ARC
  5
5BE
  8
DATA
  6
CONTINUOUS
 62
     7
 10
157.02731999999989
 20
34.788930000000008
 30
0.0
 40
8.7999846221286138
 50
350.95010054460693
 51
5.3164784802020222
  0
ARC
  5
5BF
  8
DATA
  6
CONTINUOUS
 62
     7
 10
164.96395999999999
 20
9.6000099999999975
 30
0.0
 40
1.2000088510090281
 50
170.94985415732191
 51
270.0
  0
LINE
  5
5C0
  8
DATA
  6
CONTINUOUS
 62
     7
 10
214.68998999999999
 20
36.600000000000009
 30
0.0
 11
214.68998999999999
 21
66.600020000000001
 31
0.0
  0
LINE
  5
5C1
  8
DATA
  6
CONTINUOUS
 62
     7
 10
209.68998999999999
 20
32.750010000000003
 30
0.0
 11
209.68998999999999
 21
36.25001000000001
 31
0.0
  0
LINE
  5
5C2
  8
DATA
  6
CONTINUOUS
 62
     7
 10
213.49000000000001
 20
35.400000000000013
 30
0.0
 11
209.68998999999999
 21
35.400000000000013
 31
0.0
  0
LINE
  5
5C3
  8
DATA
  6
CONTINUOUS
 62
     7
 10
213.49000000000001
 20
33.600000000000009
 30
0.0
 11
209.68998999999999
 21
33.600000000000009
 31
0.0
  0
LINE
  5
5C4
  8
DATA
  6
CONTINUOUS
 62
     7
 10
216.49000000000001
 20
36.600000000000009
 30
0.0
 11
216.49000000000001
 21
66.600020000000001
 31
0.0
  0
LINE
  5
5C5
  8
DATA
  6
CONTINUOUS
 62
     7
 10
213.49000000000001
 20
69.600020000000001
 30
0.0
 11
202.99000000000001
 21
69.600020000000001
 31
0.0
  0
ARC
  5
5C6
  8
DATA
  6
CONTINUOUS
 62
     7
 10
213.49000000000001
 20
36.600000000000009
 30
0.0
 40
3.0
 50
270.0
 51
0.0
  0
ARC
  5
5C7
  8
DATA
  6
CONTINUOUS
 62
     7
 10
213.49000000000001
 20
36.600000000000009
 30
0.0
 40
1.200000000000002
 50
270.0
 51
0.0
  0
LINE
  5
5C8
  8
DATA
  6
CONTINUOUS
 62
     7
 10
213.49000000000001
 20
67.80001
 30
0.0
 11
202.99000000000001
 21
67.80001
 31
0.0
  0
ARC
  5
5C9
  8
DATA
  6
CONTINUOUS
 62
     7
 10
213.49000000000001
 20
66.600020000000001
 30
0.0
 40
1.199989999999999
 50
0.0
 51
90.0
  0
ARC
  5
5CA
  8
DATA
  6
CONTINUOUS
 62
     7
 10
213.49000000000001
 20
66.600020000000001
 30
0.0
 40
3.0
 50
0.0
 51
90.0
  0
LINE
  5
5CB
  8
DATA
  6
CONTINUOUS
 62
     7
 10
197.10126
 20
35.695760000000007
 30
0.0
 11
200.00290000000001
 21
66.877960000000002
 31
0.0
  0
ARC
  5
5CC
  8
DATA
  6
CONTINUOUS
 62
     7
 10
202.99000000000001
 20
66.600020000000001
 30
0.0
 40
3.0
 50
90.0
 51
174.6841187544093
  0
LINE
  5
5CD
  8
DATA
  6
CONTINUOUS
 62
     7
 10
198.90051
 20
35.604300000000009
 30
0.0
 11
201.79516000000001
 21
66.711190000000002
 31
0.0
  0
ARC
  5
5CE
  8
DATA
  6
CONTINUOUS
 62
     7
 10
202.99000000000001
 20
66.600020000000001
 30
0.0
 40
1.199989999999999
 50
90.0
 51
174.68440400103921
  0
LINE
  5
5CF
  8
DATA
  6
CONTINUOUS
 62
     7
 10
198.97221999999999
 20
33.404739999999997
 30
0.0
 11
202.68869000000001
 21
10.071899999999999
 31
0.0
  0
LINE
  5
5D0
  8
DATA
  6
CONTINUOUS
 62
     7
 10
197.18274
 20
33.196250000000013
 30
0.0
 11
200.91108
 21
9.7887699999999995
 31
0.0
  0
ARC
  5
5D1
  8
DATA
  6
CONTINUOUS
 62
     7
 10
199.72604000000001
 20
9.6000099999999975
 30
0.0
 40
3.0
 50
270.0
 51
9.0500323388280322
  0
ARC
  5
5D2
  8
DATA
  6
CONTINUOUS
 62
     7
 10
207.05823000000001
 20
34.769219999999997
 30
0.0
 40
9.9999863976157464
 50
174.68368446711821
 51
189.04998560467391
  0
ARC
  5
5D3
  8
DATA
  6
CONTINUOUS
 62
     7
 10
207.66266999999999
 20
34.788930000000008
 30
0.0
 40
8.8000156876280577
 50
174.6836044467594
 51
189.04986873163719
  0
ARC
  5
5D4
  8
DATA
  6
CONTINUOUS
 62
     7
 10
199.72604000000001
 20
9.6000099999999975
 30
0.0
 40
1.2000199999999941
 50
270.0
 51
9.0501458426784875
  0
LINE
  5
5D5
  8
DATA
  6
CONTINUOUS
 62
     7
 10
161.84499
 20
69.596490000000003
 30
0.0
 11
161.84499
 21
80.718760000000003
 31
0.0
  0
LINE
  5
5D6
  8
DATA
  6
CONTINUOUS
 62
     7
 10
200.05448000000001
 20
67.21875
 30
0.0
 11
164.63547999999989
 21
67.21875
 31
0.0
  0
LINE
  5
5D7
  8
DATA
  6
CONTINUOUS
 62
     7
 10
202.84499
 20
80.718760000000003
 30
0.0
 11
202.84499
 21
69.596490000000003
 31
0.0
  0
LINE
  5
5D8
  8
DATA
  6
CONTINUOUS
 62
     7
 10
163.34499
 20
82.218759999999989
 30
0.0
 11
201.34499
 21
82.218759999999989
 31
0.0
  0
ARC
  5
5D9
  8
DATA
  6
CONTINUOUS
 62
     7
 10
163.34499
 20
80.718760000000003
 30
0.0
 40
1.5
 50
90.0
 51
180.0
  0
ARC
  5
5DA
  8
DATA
  6
CONTINUOUS
 62
     7
 10
201.34499
 20
80.718760000000003
 30
0.0
 40
1.5
 50
0.0
 51
90.0
  0
TEXT
  5
5DB
  8
DATA
 62
     7
 10
165.5880499999999
 20
78.18487780000001
 30
0.0
 40
2.7147292578124991
  1
SHURE BROTHERS INC.
 41
0.8
 11
165.5880499999999
 21
80.899607057812489
 31
0.0
 73
     3
  0
CIRCLE
  5
5DC
  8
DATA
  6
CONTINUOUS
 62
     7
 10
157.84499
 20
64.21875
 30
0.0
 40
3.0
  0
CIRCLE
  5
5DD
  8
DATA
  6
CONTINUOUS
 62
     7
 10
157.84499
 20
64.21875
 30
0.0
 40
0.5
  0
ARC
  5
5DE
  8
DATA
  6
CONTINUOUS
 62
     7
 10
157.84499
 20
65.46875
 30
0.0
 40
0.2500068897050677
 50
51.996978380972962
 51
128.00161061498079
  0
ARC
  5
5DF
  8
DATA
  6
CONTINUOUS
 62
     7
 10
156.75282999999999
 20
64.838200000000001
 30
0.0
 40
0.2499883277275166
 50
112.00314536355781
 51
187.003063441997
  0
ARC
  5
5E0
  8
DATA
  6
CONTINUOUS
 62
     7
 10
156.0869799999999
 20
67.252590000000012
 30
0.0
 40
2.256366062543941
 50
284.69000300139032
 51
315.30991548199057
  0
ARC
  5
5E1
  8
DATA
  6
CONTINUOUS
 62
     7
 10
156.7624799999999
 20
63.582650000000001
 30
0.0
 40
0.250012400692445
 50
172.0011573687141
 51
247.00060729539999
  0
ARC
  5
5E2
  8
DATA
  6
CONTINUOUS
 62
     7
 10
154.33860999999999
 20
64.213200000000001
 30
0.0
 40
2.256361704536753
 50
344.69033929345602
 51
15.309727753396199
  0
ARC
  5
5E3
  8
DATA
  6
CONTINUOUS
 62
     7
 10
157.85463999999999
 20
62.963200000000001
 30
0.0
 40
0.2499928528978371
 50
231.99737321805571
 51
304.34798969780638
  0
ARC
  5
5E4
  8
DATA
  6
CONTINUOUS
 62
     7
 10
156.09662999999989
 20
61.179360000000003
 30
0.0
 40
2.2563682435719561
 50
44.690445565315493
 51
75.309996998609662
  0
ARC
  5
5E5
  8
DATA
  6
CONTINUOUS
 62
     7
 10
158.93714999999989
 20
64.838200000000001
 30
0.0
 40
0.250016124679992
 50
352.99522078655389
 51
67.998571892691714
  0
ARC
  5
5E6
  8
DATA
  6
CONTINUOUS
 62
     7
 10
159.6030099999999
 20
67.252590000000012
 30
0.0
 40
2.256361210821535
 50
224.69026504222521
 51
255.30944134570029
  0
ARC
  5
5E7
  8
DATA
  6
CONTINUOUS
 62
     7
 10
158.9275099999999
 20
63.582650000000001
 30
0.0
 40
0.2499945849413427
 50
292.9948545874953
 51
7.9949412357628944
  0
ARC
  5
5E8
  8
DATA
  6
CONTINUOUS
 62
     7
 10
161.35136999999989
 20
64.213200000000001
 30
0.0
 40
2.2563546997978832
 50
164.69002732721501
 51
195.3099056249645
  0
ARC
  5
5E9
  8
DATA
  6
CONTINUOUS
 62
     7
 10
159.59335999999999
 20
61.179360000000003
 30
0.0
 40
2.256366062543941
 50
104.69000300139029
 51
135.30973495777471
  0
CIRCLE
  5
5EA
  8
DATA
  6
CONTINUOUS
 62
     7
 10
206.84499
 20
64.21875
 30
0.0
 40
3.0
  0
CIRCLE
  5
5EB
  8
DATA
  6
CONTINUOUS
 62
     7
 10
206.84499
 20
64.21875
 30
0.0
 40
0.5
  0
ARC
  5
5EC
  8
DATA
  6
CONTINUOUS
 62
     7
 10
206.84499
 20
65.46875
 30
0.0
 40
0.2500007327989278
 50
51.998784288881772
 51
128.00121571111831
  0
ARC
  5
5ED
  8
DATA
  6
CONTINUOUS
 62
     7
 10
207.93716000000001
 20
64.838200000000001
 30
0.0
 40
0.2499962739722368
 50
352.99466179081492
 51
68.001963293798326
  0
ARC
  5
5EE
  8
DATA
  6
CONTINUOUS
 62
     7
 10
208.60300000000001
 20
67.252590000000012
 30
0.0
 40
2.256361210821535
 50
224.69026504222521
 51
255.30968697486139
  0
ARC
  5
5EF
  8
DATA
  6
CONTINUOUS
 62
     7
 10
207.92750000000001
 20
63.582650000000001
 30
0.0
 40
0.2500063059204601
 50
293.00118359427393
 51
7.9965731975494778
  0
ARC
  5
5F0
  8
DATA
  6
CONTINUOUS
 62
     7
 10
210.35135
 20
64.213200000000001
 30
0.0
 40
2.25633540957456
 50
164.6898932298551
 51
195.3100397211781
  0
ARC
  5
5F1
  8
DATA
  6
CONTINUOUS
 62
     7
 10
206.83536000000001
 20
62.963200000000001
 30
0.0
 40
0.2499951539530303
 50
235.64693272102451
 51
307.99940971426253
  0
ARC
  5
5F2
  8
DATA
  6
CONTINUOUS
 62
     7
 10
208.59334000000001
 20
61.179360000000003
 30
0.0
 40
2.2563635266729589
 50
104.6897573721055
 51
135.30937779083399
  0
ARC
  5
5F3
  8
DATA
  6
CONTINUOUS
 62
     7
 10
205.75283999999999
 20
64.838200000000001
 30
0.0
 40
0.2499845813245282
 50
112.001020330762
 51
187.00306344199919
  0
ARC
  5
5F4
  8
DATA
  6
CONTINUOUS
 62
     7
 10
205.08698000000001
 20
67.252590000000012
 30
0.0
 40
2.2563711344103039
 50
284.69049425830298
 51
315.30991353955687
  0
ARC
  5
5F5
  8
DATA
  6
CONTINUOUS
 62
     7
 10
205.76248000000001
 20
63.582650000000001
 30
0.0
 40
0.250012400692445
 50
172.0011573687141
 51
247.00060729539999
  0
ARC
  5
5F6
  8
DATA
  6
CONTINUOUS
 62
     7
 10
203.33862999999999
 20
64.213200000000001
 30
0.0
 40
2.2563424142846769
 50
344.6902051991795
 51
15.30986184881902
  0
ARC
  5
5F7
  8
DATA
  6
CONTINUOUS
 62
     7
 10
205.09664000000001
 20
61.179360000000003
 30
0.0
 40
2.2563469161678138
 50
44.69098131745087
 51
75.310423865656915
  0
CIRCLE
  5
5F8
  8
DATA
  6
CONTINUOUS
 62
     7
 10
175.5
 20
60.21875
 30
0.0
 40
1.5
  0
LINE
  5
5F9
  8
DATA
  6
CONTINUOUS
 62
     7
 10
177.0
 20
60.21875
 30
0.0
 11
182.49999
 21
60.21875
 31
0.0
  0
LINE
  5
5FA
  8
DATA
  6
CONTINUOUS
 62
     7
 10
179.0
 20
63.71875
 30
0.0
 11
181.99999
 21
63.71875
 31
0.0
  0
LINE
  5
5FB
  8
DATA
  6
CONTINUOUS
 62
     7
 10
176.5606599999999
 20
61.279420000000002
 30
0.0
 11
179.0
 21
63.71875
 31
0.0
  0
LINE
  5
5FC
  8
DATA
  6
CONTINUOUS
 62
     7
 10
179.0
 20
56.71876000000001
 30
0.0
 11
181.99999
 21
56.71876000000001
 31
0.0
  0
LINE
  5
5FD
  8
DATA
  6
CONTINUOUS
 62
     7
 10
176.5606599999999
 20
59.158090000000001
 30
0.0
 11
179.0
 21
56.71876000000001
 31
0.0
  0
LINE
  5
5FE
  8
DATA
  6
CONTINUOUS
 62
     7
 10
176.9789999999999
 20
59.96875
 30
0.0
 11
174.02096
 21
59.96875
 31
0.0
  0
LINE
  5
5FF
  8
DATA
  6
CONTINUOUS
 62
     7
 10
176.9789999999999
 20
60.46875
 30
0.0
 11
174.02096
 21
60.46875
 31
0.0
  0
TEXT
  5
600
  8
DATA
 62
     7
 10
167.05117999999999
 20
52.515102400000004
 30
0.0
 40
1.628836015624999
  1
INPUT ATTENUATION
 41
0.8
 11
167.05117999999999
 21
54.143938415625001
 31
0.0
 73
     3
  0
TEXT
  5
601
  8
DATA
 62
     7
 10
182.99999
 20
62.956762400000002
 30
0.0
 40
1.628836015624999
  1
0
 41
0.8
 11
182.99999
 21
64.585598415625
 31
0.0
 73
     3
  0
TEXT
  5
602
  8
DATA
 62
     7
 10
183.49999
 20
59.456762400000002
 30
0.0
 40
1.628836015624999
  1
-6
 41
0.8
 11
183.49999
 21
61.085598415625
 31
0.0
 73
     3
  0
TEXT
  5
603
  8
DATA
 62
     7
 10
182.99999
 20
55.956762400000002
 30
0.0
 40
1.628836015624999
  1
-20
 41
0.8
 11
182.99999
 21
57.585598415625
 31
0.0
 73
     3
  0
CIRCLE
  5
604
  8
DATA
  6
CONTINUOUS
 62
     7
 10
182.345
 20
26.21876
 30
0.0
 40
0.75
  0
CIRCLE
  5
605
  8
DATA
  6
CONTINUOUS
 62
     7
 10
182.345
 20
0.71875
 30
0.0
 40
0.75
  0
LINE
  5
606
  8
DATA
  6
CONTINUOUS
 62
     7
 10
41.791709999999988
 20
-37.201720000000002
 30
0.0
 11
27.001169999999991
 21
-36.700029999999998
 31
0.0
  0
ARC
  5
607
  8
DATA
  6
CONTINUOUS
 62
     7
 10
41.690019999999983
 20
-40.199999999999982
 30
0.0
 40
3.0
 50
0.0
 51
88.057685401075986
  0
LINE
  5
608
  8
DATA
  6
CONTINUOUS
 62
     7
 10
-20.985070000000011
 20
-39.039999999999992
 30
0.0
 11
-20.985070000000011
 21
-40.039999999999992
 31
0.0
  0
LINE
  5
609
  8
DATA
  6
CONTINUOUS
 62
     7
 10
-20.985070000000011
 20
-39.039999999999992
 30
0.0
 11
-19.709650000000011
 21
-38.912459999999989
 31
0.0
  0
LINE
  5
60A
  8
DATA
  6
CONTINUOUS
 62
     7
 10
-20.985070000000011
 20
-40.039999999999992
 30
0.0
 11
-19.99936000000001
 21
-40.13856999999998
 31
0.0
  0
LINE
  5
60B
  8
DATA
  6
CONTINUOUS
 62
     7
 10
45.675079999999987
 20
-39.039999999999992
 30
0.0
 11
45.675079999999987
 21
-40.039999999999992
 31
0.0
  0
LINE
  5
60C
  8
DATA
  6
CONTINUOUS
 62
     7
 10
45.675079999999987
 20
-39.039999999999992
 30
0.0
 11
44.39965999999999
 21
-38.912459999999989
 31
0.0
  0
LINE
  5
60D
  8
DATA
  6
CONTINUOUS
 62
     7
 10
45.675079999999987
 20
-40.039999999999992
 30
0.0
 11
44.68936999999999
 21
-40.13856999999998
 31
0.0
  0
LINE
  5
60E
  8
DATA
  6
CONTINUOUS
 62
     7
 10
-5.7993100000000046
 20
-62.801920000000003
 30
0.0
 11
-5.9666399999999982
 21
-63.801920000000003
 31
0.0
  0
ARC
  5
60F
  8
DATA
  6
CONTINUOUS
 62
     7
 10
-4.78312000000001
 20
-63.999980000000001
 30
0.0
 40
1.199978063966157
 50
170.49968564323979
 51
270.0
  0
LINE
  5
610
  8
DATA
  6
CONTINUOUS
 62
     7
 10
-14.999990000000009
 20
-61.499980000000001
 30
0.0
 11
-14.999990000000009
 21
-59.999980000000001
 31
0.0
  0
LINE
  5
611
  8
DATA
  6
CONTINUOUS
 62
     7
 10
-14.999990000000009
 20
-61.499980000000001
 30
0.0
 11
-9.499990000000011
 21
-61.499980000000001
 31
0.0
  0
ARC
  5
612
  8
DATA
  6
CONTINUOUS
 62
     7
 10
-9.499990000000011
 20
-59.999980000000001
 30
0.0
 40
1.5
 50
270.0
 51
0.0
  0
ARC
  5
613
  8
DATA
  6
CONTINUOUS
 62
     7
 10
31.24499999999999
 20
-65.499979999999994
 30
0.0
 40
1.5
 50
270.0
 51
9.4999368537721125
  0
ARC
  5
614
  8
DATA
  6
CONTINUOUS
 62
     7
 10
29.47313999999999
 20
-63.999980000000001
 30
0.0
 40
1.2000199999999941
 50
270.0
 51
9.5005488501639661
  0
LINE
  5
615
  8
DATA
  6
CONTINUOUS
 62
     7
 10
-3.2718700000000061
 20
-61.799999999999983
 30
0.0
 11
-4.615770000000011
 21
-61.799999999999983
 31
0.0
  0
ARC
  5
616
  8
DATA
  6
CONTINUOUS
 62
     7
 10
-4.615770000000011
 20
-62.999980000000001
 30
0.0
 40
1.19998000000001
 50
90.0
 51
170.49976445104329
  0
ARC
  5
617
  8
DATA
  6
CONTINUOUS
 62
     7
 10
-4.6157600000000079
 20
-62.999980000000001
 30
0.0
 40
3.0
 50
90.0
 51
170.49946652409551
  0
ARC
  5
618
  8
DATA
  6
CONTINUOUS
 62
     7
 10
-3.2718700000000061
 20
-60.899979999999971
 30
0.0
 40
0.900020000000012
 50
270.0
 51
90.0
  0
ARC
  5
619
  8
DATA
  6
CONTINUOUS
 62
     7
 10
27.96189
 20
-60.899979999999971
 30
0.0
 40
0.8999999999999772
 50
90.0
 51
270.0
  0
LINE
  5
61A
  8
DATA
  6
CONTINUOUS
 62
     7
 10
5.8450099999999869
 20
227.21000000000001
 30
0.0
 11
18.845009999999991
 21
227.21000000000001
 31
0.0
  0
LINE
  5
61B
  8
DATA
  6
CONTINUOUS
 62
     7
 10
5.8450099999999869
 20
222.20998
 30
0.0
 11
18.845009999999991
 21
222.20998
 31
0.0
  0
CIRCLE
  5
61C
  8
DATA
  6
CONTINUOUS
 62
     7
 10
7.0000099999999881
 20
224.71000000000001
 30
0.0
 40
1.5
  0
TEXT
  5
61D
  8
DATA
 62
     7
 10
21.039057369791649
 20
231.5134414
 30
0.0
 40
2.3085860546874999
  1
ON
 50
180.0
 41
0.8
 72
     1
 11
19.499999999999979
 21
229.2048553453125
 31
0.0
 73
     3
  0
TEXT
  5
61E
  8
DATA
 62
     7
 10
13.96250179166665
 20
231.5134414
 30
0.0
 40
2.3085860546874999
  1
OFF
 50
180.0
 41
0.8
 72
     1
 11
11.500009999999991
 21
229.2048553453125
 31
0.0
 73
     3
  0
LINE
  5
61F
  8
DATA
  6
CONTINUOUS
 62
     7
 10
44.190019999999983
 20
-49.99998999999999
 30
0.0
 11
44.190019999999983
 21
-49.499989999999997
 31
0.0
  0
LINE
  5
620
  8
DATA
  6
CONTINUOUS
 62
     7
 10
-19.499980000000001
 20
-49.99998999999999
 30
0.0
 11
-19.499980000000001
 21
-49.499989999999997
 31
0.0
  0
CIRCLE
  5
621
  8
DATA
  6
CONTINUOUS
 62
     7
 10
-7.4366800000000088
 20
223.96000000000001
 30
0.0
 40
2.0
  0
CIRCLE
  5
622
  8
DATA
  6
CONTINUOUS
 62
     7
 10
-7.4366800000000088
 20
223.96000000000001
 30
0.0
 40
3.5
  0
CIRCLE
  5
623
  8
DATA
  6
CONTINUOUS
 62
     7
 10
-7.4366800000000088
 20
223.96000000000001
 30
0.0
 40
2.25
  0
CIRCLE
  5
624
  8
DATA
  6
CONTINUOUS
 62
     7
 10
34.690010000000001
 20
223.96000000000001
 30
0.0
 40
6.75
  0
CIRCLE
  5
625
  8
DATA
  6
CONTINUOUS
 62
     7
 10
34.690010000000001
 20
223.96000000000001
 30
0.0
 40
0.5
  0
CIRCLE
  5
626
  8
DATA
  6
CONTINUOUS
 62
     7
 10
34.690010000000001
 20
226.46000000000001
 30
0.0
 40
0.5
  0
CIRCLE
  5
627
  8
DATA
  6
CONTINUOUS
 62
     7
 10
37.19001999999999
 20
223.45998
 30
0.0
 40
0.5
  0
CIRCLE
  5
628
  8
DATA
  6
CONTINUOUS
 62
     7
 10
32.190010000000001
 20
223.45998
 30
0.0
 40
0.5
  0
LINE
  5
629
  8
DATA
  6
CONTINUOUS
 62
     7
 10
35.690010000000001
 20
219.06102000000001
 30
0.0
 11
35.690010000000001
 21
219.82928999999999
 31
0.0
  0
LINE
  5
62A
  8
DATA
  6
CONTINUOUS
 62
     7
 10
33.690009999999987
 20
219.06102000000001
 30
0.0
 11
33.690009999999987
 21
219.82928999999999
 31
0.0
  0
ARC
  5
62B
  8
DATA
  6
CONTINUOUS
 62
     7
 10
34.690010000000001
 20
223.96000000000001
 30
0.0
 40
4.2500311886032147
 50
283.60885884080619
 51
256.65619511227561
  0
CIRCLE
  5
62C
  8
DATA
  6
CONTINUOUS
 62
     7
 10
34.690010000000001
 20
223.96000000000001
 30
0.0
 40
5.0
  0
LINE
  5
62D
  8
DATA
  6
CONTINUOUS
 62
     7
 10
43.489999999999988
 20
-60.499980000000001
 30
0.0
 11
39.69001999999999
 21
-60.499980000000001
 31
0.0
  0
LINE
  5
62E
  8
DATA
  6
CONTINUOUS
 62
     7
 10
46.489999999999988
 20
-58.79999999999999
 30
0.0
 11
46.489999999999988
 21
-54.399979999999971
 31
0.0
  0
ARC
  5
62F
  8
DATA
  6
CONTINUOUS
 62
     7
 10
43.489999999999988
 20
-57.49998999999999
 30
0.0
 40
2.9999899999999959
 50
270.0
 51
0.0
  0
ARC
  5
630
  8
DATA
  6
CONTINUOUS
 62
     7
 10
45.589999999999989
 20
-54.399979999999971
 30
0.0
 40
0.8999999999999985
 50
0.0
 51
180.0
  0
ARC
  5
631
  8
DATA
  6
CONTINUOUS
 62
     7
 10
43.489999999999988
 20
-58.79999999999999
 30
0.0
 40
3.0
 50
270.0
 51
0.0
  0
ARC
  5
632
  8
DATA
  6
CONTINUOUS
 62
     7
 10
-18.799990000000012
 20
233.00999999999999
 30
0.0
 40
3.0
 50
90.0
 51
180.0
  0
ARC
  5
633
  8
DATA
  6
CONTINUOUS
 62
     7
 10
-20.900000000000009
 20
228.60999000000001
 30
0.0
 40
0.8999900000000025
 50
180.0
 51
0.0
  0
LINE
  5
634
  8
DATA
  6
CONTINUOUS
 62
     7
 10
-21.799990000000012
 20
233.00999999999999
 30
0.0
 11
-21.799990000000012
 21
228.60999000000001
 31
0.0
  0
LINE
  5
635
  8
DATA
  6
CONTINUOUS
 62
     7
 10
-3.2718700000000061
 20
236.00999999999999
 30
0.0
 11
-18.799990000000012
 21
236.00999999999999
 31
0.0
  0
LINE
  5
636
  8
DATA
  6
CONTINUOUS
 62
     7
 10
32.264629999999997
 20
236.71483000000001
 30
0.0
 11
32.724439999999987
 21
239.46241000000001
 31
0.0
  0
LINE
  5
637
  8
DATA
  6
CONTINUOUS
 62
     7
 10
30.489309999999989
 20
237.01193000000001
 30
0.0
 11
30.656659999999992
 21
238.01193000000001
 31
0.0
  0
LINE
  5
638
  8
DATA
  6
CONTINUOUS
 62
     7
 10
27.96189
 20
236.00999999999999
 30
0.0
 11
43.489999999999988
 21
236.00999999999999
 31
0.0
  0
ARC
  5
639
  8
DATA
  6
CONTINUOUS
 62
     7
 10
29.305789999999991
 20
237.21000000000001
 30
0.0
 40
1.200000000000002
 50
270.0
 51
350.49882261143352
  0
ARC
  5
63A
  8
DATA
  6
CONTINUOUS
 62
     7
 10
29.305779999999999
 20
237.21000000000001
 30
0.0
 40
2.9999767049762149
 50
336.42162734891559
 51
350.49940347658492
  0
LINE
  5
63B
  8
DATA
  6
CONTINUOUS
 62
     7
 10
42.69001999999999
 20
234.21000000000001
 30
0.0
 11
44.690019999999983
 21
232.21000000000001
 31
0.0
  0
LINE
  5
63C
  8
DATA
  6
CONTINUOUS
 62
     7
 10
-17.999980000000011
 20
234.21000000000001
 30
0.0
 11
-19.999980000000011
 21
232.21000000000001
 31
0.0
  0
LINE
  5
63D
  8
DATA
  6
CONTINUOUS
 62
     7
 10
24.095009999999991
 20
210.0
 30
0.0
 11
0.5950099999999879
 21
210.0
 31
0.0
  0
LINE
  5
63E
  8
DATA
  6
CONTINUOUS
 62
     7
 10
-19.999980000000011
 20
232.21000000000001
 30
0.0
 11
-19.999980000000011
 21
214.41
 31
0.0
  0
LINE
  5
63F
  8
DATA
  6
CONTINUOUS
 62
     7
 10
44.690019999999983
 20
232.21000000000001
 30
0.0
 11
44.690019999999983
 21
214.41
 31
0.0
  0
LINE
  5
640
  8
DATA
  6
CONTINUOUS
 62
     7
 10
-17.101700000000012
 20
211.41171
 30
0.0
 11
0.5950099999999879
 21
210.81146000000001
 31
0.0
  0
ARC
  5
641
  8
DATA
  6
CONTINUOUS
 62
     7
 10
-16.999990000000011
 20
214.41
 30
0.0
 40
2.9999899999999959
 50
180.0
 51
268.0574945251264
  0
LINE
  5
642
  8
DATA
  6
CONTINUOUS
 62
     7
 10
-10.927759999999999
 20
224.21000000000001
 30
0.0
 11
-19.999980000000011
 21
224.21000000000001
 31
0.0
  0
LINE
  5
643
  8
DATA
  6
CONTINUOUS
 62
     7
 10
44.690019999999983
 20
224.21000000000001
 30
0.0
 11
41.435379999999981
 21
224.21000000000001
 31
0.0
  0
LINE
  5
644
  8
DATA
  6
CONTINUOUS
 62
     7
 10
-10.927759999999999
 20
223.70998
 30
0.0
 11
-19.999980000000011
 21
223.70998
 31
0.0
  0
LINE
  5
645
  8
DATA
  6
CONTINUOUS
 62
     7
 10
44.690019999999983
 20
223.70998
 30
0.0
 11
41.435379999999981
 21
223.70998
 31
0.0
  0
LINE
  5
646
  8
DATA
  6
CONTINUOUS
 62
     7
 10
-6.5550000000000059
 20
241.21000000000001
 30
0.0
 11
31.24499999999999
 21
241.21000000000001
 31
0.0
  0
LINE
  5
647
  8
DATA
  6
CONTINUOUS
 62
     7
 10
-7.5746100000000069
 20
236.71483000000001
 30
0.0
 11
-8.0344200000000114
 21
239.46241000000001
 31
0.0
  0
ARC
  5
648
  8
DATA
  6
CONTINUOUS
 62
     7
 10
-6.5550000000000059
 20
239.71000000000001
 30
0.0
 40
1.5
 50
90.0
 51
189.5011300999918
  0
LINE
  5
649
  8
DATA
  6
CONTINUOUS
 62
     7
 10
29.47501999999999
 20
239.41
 30
0.0
 11
-4.7850000000000099
 21
239.41
 31
0.0
  0
LINE
  5
64A
  8
DATA
  6
CONTINUOUS
 62
     7
 10
41.791709999999988
 20
211.41171
 30
0.0
 11
24.095009999999991
 21
210.81143
 31
0.0
  0
ARC
  5
64B
  8
DATA
  6
CONTINUOUS
 62
     7
 10
41.690019999999983
 20
214.41
 30
0.0
 40
3.000013963334168
 50
271.94249900112578
 51
0.0
  0
LINE
  5
64C
  8
DATA
  6
CONTINUOUS
 62
     7
 10
-20.985070000000011
 20
213.25
 30
0.0
 11
-20.985070000000011
 21
214.25
 31
0.0
  0
LINE
  5
64D
  8
DATA
  6
CONTINUOUS
 62
     7
 10
-20.985070000000011
 20
213.25
 30
0.0
 11
-19.709650000000011
 21
213.12244999999999
 31
0.0
  0
LINE
  5
64E
  8
DATA
  6
CONTINUOUS
 62
     7
 10
-20.985070000000011
 20
214.25
 30
0.0
 11
-19.99936000000001
 21
214.34854999999999
 31
0.0
  0
LINE
  5
64F
  8
DATA
  6
CONTINUOUS
 62
     7
 10
45.675079999999987
 20
213.25
 30
0.0
 11
45.675079999999987
 21
214.25
 31
0.0
  0
LINE
  5
650
  8
DATA
  6
CONTINUOUS
 62
     7
 10
45.675079999999987
 20
213.25
 30
0.0
 11
44.39965999999999
 21
213.12244999999999
 31
0.0
  0
LINE
  5
651
  8
DATA
  6
CONTINUOUS
 62
     7
 10
45.675079999999987
 20
214.25
 30
0.0
 11
44.68936999999999
 21
214.34854999999999
 31
0.0
  0
LINE
  5
652
  8
DATA
  6
CONTINUOUS
 62
     7
 10
-5.7993100000000046
 20
237.01193000000001
 30
0.0
 11
-5.9666399999999982
 21
238.01193000000001
 31
0.0
  0
ARC
  5
653
  8
DATA
  6
CONTINUOUS
 62
     7
 10
-4.78312000000001
 20
238.21000000000001
 30
0.0
 40
1.200000000000002
 50
90.0
 51
189.5011773885665
  0
ARC
  5
654
  8
DATA
  6
CONTINUOUS
 62
     7
 10
31.24499999999999
 20
239.71000000000001
 30
0.0
 40
1.5000145071631781
 50
350.49937272919539
 51
90.0
  0
ARC
  5
655
  8
DATA
  6
CONTINUOUS
 62
     7
 10
29.47313999999999
 20
238.21000000000001
 30
0.0
 40
1.199979714536876
 50
350.49921471902502
 51
90.0
  0
ARC
  5
656
  8
DATA
  6
CONTINUOUS
 62
     7
 10
-4.615770000000011
 20
237.21000000000001
 30
0.0
 40
1.1999994402081959
 50
189.50062765913901
 51
270.0
  0
ARC
  5
657
  8
DATA
  6
CONTINUOUS
 62
     7
 10
-4.6157600000000079
 20
237.21000000000001
 30
0.0
 40
2.9999977752325062
 50
189.5005334759044
 51
203.57847129769041
  0
ARC
  5
658
  8
DATA
  6
CONTINUOUS
 62
     7
 10
-3.2718700000000061
 20
235.10999000000001
 30
0.0
 40
0.8999900000000025
 50
270.0
 51
90.0
  0
ARC
  5
659
  8
DATA
  6
CONTINUOUS
 62
     7
 10
27.96189
 20
235.10999000000001
 30
0.0
 40
0.9000099999999947
 50
90.0
 51
270.0
  0
LINE
  5
65A
  8
DATA
  6
CONTINUOUS
 62
     7
 10
44.190019999999983
 20
224.21000000000001
 30
0.0
 11
44.190019999999983
 21
223.70998
 31
0.0
  0
LINE
  5
65B
  8
DATA
  6
CONTINUOUS
 62
     7
 10
-19.499980000000001
 20
224.21000000000001
 30
0.0
 11
-19.499980000000001
 21
223.70998
 31
0.0
  0
LINE
  5
65C
  8
DATA
  6
CONTINUOUS
 62
     7
 10
46.489999999999988
 20
233.00999999999999
 30
0.0
 11
46.489999999999988
 21
228.60999000000001
 31
0.0
  0
ARC
  5
65D
  8
DATA
  6
CONTINUOUS
 62
     7
 10
45.589999999999989
 20
228.60999000000001
 30
0.0
 40
0.8999799999999993
 50
180.0
 51
0.0
  0
ARC
  5
65E
  8
DATA
  6
CONTINUOUS
 62
     7
 10
43.489999999999988
 20
233.00999999999999
 30
0.0
 40
3.0
 50
0.0
 51
90.0
  0
LINE
  5
65F
  8
DATA
  6
CONTINUOUS
 62
     7
 10
0.5950099999999879
 20
210.0
 30
0.0
 11
0.5950099999999879
 21
234.21000000000001
 31
0.0
  0
LINE
  5
660
  8
DATA
  6
CONTINUOUS
 62
     7
 10
24.095009999999991
 20
210.0
 30
0.0
 11
24.095009999999991
 21
234.21000000000001
 31
0.0
  0
LINE
  5
661
  8
DATA
  6
CONTINUOUS
 62
     7
 10
-3.9456400000000111
 20
224.21000000000001
 30
0.0
 11
0.5950099999999879
 21
224.21000000000001
 31
0.0
  0
LINE
  5
662
  8
DATA
  6
CONTINUOUS
 62
     7
 10
-3.9456400000000111
 20
223.70998
 30
0.0
 11
0.5950099999999879
 21
223.70998
 31
0.0
  0
LINE
  5
663
  8
DATA
  6
CONTINUOUS
 62
     7
 10
24.095009999999991
 20
224.21000000000001
 30
0.0
 11
27.944629999999989
 21
224.21000000000001
 31
0.0
  0
LINE
  5
664
  8
DATA
  6
CONTINUOUS
 62
     7
 10
24.095009999999991
 20
223.70998
 30
0.0
 11
27.944629999999989
 21
223.70998
 31
0.0
  0
LINE
  5
665
  8
DATA
  6
CONTINUOUS
 62
     7
 10
42.69001999999999
 20
234.21000000000001
 30
0.0
 11
-17.999980000000011
 21
234.21000000000001
 31
0.0
  0
ARC
  5
666
  8
DATA
  6
CONTINUOUS
 62
     7
 10
5.8450099999999869
 20
224.71000000000001
 30
0.0
 40
2.5
 50
90.0
 51
270.0
  0
ARC
  5
667
  8
DATA
  6
CONTINUOUS
 62
     7
 10
18.845009999999991
 20
224.71000000000001
 30
0.0
 40
2.5000200000000059
 50
270.0
 51
90.0
  0
LINE
  5
668
  8
DATA
  6
CONTINUOUS
 62
     7
 10
3.3450099999999869
 20
224.71000000000001
 30
0.0
 11
0.5950099999999879
 21
224.71000000000001
 31
0.0
  0
LINE
  5
669
  8
DATA
  6
CONTINUOUS
 62
     7
 10
24.095009999999991
 20
224.71000000000001
 30
0.0
 11
21.345009999999991
 21
224.71000000000001
 31
0.0
  0
LINE
  5
66A
  8
DATA
  6
CONTINUOUS
 62
     7
 10
17.750009999999989
 20
223.45998
 30
0.0
 11
15.750009999999991
 21
223.45998
 31
0.0
  0
LINE
  5
66B
  8
DATA
  6
CONTINUOUS
 62
     7
 10
15.750009999999991
 20
225.96000000000001
 30
0.0
 11
17.750009999999989
 21
225.96000000000001
 31
0.0
  0
ARC
  5
66C
  8
DATA
  6
CONTINUOUS
 62
     7
 10
15.750009999999991
 20
224.71000000000001
 30
0.0
 40
1.25
 50
90.0
 51
270.0
  0
ARC
  5
66D
  8
DATA
  6
CONTINUOUS
 62
     7
 10
17.750009999999989
 20
224.71000000000001
 30
0.0
 40
1.2500200000000059
 50
270.0
 51
90.0
  0
CIRCLE
  5
66E
  8
DATA
  6
CONTINUOUS
 62
     7
 10
15.39999999999999
 20
224.71000000000001
 30
0.0
 40
0.9000099999999947
  0
LINE
  5
66F
  8
DATA
  6
CONTINUOUS
 62
     7
 10
14.506859999999991
 20
89.561880000000002
 30
0.0
 11
16.300009999999979
 21
89.718759999999989
 31
0.0
  0
LINE
  5
670
  8
DATA
  6
CONTINUOUS
 62
     7
 10
16.343759999999989
 20
89.218760000000003
 30
0.0
 11
16.300009999999979
 21
89.718759999999989
 31
0.0
  0
LINE
  5
671
  8
DATA
  6
CONTINUOUS
 62
     7
 10
14.53686999999999
 20
89.218760000000003
 30
0.0
 11
14.506859999999991
 21
89.561880000000002
 31
0.0
  0
LINE
  5
672
  8
DATA
  6
CONTINUOUS
 62
     7
 10
8.5000099999999872
 20
224.71000000000001
 30
0.0
 11
14.500009999999991
 21
224.71000000000001
 31
0.0
  0
LINE
  5
673
  8
DATA
  6
CONTINUOUS
 62
     7
 10
28.074279999999991
 20
212.44640999999999
 30
0.0
 11
28.074279999999991
 21
210.94640999999999
 31
0.0
  0
LINE
  5
674
  8
DATA
  6
CONTINUOUS
 62
     7
 10
-3.3842600000000109
 20
212.44640999999999
 30
0.0
 11
-3.3842600000000109
 21
210.94640999999999
 31
0.0
  0
TEXT
  5
675
  8
DATA
 62
     7
 10
-60.000009999999989
 20
-107.992175
 30
0.0
 40
3.2576822916666659
  1
仕様および外観は予告なく変更されることがありますので、ご了承ください。
 41
0.8
 11
-60.000009999999989
 21
-104.73449270833331
 31
0.0
 73
     3
  0
ENDSEC
  0
EOF
