  0
SECTION
  2
HEADER
  9
$ACADVER
  1
AC1009
  9
$INSBASE
 10
0.0
 20
0.0
 30
0.0
  9
$EXTMIN
 10
29.989015033921529
 20
7.1438620221135798
 30
-0.0015258207003583
  9
$EXTMAX
 10
595.15319959860437
 20
810.02475112515378
 30
0.0000000349246037
  9
$LIMMIN
 10
0.0
 20
0.0
  9
$LIMMAX
 10
0.0
 20
0.0
  9
$ORTHOMODE
 70
     0
  9
$REGENMODE
 70
     1
  9
$FILLMODE
 70
     1
  9
$QTEXTMODE
 70
     0
  9
$MIRRTEXT
 70
     1
  9
$DRAGMODE
 70
     2
  9
$LTSCALE
 40
15.24
  9
$OSMODE
 70
   231
  9
$ATTMODE
 70
     1
  9
$TEXTSIZE
 40
0.0
  9
$TRACEWID
 40
1.0
  9
$TEXTSTYLE
  7
STANDARD
  9
$CLAYER
  8
DATA
  9
$CELTYPE
  6
CONTINUOUS
  9
$CECOLOR
 62
   256
  9
$DIMSCALE
 40
1.0
  9
$DIMASZ
 40
0.18
  9
$DIMEXO
 40
0.0625
  9
$DIMDLI
 40
0.38
  9
$DIMRND
 40
0.0
  9
$DIMDLE
 40
0.0
  9
$DIMEXE
 40
0.18
  9
$DIMTP
 40
0.0
  9
$DIMTM
 40
0.0
  9
$DIMTXT
 40
0.18
  9
$DIMCEN
 40
0.09
  9
$DIMTSZ
 40
0.0
  9
$DIMTOL
 70
     0
  9
$DIMLIM
 70
     0
  9
$DIMTIH
 70
     1
  9
$DIMTOH
 70
     1
  9
$DIMSE1
 70
     0
  9
$DIMSE2
 70
     0
  9
$DIMTAD
 70
     0
  9
$DIMZIN
 70
     0
  9
$DIMBLK
  1

  9
$DIMASO
 70
     1
  9
$DIMSHO
 70
     1
  9
$DIMPOST
  1

  9
$DIMAPOST
  1

  9
$DIMALT
 70
     0
  9
$DIMALTD
 70
     2
  9
$DIMALTF
 40
25.399999999999999
  9
$DIMLFAC
 40
1.0
  9
$DIMTOFL
 70
     0
  9
$DIMTVP
 40
0.0
  9
$DIMTIX
 70
     0
  9
$DIMSOXD
 70
     0
  9
$DIMSAH
 70
     0
  9
$DIMBLK1
  1

  9
$DIMBLK2
  1

  9
$DIMSTYLE
  2
STANDARD
  9
$DIMCLRD
 70
     0
  9
$DIMCLRE
 70
     0
  9
$DIMCLRT
 70
     0
  9
$DIMTFAC
 40
1.0
  9
$DIMGAP
 40
0.09
  9
$LUNITS
 70
     2
  9
$LUPREC
 70
     4
  9
$SKETCHINC
 40
0.1
  9
$FILLETRAD
 40
0.0
  9
$AUNITS
 70
     0
  9
$AUPREC
 70
     0
  9
$MENU
  1
acad
  9
$ELEVATION
 40
0.0
  9
$PELEVATION
 40
0.0
  9
$THICKNESS
 40
0.0
  9
$LIMCHECK
 70
     0
  9
$BLIPMODE
 70
     0
  9
$CHAMFERA
 40
0.0
  9
$CHAMFERB
 40
0.0
  9
$SKPOLY
 70
     0
  9
$TDCREATE
 40
2453875.7303587962
  9
$TDUPDATE
 40
2453875.7311006021
  9
$TDINDWG
 40
0.0002328356
  9
$TDUSRTIMER
 40
0.0002326505
  9
$USRTIMER
 70
     1
  9
$ANGBASE
 50
0.0
  9
$ANGDIR
 70
     0
  9
$PDMODE
 70
     1
  9
$PDSIZE
 40
-2.0
  9
$PLINEWID
 40
0.0
  9
$COORDS
 70
     1
  9
$SPLFRAME
 70
     0
  9
$SPLINETYPE
 70
     6
  9
$SPLINESEGS
 70
     8
  9
$ATTDIA
 70
     0
  9
$ATTREQ
 70
     1
  9
$HANDLING
 70
     1
  9
$HANDSEED
  5
1ED
  9
$SURFTAB1
 70
     6
  9
$SURFTAB2
 70
     6
  9
$SURFTYPE
 70
     6
  9
$SURFU
 70
     6
  9
$SURFV
 70
     6
  9
$UCSNAME
  2

  9
$UCSORG
 10
0.0
 20
0.0
 30
0.0
  9
$UCSXDIR
 10
1.0
 20
0.0
 30
0.0
  9
$UCSYDIR
 10
0.0
 20
1.0
 30
0.0
  9
$PUCSNAME
  2

  9
$PUCSORG
 10
0.0
 20
0.0
 30
0.0
  9
$PUCSXDIR
 10
1.0
 20
0.0
 30
0.0
  9
$PUCSYDIR
 10
0.0
 20
1.0
 30
0.0
  9
$USERI1
 70
     0
  9
$USERI2
 70
     0
  9
$USERI3
 70
     0
  9
$USERI4
 70
     0
  9
$USERI5
 70
     0
  9
$USERR1
 40
0.0
  9
$USERR2
 40
0.0
  9
$USERR3
 40
0.0
  9
$USERR4
 40
0.0
  9
$USERR5
 40
0.0
  9
$WORLDVIEW
 70
     1
  9
$SHADEDGE
 70
     3
  9
$SHADEDIF
 70
    70
  9
$TILEMODE
 70
     1
  9
$MAXACTVP
 70
    64
  9
$PLIMCHECK
 70
     0
  9
$PEXTMIN
 10
1.0000000000000000E+020
 20
1.0000000000000000E+020
 30
1.0000000000000000E+020
  9
$PEXTMAX
 10
-1.0000000000000000E+020
 20
-1.0000000000000000E+020
 30
-1.0000000000000000E+020
  9
$PLIMMIN
 10
0.0
 20
0.0
  9
$PLIMMAX
 10
12.0
 20
9.0
  9
$UNITMODE
 70
     0
  9
$VISRETAIN
 70
     0
  9
$PLINEGEN
 70
     1
  9
$PSLTSCALE
 70
     0
  0
ENDSEC
  0
SECTION
  2
TABLES
  0
TABLE
  2
VPORT
 70
     1
  0
VPORT
  2
*ACTIVE
 70
     0
 10
0.0
 20
0.0
 11
1.0
 21
1.0
 12
312.57110731626301
 22
408.58430657363368
 13
0.0
 23
0.0
 14
1.0
 24
1.0
 15
0.0
 25
0.0
 16
0.0
 26
0.0
 36
1.0
 17
0.0
 27
0.0
 37
0.0
 40
809.54380104580434
 41
1.6703601108033239
 42
50.0
 43
0.0
 44
0.0
 50
0.0
 51
0.0
 71
     0
 72
  2000
 73
     1
 74
     1
 75
     0
 76
     0
 77
     0
 78
     0
  0
ENDTAB
  0
TABLE
  2
LTYPE
 70
    11
  0
LTYPE
  2
CONTINUOUS
 70
     0
  3
Solid line
 72
    65
 73
     0
 40
0.0
  0
ENDTAB
  0
TABLE
  2
LAYER
 70
     6
  0
LAYER
  2
0
 70
     0
 62
     7
  6
CONTINUOUS
  0
LAYER
  2
DATA
 70
     0
 62
     7
  6
CONTINUOUS
  0
LAYER
  2
HIBINO-BASE
 70
     0
 62
     7
  6
CONTINUOUS
  0
LAYER
  2
PATTERN_FILL
 70
     0
 62
     7
  6
CONTINUOUS
  0
LAYER
  2
SPEC
 70
     0
 62
     7
  6
CONTINUOUS
  0
LAYER
  2
DIMNSIONS
 70
     0
 62
     7
  6
CONTINUOUS
  0
ENDTAB
  0
TABLE
  2
STYLE
 70
     2
  0
STYLE
  2
STANDARD
 70
     0
 40
0.0
 41
1.0
 50
0.0
 71
     0
 42
0.0
  3
txt
  4
BIGFONT.SHX
  0
ENDTAB
  0
TABLE
  2
VIEW
 70
     0
  0
ENDTAB
  0
TABLE
  2
UCS
 70
     0
  0
ENDTAB
  0
TABLE
  2
APPID
 70
     1
  0
APPID
  2
ACAD
 70
     0
  0
ENDTAB
  0
TABLE
  2
DIMSTYLE
 70
     1
  0
DIMSTYLE
  2
STANDARD
 70
     0
  3

  4

  5

  6

  7

 40
1.0
 41
0.18
 42
0.0625
 43
0.38
 44
0.18
 45
0.0
 46
0.0
 47
0.0
 48
0.0
140
0.18
141
0.09
142
0.0
143
25.399999999999999
144
1.0
145
0.0
146
1.0
147
0.09
 71
     0
 72
     0
 73
     1
 74
     1
 75
     0
 76
     0
 77
     0
 78
     0
170
     0
171
     2
172
     0
173
     0
174
     0
175
     0
176
     0
177
     0
178
     0
  0
ENDTAB
  0
ENDSEC
  0
SECTION
  2
BLOCKS
  0
BLOCK
  8
0
  2
$MODEL_SPACE
 70
     0
 10
0.0
 20
0.0
 30
0.0
  3
$MODEL_SPACE
  1

  0
ENDBLK
  5
1BF
  8
0
  0
BLOCK
 67
     1
  8
0
  2
$PAPER_SPACE
 70
     0
 10
0.0
 20
0.0
 30
0.0
  3
$PAPER_SPACE
  1

  0
ENDBLK
  5
1BB
 67
     1
  8
0
  0
ENDSEC
  0
SECTION
  2
ENTITIES
  0
LINE
  5
2D
  8
HIBINO-BASE
  6
CONTINUOUS
 62
     7
 10
30.0
 20
810.0000299999997
 30
0.0
 11
570.0
 21
810.0000299999997
 31
0.0
  0
LINE
  5
2E
  8
HIBINO-BASE
  6
CONTINUOUS
 62
     7
 10
570.0
 20
30.000009999999929
 30
0.0
 11
30.0
 21
30.000009999999929
 31
0.0
  0
LINE
  5
2F
  8
HIBINO-BASE
  6
CONTINUOUS
 62
     7
 10
30.0
 20
30.000009999999929
 30
0.0
 11
30.0
 21
810.0000299999997
 31
0.0
  0
TEXT
  5
30
  8
HIBINO-BASE
 62
     7
 10
51.55201000000001
 20
10.773976599999891
 30
0.0
 40
10.800132539062499
  1
Hibino Corporation
 41
0.8
 11
51.55201000000001
 21
21.57410913906239
 31
0.0
 73
     3
  0
LINE
  5
31
  8
HIBINO-BASE
  6
CONTINUOUS
 62
     7
 10
570.0
 20
810.0000299999997
 30
0.0
 11
570.0
 21
30.000009999999929
 31
0.0
  0
LINE
  5
32
  8
HIBINO-BASE
  6
CONTINUOUS
 62
     7
 10
300.0
 20
97.499999999999872
 30
0.0
 11
570.0
 21
97.499999999999872
 31
0.0
  0
LINE
  5
33
  8
HIBINO-BASE
  6
CONTINUOUS
 62
     7
 10
300.0
 20
30.000009999999929
 30
0.0
 11
300.0
 21
97.499999999999872
 31
0.0
  0
TEXT
  5
34
  8
HIBINO-BASE
 62
     7
 10
302.69999999999999
 20
89.400008999999926
 30
0.0
 40
5.4000701171875001
  1
NOTE
 41
0.8
 11
302.69999999999999
 21
94.800079117187408
 31
0.0
 73
     3
  0
LINE
  5
35
  8
HIBINO-BASE
  6
CONTINUOUS
 62
     7
 10
404.99999000000003
 20
30.000009999999929
 30
0.0
 11
404.99999000000003
 21
97.499999999999872
 31
0.0
  0
TEXT
  5
36
  8
HIBINO-BASE
 62
     7
 10
407.69999000000001
 20
89.400008999999926
 30
0.0
 40
5.4000701171875001
  1
TITLE
 41
0.8
 11
407.69999000000001
 21
94.800079117187408
 31
0.0
 73
     3
  0
TEXT
  5
37
  8
HIBINO-BASE
 62
     7
 10
450.20515999999992
 20
10.773976599999891
 30
0.0
 40
10.800132539062499
  1
ヒビノ株式会社
 41
0.8
 11
450.20515999999992
 21
21.57410913906239
 31
0.0
 73
     3
  0
LINE
  5
38
  8
HIBINO-BASE
  6
CONTINUOUS
 62
     7
 10
300.0
 20
60.000009999999932
 30
0.0
 11
570.0
 21
60.000009999999932
 31
0.0
  0
TEXT
  5
39
  8
HIBINO-BASE
 62
     7
 10
445.19999000000001
 20
52.068958999999907
 30
0.0
 40
5.4000701171875001
  1
DRAWN
 41
0.8
 11
445.19999000000001
 21
57.469029117187397
 31
0.0
 73
     3
  0
TEXT
  5
3A
  8
HIBINO-BASE
 62
     7
 10
370.19999000000001
 20
52.068958999999907
 30
0.0
 40
5.4000701171875001
  1
DATE
 41
0.8
 11
370.19999000000001
 21
57.469029117187397
 31
0.0
 73
     3
  0
TEXT
  5
3B
  8
HIBINO-BASE
 62
     7
 10
303.30000000000001
 20
52.14163999999986
 30
0.0
 40
4.8865234375000002
  1
図面サイズ
 41
0.8
 11
303.30000000000001
 21
57.02816343749987
 31
0.0
 73
     3
  0
TEXT
  5
3C
  8
HIBINO-BASE
 62
     7
 10
340.19999000000001
 20
52.068958999999907
 30
0.0
 40
5.4000701171875001
  1
SCALE
 41
0.8
 11
340.19999000000001
 21
57.469029117187397
 31
0.0
 73
     3
  0
TEXT
  5
3D
  8
HIBINO-BASE
 62
     7
 10
407.69999000000001
 20
52.068958999999907
 30
0.0
 40
5.4000701171875001
  1
DESIGN
 41
0.8
 11
407.69999000000001
 21
57.469029117187397
 31
0.0
 73
     3
  0
TEXT
  5
3E
  8
HIBINO-BASE
 62
     7
 10
520.20000000000005
 20
52.068958999999907
 30
0.0
 40
5.4000701171875001
  1
DRAWING NO.
 41
0.8
 11
520.20000000000005
 21
57.469029117187397
 31
0.0
 73
     3
  0
TEXT
  5
3F
  8
HIBINO-BASE
 62
     7
 10
482.69999999999987
 20
52.068958999999907
 30
0.0
 40
5.4000701171875001
  1
CHECK
 41
0.8
 11
482.69999999999987
 21
57.469029117187397
 31
0.0
 73
     3
  0
LINE
  5
40
  8
HIBINO-BASE
  6
CONTINUOUS
 62
     7
 10
343.12499000000008
 20
33.750009999999932
 30
0.0
 11
354.37499000000008
 21
45.000009999999932
 31
0.0
  0
TEXT
  5
41
  8
HIBINO-BASE
 62
     7
 10
341.24999000000008
 20
39.852860999999891
 30
0.0
 40
6.5153517578124989
  1
1
 41
0.8
 11
341.24999000000008
 21
46.368212757812387
 31
0.0
 73
     3
  0
LINE
  5
42
  8
HIBINO-BASE
  6
CONTINUOUS
 62
     7
 10
337.5
 20
30.000009999999929
 30
0.0
 11
337.5
 21
60.000009999999932
 31
0.0
  0
LINE
  5
43
  8
HIBINO-BASE
  6
CONTINUOUS
 62
     7
 10
367.5
 20
30.000009999999929
 30
0.0
 11
367.5
 21
60.000009999999932
 31
0.0
  0
LINE
  5
44
  8
HIBINO-BASE
  6
CONTINUOUS
 62
     7
 10
442.49999999999989
 20
60.000009999999932
 30
0.0
 11
442.49999999999989
 21
30.000009999999929
 31
0.0
  0
LINE
  5
45
  8
HIBINO-BASE
  6
CONTINUOUS
 62
     7
 10
517.49999000000003
 20
60.000009999999932
 30
0.0
 11
517.49999000000003
 21
30.000009999999929
 31
0.0
  0
LINE
  5
46
  8
HIBINO-BASE
  6
CONTINUOUS
 62
     7
 10
479.99999000000003
 20
30.000009999999929
 30
0.0
 11
479.99999000000003
 21
60.000009999999932
 31
0.0
  0
TEXT
  5
47
  8
HIBINO-BASE
 62
     7
 10
311.73266000000001
 20
37.495368599999942
 30
0.0
 40
9.7730391796875011
  1
A4
 41
0.8
 11
311.73266000000001
 21
47.268407779687429
 31
0.0
 73
     3
  0
TEXT
  5
48
  8
HIBINO-BASE
 62
     7
 10
370.31193947970161
 20
38.017028999999937
 30
0.0
 40
5.4000701171875001
  1
'06.03.
 41
0.8
 11
370.31193947970161
 21
43.417099117187433
 31
0.0
 73
     3
  0
TEXT
  5
49
  8
HIBINO-BASE
 62
     7
 10
352.49999000000008
 20
34.227860999999891
 30
0.0
 40
6.5153517578124989
  1
3
 41
0.8
 11
352.49999000000008
 21
40.743212757812387
 31
0.0
 73
     3
  0
TEXT
  5
4A
  8
HIBINO-BASE
 62
     7
 10
447.01743003310389
 20
38.59094999999995
 30
0.0
 40
4.8865234374999993
  1
N.Sasaki
 41
0.8
 11
447.01743003310389
 21
43.477473437499953
 31
0.0
 73
     3
  0
ARC
  5
4B
  8
PATTERN_FILL
  6
CONTINUOUS
 62
     7
 10
117.0046164338178
 20
224.99667666107879
 30
0.0
 40
10.00000000000003
 50
134.42700400080551
 51
225.57299599919449
  0
ARC
  5
4C
  8
PATTERN_FILL
  6
CONTINUOUS
 62
     7
 10
117.0046164338178
 20
224.99667666107879
 30
0.0
 40
11.99999999999995
 50
125.68533471265221
 51
234.31466528734779
  0
ARC
  5
4D
  8
PATTERN_FILL
  6
CONTINUOUS
 62
     7
 10
117.0046164338178
 20
224.99667666107879
 30
0.0
 40
14.00000000000003
 50
120.0000000000004
 51
240.0
  0
ARC
  5
4E
  8
PATTERN_FILL
  6
CONTINUOUS
 62
     7
 10
117.0046164338178
 20
224.99667666107879
 30
0.0
 40
15.99999999999998
 50
115.944479772374
 51
244.05552022763001
  0
ARC
  5
4F
  8
PATTERN_FILL
  6
CONTINUOUS
 62
     7
 10
117.0046164338178
 20
224.99667666107879
 30
0.0
 40
30.00000000000005
 50
149.75607204401041
 51
210.24392795598959
  0
LINE
  5
50
  8
PATTERN_FILL
  6
CONTINUOUS
 62
     7
 10
86.00461643381756
 20
224.99667666107879
 30
0.0
 11
110.0046164338178
 21
224.99667666107879
 31
0.0
  0
ARC
  5
51
  8
PATTERN_FILL
  6
CONTINUOUS
 62
     7
 10
111.0046164338178
 20
852.2466766610795
 30
0.0
 40
625.25000000000125
 50
267.71992094845569
 51
269.90836348555132
  0
ARC
  5
52
  8
PATTERN_FILL
  6
CONTINUOUS
 62
     7
 10
121.877479600588
 20
852.15179062171615
 30
0.0
 40
623.25000000000102
 50
266.7452039161422
 51
268.90845531427311
  0
ARC
  5
53
  8
PATTERN_FILL
  6
CONTINUOUS
 62
     7
 10
132.7091939137608
 20
851.86817624525645
 30
0.0
 40
621.2500000000008
 50
265.7892465267945
 51
267.90544145148721
  0
ARC
  5
54
  8
PATTERN_FILL
  6
CONTINUOUS
 62
     7
 10
143.4981568628981
 20
851.39712239342396
 30
0.0
 40
619.25000000000068
 50
264.85269840211248
 51
266.8995189384097
  0
ARC
  5
55
  8
PATTERN_FILL
  6
CONTINUOUS
 62
     7
 10
154.24237247848509
 20
850.73997801491305
 30
0.0
 40
617.2500000000008
 50
263.9366644335438
 51
265.89014461226247
  0
ARC
  5
56
  8
PATTERN_FILL
  6
CONTINUOUS
 62
     7
 10
164.93871223690351
 20
849.89815781914933
 30
0.0
 40
615.25000000000068
 50
263.04292504797343
 51
264.87663243155151
  0
ARC
  5
57
  8
PATTERN_FILL
  6
CONTINUOUS
 62
     7
 10
119.0046164338177
 20
224.99667666107879
 30
0.0
 40
9.9999999999999503
 50
154.15806723683201
 51
205.84193276316799
  0
ARC
  5
58
  8
PATTERN_FILL
  6
CONTINUOUS
 62
     7
 10
111.0046164338177
 20
-402.25332333892197
 30
0.0
 40
625.25000000000102
 50
90.091636514448794
 51
92.280079051544305
  0
ARC
  5
59
  8
PATTERN_FILL
  6
CONTINUOUS
 62
     7
 10
121.8774796005879
 20
-402.1584372995585
 30
0.0
 40
623.25000000000068
 50
91.091544685726817
 51
93.254796083857713
  0
ARC
  5
5A
  8
PATTERN_FILL
  6
CONTINUOUS
 62
     7
 10
132.70919391376071
 20
-401.87482292309852
 30
0.0
 40
621.25000000000045
 50
92.094558548512694
 51
94.210753473205514
  0
ARC
  5
5B
  8
PATTERN_FILL
  6
CONTINUOUS
 62
     7
 10
143.49815686289801
 20
-401.4037690712662
 30
0.0
 40
619.25000000000068
 50
93.100481061590287
 51
95.147301597887534
  0
ARC
  5
5C
  8
PATTERN_FILL
  6
CONTINUOUS
 62
     7
 10
154.24237247848501
 20
-400.74662469275518
 30
0.0
 40
617.25000000000045
 50
94.109855387737497
 51
96.063335566456161
  0
ARC
  5
5D
  8
PATTERN_FILL
  6
CONTINUOUS
 62
     7
 10
164.93871223690351
 20
-399.90480449699157
 30
0.0
 40
615.25000000000057
 50
95.123367568448657
 51
96.957074952026659
  0
ARC
  5
5E
  8
PATTERN_FILL
  6
CONTINUOUS
 62
     7
 10
175.5840134469631
 20
-398.87977857569882
 30
0.0
 40
613.25000000000034
 50
96.138795112929103
 51
97.825890751592524
  0
ARC
  5
5F
  8
PATTERN_FILL
  6
CONTINUOUS
 62
     7
 10
107.0046164338177
 20
224.99667666107879
 30
0.0
 40
10.00000000000003
 50
314.4270040008056
 51
45.572995999194518
  0
ARC
  5
60
  8
PATTERN_FILL
  6
CONTINUOUS
 62
     7
 10
107.0046164338177
 20
224.99667666107879
 30
0.0
 40
11.99999999999995
 50
305.68533471265232
 51
54.314665287347772
  0
ARC
  5
61
  8
PATTERN_FILL
  6
CONTINUOUS
 62
     7
 10
107.0046164338177
 20
224.99667666107879
 30
0.0
 40
13.99999999999997
 50
300.0
 51
59.999999999999517
  0
ARC
  5
62
  8
PATTERN_FILL
  6
CONTINUOUS
 62
     7
 10
107.0046164338177
 20
224.99667666107879
 30
0.0
 40
15.999999999999989
 50
295.94447977237002
 51
64.055520227625905
  0
LINE
  5
63
  8
PATTERN_FILL
  6
CONTINUOUS
 62
     7
 10
130.00461643381769
 20
224.99667666107879
 30
0.0
 11
114.0046164338177
 21
224.99667666107879
 31
0.0
  0
ARC
  5
64
  8
PATTERN_FILL
  6
CONTINUOUS
 62
     7
 10
113.0046164338178
 20
852.2466766610795
 30
0.0
 40
625.25000000000125
 50
270.09163651444879
 51
271.55801407407188
  0
ARC
  5
65
  8
PATTERN_FILL
  6
CONTINUOUS
 62
     7
 10
102.1317532670475
 20
852.15179062171615
 30
0.0
 40
623.25000000000102
 50
271.09154468572677
 51
272.56322542334681
  0
ARC
  5
66
  8
PATTERN_FILL
  6
CONTINUOUS
 62
     7
 10
91.300038953874747
 20
851.86817624525645
 30
0.0
 40
621.2500000000008
 50
272.09455854851262
 51
273.57190508102588
  0
ARC
  5
67
  8
PATTERN_FILL
  6
CONTINUOUS
 62
     7
 10
80.511076004737248
 20
851.39712239342396
 30
0.0
 40
619.25000000000102
 50
273.1004810615903
 51
274.58425327946878
  0
ARC
  5
68
  8
PATTERN_FILL
  6
CONTINUOUS
 62
     7
 10
69.766860389149969
 20
850.73997801491305
 30
0.0
 40
617.2500000000008
 50
274.10985538773753
 51
275.60043940803598
  0
ARC
  5
69
  8
PATTERN_FILL
  6
CONTINUOUS
 62
     7
 10
59.070520630731309
 20
849.89815781914933
 30
0.0
 40
615.25000000000068
 50
275.12336756844871
 51
276.62053239338093
  0
ARC
  5
6A
  8
PATTERN_FILL
  6
CONTINUOUS
 62
     7
 10
105.0046164338178
 20
224.99667666107879
 30
0.0
 40
9.9999999999999503
 50
334.15806723683198
 51
25.84193276316801
  0
ARC
  5
6B
  8
PATTERN_FILL
  6
CONTINUOUS
 62
     7
 10
113.0046164338177
 20
-402.25332333892197
 30
0.0
 40
625.2500000000008
 50
88.441985925927526
 51
89.908363485550765
  0
ARC
  5
6C
  8
PATTERN_FILL
  6
CONTINUOUS
 62
     7
 10
102.1317532670474
 20
-402.1584372995585
 30
0.0
 40
623.25000000000068
 50
87.436774576651828
 51
88.908455314273183
  0
ARC
  5
6D
  8
PATTERN_FILL
  6
CONTINUOUS
 62
     7
 10
91.30003895387469
 20
-401.87482292309852
 30
0.0
 40
621.25000000000045
 50
86.427357896102109
 51
87.905441451487434
  0
ARC
  5
6E
  8
PATTERN_FILL
  6
CONTINUOUS
 62
     7
 10
80.511076004737134
 20
-401.4037690712662
 30
0.0
 40
619.25000000000068
 50
85.415746720531374
 51
86.899518938409685
  0
ARC
  5
6F
  8
PATTERN_FILL
  6
CONTINUOUS
 62
     7
 10
69.766860389149898
 20
-400.74662469275518
 30
0.0
 40
617.25000000000045
 50
84.399560591949438
 51
85.890144612262375
  0
ARC
  5
70
  8
PATTERN_FILL
  6
CONTINUOUS
 62
     7
 10
59.07052063073121
 20
-399.90480449699157
 30
0.0
 40
615.25000000000068
 50
83.379467606619485
 51
84.876632431551087
  0
ARC
  5
71
  8
PATTERN_FILL
  6
CONTINUOUS
 62
     7
 10
48.425219420671453
 20
-398.87977857569882
 30
0.0
 40
613.25000000000045
 50
82.355398155828595
 51
83.861204887070684
  0
ARC
  5
72
  8
PATTERN_FILL
  6
CONTINUOUS
 62
     7
 10
117.0046164338178
 20
224.99667666107879
 30
0.0
 40
18.000000000000039
 50
112.8853804761561
 51
247.1146195238413
  0
ARC
  5
73
  8
PATTERN_FILL
  6
CONTINUOUS
 62
     7
 10
117.0046164338178
 20
224.99667666107879
 30
0.0
 40
20.000000000000039
 50
110.4873151147231
 51
249.51268488527731
  0
ARC
  5
74
  8
PATTERN_FILL
  6
CONTINUOUS
 62
     7
 10
117.0046164338178
 20
224.99667666107879
 30
0.0
 40
22.0
 50
108.5530045350409
 51
251.4698458237894
  0
ARC
  5
75
  8
PATTERN_FILL
  6
CONTINUOUS
 62
     7
 10
117.0046164338178
 20
224.99667666107879
 30
0.0
 40
24.0
 50
106.94072759453169
 51
253.05927240546819
  0
ARC
  5
76
  8
PATTERN_FILL
  6
CONTINUOUS
 62
     7
 10
117.0046164338178
 20
224.99667666107879
 30
0.0
 40
26.000000000000028
 50
106.19135163861711
 51
253.80864836138329
  0
ARC
  5
77
  8
PATTERN_FILL
  6
CONTINUOUS
 62
     7
 10
117.0046164338178
 20
224.99667666107879
 30
0.0
 40
27.999999999999972
 50
125.4756660861337
 51
234.5243339138662
  0
ARC
  5
78
  8
PATTERN_FILL
  6
CONTINUOUS
 62
     7
 10
107.0046164338177
 20
224.99667666107879
 30
0.0
 40
18.0
 50
292.8853804761585
 51
67.114619523843871
  0
ARC
  5
79
  8
PATTERN_FILL
  6
CONTINUOUS
 62
     7
 10
107.0046164338177
 20
224.99667666107879
 30
0.0
 40
19.999999999999972
 50
290.48731511472278
 51
69.512684885276855
  0
ARC
  5
7A
  8
PATTERN_FILL
  6
CONTINUOUS
 62
     7
 10
107.0046164338177
 20
224.99667666107879
 30
0.0
 40
21.99999999999995
 50
288.53015417621049
 51
71.446995464959059
  0
ARC
  5
7B
  8
PATTERN_FILL
  6
CONTINUOUS
 62
     7
 10
107.0046164338177
 20
224.99667666107879
 30
0.0
 40
23.999999999999972
 50
16.531053293206011
 51
73.059272405468292
  0
ARC
  5
7C
  8
PATTERN_FILL
  6
CONTINUOUS
 62
     7
 10
107.0046164338177
 20
224.99667666107879
 30
0.0
 40
26.000000000000011
 50
27.795772496028022
 51
73.385696877752068
  0
ARC
  5
7D
  8
PATTERN_FILL
  6
CONTINUOUS
 62
     7
 10
175.5840134469631
 20
848.87313189785641
 30
0.0
 40
613.25000000000045
 50
262.17410924840749
 51
263.86120488707081
  0
ARC
  5
7E
  8
PATTERN_FILL
  6
CONTINUOUS
 62
     7
 10
186.17515013113899
 20
847.66642429713932
 30
0.0
 40
611.25000000000068
 50
261.33420116173897
 51
262.84152309440969
  0
ARC
  5
7F
  8
PATTERN_FILL
  6
CONTINUOUS
 62
     7
 10
196.7090339422322
 20
846.27961218411303
 30
0.0
 40
609.2500000000008
 50
260.52959681703783
 51
261.81826710974082
  0
ARC
  5
80
  8
PATTERN_FILL
  6
CONTINUOUS
 62
     7
 10
207.1826150621296
 20
844.71432499803302
 30
0.0
 40
607.25000000000102
 50
259.77162307628089
 51
260.79138338854642
  0
ARC
  5
81
  8
PATTERN_FILL
  6
CONTINUOUS
 62
     7
 10
217.59288308240451
 20
842.9722435862833
 30
0.0
 40
605.2500000000008
 50
259.08417762807238
 51
259.76078039007081
  0
ARC
  5
82
  8
PATTERN_FILL
  6
CONTINUOUS
 62
     7
 10
227.93686786650261
 20
841.05509932561233
 30
0.0
 40
603.25000000000102
 50
258.54199186204119
 51
258.72638516189772
  0
ARC
  5
83
  8
PATTERN_FILL
  6
CONTINUOUS
 62
     7
 10
107.0046164338177
 20
224.99667666107879
 30
0.0
 40
28.000000000000011
 50
34.771944031948429
 51
56.007162602932823
  0
ARC
  5
84
  8
PATTERN_FILL
  6
CONTINUOUS
 62
     7
 10
48.42521942067151
 20
848.87313189785641
 30
0.0
 40
613.25000000000045
 50
276.13879511292919
 51
277.64460184417089
  0
ARC
  5
85
  8
PATTERN_FILL
  6
CONTINUOUS
 62
     7
 10
37.834082736495411
 20
847.66642429713932
 30
0.0
 40
611.25000000000068
 50
277.15847690559042
 51
278.67272484069781
  0
ARC
  5
86
  8
PATTERN_FILL
  6
CONTINUOUS
 62
     7
 10
27.300198925402189
 20
846.27961218411303
 30
0.0
 40
609.25000000000102
 50
278.18173289025918
 51
279.50564020575871
  0
ARC
  5
87
  8
PATTERN_FILL
  6
CONTINUOUS
 62
     7
 10
16.826617805504721
 20
844.71432499803302
 30
0.0
 40
607.25000000000114
 50
279.20861661145358
 51
280.25934627179288
  0
ARC
  5
88
  8
PATTERN_FILL
  6
CONTINUOUS
 62
     7
 10
6.4163497852298974
 20
842.9722435862833
 30
0.0
 40
605.25000000000091
 50
280.23921960992919
 51
280.93855274996901
  0
ARC
  5
89
  8
PATTERN_FILL
  6
CONTINUOUS
 62
     7
 10
-3.9276349988680859
 20
841.05509932561233
 30
0.0
 40
603.25000000000125
 50
281.27361483810239
 51
281.45800813795893
  0
ARC
  5
8A
  8
PATTERN_FILL
  6
CONTINUOUS
 62
     7
 10
186.17515013113891
 20
-397.67307097498121
 30
0.0
 40
611.25000000000068
 50
97.158476905590348
 51
98.665798838261054
  0
ARC
  5
8B
  8
PATTERN_FILL
  6
CONTINUOUS
 62
     7
 10
196.7090339422322
 20
-396.28625886195528
 30
0.0
 40
609.2500000000008
 50
98.181732890259212
 51
99.470403182962144
  0
ARC
  5
8C
  8
PATTERN_FILL
  6
CONTINUOUS
 62
     7
 10
207.1826150621296
 20
-394.72097167587532
 30
0.0
 40
607.25000000000068
 50
99.208616611453564
 51
100.228376923719
  0
ARC
  5
8D
  8
PATTERN_FILL
  6
CONTINUOUS
 62
     7
 10
217.59288308240451
 20
-392.9788902641256
 30
0.0
 40
605.2500000000008
 50
100.23921960992919
 51
100.9158223719276
  0
ARC
  5
8E
  8
PATTERN_FILL
  6
CONTINUOUS
 62
     7
 10
227.9368678665025
 20
-391.06174600345457
 30
0.0
 40
603.25000000000068
 50
101.2736148381023
 51
101.4580081379588
  0
ARC
  5
8F
  8
PATTERN_FILL
  6
CONTINUOUS
 62
     7
 10
107.0046164338177
 20
224.99667666107879
 30
0.0
 40
23.99999999999995
 50
286.94072759453172
 51
343.46894670679438
  0
ARC
  5
90
  8
PATTERN_FILL
  6
CONTINUOUS
 62
     7
 10
107.0046164338177
 20
224.99667666107879
 30
0.0
 40
25.999999999999979
 50
286.61430312224809
 51
332.20422750397222
  0
ARC
  5
91
  8
PATTERN_FILL
  6
CONTINUOUS
 62
     7
 10
107.0046164338177
 20
224.99667666107879
 30
0.0
 40
27.999999999999961
 50
303.9071731192418
 51
325.22805596805159
  0
ARC
  5
92
  8
PATTERN_FILL
  6
CONTINUOUS
 62
     7
 10
16.826617805504611
 20
-394.72097167587532
 30
0.0
 40
607.25000000000102
 50
79.740653728206183
 51
80.791383388546464
  0
ARC
  5
93
  8
PATTERN_FILL
  6
CONTINUOUS
 62
     7
 10
6.4163497852298397
 20
-392.9788902641256
 30
0.0
 40
605.2500000000008
 50
79.061447250013813
 51
79.760780390070735
  0
ARC
  5
94
  8
PATTERN_FILL
  6
CONTINUOUS
 62
     7
 10
-3.9276349988682
 20
-391.06174600345457
 30
0.0
 40
603.25000000000102
 50
78.541991862041044
 51
78.726385161897554
  0
ARC
  5
95
  8
PATTERN_FILL
  6
CONTINUOUS
 62
     7
 10
37.834082736495361
 20
-397.67307097498121
 30
0.0
 40
611.25000000000068
 50
81.334201161738847
 51
82.841523094409567
  0
ARC
  5
96
  8
PATTERN_FILL
  6
CONTINUOUS
 62
     7
 10
27.300198925402071
 20
-396.28625886195528
 30
0.0
 40
609.2500000000008
 50
80.494359794270196
 51
81.818267109740688
  0
LINE
  5
97
  8
PATTERN_FILL
  6
CONTINUOUS
 62
     7
 10
465.80873000000003
 20
213.58361999999991
 30
0.0
 11
470.44929999999999
 21
208.94304999999989
 31
0.0
  0
LINE
  5
98
  8
PATTERN_FILL
  6
CONTINUOUS
 62
     7
 10
459.1979
 20
207.8055699999999
 30
0.0
 11
450.39533999999992
 21
199.0030099999999
 31
0.0
  0
LINE
  5
99
  8
PATTERN_FILL
  6
CONTINUOUS
 62
     7
 10
463.48138999999998
 20
210.9109399999999
 30
0.0
 11
468.07843000000003
 21
206.3138999999999
 31
0.0
  0
LINE
  5
9A
  8
PATTERN_FILL
  6
CONTINUOUS
 62
     7
 10
460.69665999999989
 20
208.69566999999989
 30
0.0
 11
465.36586999999997
 21
204.0264599999999
 31
0.0
  0
LINE
  5
9B
  8
PATTERN_FILL
  6
CONTINUOUS
 62
     7
 10
457.42387000000002
 20
206.96847999999989
 30
0.0
 11
462.29926999999998
 21
202.09305999999989
 31
0.0
  0
LINE
  5
9C
  8
PATTERN_FILL
  6
CONTINUOUS
 62
     7
 10
451.56015000000002
 20
205.56251999999989
 30
0.0
 11
445.40660999999989
 21
199.4089699999999
 31
0.0
  0
LINE
  5
9D
  8
PATTERN_FILL
  6
CONTINUOUS
 62
     7
 10
453.56389000000001
 20
205.82844999999989
 30
0.0
 11
458.84249
 21
200.54983999999999
 31
0.0
  0
LINE
  5
9E
  8
PATTERN_FILL
  6
CONTINUOUS
 62
     7
 10
446.84145000000001
 20
205.75751999999989
 30
0.0
 11
441.50938000000002
 21
200.42542999999989
 31
0.0
  0
LINE
  5
9F
  8
PATTERN_FILL
  6
CONTINUOUS
 62
     7
 10
449.08704
 20
205.52138999999991
 30
0.0
 11
455.10277999999988
 21
199.50565999999989
 31
0.0
  0
LINE
  5
A0
  8
PATTERN_FILL
  6
CONTINUOUS
 62
     7
 10
442.91613000000001
 20
206.83220999999989
 30
0.0
 11
438.01236999999992
 21
201.92844999999991
 31
0.0
  0
LINE
  5
A1
  8
PATTERN_FILL
  6
CONTINUOUS
 62
     7
 10
442.68400000000003
 20
206.92443999999989
 30
0.0
 11
450.60145999999992
 21
199.00696999999991
 31
0.0
  0
LINE
  5
A2
  8
PATTERN_FILL
  6
CONTINUOUS
 62
     7
 10
439.59311999999989
 20
208.5091899999999
 30
0.0
 11
434.91059000000001
 21
203.82666999999989
 31
0.0
  0
LINE
  5
A3
  8
PATTERN_FILL
  6
CONTINUOUS
 62
     7
 10
436.78415999999999
 20
210.66153999999989
 30
0.0
 11
432.31517000000002
 21
205.94097999999991
 31
0.0
  0
LINE
  5
A4
  8
PATTERN_FILL
  6
CONTINUOUS
 62
     7
 10
434.39310999999992
 20
213.30918999999989
 30
0.0
 11
429.76175000000001
 21
208.67782999999989
 31
0.0
  0
LINE
  5
A5
  8
PATTERN_FILL
  6
CONTINUOUS
 62
     7
 10
469.06775999999991
 20
242.67541999999989
 30
0.0
 11
464.46715999999992
 21
238.07483999999991
 31
0.0
  0
LINE
  5
A6
  8
PATTERN_FILL
  6
CONTINUOUS
 62
     7
 10
471.30099000000001
 20
239.90865999999991
 30
0.0
 11
466.60919000000001
 21
235.21686999999989
 31
0.0
  0
LINE
  5
A7
  8
PATTERN_FILL
  6
CONTINUOUS
 62
     7
 10
468.53259000000003
 20
231.06573999999989
 30
0.0
 11
475.96409
 21
223.63422999999989
 31
0.0
  0
LINE
  5
A8
  8
PATTERN_FILL
  6
CONTINUOUS
 62
     7
 10
473.17626000000001
 20
236.78392999999991
 30
0.0
 11
468.2531899999999
 21
231.86085999999989
 31
0.0
  0
LINE
  5
A9
  8
PATTERN_FILL
  6
CONTINUOUS
 62
     7
 10
474.65285
 20
233.2605199999999
 30
0.0
 11
469.28435000000002
 21
227.89201999999989
 31
0.0
  0
LINE
  5
AA
  8
PATTERN_FILL
  6
CONTINUOUS
 62
     7
 10
469.4996999999999
 20
224.89264999999989
 30
0.0
 11
475.31616000000002
 21
219.07617999999991
 31
0.0
  0
LINE
  5
AB
  8
PATTERN_FILL
  6
CONTINUOUS
 62
     7
 10
475.64915999999999
 20
229.25681999999989
 30
0.0
 11
469.39771999999988
 21
223.00538999999989
 31
0.0
  0
LINE
  5
AC
  8
PATTERN_FILL
  6
CONTINUOUS
 62
     7
 10
468.95798000000002
 20
220.43436999999989
 30
0.0
 11
474.11405999999999
 21
215.27828999999991
 31
0.0
  0
LINE
  5
AD
  8
PATTERN_FILL
  6
CONTINUOUS
 62
     7
 10
467.66037999999992
 20
216.7319499999999
 30
0.0
 11
472.47104000000002
 21
211.92130999999989
 31
0.0
  0
LINE
  5
AE
  8
PATTERN_FILL
  6
CONTINUOUS
 62
     7
 10
475.99698999999993
 20
224.60465999999991
 30
0.0
 11
467.19441999999992
 21
215.80209999999991
 31
0.0
  0
LINE
  5
AF
  8
PATTERN_FILL
  6
CONTINUOUS
 62
     7
 10
436.92129
 20
247.4710399999999
 30
0.0
 11
441.73194000000001
 21
242.66038999999989
 31
0.0
  0
LINE
  5
B0
  8
PATTERN_FILL
  6
CONTINUOUS
 62
     7
 10
451.36577999999992
 20
250.96409999999989
 30
0.0
 11
443.93427000000003
 21
243.53259999999989
 31
0.0
  0
LINE
  5
B1
  8
PATTERN_FILL
  6
CONTINUOUS
 62
     7
 10
440.27827999999988
 20
249.11406999999991
 30
0.0
 11
445.43436000000003
 21
243.95798999999991
 31
0.0
  0
LINE
  5
B2
  8
PATTERN_FILL
  6
CONTINUOUS
 62
     7
 10
456.55299000000002
 20
250.16064999999989
 30
0.0
 11
450.87279000000001
 21
244.48046999999991
 31
0.0
  0
LINE
  5
B3
  8
PATTERN_FILL
  6
CONTINUOUS
 62
     7
 10
444.07616000000002
 20
250.31617999999989
 30
0.0
 11
449.89263999999997
 21
244.4996999999999
 31
0.0
  0
LINE
  5
B4
  8
PATTERN_FILL
  6
CONTINUOUS
 62
     7
 10
460.27561999999989
 20
248.8832899999999
 30
0.0
 11
455.18920000000003
 21
243.7968699999999
 31
0.0
  0
LINE
  5
B5
  8
PATTERN_FILL
  6
CONTINUOUS
 62
     7
 10
448.63422000000003
 20
250.96409999999989
 30
0.0
 11
456.06572
 21
243.53259999999989
 31
0.0
  0
LINE
  5
B6
  8
PATTERN_FILL
  6
CONTINUOUS
 62
     7
 10
463.38062999999988
 20
247.2925699999999
 30
0.0
 11
458.59275999999988
 21
242.5046999999999
 31
0.0
  0
LINE
  5
B7
  8
PATTERN_FILL
  6
CONTINUOUS
 62
     7
 10
466.49222999999989
 20
245.09990999999991
 30
0.0
 11
461.86623999999989
 21
240.47390999999999
 31
0.0
  0
LINE
  5
B8
  8
PATTERN_FILL
  6
CONTINUOUS
 62
     7
 10
433.94304
 20
245.44930999999991
 30
0.0
 11
438.58361000000002
 21
240.80873999999989
 31
0.0
  0
LINE
  5
B9
  8
PATTERN_FILL
  6
CONTINUOUS
 62
     7
 10
453.64979
 20
250.74255999999991
 30
0.0
 11
475.74254999999999
 21
228.64979999999991
 31
0.0
  0
LINE
  5
BA
  8
PATTERN_FILL
  6
CONTINUOUS
 62
     7
 10
457.56655000000001
 20
249.87463999999991
 30
0.0
 11
474.87463000000002
 21
232.5665599999999
 31
0.0
  0
LINE
  5
BB
  8
PATTERN_FILL
  6
CONTINUOUS
 62
     7
 10
424.45587999999998
 20
220.15255999999999
 30
0.0
 11
445.15255000000002
 21
199.45587999999989
 31
0.0
  0
LINE
  5
BC
  8
PATTERN_FILL
  6
CONTINUOUS
 62
     7
 10
447.24606999999997
 20
250.8537399999999
 30
0.0
 11
424.1462499999999
 21
227.75392999999991
 31
0.0
  0
LINE
  5
BD
  8
PATTERN_FILL
  6
CONTINUOUS
 62
     7
 10
440.83620000000002
 20
249.33156999999991
 30
0.0
 11
425.66842999999989
 21
234.1637999999999
 31
0.0
  0
LINE
  5
BE
  8
PATTERN_FILL
  6
CONTINUOUS
 62
     7
 10
475.26853
 20
218.8761999999999
 30
0.0
 11
456.12378999999999
 21
199.73146999999989
 31
0.0
  0
LINE
  5
BF
  8
PATTERN_FILL
  6
CONTINUOUS
 62
     7
 10
424.00290999999999
 20
225.38942999999989
 30
0.0
 11
432.07884000000001
 21
217.31349999999989
 31
0.0
  0
LINE
  5
C0
  8
PATTERN_FILL
  6
CONTINUOUS
 62
     7
 10
432.49392999999992
 20
216.41000999999989
 30
0.0
 11
427.70587999999992
 21
211.62194999999991
 31
0.0
  0
LINE
  5
C1
  8
PATTERN_FILL
  6
CONTINUOUS
 62
     7
 10
431.13771999999989
 20
220.05379999999991
 30
0.0
 11
426.02473999999989
 21
214.94081999999989
 31
0.0
  0
LINE
  5
C2
  8
PATTERN_FILL
  6
CONTINUOUS
 62
     7
 10
424.47017
 20
229.92217999999991
 30
0.0
 11
430.53339999999997
 21
223.8589299999999
 31
0.0
  0
LINE
  5
C3
  8
PATTERN_FILL
  6
CONTINUOUS
 62
     7
 10
430.50848999999988
 20
224.4245499999999
 30
0.0
 11
424.77663000000001
 21
218.69270999999989
 31
0.0
  0
LINE
  5
C4
  8
PATTERN_FILL
  6
CONTINUOUS
 62
     7
 10
425.54982999999999
 20
233.84250999999989
 30
0.0
 11
430.82844
 21
228.5638999999999
 31
0.0
  0
LINE
  5
C5
  8
PATTERN_FILL
  6
CONTINUOUS
 62
     7
 10
431.17678999999993
 20
230.09286999999989
 30
0.0
 11
424.07753000000002
 21
222.9935899999999
 31
0.0
  0
LINE
  5
C6
  8
PATTERN_FILL
  6
CONTINUOUS
 62
     7
 10
427.09305999999992
 20
237.2992799999999
 30
0.0
 11
431.96847000000002
 21
232.42387999999991
 31
0.0
  0
LINE
  5
C7
  8
PATTERN_FILL
  6
CONTINUOUS
 62
     7
 10
429.02645000000001
 20
240.36587999999989
 30
0.0
 11
433.69565999999992
 21
235.6966699999999
 31
0.0
  0
LINE
  5
C8
  8
PATTERN_FILL
  6
CONTINUOUS
 62
     7
 10
431.31389000000001
 20
243.07844999999989
 30
0.0
 11
435.91093000000001
 21
238.48139999999989
 31
0.0
  0
TEXT
  5
C9
  8
SPEC
 62
     7
 10
56.250010000000032
 20
784.17984859999956
 30
0.0
 40
7.3297774609374979
  1
仕様
 41
0.8
 11
56.250010000000032
 21
791.50962606093719
 31
0.0
 73
     3
  0
LINE
  5
CA
  8
SPEC
  6
CONTINUOUS
 62
     7
 10
52.499725464391901
 20
780.0
 30
0.0
 11
494.99970546439101
 21
780.0
 31
0.0
  0
LINE
  5
CB
  8
SPEC
  6
CONTINUOUS
 62
     7
 10
52.499725464391901
 20
768.75
 30
0.0
 11
494.99970546439101
 21
768.75
 31
0.0
  0
LINE
  5
CC
  8
SPEC
  6
CONTINUOUS
 62
     7
 10
52.499725464391901
 20
757.5
 30
0.0
 11
494.99970546439101
 21
757.5
 31
0.0
  0
TEXT
  5
CD
  8
SPEC
 62
     7
 10
152.4908407545683
 20
771.42584255426914
 30
0.0
 40
5.700933749999999
  1
水晶制御PLLシンセサイザー方式
 41
0.8
 11
152.4908407545683
 21
777.12677630426913
 31
0.0
 73
     3
  0
LINE
  5
CE
  8
SPEC
  6
CONTINUOUS
 62
     7
 10
52.499725464391901
 20
780.0
 30
0.0
 11
52.499725464391901
 21
611.24999000000003
 31
0.0
  0
LINE
  5
CF
  8
SPEC
  6
CONTINUOUS
 62
     7
 10
149.99971546439139
 20
780.0
 30
0.0
 11
149.99971546439139
 21
611.24999000000003
 31
0.0
  0
LINE
  5
D0
  8
SPEC
  6
CONTINUOUS
 62
     7
 10
494.99970546439101
 20
780.0
 30
0.0
 11
494.99970546439101
 21
611.24999000000003
 31
0.0
  0
TEXT
  5
D1
  8
SPEC
 62
     7
 10
55.13106465274479
 20
771.56656275263242
 30
0.0
 40
5.700933749999999
  1
発振方式
 41
0.8
 11
55.13106465274479
 21
777.26749650263241
 31
0.0
 73
     3
  0
LINE
  5
D2
  8
SPEC
  6
CONTINUOUS
 62
     7
 10
52.499725464391901
 20
723.74999000000003
 30
0.0
 11
494.99970546439101
 21
723.74999000000003
 31
0.0
  0
LINE
  5
D3
  8
SPEC
  6
CONTINUOUS
 62
     7
 10
52.499725464391901
 20
712.49999000000003
 30
0.0
 11
494.99970546439101
 21
712.49999000000003
 31
0.0
  0
LINE
  5
D4
  8
SPEC
  6
CONTINUOUS
 62
     7
 10
52.499725464391901
 20
689.99999000000003
 30
0.0
 11
494.99970546439101
 21
689.99999000000003
 31
0.0
  0
LINE
  5
D5
  8
SPEC
  6
CONTINUOUS
 62
     7
 10
52.499725464391901
 20
701.24999000000003
 30
0.0
 11
494.99970546439101
 21
701.24999000000003
 31
0.0
  0
TEXT
  5
D6
  8
SPEC
 62
     7
 10
154.49923225882421
 20
760.07140019935764
 30
0.0
 40
5.700933749999999
  1
F3E
 41
0.8
 11
154.49923225882421
 21
765.77233394935763
 31
0.0
 73
     3
  0
TEXT
  5
D7
  8
SPEC
 62
     7
 10
55.199715464391858
 20
760.24815977785033
 30
0.0
 40
5.700933749999999
  1
電波型式
 41
0.8
 11
55.199715464391858
 21
765.94909352785032
 31
0.0
 73
     3
  0
TEXT
  5
D8
  8
SPEC
 62
     7
 10
152.85638899675871
 20
748.61375480000004
 30
0.0
 40
5.700933749999999
  1
U2/BETA 58-JBX:B型(806～810MHz)30チャンネルのうち任意の1チャンネル
 41
0.8
 11
152.85638899675871
 21
754.31468855000003
 31
0.0
 73
     3
  0
TEXT
  5
D9
  8
SPEC
 62
     7
 10
55.199715464391858
 20
748.61375480000004
 30
0.0
 40
5.700933749999999
  1
送信周波数
 41
0.8
 11
55.199715464391858
 21
754.31468855000003
 31
0.0
 73
     3
  0
TEXT
  5
DA
  8
SPEC
 62
     7
 10
152.69972546439141
 20
715.12486068727878
 30
0.0
 40
5.700933749999999
  1
10mW
 41
0.8
 11
152.69972546439141
 21
720.82579443727866
 31
0.0
 73
     3
  0
TEXT
  5
DB
  8
SPEC
 62
     7
 10
55.199715464391858
 20
715.35744583538235
 30
0.0
 40
5.700933749999999
  1
空中線電力
 41
0.8
 11
55.199715464391858
 21
721.05837958538234
 31
0.0
 73
     3
  0
TEXT
  5
DC
  8
SPEC
 62
     7
 10
152.69972546439141
 20
703.92708186473453
 30
0.0
 40
5.700933749999999
  1
約100m(標準環境における最大値)
 41
0.8
 11
152.69972546439141
 21
709.62801561473441
 31
0.0
 73
     3
  0
TEXT
  5
DD
  8
SPEC
 62
     7
 10
55.199715464391858
 20
703.94288215692166
 30
0.0
 40
5.700933749999999
  1
到達距離
 41
0.8
 11
55.199715464391858
 21
709.64381590692165
 31
0.0
 73
     3
  0
TEXT
  5
DE
  8
SPEC
 62
     7
 10
152.69972546439141
 20
692.67708186473453
 30
0.0
 40
5.700933749999999
  1
32.768kHz
 41
0.8
 11
152.69972546439141
 21
698.37801561473452
 31
0.0
 73
     3
  0
TEXT
  5
DF
  8
SPEC
 62
     7
 10
54.747165348624641
 20
692.8163049157672
 30
0.0
 40
5.700933749999999
  1
トーン信号周波数
 41
0.8
 11
54.747165348624641
 21
698.5172386657672
 31
0.0
 73
     3
  0
TEXT
  5
E0
  8
SPEC
 62
     7
 10
152.69972546439141
 20
681.27041833236717
 30
0.0
 40
5.700933749999999
  1
50～15,000Hz ±2dB(システム全体の帯域はマイクヘッドにより変動)
 41
0.8
 11
152.69972546439141
 21
686.97135208236728
 31
0.0
 73
     3
  0
TEXT
  5
E1
  8
SPEC
 62
     7
 10
55.11743362516146
 20
681.5663049157672
 30
0.0
 40
5.700933749999999
  1
周波数特性 
 41
0.8
 11
55.11743362516146
 21
687.26723866576708
 31
0.0
 73
     3
  0
TEXT
  5
E2
  8
SPEC
 62
     7
 10
154.31858196552051
 20
670.17708186473453
 30
0.0
 40
5.700933749999999
  1
0～26dB
 41
0.8
 11
154.31858196552051
 21
675.87801561473452
 31
0.0
 73
     3
  0
TEXT
  5
E3
  8
SPEC
 62
     7
 10
55.035151785931042
 20
670.23402307653669
 30
0.0
 40
5.700933749999999
  1
ゲイン調整範囲
 41
0.8
 11
55.035151785931042
 21
675.93495682653656
 31
0.0
 73
     3
  0
LINE
  5
E4
  8
SPEC
  6
CONTINUOUS
 62
     7
 10
52.499725464391901
 20
667.49999000000003
 30
0.0
 11
494.99970546439101
 21
667.49999000000003
 31
0.0
  0
TEXT
  5
E5
  8
SPEC
 62
     7
 10
152.43861957711249
 20
647.67708186473453
 30
0.0
 40
5.700933749999999
  1
単3形アルカリ乾電池×2
 41
0.8
 11
152.43861957711249
 21
653.37801561473441
 31
0.0
 73
     3
  0
TEXT
  5
E6
  8
SPEC
 62
     7
 10
55.199715464391858
 20
647.8163049157672
 30
0.0
 40
5.700933749999999
  1
使用電池
 41
0.8
 11
55.199715464391858
 21
653.5172386657672
 31
0.0
 73
     3
  0
TEXT
  5
E7
  8
SPEC
 62
     7
 10
152.69972546439141
 20
636.53152421964626
 30
0.0
 40
5.700933749999999
  1
約12時間(Dracell MN1500 1.5V単3形アルカリ乾電池　使用時)
 41
0.8
 11
152.69972546439141
 21
642.23245796964625
 31
0.0
 73
     3
  0
TEXT
  5
E8
  8
SPEC
 62
     7
 10
55.199715464391858
 20
636.52516399615195
 30
0.0
 40
5.700933749999999
  1
バッテリー・ライフ
 41
0.8
 11
55.199715464391858
 21
642.22609774615194
 31
0.0
 73
     3
  0
LINE
  5
E9
  8
SPEC
  6
CONTINUOUS
 62
     7
 10
52.499725464391901
 20
633.74999000000003
 30
0.0
 11
494.99970546439101
 21
633.74999000000003
 31
0.0
  0
TEXT
  5
EA
  8
SPEC
 62
     7
 10
152.59528310947979
 20
602.88596657455776
 30
0.0
 40
5.700933749999999
  1
Φ53×244mm(アンテナ部含まず)
 41
0.8
 11
152.59528310947979
 21
608.58690032455775
 31
0.0
 73
     3
  0
TEXT
  5
EB
  8
SPEC
 62
     7
 10
55.199715464391858
 20
602.65174123730628
 30
0.0
 40
5.700933749999999
  1
寸法(W+H+D)
 41
0.8
 11
55.199715464391858
 21
608.35267498730639
 31
0.0
 73
     3
  0
TEXT
  5
EC
  8
SPEC
 62
     7
 10
152.69972546439141
 20
591.11375480000004
 30
0.0
 40
5.700933749999999
  1
約328g(除乾電池)
 41
0.8
 11
152.69972546439141
 21
596.81468855000003
 31
0.0
 73
     3
  0
TEXT
  5
ED
  8
SPEC
 62
     7
 10
55.199715464391858
 20
591.60744583538258
 30
0.0
 40
5.700933749999999
  1
質量
 41
0.8
 11
55.199715464391858
 21
597.30837958538245
 31
0.0
 73
     3
  0
LINE
  5
EE
  8
SPEC
  6
CONTINUOUS
 62
     7
 10
52.499725464391901
 20
622.49999000000003
 30
0.0
 11
494.99970546439101
 21
622.49999000000003
 31
0.0
  0
LINE
  5
EF
  8
SPEC
  6
CONTINUOUS
 62
     7
 10
52.499725464391901
 20
611.24999000000003
 30
0.0
 11
494.99970546439101
 21
611.24999000000003
 31
0.0
  0
LINE
  5
F0
  8
SPEC
  6
CONTINUOUS
 62
     7
 10
52.499725464391901
 20
656.24999000000003
 30
0.0
 11
494.99970546439101
 21
656.24999000000003
 31
0.0
  0
TEXT
  5
F1
  8
SPEC
 62
     7
 10
154.52746667534359
 20
625.17708186473453
 30
0.0
 40
5.700933749999999
  1
Beta58ヘッド
 41
0.8
 11
154.52746667534359
 21
630.87801561473452
 31
0.0
 73
     3
  0
TEXT
  5
F2
  8
SPEC
 62
     7
 10
55.199715464391858
 20
625.3163049157672
 30
0.0
 40
5.700933749999999
  1
マイク部
 41
0.8
 11
55.199715464391858
 21
631.01723866576708
 31
0.0
 73
     3
  0
LINE
  5
F3
  8
SPEC
  6
CONTINUOUS
 62
     7
 10
52.499725464391901
 20
644.99999000000003
 30
0.0
 11
494.99970546439101
 21
644.99999000000003
 31
0.0
  0
TEXT
  5
F4
  8
SPEC
 62
     7
 10
152.43861957711249
 20
614.08374539710201
 30
0.0
 40
5.700933749999999
  1
黒(ボディ本体)
 41
0.8
 11
152.43861957711249
 21
619.784679147102
 31
0.0
 73
     3
  0
TEXT
  5
F5
  8
SPEC
 62
     7
 10
55.199715464391858
 20
613.98402307653669
 30
0.0
 40
5.700933749999999
  1
外装
 41
0.8
 11
55.199715464391858
 21
619.68495682653656
 31
0.0
 73
     3
  0
LINE
  5
F6
  8
SPEC
  6
CONTINUOUS
 62
     7
 10
52.499725464391901
 20
678.74999000000003
 30
0.0
 11
494.99970546439101
 21
678.74999000000003
 31
0.0
  0
TEXT
  5
F7
  8
SPEC
 62
     7
 10
152.80416781930299
 20
659.13596657455776
 30
0.0
 40
5.700933749999999
  1
1/4波長ヘリカル
 41
0.8
 11
152.80416781930299
 21
664.83690032455775
 31
0.0
 73
     3
  0
TEXT
  5
F8
  8
SPEC
 62
     7
 10
55.199715464391858
 20
658.86060031769125
 30
0.0
 40
5.700933749999999
  1
アンテナ
 41
0.8
 11
55.199715464391858
 21
664.56153406769124
 31
0.0
 73
     3
  0
LINE
  5
F9
  8
SPEC
  6
CONTINUOUS
 62
     7
 10
52.499725464391901
 20
599.99999000000003
 30
0.0
 11
494.99970546439101
 21
599.99999000000003
 31
0.0
  0
LINE
  5
FA
  8
SPEC
  6
CONTINUOUS
 62
     7
 10
52.499725464391901
 20
588.74999000000003
 30
0.0
 11
494.99970546439101
 21
588.74999000000003
 31
0.0
  0
LINE
  5
FB
  8
SPEC
  6
CONTINUOUS
 62
     7
 10
52.499725464391901
 20
588.74999000000003
 30
0.0
 11
52.499725464391901
 21
611.19997000000012
 31
0.0
  0
LINE
  5
FC
  8
SPEC
  6
CONTINUOUS
 62
     7
 10
149.99971546439139
 20
611.24999000000003
 30
0.0
 11
149.99971546439139
 21
588.74999000000003
 31
0.0
  0
LINE
  5
FD
  8
SPEC
  6
CONTINUOUS
 62
     7
 10
494.99970546439101
 20
588.74999000000003
 30
0.0
 11
494.99970546439101
 21
611.24999000000003
 31
0.0
  0
TEXT
  5
FE
  8
SPEC
 62
     7
 10
197.68615754487041
 20
726.86235104116861
 30
0.0
 40
5.700933749999999
  1
合計142チャンネルのうち任意の1チャンネル
 41
0.8
 11
197.68615754487041
 21
732.56328479116871
 31
0.0
 73
     3
  0
TEXT
  5
FF
  8
SPEC
 62
     7
 10
152.85638899675871
 20
737.36375480000004
 30
0.0
 40
5.700933749999999
  1
U2/BETA 58-A24:A型(797～806MHz)71チャンネルとA2型 (779～788MHz)71チャンネル
 41
0.8
 11
152.85638899675871
 21
743.06468855000003
 31
0.0
 73
     3
  0
TEXT
  5
100
  8
DIMNSIONS
 62
     7
 10
240.00001
 20
66.808478599999916
 30
0.0
 40
7.3297774609374979
  1
(単位：mm)
 41
0.8
 11
240.00001
 21
74.138256060937408
 31
0.0
 73
     3
  0
LINE
  5
101
  8
DIMNSIONS
  6
CONTINUOUS
 62
     7
 10
161.0
 20
249.50000997764809
 30
0.0
 11
161.0
 21
280.99999997764809
 31
0.0
  0
LINE
  5
102
  8
DIMNSIONS
  6
CONTINUOUS
 62
     7
 10
329.99999000000008
 20
248.00000997764809
 30
0.0
 11
329.99999000000008
 21
280.99999997764809
 31
0.0
  0
LINE
  5
103
  8
DIMNSIONS
  6
CONTINUOUS
 62
     7
 10
161.0
 20
274.99999999999989
 30
0.0
 11
329.99999000000008
 21
274.99999999999989
 31
0.0
  0
LINE
  5
104
  8
DIMNSIONS
  6
CONTINUOUS
 62
     7
 10
161.0
 20
274.99999999999989
 30
0.0
 11
170.52500000000001
 21
277.55221605790632
 31
0.0
  0
LINE
  5
105
  8
DIMNSIONS
  6
CONTINUOUS
 62
     7
 10
161.0
 20
274.99999999999989
 30
0.0
 11
170.52500000000001
 21
272.44778394209339
 31
0.0
  0
LINE
  5
106
  8
DIMNSIONS
  6
CONTINUOUS
 62
     7
 10
329.99999000000008
 20
274.99999999999989
 30
0.0
 11
320.47498999999999
 21
272.44778394209339
 31
0.0
  0
LINE
  5
107
  8
DIMNSIONS
  6
CONTINUOUS
 62
     7
 10
329.99999000000008
 20
274.99999999999989
 30
0.0
 11
320.47498999999999
 21
277.55221605790632
 31
0.0
  0
TEXT
  5
108
  8
DIMNSIONS
 62
     7
 10
237.56249500000001
 20
279.48165666666659
 30
0.0
 40
8.1442057291666661
  1
169
 41
0.8
 11
237.56249500000001
 21
287.62586239583322
 31
0.0
 73
     3
  0
LINE
  5
109
  8
DIMNSIONS
  6
CONTINUOUS
 62
     7
 10
329.99999000000008
 20
248.00000997764809
 30
0.0
 11
329.99999000000008
 21
281.00000997764801
 31
0.0
  0
LINE
  5
10A
  8
DIMNSIONS
  6
CONTINUOUS
 62
     7
 10
371.0
 20
231.00000997764809
 30
0.0
 11
371.0
 21
281.00000997764801
 31
0.0
  0
LINE
  5
10B
  8
DIMNSIONS
  6
CONTINUOUS
 62
     7
 10
329.99999000000008
 20
275.0000099999998
 30
0.0
 11
371.0
 21
275.0000099999998
 31
0.0
  0
LINE
  5
10C
  8
DIMNSIONS
  6
CONTINUOUS
 62
     7
 10
329.99999000000008
 20
275.0000099999998
 30
0.0
 11
339.52499
 21
277.5522260579063
 31
0.0
  0
LINE
  5
10D
  8
DIMNSIONS
  6
CONTINUOUS
 62
     7
 10
329.99999000000008
 20
275.0000099999998
 30
0.0
 11
339.52499
 21
272.44779394209343
 31
0.0
  0
LINE
  5
10E
  8
DIMNSIONS
  6
CONTINUOUS
 62
     7
 10
371.0
 20
275.0000099999998
 30
0.0
 11
361.47500000000002
 21
272.44779394209343
 31
0.0
  0
LINE
  5
10F
  8
DIMNSIONS
  6
CONTINUOUS
 62
     7
 10
371.0
 20
275.0000099999998
 30
0.0
 11
361.47500000000002
 21
277.5522260579063
 31
0.0
  0
TEXT
  5
110
  8
DIMNSIONS
 62
     7
 10
345.20832833333333
 20
279.48166666666651
 30
0.0
 40
8.1442057291666661
  1
41
 41
0.8
 11
345.20832833333333
 21
287.6258723958332
 31
0.0
 73
     3
  0
LINE
  5
111
  8
DIMNSIONS
  6
CONTINUOUS
 62
     7
 10
373.99999997764832
 20
228.00000999999989
 30
0.0
 11
393.49999997764832
 21
228.00000999999989
 31
0.0
  0
LINE
  5
112
  8
DIMNSIONS
  6
CONTINUOUS
 62
     7
 10
373.99999997764832
 20
222.00000999999989
 30
0.0
 11
393.49999997764832
 21
222.00000999999989
 31
0.0
  0
LINE
  5
113
  8
DIMNSIONS
  6
CONTINUOUS
 62
     7
 10
387.5
 20
222.00000999999989
 30
0.0
 11
387.5
 21
228.00000999999989
 31
0.0
  0
LINE
  5
114
  8
DIMNSIONS
  6
CONTINUOUS
 62
     7
 10
387.5
 20
228.00000999999989
 30
0.0
 11
387.5
 21
243.0000100150873
 31
0.0
  0
LINE
  5
115
  8
DIMNSIONS
  6
CONTINUOUS
 62
     7
 10
387.5
 20
228.00000999999989
 30
0.0
 11
384.94778394209368
 21
237.5250099999999
 31
0.0
  0
LINE
  5
116
  8
DIMNSIONS
  6
CONTINUOUS
 62
     7
 10
387.5
 20
228.00000999999989
 30
0.0
 11
390.05221605790632
 21
237.5250099999999
 31
0.0
  0
LINE
  5
117
  8
DIMNSIONS
  6
CONTINUOUS
 62
     7
 10
387.5
 20
222.00000999999989
 30
0.0
 11
387.5
 21
207.2083433333332
 31
0.0
  0
LINE
  5
118
  8
DIMNSIONS
  6
CONTINUOUS
 62
     7
 10
387.5
 20
222.00000999999989
 30
0.0
 11
390.05221605790632
 21
212.47500999999991
 31
0.0
  0
LINE
  5
119
  8
DIMNSIONS
  6
CONTINUOUS
 62
     7
 10
387.5
 20
222.00000999999989
 30
0.0
 11
384.94778394209368
 21
212.47500999999991
 31
0.0
  0
TEXT
  5
11A
  8
DIMNSIONS
 62
     7
 10
383.01834333333329
 20
207.2083433333332
 30
0.0
 40
8.1442057291666661
  1
6
 50
90.0
 41
0.8
 11
374.87413760416672
 21
207.2083433333332
 31
0.0
 73
     3
  0
LINE
  5
11B
  8
DIMNSIONS
  6
CONTINUOUS
 62
     7
 10
335.99998997764823
 20
242.00000999999989
 30
0.0
 11
355.99998997764823
 21
242.00000999999989
 31
0.0
  0
LINE
  5
11C
  8
DIMNSIONS
  6
CONTINUOUS
 62
     7
 10
335.99998997764823
 20
208.00000999999989
 30
0.0
 11
355.99998997764823
 21
208.00000999999989
 31
0.0
  0
LINE
  5
11D
  8
DIMNSIONS
  6
CONTINUOUS
 62
     7
 10
349.99999000000008
 20
208.00000999999989
 30
0.0
 11
349.99999000000008
 21
189.41668666666649
 31
0.0
  0
LINE
  5
11E
  8
DIMNSIONS
  6
CONTINUOUS
 62
     7
 10
349.99999000000008
 20
242.00000999999989
 30
0.0
 11
349.99999000000008
 21
208.00000999999989
 31
0.0
  0
LINE
  5
11F
  8
DIMNSIONS
  6
CONTINUOUS
 62
     7
 10
349.99999000000008
 20
242.00000999999989
 30
0.0
 11
352.55220605790652
 21
232.47500999999991
 31
0.0
  0
LINE
  5
120
  8
DIMNSIONS
  6
CONTINUOUS
 62
     7
 10
349.99999000000008
 20
242.00000999999989
 30
0.0
 11
347.44777394209359
 21
232.47500999999991
 31
0.0
  0
LINE
  5
121
  8
DIMNSIONS
  6
CONTINUOUS
 62
     7
 10
349.99999000000008
 20
208.00000999999989
 30
0.0
 11
347.44777394209359
 21
217.5250099999999
 31
0.0
  0
LINE
  5
122
  8
DIMNSIONS
  6
CONTINUOUS
 62
     7
 10
349.99999000000008
 20
208.00000999999989
 30
0.0
 11
352.55220605790652
 21
217.5250099999999
 31
0.0
  0
TEXT
  5
123
  8
DIMNSIONS
 62
     7
 10
345.51833333333337
 20
189.41668666666661
 30
0.0
 40
8.1442057291666661
  1
34
 50
90.0
 41
0.8
 11
337.37412760416669
 21
189.41668666666661
 31
0.0
 73
     3
  0
LINE
  5
124
  8
DIMNSIONS
  6
CONTINUOUS
 62
     7
 10
86.004616433817944
 20
230.996676638727
 30
0.0
 11
86.004616433817944
 21
280.99999997764809
 31
0.0
  0
LINE
  5
125
  8
DIMNSIONS
  6
CONTINUOUS
 62
     7
 10
161.0
 20
255.50000995529641
 30
0.0
 11
161.0
 21
280.99999997764809
 31
0.0
  0
LINE
  5
126
  8
DIMNSIONS
  6
CONTINUOUS
 62
     7
 10
86.004616433817944
 20
274.99999999999989
 30
0.0
 11
161.0
 21
274.99999999999989
 31
0.0
  0
LINE
  5
127
  8
DIMNSIONS
  6
CONTINUOUS
 62
     7
 10
86.004616433817944
 20
274.99999999999989
 30
0.0
 11
95.529616433817964
 21
277.55221605790632
 31
0.0
  0
LINE
  5
128
  8
DIMNSIONS
  6
CONTINUOUS
 62
     7
 10
86.004616433817944
 20
274.99999999999989
 30
0.0
 11
95.529616433817964
 21
272.44778394209339
 31
0.0
  0
LINE
  5
129
  8
DIMNSIONS
  6
CONTINUOUS
 62
     7
 10
161.0
 20
274.99999999999989
 30
0.0
 11
151.47499999999999
 21
272.44778394209339
 31
0.0
  0
LINE
  5
12A
  8
DIMNSIONS
  6
CONTINUOUS
 62
     7
 10
161.0
 20
274.99999999999989
 30
0.0
 11
151.47499999999999
 21
277.55221605790632
 31
0.0
  0
TEXT
  5
12B
  8
DIMNSIONS
 62
     7
 10
118.2106415502423
 20
279.48166665549059
 30
0.0
 40
8.1442057291666661
  1
75
 41
0.8
 11
118.2106415502423
 21
287.62587238465733
 31
0.0
 73
     3
  0
LINE
  5
12C
  8
DIMNSIONS
  6
CONTINUOUS
 62
     7
 10
86.004616433817944
 20
230.996676638727
 30
0.0
 11
86.004616433817944
 21
306.00000997764812
 31
0.0
  0
LINE
  5
12D
  8
DIMNSIONS
  6
CONTINUOUS
 62
     7
 10
329.99999000000008
 20
261.50000993294458
 30
0.0
 11
329.99999000000008
 21
306.00000997764812
 31
0.0
  0
LINE
  5
12E
  8
DIMNSIONS
  6
CONTINUOUS
 62
     7
 10
86.004616433817944
 20
300.0000099999998
 30
0.0
 11
329.99999000000008
 21
300.0000099999998
 31
0.0
  0
LINE
  5
12F
  8
DIMNSIONS
  6
CONTINUOUS
 62
     7
 10
86.004616433817944
 20
300.0000099999998
 30
0.0
 11
95.529616433817964
 21
302.55222605790641
 31
0.0
  0
LINE
  5
130
  8
DIMNSIONS
  6
CONTINUOUS
 62
     7
 10
86.004616433817944
 20
300.0000099999998
 30
0.0
 11
95.529616433817964
 21
297.44779394209343
 31
0.0
  0
LINE
  5
131
  8
DIMNSIONS
  6
CONTINUOUS
 62
     7
 10
329.99999000000008
 20
300.0000099999998
 30
0.0
 11
320.47498999999999
 21
297.44779394209343
 31
0.0
  0
LINE
  5
132
  8
DIMNSIONS
  6
CONTINUOUS
 62
     7
 10
329.99999000000008
 20
300.0000099999998
 30
0.0
 11
320.47498999999999
 21
302.55222605790641
 31
0.0
  0
TEXT
  5
133
  8
DIMNSIONS
 62
     7
 10
200.06480321690901
 20
304.48167665549067
 30
0.0
 40
8.1442057291666661
  1
244
 41
0.8
 11
200.06480321690901
 21
312.62588238465742
 31
0.0
 73
     3
  0
LINE
  5
134
  8
DIMNSIONS
  6
CONTINUOUS
 62
     7
 10
465.80543456552601
 20
203.6188972166145
 30
0.0
 11
471.71132993218629
 21
194.77688957446739
 31
0.0
  0
LINE
  5
135
  8
DIMNSIONS
  6
CONTINUOUS
 62
     7
 10
465.80543456552601
 20
203.6188972166145
 30
0.0
 11
473.2476299763677
 21
197.14949544573309
 31
0.0
  0
LINE
  5
136
  8
DIMNSIONS
  6
CONTINUOUS
 62
     7
 10
465.80543456552601
 20
203.6188972166145
 30
0.0
 11
469.01586396580211
 21
194.29513323032239
 31
0.0
  0
LINE
  5
137
  8
DIMNSIONS
  6
CONTINUOUS
 62
     7
 10
471.71132993218629
 20
194.77688957446739
 30
0.0
 11
489.71132993609791
 21
194.77688957446739
 31
0.0
  0
TEXT
  5
138
  8
DIMNSIONS
 62
     7
 10
489.71132993609791
 20
190.96688957446739
 30
0.0
 40
8.1442057291666661
  1
φ53
 41
0.8
 11
489.71132993609791
 21
199.1110953036341
 31
0.0
 73
     3
  0
TEXT
  5
139
  8
DATA
 62
     7
 10
443.53735467827102
 20
86.54190173515029
 30
0.0
 40
7.3297774609374979
  1
SHURE
 41
0.8
 11
443.53735467827102
 21
93.871679196087783
 31
0.0
 73
     3
  0
TEXT
  5
13A
  8
DATA
 62
     7
 10
420.92042184129372
 20
75.770827511969159
 30
0.0
 40
5.7009440104166647
  1
ハンドヘルド型送信機
 41
0.8
 11
420.92042184129372
 21
81.471771522385808
 31
0.0
 73
     3
  0
TEXT
  5
13B
  8
DATA
 62
     7
 10
420.28520593615588
 20
64.906589186041117
 30
0.0
 40
5.7009440104166647
  1
U2/BETA 58-JBX / U2/BETA 58-A24
 41
0.8
 11
420.28520593615588
 21
70.60753319645778
 31
0.0
 73
     3
  0
LINE
  5
13C
  8
DATA
  6
CONTINUOUS
 62
     7
 10
255.00001
 20
207.50000999999989
 30
0.0
 11
255.00001
 21
242.50000999999989
 31
0.0
  0
LINE
  5
13D
  8
DATA
  6
CONTINUOUS
 62
     7
 10
277.00000999999997
 20
207.6447399999999
 30
0.0
 11
277.00000999999997
 21
242.00000999999989
 31
0.0
  0
LINE
  5
13E
  8
DATA
  6
CONTINUOUS
 62
     7
 10
295.0
 20
207.76316999999989
 30
0.0
 11
295.0
 21
242.23684999999989
 31
0.0
  0
LINE
  5
13F
  8
DATA
  6
CONTINUOUS
 62
     7
 10
309.5
 20
207.85854999999989
 30
0.0
 11
309.5
 21
242.14145999999991
 31
0.0
  0
LINE
  5
140
  8
DATA
  6
CONTINUOUS
 62
     7
 10
320.0
 20
207.93420999999989
 30
0.0
 11
320.0
 21
242.06579999999991
 31
0.0
  0
LINE
  5
141
  8
DATA
  6
CONTINUOUS
 62
     7
 10
329.99999000000008
 20
208.00000999999989
 30
0.0
 11
329.99999000000008
 21
242.00000999999989
 31
0.0
  0
LINE
  5
142
  8
DATA
  6
CONTINUOUS
 62
     7
 10
255.00001
 20
242.50000999999989
 30
0.0
 11
329.99999000000008
 21
242.00000999999989
 31
0.0
  0
LINE
  5
143
  8
DATA
  6
CONTINUOUS
 62
     7
 10
255.00001
 20
207.50000999999989
 30
0.0
 11
329.99999000000008
 21
208.00000999999989
 31
0.0
  0
LINE
  5
144
  8
DATA
  6
CONTINUOUS
 62
     7
 10
333.5
 20
221.14999999999989
 30
0.0
 11
333.5
 21
228.85000999999991
 31
0.0
  0
LINE
  5
145
  8
DATA
  6
CONTINUOUS
 62
     7
 10
329.99999000000008
 20
228.85000999999991
 30
0.0
 11
333.5
 21
228.85000999999991
 31
0.0
  0
LINE
  5
146
  8
DATA
  6
CONTINUOUS
 62
     7
 10
333.5
 20
228.85000999999991
 30
0.0
 11
341.49999000000008
 21
228.25000999999989
 31
0.0
  0
LINE
  5
147
  8
DATA
  6
CONTINUOUS
 62
     7
 10
340.99999000000008
 20
228.25000999999989
 30
0.0
 11
368.0
 21
228.00000999999989
 31
0.0
  0
LINE
  5
148
  8
DATA
  6
CONTINUOUS
 62
     7
 10
329.99999000000008
 20
221.14999999999989
 30
0.0
 11
333.5
 21
221.14999999999989
 31
0.0
  0
LINE
  5
149
  8
DATA
  6
CONTINUOUS
 62
     7
 10
333.5
 20
221.14999999999989
 30
0.0
 11
341.49999000000008
 21
221.75000999999989
 31
0.0
  0
LINE
  5
14A
  8
DATA
  6
CONTINUOUS
 62
     7
 10
340.99999000000008
 20
221.75000999999989
 30
0.0
 11
368.0
 21
222.00000999999989
 31
0.0
  0
ARC
  5
14B
  8
DATA
  6
CONTINUOUS
 62
     7
 10
368.0
 20
225.00000999999989
 30
0.0
 40
3.0
 50
270.0
 51
90.0
  0
LINE
  5
14C
  8
DATA
  6
CONTINUOUS
 62
     7
 10
181.00001
 20
215.50000999999989
 30
0.0
 11
181.00001
 21
234.50000999999989
 31
0.0
  0
LINE
  5
14D
  8
DATA
  6
CONTINUOUS
 62
     7
 10
200.00001
 20
214.75000999999989
 30
0.0
 11
200.00001
 21
235.25000999999989
 31
0.0
  0
LINE
  5
14E
  8
DATA
  6
CONTINUOUS
 62
     7
 10
181.00001
 20
234.50000999999989
 30
0.0
 11
202.00001
 21
235.25000999999989
 31
0.0
  0
LINE
  5
14F
  8
DATA
  6
CONTINUOUS
 62
     7
 10
181.00001
 20
215.50000999999989
 30
0.0
 11
202.00001
 21
214.75000999999989
 31
0.0
  0
LINE
  5
150
  8
DATA
  6
CONTINUOUS
 62
     7
 10
183.75001
 20
232.75000999999989
 30
0.0
 11
197.25001
 21
232.75000999999989
 31
0.0
  0
LINE
  5
151
  8
DATA
  6
CONTINUOUS
 62
     7
 10
183.75001
 20
217.25000999999989
 30
0.0
 11
197.25001
 21
217.25000999999989
 31
0.0
  0
LINE
  5
152
  8
DATA
  6
CONTINUOUS
 62
     7
 10
197.25001
 20
232.75000999999989
 30
0.0
 11
197.25001
 21
217.25000999999989
 31
0.0
  0
LINE
  5
153
  8
DATA
  6
CONTINUOUS
 62
     7
 10
183.75001
 20
232.75000999999989
 30
0.0
 11
183.75001
 21
217.25000999999989
 31
0.0
  0
CIRCLE
  5
154
  8
DATA
  6
CONTINUOUS
 62
     7
 10
450.0
 20
225.00000999999989
 30
0.0
 40
3.0
  0
CIRCLE
  5
155
  8
DATA
  6
CONTINUOUS
 62
     7
 10
450.0
 20
225.00000999999989
 30
0.0
 40
17.0
  0
CIRCLE
  5
156
  8
DATA
  6
CONTINUOUS
 62
     7
 10
450.0
 20
225.00000999999989
 30
0.0
 40
25.999986334427192
  0
CIRCLE
  5
157
  8
DATA
  6
CONTINUOUS
 62
     7
 10
450.0
 20
225.00000999999989
 30
0.0
 40
26.589990000000011
  0
CIRCLE
  5
158
  8
DATA
  6
CONTINUOUS
 62
     7
 10
450.0
 20
225.00000999999989
 30
0.0
 40
18.5
  0
LINE
  5
159
  8
DATA
  6
CONTINUOUS
 62
     7
 10
444.5
 20
232.00000999999989
 30
0.0
 11
444.5
 21
234.50000999999989
 31
0.0
  0
LINE
  5
15A
  8
DATA
  6
CONTINUOUS
 62
     7
 10
441.5
 20
232.00000999999989
 30
0.0
 11
441.5
 21
234.50000999999989
 31
0.0
  0
ARC
  5
15B
  8
DATA
  6
CONTINUOUS
 62
     7
 10
443.0
 20
234.50000999999989
 30
0.0
 40
1.5
 50
0.0
 51
180.0
  0
ARC
  5
15C
  8
DATA
  6
CONTINUOUS
 62
     7
 10
443.0
 20
232.00000999999989
 30
0.0
 40
1.5
 50
180.0
 51
0.0
  0
CIRCLE
  5
15D
  8
DATA
  6
CONTINUOUS
 62
     7
 10
443.0
 20
232.00000999999989
 30
0.0
 40
1.0
  0
TEXT
  5
15E
  8
DATA
 62
     7
 10
442.57999139999993
 20
226.9609526302082
 30
0.0
 40
2.3085860546874999
  1
ON
 50
90.0
 41
0.8
 72
     1
 11
440.27140534531247
 21
228.50000999999989
 31
0.0
 73
     3
  0
TEXT
  5
15F
  8
DATA
 62
     7
 10
447.57999139999993
 20
233.53751820833321
 30
0.0
 40
2.3085860546874999
  1
OFF
 50
90.0
 41
0.8
 72
     1
 11
445.27140534531242
 21
236.00000999999989
 31
0.0
 73
     3
  0
TEXT
  5
160
  8
DATA
 62
     7
 10
439.62
 20
218.53594749999991
 30
0.0
 40
3.462890625
  1
SHURE
 50
90.0
 41
0.8
 72
     1
 11
436.157109375
 21
225.00000999999989
 31
0.0
 73
     3
  0
LINE
  5
161
  8
DATA
  6
CONTINUOUS
 62
     7
 10
161.0
 20
243.50000999999989
 30
0.0
 11
161.0
 21
206.50000999999989
 31
0.0
  0
LINE
  5
162
  8
DATA
  6
CONTINUOUS
 62
     7
 10
161.0
 20
243.50000999999989
 30
0.0
 11
255.00001
 21
242.50000999999989
 31
0.0
  0
LINE
  5
163
  8
DATA
  6
CONTINUOUS
 62
     7
 10
161.0
 20
206.50000999999989
 30
0.0
 11
255.00001
 21
207.50000999999989
 31
0.0
  0
CIRCLE
  5
164
  8
DATA
  6
CONTINUOUS
 62
     7
 10
450.0
 20
225.00000999999989
 30
0.0
 40
19.5
  0
CIRCLE
  5
165
  8
DATA
  6
CONTINUOUS
 62
     7
 10
450.0
 20
225.00000999999989
 30
0.0
 40
5.5
  0
LINE
  5
166
  8
DATA
  6
CONTINUOUS
 62
     7
 10
160.00461643381769
 20
207.49667666107879
 30
0.0
 11
160.50461643381769
 21
207.49667666107879
 31
0.0
  0
LINE
  5
167
  8
DATA
  6
CONTINUOUS
 62
     7
 10
160.00461643381769
 20
242.49667666107879
 30
0.0
 11
160.50461643381769
 21
242.49667666107879
 31
0.0
  0
LINE
  5
168
  8
DATA
  6
CONTINUOUS
 62
     7
 10
111.0046164338177
 20
198.99667666107879
 30
0.0
 11
111.0046164338177
 21
250.99667666107879
 31
0.0
  0
LINE
  5
169
  8
DATA
  6
CONTINUOUS
 62
     7
 10
113.0046164338177
 20
198.99667666107879
 30
0.0
 11
113.0046164338177
 21
250.99667666107879
 31
0.0
  0
LINE
  5
16A
  8
DATA
  6
CONTINUOUS
 62
     7
 10
130.00461643381769
 20
244.24667666107879
 30
0.0
 11
130.00461643381769
 21
205.74667666107879
 31
0.0
  0
LINE
  5
16B
  8
DATA
  6
CONTINUOUS
 62
     7
 10
110.0046164338177
 20
198.99667666107879
 30
0.0
 11
110.0046164338177
 21
250.99667666107879
 31
0.0
  0
LINE
  5
16C
  8
DATA
  6
CONTINUOUS
 62
     7
 10
114.0046164338177
 20
198.99667666107879
 30
0.0
 11
114.0046164338177
 21
250.99667666107879
 31
0.0
  0
TEXT
  5
16D
  8
DATA
 62
     7
 10
144.5265949913227
 20
215.1424222751138
 30
0.0
 40
4.072102864583333
  1
BETA 58A
 50
90.0
 41
0.8
 11
140.4544921267393
 21
215.1424222751138
 31
0.0
 73
     3
  0
LINE
  5
16E
  8
DATA
  6
CONTINUOUS
 62
     7
 10
110.0046164338177
 20
198.99667666107879
 30
0.0
 11
111.0046164338177
 21
198.99667666107879
 31
0.0
  0
LINE
  5
16F
  8
DATA
  6
CONTINUOUS
 62
     7
 10
113.0046164338177
 20
198.99667666107879
 30
0.0
 11
114.0046164338177
 21
198.99667666107879
 31
0.0
  0
LINE
  5
170
  8
DATA
  6
CONTINUOUS
 62
     7
 10
110.0046164338177
 20
250.99667666107879
 30
0.0
 11
111.0046164338177
 21
250.99667666107879
 31
0.0
  0
LINE
  5
171
  8
DATA
  6
CONTINUOUS
 62
     7
 10
113.0046164338177
 20
250.99667666107879
 30
0.0
 11
114.0046164338177
 21
250.99667666107879
 31
0.0
  0
ARC
  5
172
  8
DATA
  6
CONTINUOUS
 62
     7
 10
112.0046164338177
 20
200.87167666107879
 30
0.0
 40
2.125
 50
241.92751306414701
 51
298.07248693585291
  0
ARC
  5
173
  8
DATA
  6
CONTINUOUS
 62
     7
 10
112.0046164338177
 20
249.12167666107879
 30
0.0
 40
2.125
 50
61.927513064147043
 51
118.07248693585289
  0
ARC
  5
174
  8
DATA
  6
CONTINUOUS
 62
     7
 10
113.6294069762729
 20
224.86050053331769
 30
0.0
 40
24.79156961398774
 50
270.86717942713977
 51
311.33917947172142
  0
ARC
  5
175
  8
DATA
  6
CONTINUOUS
 62
     7
 10
111.0046164338177
 20
224.99667666107879
 30
0.0
 40
25.0
 50
92.290598251836926
 51
267.70571565708042
  0
ARC
  5
176
  8
DATA
  6
CONTINUOUS
 62
     7
 10
113.6294069762729
 20
225.1328527888397
 30
0.0
 40
24.791569613987718
 50
48.660820528278627
 51
89.132820572860254
  0
LINE
  5
177
  8
DATA
  6
CONTINUOUS
 62
     7
 10
138.00461643381769
 20
206.49667666107879
 30
0.0
 11
138.00461643381769
 21
243.49667666107879
 31
0.0
  0
LINE
  5
178
  8
DATA
  6
CONTINUOUS
 62
     7
 10
134.50461643381769
 20
207.49667666107879
 30
0.0
 11
134.50461643381769
 21
242.49667666107879
 31
0.0
  0
LINE
  5
179
  8
DATA
  6
CONTINUOUS
 62
     7
 10
138.00461643381769
 20
206.49667666107879
 30
0.0
 11
134.50461643381769
 21
207.49667666107879
 31
0.0
  0
LINE
  5
17A
  8
DATA
  6
CONTINUOUS
 62
     7
 10
134.00461643381769
 20
207.24667666107879
 30
0.0
 11
134.00461643381769
 21
242.74667666107879
 31
0.0
  0
LINE
  5
17B
  8
DATA
  6
CONTINUOUS
 62
     7
 10
130.00461643381769
 20
205.74667666107879
 30
0.0
 11
134.00461643381769
 21
207.24667666107879
 31
0.0
  0
LINE
  5
17C
  8
DATA
  6
CONTINUOUS
 62
     7
 10
134.00461643381769
 20
207.24667666107879
 30
0.0
 11
134.50461643381769
 21
208.49667666107879
 31
0.0
  0
LINE
  5
17D
  8
DATA
  6
CONTINUOUS
 62
     7
 10
138.00461643381769
 20
243.49667666107879
 30
0.0
 11
134.50461643381769
 21
242.49667666107879
 31
0.0
  0
LINE
  5
17E
  8
DATA
  6
CONTINUOUS
 62
     7
 10
130.00461643381769
 20
244.24667666107879
 30
0.0
 11
134.00461643381769
 21
242.74667666107879
 31
0.0
  0
LINE
  5
17F
  8
DATA
  6
CONTINUOUS
 62
     7
 10
134.00461643381769
 20
242.74667666107879
 30
0.0
 11
134.50461643381769
 21
241.49667666107879
 31
0.0
  0
LINE
  5
180
  8
DATA
  6
CONTINUOUS
 62
     7
 10
138.00461643381769
 20
206.49667666107879
 30
0.0
 11
160.00461643381769
 21
206.49667666107879
 31
0.0
  0
LINE
  5
181
  8
DATA
  6
CONTINUOUS
 62
     7
 10
160.00461643381769
 20
206.49667666107879
 30
0.0
 11
160.00461643381769
 21
243.49667666107879
 31
0.0
  0
LINE
  5
182
  8
DATA
  6
CONTINUOUS
 62
     7
 10
160.00461643381769
 20
243.49667666107879
 30
0.0
 11
138.00461643381769
 21
243.49667666107879
 31
0.0
  0
LINE
  5
183
  8
DATA
  6
CONTINUOUS
 62
     7
 10
160.50461643381769
 20
242.49667666107879
 30
0.0
 11
161.0
 21
242.49667666107879
 31
0.0
  0
LINE
  5
184
  8
DATA
  6
CONTINUOUS
 62
     7
 10
160.50461643381769
 20
207.49667666107879
 30
0.0
 11
161.0
 21
207.49667666107879
 31
0.0
  0
TEXT
  5
185
  8
DATA
 62
     7
 10
60.000000000000071
 20
42.714009999999902
 30
0.0
 40
4.8865234374999993
  1
仕様および外観は予告なく変更されることがありますので、ご了承ください。
 41
0.8
 11
60.000000000000071
 21
47.600533437499898
 31
0.0
 73
     3
  0
ENDSEC
  0
EOF
