  0
SECTION
  2
HEADER
  9
$ACADVER
  1
AC1009
  9
$INSBASE
 10
0.0
 20
0.0
 30
0.0
  9
$EXTMIN
 10
29.989015033921529
 20
7.1438620221135798
 30
-0.0015258207003583
  9
$EXTMAX
 10
570.01739634668616
 20
810.02475112515378
 30
0.0000000349246037
  9
$LIMMIN
 10
0.0
 20
0.0
  9
$LIMMAX
 10
0.0
 20
0.0
  9
$ORTHOMODE
 70
     0
  9
$REGENMODE
 70
     1
  9
$FILLMODE
 70
     1
  9
$QTEXTMODE
 70
     0
  9
$MIRRTEXT
 70
     1
  9
$DRAGMODE
 70
     2
  9
$LTSCALE
 40
15.24
  9
$OSMODE
 70
   231
  9
$ATTMODE
 70
     1
  9
$TEXTSIZE
 40
0.0
  9
$TRACEWID
 40
1.0
  9
$TEXTSTYLE
  7
STANDARD
  9
$CLAYER
  8
DATA
  9
$CELTYPE
  6
CONTINUOUS
  9
$CECOLOR
 62
   256
  9
$DIMSCALE
 40
1.0
  9
$DIMASZ
 40
0.18
  9
$DIMEXO
 40
0.0625
  9
$DIMDLI
 40
0.38
  9
$DIMRND
 40
0.0
  9
$DIMDLE
 40
0.0
  9
$DIMEXE
 40
0.18
  9
$DIMTP
 40
0.0
  9
$DIMTM
 40
0.0
  9
$DIMTXT
 40
0.18
  9
$DIMCEN
 40
0.09
  9
$DIMTSZ
 40
0.0
  9
$DIMTOL
 70
     0
  9
$DIMLIM
 70
     0
  9
$DIMTIH
 70
     1
  9
$DIMTOH
 70
     1
  9
$DIMSE1
 70
     0
  9
$DIMSE2
 70
     0
  9
$DIMTAD
 70
     0
  9
$DIMZIN
 70
     0
  9
$DIMBLK
  1

  9
$DIMASO
 70
     1
  9
$DIMSHO
 70
     1
  9
$DIMPOST
  1

  9
$DIMAPOST
  1

  9
$DIMALT
 70
     0
  9
$DIMALTD
 70
     2
  9
$DIMALTF
 40
25.399999999999999
  9
$DIMLFAC
 40
1.0
  9
$DIMTOFL
 70
     0
  9
$DIMTVP
 40
0.0
  9
$DIMTIX
 70
     0
  9
$DIMSOXD
 70
     0
  9
$DIMSAH
 70
     0
  9
$DIMBLK1
  1

  9
$DIMBLK2
  1

  9
$DIMSTYLE
  2
STANDARD
  9
$DIMCLRD
 70
     0
  9
$DIMCLRE
 70
     0
  9
$DIMCLRT
 70
     0
  9
$DIMTFAC
 40
1.0
  9
$DIMGAP
 40
0.09
  9
$LUNITS
 70
     2
  9
$LUPREC
 70
     4
  9
$SKETCHINC
 40
0.1
  9
$FILLETRAD
 40
0.0
  9
$AUNITS
 70
     0
  9
$AUPREC
 70
     0
  9
$MENU
  1
acad
  9
$ELEVATION
 40
0.0
  9
$PELEVATION
 40
0.0
  9
$THICKNESS
 40
0.0
  9
$LIMCHECK
 70
     0
  9
$BLIPMODE
 70
     0
  9
$CHAMFERA
 40
0.0
  9
$CHAMFERB
 40
0.0
  9
$SKPOLY
 70
     0
  9
$TDCREATE
 40
2453875.731840278
  9
$TDUPDATE
 40
2453875.7333147568
  9
$TDINDWG
 40
0.0002391435
  9
$TDUSRTIMER
 40
0.0002389583
  9
$USRTIMER
 70
     1
  9
$ANGBASE
 50
0.0
  9
$ANGDIR
 70
     0
  9
$PDMODE
 70
     1
  9
$PDSIZE
 40
-2.0
  9
$PLINEWID
 40
0.0
  9
$COORDS
 70
     1
  9
$SPLFRAME
 70
     0
  9
$SPLINETYPE
 70
     6
  9
$SPLINESEGS
 70
     8
  9
$ATTDIA
 70
     0
  9
$ATTREQ
 70
     1
  9
$HANDLING
 70
     1
  9
$HANDSEED
  5
1F1
  9
$SURFTAB1
 70
     6
  9
$SURFTAB2
 70
     6
  9
$SURFTYPE
 70
     6
  9
$SURFU
 70
     6
  9
$SURFV
 70
     6
  9
$UCSNAME
  2

  9
$UCSORG
 10
0.0
 20
0.0
 30
0.0
  9
$UCSXDIR
 10
1.0
 20
0.0
 30
0.0
  9
$UCSYDIR
 10
0.0
 20
1.0
 30
0.0
  9
$PUCSNAME
  2

  9
$PUCSORG
 10
0.0
 20
0.0
 30
0.0
  9
$PUCSXDIR
 10
1.0
 20
0.0
 30
0.0
  9
$PUCSYDIR
 10
0.0
 20
1.0
 30
0.0
  9
$USERI1
 70
     0
  9
$USERI2
 70
     0
  9
$USERI3
 70
     0
  9
$USERI4
 70
     0
  9
$USERI5
 70
     0
  9
$USERR1
 40
0.0
  9
$USERR2
 40
0.0
  9
$USERR3
 40
0.0
  9
$USERR4
 40
0.0
  9
$USERR5
 40
0.0
  9
$WORLDVIEW
 70
     1
  9
$SHADEDGE
 70
     3
  9
$SHADEDIF
 70
    70
  9
$TILEMODE
 70
     1
  9
$MAXACTVP
 70
    64
  9
$PLIMCHECK
 70
     0
  9
$PEXTMIN
 10
1.0000000000000000E+020
 20
1.0000000000000000E+020
 30
1.0000000000000000E+020
  9
$PEXTMAX
 10
-1.0000000000000000E+020
 20
-1.0000000000000000E+020
 30
-1.0000000000000000E+020
  9
$PLIMMIN
 10
0.0
 20
0.0
  9
$PLIMMAX
 10
12.0
 20
9.0
  9
$UNITMODE
 70
     0
  9
$VISRETAIN
 70
     0
  9
$PLINEGEN
 70
     1
  9
$PSLTSCALE
 70
     0
  0
ENDSEC
  0
SECTION
  2
TABLES
  0
TABLE
  2
VPORT
 70
     1
  0
VPORT
  2
*ACTIVE
 70
     0
 10
0.0
 20
0.0
 11
1.0
 21
1.0
 12
300.00320569030379
 22
408.58430657363368
 13
0.0
 23
0.0
 14
1.0
 24
1.0
 15
0.0
 25
0.0
 16
0.0
 26
0.0
 36
1.0
 17
0.0
 27
0.0
 37
0.0
 40
809.54380104580434
 41
1.6703601108033239
 42
50.0
 43
0.0
 44
0.0
 50
0.0
 51
0.0
 71
     0
 72
  2000
 73
     1
 74
     1
 75
     0
 76
     0
 77
     0
 78
     0
  0
ENDTAB
  0
TABLE
  2
LTYPE
 70
    11
  0
LTYPE
  2
CONTINUOUS
 70
     0
  3
Solid line
 72
    65
 73
     0
 40
0.0
  0
ENDTAB
  0
TABLE
  2
LAYER
 70
     6
  0
LAYER
  2
0
 70
     0
 62
     7
  6
CONTINUOUS
  0
LAYER
  2
DATA
 70
     0
 62
     7
  6
CONTINUOUS
  0
LAYER
  2
HIBINO-BASE
 70
     0
 62
     7
  6
CONTINUOUS
  0
LAYER
  2
SPEC
 70
     0
 62
     7
  6
CONTINUOUS
  0
LAYER
  2
DIMNSIONS
 70
     0
 62
     7
  6
CONTINUOUS
  0
ENDTAB
  0
TABLE
  2
STYLE
 70
     2
  0
STYLE
  2
STANDARD
 70
     0
 40
0.0
 41
1.0
 50
0.0
 71
     0
 42
0.0
  3
txt
  4
BIGFONT.SHX
  0
ENDTAB
  0
TABLE
  2
VIEW
 70
     0
  0
ENDTAB
  0
TABLE
  2
UCS
 70
     0
  0
ENDTAB
  0
TABLE
  2
APPID
 70
     1
  0
APPID
  2
ACAD
 70
     0
  0
ENDTAB
  0
TABLE
  2
DIMSTYLE
 70
     1
  0
DIMSTYLE
  2
STANDARD
 70
     0
  3

  4

  5

  6

  7

 40
1.0
 41
0.18
 42
0.0625
 43
0.38
 44
0.18
 45
0.0
 46
0.0
 47
0.0
 48
0.0
140
0.18
141
0.09
142
0.0
143
25.399999999999999
144
1.0
145
0.0
146
1.0
147
0.09
 71
     0
 72
     0
 73
     1
 74
     1
 75
     0
 76
     0
 77
     0
 78
     0
170
     0
171
     2
172
     0
173
     0
174
     0
175
     0
176
     0
177
     0
178
     0
  0
ENDTAB
  0
ENDSEC
  0
SECTION
  2
BLOCKS
  0
BLOCK
  8
0
  2
$MODEL_SPACE
 70
     0
 10
0.0
 20
0.0
 30
0.0
  3
$MODEL_SPACE
  1

  0
ENDBLK
  5
1C3
  8
0
  0
BLOCK
 67
     1
  8
0
  2
$PAPER_SPACE
 70
     0
 10
0.0
 20
0.0
 30
0.0
  3
$PAPER_SPACE
  1

  0
ENDBLK
  5
1BF
 67
     1
  8
0
  0
ENDSEC
  0
SECTION
  2
ENTITIES
  0
LINE
  5
2D
  8
HIBINO-BASE
  6
CONTINUOUS
 62
     7
 10
30.0
 20
810.0000299999997
 30
0.0
 11
570.0
 21
810.0000299999997
 31
0.0
  0
LINE
  5
2E
  8
HIBINO-BASE
  6
CONTINUOUS
 62
     7
 10
570.0
 20
30.000009999999929
 30
0.0
 11
30.0
 21
30.000009999999929
 31
0.0
  0
LINE
  5
2F
  8
HIBINO-BASE
  6
CONTINUOUS
 62
     7
 10
30.0
 20
30.000009999999929
 30
0.0
 11
30.0
 21
810.0000299999997
 31
0.0
  0
TEXT
  5
30
  8
HIBINO-BASE
 62
     7
 10
51.55201000000001
 20
10.773976599999891
 30
0.0
 40
10.800132539062499
  1
Hibino Corporation
 41
0.8
 11
51.55201000000001
 21
21.57410913906239
 31
0.0
 73
     3
  0
LINE
  5
31
  8
HIBINO-BASE
  6
CONTINUOUS
 62
     7
 10
570.0
 20
810.0000299999997
 30
0.0
 11
570.0
 21
30.000009999999929
 31
0.0
  0
LINE
  5
32
  8
HIBINO-BASE
  6
CONTINUOUS
 62
     7
 10
300.0
 20
97.499999999999872
 30
0.0
 11
570.0
 21
97.499999999999872
 31
0.0
  0
LINE
  5
33
  8
HIBINO-BASE
  6
CONTINUOUS
 62
     7
 10
300.0
 20
30.000009999999929
 30
0.0
 11
300.0
 21
97.499999999999872
 31
0.0
  0
TEXT
  5
34
  8
HIBINO-BASE
 62
     7
 10
302.69999999999999
 20
89.400008999999926
 30
0.0
 40
5.4000701171875001
  1
NOTE
 41
0.8
 11
302.69999999999999
 21
94.800079117187408
 31
0.0
 73
     3
  0
LINE
  5
35
  8
HIBINO-BASE
  6
CONTINUOUS
 62
     7
 10
404.99999000000003
 20
30.000009999999929
 30
0.0
 11
404.99999000000003
 21
97.499999999999872
 31
0.0
  0
TEXT
  5
36
  8
HIBINO-BASE
 62
     7
 10
407.69999000000001
 20
89.400008999999926
 30
0.0
 40
5.4000701171875001
  1
TITLE
 41
0.8
 11
407.69999000000001
 21
94.800079117187408
 31
0.0
 73
     3
  0
TEXT
  5
37
  8
HIBINO-BASE
 62
     7
 10
450.20515999999992
 20
10.773976599999891
 30
0.0
 40
10.800132539062499
  1
ヒビノ株式会社
 41
0.8
 11
450.20515999999992
 21
21.57410913906239
 31
0.0
 73
     3
  0
LINE
  5
38
  8
HIBINO-BASE
  6
CONTINUOUS
 62
     7
 10
300.0
 20
60.000009999999932
 30
0.0
 11
570.0
 21
60.000009999999932
 31
0.0
  0
TEXT
  5
39
  8
HIBINO-BASE
 62
     7
 10
445.19999000000001
 20
52.068958999999907
 30
0.0
 40
5.4000701171875001
  1
DRAWN
 41
0.8
 11
445.19999000000001
 21
57.469029117187397
 31
0.0
 73
     3
  0
TEXT
  5
3A
  8
HIBINO-BASE
 62
     7
 10
370.19999000000001
 20
52.068958999999907
 30
0.0
 40
5.4000701171875001
  1
DATE
 41
0.8
 11
370.19999000000001
 21
57.469029117187397
 31
0.0
 73
     3
  0
TEXT
  5
3B
  8
HIBINO-BASE
 62
     7
 10
303.30000000000001
 20
52.14163999999986
 30
0.0
 40
4.8865234375000002
  1
図面サイズ
 41
0.8
 11
303.30000000000001
 21
57.02816343749987
 31
0.0
 73
     3
  0
TEXT
  5
3C
  8
HIBINO-BASE
 62
     7
 10
340.19999000000001
 20
52.068958999999907
 30
0.0
 40
5.4000701171875001
  1
SCALE
 41
0.8
 11
340.19999000000001
 21
57.469029117187397
 31
0.0
 73
     3
  0
TEXT
  5
3D
  8
HIBINO-BASE
 62
     7
 10
407.69999000000001
 20
52.068958999999907
 30
0.0
 40
5.4000701171875001
  1
DESIGN
 41
0.8
 11
407.69999000000001
 21
57.469029117187397
 31
0.0
 73
     3
  0
TEXT
  5
3E
  8
HIBINO-BASE
 62
     7
 10
520.20000000000005
 20
52.068958999999907
 30
0.0
 40
5.4000701171875001
  1
DRAWING NO.
 41
0.8
 11
520.20000000000005
 21
57.469029117187397
 31
0.0
 73
     3
  0
TEXT
  5
3F
  8
HIBINO-BASE
 62
     7
 10
482.69999999999987
 20
52.068958999999907
 30
0.0
 40
5.4000701171875001
  1
CHECK
 41
0.8
 11
482.69999999999987
 21
57.469029117187397
 31
0.0
 73
     3
  0
LINE
  5
40
  8
HIBINO-BASE
  6
CONTINUOUS
 62
     7
 10
343.12499000000008
 20
33.750009999999932
 30
0.0
 11
354.37499000000008
 21
45.000009999999932
 31
0.0
  0
TEXT
  5
41
  8
HIBINO-BASE
 62
     7
 10
341.24999000000008
 20
39.852860999999891
 30
0.0
 40
6.5153517578124989
  1
1
 41
0.8
 11
341.24999000000008
 21
46.368212757812387
 31
0.0
 73
     3
  0
LINE
  5
42
  8
HIBINO-BASE
  6
CONTINUOUS
 62
     7
 10
337.5
 20
30.000009999999929
 30
0.0
 11
337.5
 21
60.000009999999932
 31
0.0
  0
LINE
  5
43
  8
HIBINO-BASE
  6
CONTINUOUS
 62
     7
 10
367.5
 20
30.000009999999929
 30
0.0
 11
367.5
 21
60.000009999999932
 31
0.0
  0
LINE
  5
44
  8
HIBINO-BASE
  6
CONTINUOUS
 62
     7
 10
442.49999999999989
 20
60.000009999999932
 30
0.0
 11
442.49999999999989
 21
30.000009999999929
 31
0.0
  0
LINE
  5
45
  8
HIBINO-BASE
  6
CONTINUOUS
 62
     7
 10
517.49999000000003
 20
60.000009999999932
 30
0.0
 11
517.49999000000003
 21
30.000009999999929
 31
0.0
  0
LINE
  5
46
  8
HIBINO-BASE
  6
CONTINUOUS
 62
     7
 10
479.99999000000003
 20
30.000009999999929
 30
0.0
 11
479.99999000000003
 21
60.000009999999932
 31
0.0
  0
TEXT
  5
47
  8
HIBINO-BASE
 62
     7
 10
311.73266000000001
 20
37.495368599999942
 30
0.0
 40
9.7730391796875011
  1
A4
 41
0.8
 11
311.73266000000001
 21
47.268407779687429
 31
0.0
 73
     3
  0
TEXT
  5
48
  8
HIBINO-BASE
 62
     7
 10
369.1019998308567
 20
38.017028999999937
 30
0.0
 40
5.4000701171875001
  1
'06.03.
 41
0.8
 11
369.1019998308567
 21
43.417099117187433
 31
0.0
 73
     3
  0
TEXT
  5
49
  8
HIBINO-BASE
 62
     7
 10
352.49999000000008
 20
34.227860999999891
 30
0.0
 40
6.5153517578124989
  1
3
 41
0.8
 11
352.49999000000008
 21
40.743212757812387
 31
0.0
 73
     3
  0
TEXT
  5
4A
  8
HIBINO-BASE
 62
     7
 10
447.01743003310389
 20
38.59094999999995
 30
0.0
 40
4.8865234374999993
  1
N.Sasaki
 41
0.8
 11
447.01743003310389
 21
43.477473437499953
 31
0.0
 73
     3
  0
TEXT
  5
4B
  8
SPEC
 62
     7
 10
56.250010000000032
 20
784.17984859999956
 30
0.0
 40
7.3297774609374979
  1
仕様
 41
0.8
 11
56.250010000000032
 21
791.50962606093719
 31
0.0
 73
     3
  0
LINE
  5
4C
  8
SPEC
  6
CONTINUOUS
 62
     7
 10
52.495705000080129
 20
779.99711370976604
 30
0.0
 11
494.99568500007922
 21
779.99711370976604
 31
0.0
  0
LINE
  5
4D
  8
SPEC
  6
CONTINUOUS
 62
     7
 10
52.495705000080129
 20
768.74711370976604
 30
0.0
 11
494.99568500007922
 21
768.74711370976604
 31
0.0
  0
LINE
  5
4E
  8
SPEC
  6
CONTINUOUS
 62
     7
 10
52.495705000080129
 20
757.49711370976604
 30
0.0
 11
494.99568500007922
 21
757.49711370976604
 31
0.0
  0
TEXT
  5
4F
  8
SPEC
 62
     7
 10
152.6558091556677
 20
771.50983695388561
 30
0.0
 40
5.700933749999999
  1
水晶制御PLLシンセサイザー方式
 41
0.8
 11
152.6558091556677
 21
777.2107707038856
 31
0.0
 73
     3
  0
LINE
  5
50
  8
SPEC
  6
CONTINUOUS
 62
     7
 10
52.495705000080129
 20
779.99711370976604
 30
0.0
 11
52.495705000080129
 21
611.24710370976709
 31
0.0
  0
LINE
  5
51
  8
SPEC
  6
CONTINUOUS
 62
     7
 10
149.99569500007971
 20
779.99711370976604
 30
0.0
 11
149.99569500007971
 21
611.24710370976709
 31
0.0
  0
LINE
  5
52
  8
SPEC
  6
CONTINUOUS
 62
     7
 10
494.99568500007922
 20
779.99711370976604
 30
0.0
 11
494.99568500007922
 21
611.24710370976709
 31
0.0
  0
TEXT
  5
53
  8
SPEC
 62
     7
 10
55.195695000080093
 20
771.48094236927807
 30
0.0
 40
5.700933749999999
  1
発振方式
 41
0.8
 11
55.195695000080093
 21
777.18187611927794
 31
0.0
 73
     3
  0
LINE
  5
54
  8
SPEC
  6
CONTINUOUS
 62
     7
 10
52.495705000080129
 20
723.74710370976607
 30
0.0
 11
494.99568500007922
 21
723.74710370976607
 31
0.0
  0
LINE
  5
55
  8
SPEC
  6
CONTINUOUS
 62
     7
 10
52.495705000080129
 20
712.49710370976595
 30
0.0
 11
494.99568500007922
 21
712.49710370976595
 31
0.0
  0
LINE
  5
56
  8
SPEC
  6
CONTINUOUS
 62
     7
 10
52.495705000080129
 20
689.9971037097672
 30
0.0
 11
494.99568500007922
 21
689.9971037097672
 31
0.0
  0
LINE
  5
57
  8
SPEC
  6
CONTINUOUS
 62
     7
 10
52.495705000080129
 20
701.24710370976652
 30
0.0
 11
494.99568500007922
 21
701.24710370976652
 31
0.0
  0
TEXT
  5
58
  8
SPEC
 62
     7
 10
154.610705531853
 20
760.18004526506184
 30
0.0
 40
5.700933749999999
  1
F3E
 41
0.8
 11
154.610705531853
 21
765.88097901506183
 31
0.0
 73
     3
  0
TEXT
  5
59
  8
SPEC
 62
     7
 10
55.158688614128891
 20
760.23094236927795
 30
0.0
 40
5.700933749999999
  1
電波型式
 41
0.8
 11
55.158688614128891
 21
765.93187611927794
 31
0.0
 73
     3
  0
TEXT
  5
5A
  8
SPEC
 62
     7
 10
154.37133046538131
 20
748.61086850976608
 30
0.0
 40
5.700933749999999
  1
U2/BETA 87A-JBX:B型 (806～810MHz)30チャンネルのうち任意の1チャンネル
 41
0.8
 11
154.37133046538131
 21
754.31180225976595
 31
0.0
 73
     3
  0
TEXT
  5
5B
  8
SPEC
 62
     7
 10
55.084675842226503
 20
748.68488128166871
 30
0.0
 40
5.700933749999999
  1
送信周波数
 41
0.8
 11
55.084675842226503
 21
754.3858150316687
 31
0.0
 73
     3
  0
TEXT
  5
5C
  8
SPEC
 62
     7
 10
153.4138301994947
 20
714.86086850976596
 30
0.0
 40
5.700933749999999
  1
10mW
 41
0.8
 11
153.4138301994947
 21
720.56180225976595
 31
0.0
 73
     3
  0
TEXT
  5
5D
  8
SPEC
 62
     7
 10
55.158688614128891
 20
715.41596429903416
 30
0.0
 40
5.700933749999999
  1
空中線電力
 41
0.8
 11
55.158688614128891
 21
721.11689804903415
 31
0.0
 73
     3
  0
TEXT
  5
5E
  8
SPEC
 62
     7
 10
152.6957050000797
 20
704.00982695388564
 30
0.0
 40
5.700933749999999
  1
約100m(標準環境における最大値)
 41
0.8
 11
152.6957050000797
 21
709.71076070388563
 31
0.0
 73
     3
  0
TEXT
  5
5F
  8
SPEC
 62
     7
 10
55.195695000080093
 20
704.31398984283908
 30
0.0
 40
5.700933749999999
  1
到達距離
 41
0.8
 11
55.195695000080093
 21
710.01492359283895
 31
0.0
 73
     3
  0
TEXT
  5
60
  8
SPEC
 62
     7
 10
153.09466344419911
 20
692.83961864271032
 30
0.0
 40
5.700933749999999
  1
32.768kHz
 41
0.8
 11
153.09466344419911
 21
698.54055239271031
 31
0.0
 73
     3
  0
TEXT
  5
61
  8
SPEC
 62
     7
 10
55.010663070324092
 20
692.95297068498598
 30
0.0
 40
5.700933749999999
  1
トーン信号周波数
 41
0.8
 11
55.010663070324092
 21
698.65390443498609
 31
0.0
 73
     3
  0
TEXT
  5
62
  8
SPEC
 62
     7
 10
153.174455133023
 20
681.74920202035833
 30
0.0
 40
5.700933749999999
  1
50～15,000Hz ±2dB(システム全体の帯域はマイクヘッドにより変動)
 41
0.8
 11
153.174455133023
 21
687.45013577035832
 31
0.0
 73
     3
  0
TEXT
  5
63
  8
SPEC
 62
     7
 10
55.12168222817769
 20
681.66596429903518
 30
0.0
 40
5.700933749999999
  1
周波数特性 
 41
0.8
 11
55.12168222817769
 21
687.36689804903506
 31
0.0
 73
     3
  0
TEXT
  5
64
  8
SPEC
 62
     7
 10
153.4138301994947
 20
670.41941033153432
 30
0.0
 40
5.700933749999999
  1
0～26dB
 41
0.8
 11
153.4138301994947
 21
676.12034408153431
 31
0.0
 73
     3
  0
TEXT
  5
65
  8
SPEC
 62
     7
 10
55.12168222817769
 20
670.15691959737671
 30
0.0
 40
5.700933749999999
  1
ゲイン調整範囲
 41
0.8
 11
55.12168222817769
 21
675.85785334737682
 31
0.0
 73
     3
  0
LINE
  5
66
  8
SPEC
  6
CONTINUOUS
 62
     7
 10
52.495705000080129
 20
667.49710370976709
 30
0.0
 11
494.99568500007922
 21
667.49710370976709
 31
0.0
  0
TEXT
  5
67
  8
SPEC
 62
     7
 10
152.6957050000797
 20
647.83961864271032
 30
0.0
 40
5.700933749999999
  1
単3形アルカリ乾電池×2
 41
0.8
 11
152.6957050000797
 21
653.54055239271031
 31
0.0
 73
     3
  0
TEXT
  5
68
  8
SPEC
 62
     7
 10
55.12168222817769
 20
648.02698345688873
 30
0.0
 40
5.700933749999999
  1
使用電池
 41
0.8
 11
55.12168222817769
 21
653.72791720688861
 31
0.0
 73
     3
  0
TEXT
  5
69
  8
SPEC
 62
     7
 10
152.6957050000797
 20
636.66941033153432
 30
0.0
 40
5.700933749999999
  1
約12時間(Dracell MN1500 1.5V単3形アルカリ乾電池　使用時)
 41
0.8
 11
152.6957050000797
 21
642.37034408153431
 31
0.0
 73
     3
  0
TEXT
  5
6A
  8
SPEC
 62
     7
 10
55.195695000080093
 20
636.62895791308392
 30
0.0
 40
5.700933749999999
  1
バッテリー・ライフ
 41
0.8
 11
55.195695000080093
 21
642.32989166308391
 31
0.0
 73
     3
  0
LINE
  5
6B
  8
SPEC
  6
CONTINUOUS
 62
     7
 10
52.495705000080129
 20
633.7471037097672
 30
0.0
 11
494.99568500007922
 21
633.7471037097672
 31
0.0
  0
TEXT
  5
6C
  8
SPEC
 62
     7
 10
152.6957050000797
 20
602.75982695388655
 30
0.0
 40
5.700933749999999
  1
Φ51×240mm(アンテナ部含まず)
 41
0.8
 11
152.6957050000797
 21
608.46076070388654
 31
0.0
 73
     3
  0
TEXT
  5
6D
  8
SPEC
 62
     7
 10
55.195695000080093
 20
602.76793875523038
 30
0.0
 40
5.700933749999999
  1
寸法(W+H+D)
 41
0.8
 11
55.195695000080093
 21
608.46887250523025
 31
0.0
 73
     3
  0
TEXT
  5
6E
  8
SPEC
 62
     7
 10
152.6957050000797
 20
592.22795215330143
 30
0.0
 40
5.700933749999999
  1
約340g(除乾電池)
 41
0.8
 11
152.6957050000797
 21
597.92888590330131
 31
0.0
 73
     3
  0
TEXT
  5
6F
  8
SPEC
 62
     7
 10
55.195695000080093
 20
591.85099622879113
 30
0.0
 40
5.700933749999999
  1
質量
 41
0.8
 11
55.195695000080093
 21
597.55192997879112
 31
0.0
 73
     3
  0
LINE
  5
70
  8
SPEC
  6
CONTINUOUS
 62
     7
 10
52.495705000080129
 20
622.4971037097672
 30
0.0
 11
494.99568500007922
 21
622.4971037097672
 31
0.0
  0
LINE
  5
71
  8
SPEC
  6
CONTINUOUS
 62
     7
 10
52.495705000080129
 20
611.24710370976709
 30
0.0
 11
494.99568500007922
 21
611.24710370976709
 31
0.0
  0
LINE
  5
72
  8
SPEC
  6
CONTINUOUS
 62
     7
 10
52.495705000080129
 20
656.24710370976709
 30
0.0
 11
494.99568500007922
 21
656.24710370976709
 31
0.0
  0
TEXT
  5
73
  8
SPEC
 62
     7
 10
153.4138301994947
 20
625.33961864271032
 30
0.0
 40
5.700933749999999
  1
Beta 87Aヘッド
 41
0.8
 11
153.4138301994947
 21
631.0405523927102
 31
0.0
 73
     3
  0
TEXT
  5
74
  8
SPEC
 62
     7
 10
55.195695000080093
 20
625.11991321142568
 30
0.0
 40
5.700933749999999
  1
マイク部
 41
0.8
 11
55.195695000080093
 21
630.82084696142567
 31
0.0
 73
     3
  0
LINE
  5
75
  8
SPEC
  6
CONTINUOUS
 62
     7
 10
52.495705000080129
 20
644.9971037097672
 30
0.0
 11
494.99568500007922
 21
644.9971037097672
 31
0.0
  0
TEXT
  5
76
  8
SPEC
 62
     7
 10
152.6957050000797
 20
614.24920202035833
 30
0.0
 40
5.700933749999999
  1
黒(ボディ本体)
 41
0.8
 11
152.6957050000797
 21
619.9501357703582
 31
0.0
 73
     3
  0
TEXT
  5
77
  8
SPEC
 62
     7
 10
55.195695000080093
 20
614.12895791308392
 30
0.0
 40
5.700933749999999
  1
外装
 41
0.8
 11
55.195695000080093
 21
619.82989166308391
 31
0.0
 73
     3
  0
LINE
  5
78
  8
SPEC
  6
CONTINUOUS
 62
     7
 10
52.495705000080129
 20
678.7471037097672
 30
0.0
 11
494.99568500007922
 21
678.7471037097672
 31
0.0
  0
TEXT
  5
79
  8
SPEC
 62
     7
 10
153.09466344419911
 20
659.08961864271021
 30
0.0
 40
5.700933749999999
  1
1/4波長ヘリカル
 41
0.8
 11
153.09466344419911
 21
664.79055239271031
 31
0.0
 73
     3
  0
TEXT
  5
7A
  8
SPEC
 62
     7
 10
55.195695000080093
 20
659.05494514118152
 30
0.0
 40
5.700933749999999
  1
アンテナ
 41
0.8
 11
55.195695000080093
 21
664.75587889118151
 31
0.0
 73
     3
  0
LINE
  5
7B
  8
SPEC
  6
CONTINUOUS
 62
     7
 10
52.495705000080129
 20
599.99710370976709
 30
0.0
 11
494.99568500007922
 21
599.99710370976709
 31
0.0
  0
LINE
  5
7C
  8
SPEC
  6
CONTINUOUS
 62
     7
 10
52.495705000080129
 20
588.7471037097672
 30
0.0
 11
494.99568500007922
 21
588.7471037097672
 31
0.0
  0
LINE
  5
7D
  8
SPEC
  6
CONTINUOUS
 62
     7
 10
52.495705000080129
 20
588.7471037097672
 30
0.0
 11
52.495705000080129
 21
611.19708370976718
 31
0.0
  0
LINE
  5
7E
  8
SPEC
  6
CONTINUOUS
 62
     7
 10
149.99569500007971
 20
611.24710370976709
 30
0.0
 11
149.99569500007971
 21
588.7471037097672
 31
0.0
  0
LINE
  5
7F
  8
SPEC
  6
CONTINUOUS
 62
     7
 10
494.99568500007922
 20
588.7471037097672
 30
0.0
 11
494.99568500007922
 21
611.24710370976709
 31
0.0
  0
TEXT
  5
80
  8
SPEC
 62
     7
 10
197.68213708055811
 20
726.85946475093465
 30
0.0
 40
5.700933749999999
  1
合計142チャンネルのうち任意の1チャンネル
 41
0.8
 11
197.68213708055811
 21
732.56039850093475
 31
0.0
 73
     3
  0
TEXT
  5
81
  8
SPEC
 62
     7
 10
154.53091384302911
 20
737.36086850976608
 30
0.0
 40
5.700933749999999
  1
U2/BETA 87A-A24:A型 (797～806MHz)71チャンネルとA2型(779～788MHz)71チャンネル
 41
0.8
 11
154.53091384302911
 21
743.06180225976595
 31
0.0
 73
     3
  0
TEXT
  5
82
  8
DIMNSIONS
 62
     7
 10
240.00001
 20
66.808478599999916
 30
0.0
 40
7.3297774609374979
  1
(単位：mm)
 41
0.8
 11
240.00001
 21
74.138256060937408
 31
0.0
 73
     3
  0
LINE
  5
83
  8
DIMNSIONS
  6
CONTINUOUS
 62
     7
 10
135.50001
 20
249.50000997764809
 30
0.0
 11
135.50001
 21
280.99999997764809
 31
0.0
  0
LINE
  5
84
  8
DIMNSIONS
  6
CONTINUOUS
 62
     7
 10
304.5
 20
248.00000997764809
 30
0.0
 11
304.5
 21
280.99999997764809
 31
0.0
  0
LINE
  5
85
  8
DIMNSIONS
  6
CONTINUOUS
 62
     7
 10
135.50001
 20
274.99999999999989
 30
0.0
 11
304.5
 21
274.99999999999989
 31
0.0
  0
LINE
  5
86
  8
DIMNSIONS
  6
CONTINUOUS
 62
     7
 10
135.50001
 20
274.99999999999989
 30
0.0
 11
145.02501000000001
 21
277.55221605790632
 31
0.0
  0
LINE
  5
87
  8
DIMNSIONS
  6
CONTINUOUS
 62
     7
 10
135.50001
 20
274.99999999999989
 30
0.0
 11
145.02501000000001
 21
272.44778394209339
 31
0.0
  0
LINE
  5
88
  8
DIMNSIONS
  6
CONTINUOUS
 62
     7
 10
304.5
 20
274.99999999999989
 30
0.0
 11
294.97500000000002
 21
272.44778394209339
 31
0.0
  0
LINE
  5
89
  8
DIMNSIONS
  6
CONTINUOUS
 62
     7
 10
304.5
 20
274.99999999999989
 30
0.0
 11
294.97500000000002
 21
277.55221605790632
 31
0.0
  0
TEXT
  5
8A
  8
DIMNSIONS
 62
     7
 10
212.06251509305321
 20
279.48165479999989
 30
0.0
 40
8.1441954687500004
  1
169
 41
0.8
 11
212.06251509305321
 21
287.6258502687499
 31
0.0
 73
     3
  0
LINE
  5
8B
  8
DIMNSIONS
  6
CONTINUOUS
 62
     7
 10
304.5
 20
248.00000997764809
 30
0.0
 11
304.5
 21
281.00000997764801
 31
0.0
  0
LINE
  5
8C
  8
DIMNSIONS
  6
CONTINUOUS
 62
     7
 10
345.49999000000008
 20
231.00000997764809
 30
0.0
 11
345.49999000000008
 21
281.00000997764801
 31
0.0
  0
LINE
  5
8D
  8
DIMNSIONS
  6
CONTINUOUS
 62
     7
 10
304.5
 20
275.0000099999998
 30
0.0
 11
345.49999000000008
 21
275.0000099999998
 31
0.0
  0
LINE
  5
8E
  8
DIMNSIONS
  6
CONTINUOUS
 62
     7
 10
304.5
 20
275.0000099999998
 30
0.0
 11
314.02499999999998
 21
277.5522260579063
 31
0.0
  0
LINE
  5
8F
  8
DIMNSIONS
  6
CONTINUOUS
 62
     7
 10
304.5
 20
275.0000099999998
 30
0.0
 11
314.02499999999998
 21
272.44779394209343
 31
0.0
  0
LINE
  5
90
  8
DIMNSIONS
  6
CONTINUOUS
 62
     7
 10
345.49999000000008
 20
275.0000099999998
 30
0.0
 11
335.97498999999999
 21
272.44779394209343
 31
0.0
  0
LINE
  5
91
  8
DIMNSIONS
  6
CONTINUOUS
 62
     7
 10
345.49999000000008
 20
275.0000099999998
 30
0.0
 11
335.97498999999999
 21
277.5522260579063
 31
0.0
  0
TEXT
  5
92
  8
DIMNSIONS
 62
     7
 10
319.70833489381789
 20
279.48166479999981
 30
0.0
 40
8.1441954687500004
  1
41
 41
0.8
 11
319.70833489381789
 21
287.62586026874988
 31
0.0
 73
     3
  0
LINE
  5
93
  8
DIMNSIONS
  6
CONTINUOUS
 62
     7
 10
348.49998997764823
 20
228.00000999999989
 30
0.0
 11
368.49998997764823
 21
228.00000999999989
 31
0.0
  0
LINE
  5
94
  8
DIMNSIONS
  6
CONTINUOUS
 62
     7
 10
348.49998997764823
 20
222.00000999999989
 30
0.0
 11
368.49998997764823
 21
222.00000999999989
 31
0.0
  0
LINE
  5
95
  8
DIMNSIONS
  6
CONTINUOUS
 62
     7
 10
362.49999000000003
 20
222.00000999999989
 30
0.0
 11
362.49999000000003
 21
228.00000999999989
 31
0.0
  0
LINE
  5
96
  8
DIMNSIONS
  6
CONTINUOUS
 62
     7
 10
362.49999000000003
 20
228.00000999999989
 30
0.0
 11
362.49999000000003
 21
243.0000100150873
 31
0.0
  0
LINE
  5
97
  8
DIMNSIONS
  6
CONTINUOUS
 62
     7
 10
362.49999000000003
 20
228.00000999999989
 30
0.0
 11
359.94777394209359
 21
237.5250099999999
 31
0.0
  0
LINE
  5
98
  8
DIMNSIONS
  6
CONTINUOUS
 62
     7
 10
362.49999000000003
 20
228.00000999999989
 30
0.0
 11
365.05220605790652
 21
237.5250099999999
 31
0.0
  0
LINE
  5
99
  8
DIMNSIONS
  6
CONTINUOUS
 62
     7
 10
362.49999000000003
 20
222.00000999999989
 30
0.0
 11
362.49999000000003
 21
207.2083498938178
 31
0.0
  0
LINE
  5
9A
  8
DIMNSIONS
  6
CONTINUOUS
 62
     7
 10
362.49999000000003
 20
222.00000999999989
 30
0.0
 11
365.05220605790652
 21
212.47500999999991
 31
0.0
  0
LINE
  5
9B
  8
DIMNSIONS
  6
CONTINUOUS
 62
     7
 10
362.49999000000003
 20
222.00000999999989
 30
0.0
 11
359.94777394209359
 21
212.47500999999991
 31
0.0
  0
TEXT
  5
9C
  8
DIMNSIONS
 62
     7
 10
358.01833520000002
 20
207.2083498938178
 30
0.0
 40
8.1441954687500004
  1
6
 50
90.0
 41
0.8
 11
349.87413973125001
 21
207.2083498938178
 31
0.0
 73
     3
  0
LINE
  5
9D
  8
DIMNSIONS
  6
CONTINUOUS
 62
     7
 10
310.49999997764832
 20
242.00000999999989
 30
0.0
 11
330.99998997764823
 21
242.00000999999989
 31
0.0
  0
LINE
  5
9E
  8
DIMNSIONS
  6
CONTINUOUS
 62
     7
 10
310.49999997764832
 20
208.00000999999989
 30
0.0
 11
330.99998997764823
 21
208.00000999999989
 31
0.0
  0
LINE
  5
9F
  8
DIMNSIONS
  6
CONTINUOUS
 62
     7
 10
324.99999000000008
 20
208.00000999999989
 30
0.0
 11
324.99999000000008
 21
195.6666806108347
 31
0.0
  0
LINE
  5
A0
  8
DIMNSIONS
  6
CONTINUOUS
 62
     7
 10
324.99999000000008
 20
242.00000999999989
 30
0.0
 11
324.99999000000008
 21
208.00000999999989
 31
0.0
  0
LINE
  5
A1
  8
DIMNSIONS
  6
CONTINUOUS
 62
     7
 10
324.99999000000008
 20
242.00000999999989
 30
0.0
 11
327.55220605790652
 21
232.47500999999991
 31
0.0
  0
LINE
  5
A2
  8
DIMNSIONS
  6
CONTINUOUS
 62
     7
 10
324.99999000000008
 20
242.00000999999989
 30
0.0
 11
322.44777394209348
 21
232.47500999999991
 31
0.0
  0
LINE
  5
A3
  8
DIMNSIONS
  6
CONTINUOUS
 62
     7
 10
324.99999000000008
 20
208.00000999999989
 30
0.0
 11
322.44777394209348
 21
217.5250099999999
 31
0.0
  0
LINE
  5
A4
  8
DIMNSIONS
  6
CONTINUOUS
 62
     7
 10
324.99999000000008
 20
208.00000999999989
 30
0.0
 11
327.55220605790652
 21
217.5250099999999
 31
0.0
  0
TEXT
  5
A5
  8
DIMNSIONS
 62
     7
 10
320.51833239999991
 20
195.6666806108347
 30
0.0
 40
8.1442108593750007
  1
34
 50
90.0
 41
0.8
 11
312.37412154062491
 21
195.6666806108347
 31
0.0
 73
     3
  0
LINE
  5
A6
  8
DIMNSIONS
  6
CONTINUOUS
 62
     7
 10
464.14484630942201
 20
203.782728364837
 30
0.0
 11
475.0
 21
187.5
 31
0.0
  0
LINE
  5
A7
  8
DIMNSIONS
  6
CONTINUOUS
 62
     7
 10
464.14484630942201
 20
203.782728364837
 30
0.0
 11
471.58704172026358
 21
197.31332659395559
 31
0.0
  0
LINE
  5
A8
  8
DIMNSIONS
  6
CONTINUOUS
 62
     7
 10
464.14484630942201
 20
203.782728364837
 30
0.0
 11
467.35527570969811
 21
194.45896437854481
 31
0.0
  0
LINE
  5
A9
  8
DIMNSIONS
  6
CONTINUOUS
 62
     7
 10
475.0
 20
187.5
 30
0.0
 11
493.00000000391151
 21
187.5
 31
0.0
  0
TEXT
  5
AA
  8
DIMNSIONS
 62
     7
 10
493.00000000391151
 20
183.69
 30
0.0
 40
8.1442057291666661
  1
φ51
 41
0.8
 11
493.00000000391151
 21
191.83420572916671
 31
0.0
 73
     3
  0
LINE
  5
AB
  8
DIMNSIONS
  6
CONTINUOUS
 62
     7
 10
64.502314150063214
 20
246.65764936172539
 30
0.0
 11
64.502314150063214
 21
280.99999997764809
 31
0.0
  0
LINE
  5
AC
  8
DIMNSIONS
  6
CONTINUOUS
 62
     7
 10
135.50231415006311
 20
249.49870056008979
 30
0.0
 11
135.50231415006311
 21
280.99999997764809
 31
0.0
  0
LINE
  5
AD
  8
DIMNSIONS
  6
CONTINUOUS
 62
     7
 10
64.502314150063214
 20
274.99999999999989
 30
0.0
 11
135.50231415006311
 21
274.99999999999989
 31
0.0
  0
LINE
  5
AE
  8
DIMNSIONS
  6
CONTINUOUS
 62
     7
 10
64.502314150063214
 20
274.99999999999989
 30
0.0
 11
74.027314150063233
 21
277.55221605790632
 31
0.0
  0
LINE
  5
AF
  8
DIMNSIONS
  6
CONTINUOUS
 62
     7
 10
64.502314150063214
 20
274.99999999999989
 30
0.0
 11
74.027314150063233
 21
272.44778394209339
 31
0.0
  0
LINE
  5
B0
  8
DIMNSIONS
  6
CONTINUOUS
 62
     7
 10
135.50231415006311
 20
274.99999999999989
 30
0.0
 11
125.97731415006309
 21
272.44778394209339
 31
0.0
  0
LINE
  5
B1
  8
DIMNSIONS
  6
CONTINUOUS
 62
     7
 10
135.50231415006311
 20
274.99999999999989
 30
0.0
 11
125.97731415006309
 21
277.55221605790632
 31
0.0
  0
TEXT
  5
B2
  8
DIMNSIONS
 62
     7
 10
94.710647483396556
 20
279.48166665549059
 30
0.0
 40
8.1442057291666661
  1
71
 41
0.8
 11
94.710647483396556
 21
287.62587238465733
 31
0.0
 73
     3
  0
LINE
  5
B3
  8
DIMNSIONS
  6
CONTINUOUS
 62
     7
 10
64.502314150063214
 20
246.65764936172539
 30
0.0
 11
64.502314150063214
 21
305.99999997764809
 31
0.0
  0
LINE
  5
B4
  8
DIMNSIONS
  6
CONTINUOUS
 62
     7
 10
304.5
 20
248.00000997764809
 30
0.0
 11
304.5
 21
305.99999997764809
 31
0.0
  0
LINE
  5
B5
  8
DIMNSIONS
  6
CONTINUOUS
 62
     7
 10
64.502314150063214
 20
299.99999999999989
 30
0.0
 11
304.5
 21
299.99999999999989
 31
0.0
  0
LINE
  5
B6
  8
DIMNSIONS
  6
CONTINUOUS
 62
     7
 10
64.502314150063214
 20
299.99999999999989
 30
0.0
 11
74.027314150063233
 21
302.55221605790632
 31
0.0
  0
LINE
  5
B7
  8
DIMNSIONS
  6
CONTINUOUS
 62
     7
 10
64.502314150063214
 20
299.99999999999989
 30
0.0
 11
74.027314150063233
 21
297.44778394209339
 31
0.0
  0
LINE
  5
B8
  8
DIMNSIONS
  6
CONTINUOUS
 62
     7
 10
304.5
 20
299.99999999999989
 30
0.0
 11
294.97500000000002
 21
297.44778394209339
 31
0.0
  0
LINE
  5
B9
  8
DIMNSIONS
  6
CONTINUOUS
 62
     7
 10
304.5
 20
299.99999999999989
 30
0.0
 11
294.97500000000002
 21
302.55221605790632
 31
0.0
  0
TEXT
  5
BA
  8
DIMNSIONS
 62
     7
 10
176.56365707503161
 20
304.48166665549059
 30
0.0
 40
8.1442057291666661
  1
240
 41
0.8
 11
176.56365707503161
 21
312.62587238465733
 31
0.0
 73
     3
  0
CIRCLE
  5
BB
  8
DATA
  6
CONTINUOUS
 62
     7
 10
449.84999999999991
 20
225.00000999999989
 30
0.0
 40
24.699986259870681
  0
CIRCLE
  5
BC
  8
DATA
  6
CONTINUOUS
 62
     7
 10
450.0
 20
225.00000999999989
 30
0.0
 40
25.499995557766312
  0
TEXT
  5
BD
  8
DATA
 62
     7
 10
441.46595139398448
 20
86.736131931631022
 30
0.0
 40
7.3297774609374979
  1
SHURE
 41
0.8
 11
441.46595139398448
 21
94.065909392568514
 31
0.0
 73
     3
  0
TEXT
  5
BE
  8
DATA
 62
     7
 10
419.34805196874379
 20
76.056922856656385
 30
0.0
 40
5.7009440104166647
  1
ハンドヘルド型送信機
 41
0.8
 11
419.34805196874379
 21
81.757866867073062
 31
0.0
 73
     3
  0
TEXT
  5
BF
  8
DATA
 62
     7
 10
418.91741008918711
 20
65.068314286686885
 30
0.0
 40
5.7009440104166647
  1
U2/BETA 87A-JBX / U2/BETA 87A-A24
 41
0.8
 11
418.91741008918711
 21
70.769258297103534
 31
0.0
 73
     3
  0
LINE
  5
C0
  8
DATA
  6
CONTINUOUS
 62
     7
 10
229.5
 20
207.50000999999989
 30
0.0
 11
229.5
 21
242.50000999999989
 31
0.0
  0
LINE
  5
C1
  8
DATA
  6
CONTINUOUS
 62
     7
 10
251.50001
 20
207.6447399999999
 30
0.0
 11
251.50001
 21
242.00000999999989
 31
0.0
  0
LINE
  5
C2
  8
DATA
  6
CONTINUOUS
 62
     7
 10
269.50000999999997
 20
207.76316999999989
 30
0.0
 11
269.50000999999997
 21
242.23684999999989
 31
0.0
  0
LINE
  5
C3
  8
DATA
  6
CONTINUOUS
 62
     7
 10
284.00000999999997
 20
207.85854999999989
 30
0.0
 11
284.00000999999997
 21
242.14145999999991
 31
0.0
  0
LINE
  5
C4
  8
DATA
  6
CONTINUOUS
 62
     7
 10
294.50000999999997
 20
207.93420999999989
 30
0.0
 11
294.50000999999997
 21
242.06579999999991
 31
0.0
  0
LINE
  5
C5
  8
DATA
  6
CONTINUOUS
 62
     7
 10
304.5
 20
208.00000999999989
 30
0.0
 11
304.5
 21
242.00000999999989
 31
0.0
  0
LINE
  5
C6
  8
DATA
  6
CONTINUOUS
 62
     7
 10
229.5
 20
242.50000999999989
 30
0.0
 11
304.5
 21
242.00000999999989
 31
0.0
  0
LINE
  5
C7
  8
DATA
  6
CONTINUOUS
 62
     7
 10
229.5
 20
207.50000999999989
 30
0.0
 11
304.5
 21
208.00000999999989
 31
0.0
  0
LINE
  5
C8
  8
DATA
  6
CONTINUOUS
 62
     7
 10
307.99999000000008
 20
221.14999999999989
 30
0.0
 11
307.99999000000008
 21
228.85000999999991
 31
0.0
  0
LINE
  5
C9
  8
DATA
  6
CONTINUOUS
 62
     7
 10
304.5
 20
228.85000999999991
 30
0.0
 11
307.99999000000008
 21
228.85000999999991
 31
0.0
  0
LINE
  5
CA
  8
DATA
  6
CONTINUOUS
 62
     7
 10
307.99999000000008
 20
228.85000999999991
 30
0.0
 11
315.99999000000008
 21
228.25000999999989
 31
0.0
  0
LINE
  5
CB
  8
DATA
  6
CONTINUOUS
 62
     7
 10
315.49999000000008
 20
228.25000999999989
 30
0.0
 11
342.49999000000008
 21
228.00000999999989
 31
0.0
  0
LINE
  5
CC
  8
DATA
  6
CONTINUOUS
 62
     7
 10
304.5
 20
221.14999999999989
 30
0.0
 11
307.99999000000008
 21
221.14999999999989
 31
0.0
  0
LINE
  5
CD
  8
DATA
  6
CONTINUOUS
 62
     7
 10
307.99999000000008
 20
221.14999999999989
 30
0.0
 11
315.99999000000008
 21
221.75000999999989
 31
0.0
  0
LINE
  5
CE
  8
DATA
  6
CONTINUOUS
 62
     7
 10
315.49999000000008
 20
221.75000999999989
 30
0.0
 11
342.49999000000008
 21
222.00000999999989
 31
0.0
  0
ARC
  5
CF
  8
DATA
  6
CONTINUOUS
 62
     7
 10
342.49999000000008
 20
225.00000999999989
 30
0.0
 40
3.0
 50
270.0
 51
90.0
  0
LINE
  5
D0
  8
DATA
  6
CONTINUOUS
 62
     7
 10
155.5
 20
215.50000999999989
 30
0.0
 11
155.5
 21
234.50000999999989
 31
0.0
  0
LINE
  5
D1
  8
DATA
  6
CONTINUOUS
 62
     7
 10
174.50001
 20
214.75000999999989
 30
0.0
 11
174.50001
 21
235.25000999999989
 31
0.0
  0
LINE
  5
D2
  8
DATA
  6
CONTINUOUS
 62
     7
 10
155.5
 20
234.50000999999989
 30
0.0
 11
176.50001
 21
235.25000999999989
 31
0.0
  0
LINE
  5
D3
  8
DATA
  6
CONTINUOUS
 62
     7
 10
155.5
 20
215.50000999999989
 30
0.0
 11
176.50001
 21
214.75000999999989
 31
0.0
  0
LINE
  5
D4
  8
DATA
  6
CONTINUOUS
 62
     7
 10
158.25
 20
232.75000999999989
 30
0.0
 11
171.75
 21
232.75000999999989
 31
0.0
  0
LINE
  5
D5
  8
DATA
  6
CONTINUOUS
 62
     7
 10
158.25
 20
217.25000999999989
 30
0.0
 11
171.75
 21
217.25000999999989
 31
0.0
  0
LINE
  5
D6
  8
DATA
  6
CONTINUOUS
 62
     7
 10
171.75
 20
232.75000999999989
 30
0.0
 11
171.75
 21
217.25000999999989
 31
0.0
  0
LINE
  5
D7
  8
DATA
  6
CONTINUOUS
 62
     7
 10
158.25
 20
232.75000999999989
 30
0.0
 11
158.25
 21
217.25000999999989
 31
0.0
  0
CIRCLE
  5
D8
  8
DATA
  6
CONTINUOUS
 62
     7
 10
450.0
 20
225.00000999999989
 30
0.0
 40
3.0
  0
CIRCLE
  5
D9
  8
DATA
  6
CONTINUOUS
 62
     7
 10
450.0
 20
225.00000999999989
 30
0.0
 40
17.0
  0
CIRCLE
  5
DA
  8
DATA
  6
CONTINUOUS
 62
     7
 10
450.0
 20
225.00000999999989
 30
0.0
 40
18.5
  0
LINE
  5
DB
  8
DATA
  6
CONTINUOUS
 62
     7
 10
444.5
 20
232.00000999999989
 30
0.0
 11
444.5
 21
234.50000999999989
 31
0.0
  0
LINE
  5
DC
  8
DATA
  6
CONTINUOUS
 62
     7
 10
441.5
 20
232.00000999999989
 30
0.0
 11
441.5
 21
234.50000999999989
 31
0.0
  0
ARC
  5
DD
  8
DATA
  6
CONTINUOUS
 62
     7
 10
443.0
 20
234.50000999999989
 30
0.0
 40
1.5
 50
0.0
 51
180.0
  0
ARC
  5
DE
  8
DATA
  6
CONTINUOUS
 62
     7
 10
443.0
 20
232.00000999999989
 30
0.0
 40
1.5
 50
180.0
 51
0.0
  0
CIRCLE
  5
DF
  8
DATA
  6
CONTINUOUS
 62
     7
 10
443.0
 20
232.00000999999989
 30
0.0
 40
1.0
  0
TEXT
  5
E0
  8
DATA
 62
     7
 10
442.57999139999993
 20
226.9609526302082
 30
0.0
 40
2.3085860546874999
  1
ON
 50
90.0
 41
0.8
 72
     1
 11
440.27140534531247
 21
228.50000999999989
 31
0.0
 73
     3
  0
TEXT
  5
E1
  8
DATA
 62
     7
 10
447.57999139999993
 20
233.53751820833321
 30
0.0
 40
2.3085860546874999
  1
OFF
 50
90.0
 41
0.8
 72
     1
 11
445.27140534531242
 21
236.00000999999989
 31
0.0
 73
     3
  0
TEXT
  5
E2
  8
DATA
 62
     7
 10
439.62
 20
218.53594749999991
 30
0.0
 40
3.462890625
  1
SHURE
 50
90.0
 41
0.8
 72
     1
 11
436.157109375
 21
225.00000999999989
 31
0.0
 73
     3
  0
CIRCLE
  5
E3
  8
DATA
  6
CONTINUOUS
 62
     7
 10
450.0
 20
225.00000999999989
 30
0.0
 40
19.25
  0
LINE
  5
E4
  8
DATA
  6
CONTINUOUS
 62
     7
 10
135.50001
 20
243.50000999999989
 30
0.0
 11
229.5
 21
242.50000999999989
 31
0.0
  0
LINE
  5
E5
  8
DATA
  6
CONTINUOUS
 62
     7
 10
135.50001
 20
206.50000999999989
 30
0.0
 11
229.5
 21
207.50000999999989
 31
0.0
  0
CIRCLE
  5
E6
  8
DATA
  6
CONTINUOUS
 62
     7
 10
450.0
 20
225.00000999999989
 30
0.0
 40
5.5
  0
ARC
  5
E7
  8
DATA
  6
CONTINUOUS
 62
     7
 10
98.528462359897958
 20
224.99870058244289
 30
0.0
 40
10.0
 50
143.3805298697263
 51
216.61947013027131
  0
ARC
  5
E8
  8
DATA
  6
CONTINUOUS
 62
     7
 10
98.528462359897958
 20
224.99870058244289
 30
0.0
 40
11.999999999999989
 50
131.9780365501025
 51
228.02196344989591
  0
ARC
  5
E9
  8
DATA
  6
CONTINUOUS
 62
     7
 10
98.528462359897958
 20
224.99870058244289
 30
0.0
 40
13.99999999999998
 50
124.98040819151051
 51
235.0195918084882
  0
ARC
  5
EA
  8
DATA
  6
CONTINUOUS
 62
     7
 10
98.528462359897958
 20
224.99870058244289
 30
0.0
 40
16.000000000000021
 50
120.1081810052608
 51
239.89181899473161
  0
ARC
  5
EB
  8
DATA
  6
CONTINUOUS
 62
     7
 10
98.528462359897958
 20
224.99870058244289
 30
0.0
 40
18.000000000000039
 50
116.4807507162427
 51
243.51924928375689
  0
ARC
  5
EC
  8
DATA
  6
CONTINUOUS
 62
     7
 10
98.528462359897958
 20
224.99870058244289
 30
0.0
 40
20.000000000000039
 50
113.659936496119
 51
246.34006350388009
  0
ARC
  5
ED
  8
DATA
  6
CONTINUOUS
 62
     7
 10
98.528462359897958
 20
224.99870058244289
 30
0.0
 40
22.000000000000011
 50
111.3968082964652
 51
248.60319170354089
  0
ARC
  5
EE
  8
DATA
  6
CONTINUOUS
 62
     7
 10
98.528462359897958
 20
224.99870058244289
 30
0.0
 40
23.99999999999995
 50
109.5374450987878
 51
250.46255490121189
  0
ARC
  5
EF
  8
DATA
  6
CONTINUOUS
 62
     7
 10
98.528462359897958
 20
224.99870058244289
 30
0.0
 40
25.999999999999979
 50
116.2734221384996
 51
243.7265778615143
  0
ARC
  5
F0
  8
DATA
  6
CONTINUOUS
 62
     7
 10
98.528462359897958
 20
224.99870058244289
 30
0.0
 40
27.99999999999994
 50
125.2637436394654
 51
234.7362563605266
  0
LINE
  5
F1
  8
DATA
  6
CONTINUOUS
 62
     7
 10
64.502314150203745
 20
224.99870058244289
 30
0.0
 11
90.528462359897944
 21
224.99870058244289
 31
0.0
  0
ARC
  5
F2
  8
DATA
  6
CONTINUOUS
 62
     7
 10
92.528462359898
 20
852.24870058244369
 30
0.0
 40
625.25000000000102
 50
267.43091849221742
 51
269.81433035703651
  0
ARC
  5
F3
  8
DATA
  6
CONTINUOUS
 62
     7
 10
103.4013255266682
 20
852.15381454308044
 30
0.0
 40
623.25000000000068
 50
266.42166273347527
 51
268.81410078891639
  0
ARC
  5
F4
  8
DATA
  6
CONTINUOUS
 62
     7
 10
114.233039839841
 20
851.87020016662063
 30
0.0
 40
621.2500000000008
 50
265.40859142077261
 51
267.81086310428731
  0
ARC
  5
F5
  8
DATA
  6
CONTINUOUS
 62
     7
 10
125.0220027889783
 20
851.39914631478791
 30
0.0
 40
619.25000000000068
 50
264.39149539905219
 51
266.80442755867432
  0
ARC
  5
F6
  8
DATA
  6
CONTINUOUS
 62
     7
 10
135.76621840456531
 20
850.74200193627701
 30
0.0
 40
617.2500000000008
 50
263.37019546087191
 51
265.79463638621979
  0
ARC
  5
F7
  8
DATA
  6
CONTINUOUS
 62
     7
 10
146.46255816298381
 20
849.90018174051329
 30
0.0
 40
615.25000000000057
 50
262.34461212210653
 51
264.78143323256069
  0
ARC
  5
F8
  8
DATA
  6
CONTINUOUS
 62
     7
 10
157.10785937304331
 20
848.87515581922048
 30
0.0
 40
613.2500000000008
 50
261.36558317418252
 51
263.76476214715041
  0
ARC
  5
F9
  8
DATA
  6
CONTINUOUS
 62
     7
 10
167.69899605721929
 20
847.66844821850316
 30
0.0
 40
611.25000000000102
 50
260.59413001108419
 51
262.74456088062021
  0
ARC
  5
FA
  8
DATA
  6
CONTINUOUS
 62
     7
 10
178.23287986831249
 20
846.28163610547711
 30
0.0
 40
609.25000000000102
 50
260.07082346998828
 51
261.72076060684958
  0
ARC
  5
FB
  8
DATA
  6
CONTINUOUS
 62
     7
 10
188.7064609882099
 20
844.71634891939698
 30
0.0
 40
607.25000000000102
 50
259.61753968622679
 51
260.69328561139412
  0
ARC
  5
FC
  8
DATA
  6
CONTINUOUS
 62
     7
 10
199.1167290084847
 20
842.97426750764726
 30
0.0
 40
605.2500000000008
 50
259.28324397585038
 51
259.66205294322089
  0
ARC
  5
FD
  8
DATA
  6
CONTINUOUS
 62
     7
 10
98.528462359897958
 20
224.99870058244289
 30
0.0
 40
29.999999999999989
 50
132.0827425896891
 51
227.91725741031399
  0
ARC
  5
FE
  8
DATA
  6
CONTINUOUS
 62
     7
 10
98.528462359897958
 20
224.99870058244289
 30
0.0
 40
31.99999999999995
 50
137.6496905325717
 51
222.11121881360779
  0
ARC
  5
FF
  8
DATA
  6
CONTINUOUS
 62
     7
 10
98.528462359897958
 20
224.99870058244289
 30
0.0
 40
33.99999999999995
 50
142.384916499729
 51
217.476718166252
  0
ARC
  5
100
  8
DATA
  6
CONTINUOUS
 62
     7
 10
98.528462359897958
 20
224.99870058244289
 30
0.0
 40
35.999999999999901
 50
146.52333126174941
 51
160.93888775291131
  0
ARC
  5
101
  8
DATA
  6
CONTINUOUS
 62
     7
 10
92.528462359897958
 20
-402.25129941755768
 30
0.0
 40
625.2500000000008
 50
90.18566964296356
 51
92.569081507782769
  0
ARC
  5
102
  8
DATA
  6
CONTINUOUS
 62
     7
 10
103.4013255266682
 20
-402.1564133781942
 30
0.0
 40
623.25000000000068
 50
91.185899211083623
 51
93.578337266524699
  0
ARC
  5
103
  8
DATA
  6
CONTINUOUS
 62
     7
 10
114.233039839841
 20
-401.87279900173439
 30
0.0
 40
621.25000000000045
 50
92.189136895712679
 51
94.591408579227348
  0
ARC
  5
104
  8
DATA
  6
CONTINUOUS
 62
     7
 10
125.0220027889783
 20
-401.4017451499019
 30
0.0
 40
619.25000000000057
 50
93.195572441325766
 51
95.608504600947853
  0
ARC
  5
105
  8
DATA
  6
CONTINUOUS
 62
     7
 10
135.76621840456531
 20
-400.74460077139088
 30
0.0
 40
617.25000000000045
 50
94.205363613780207
 51
96.629804539128145
  0
ARC
  5
106
  8
DATA
  6
CONTINUOUS
 62
     7
 10
146.46255816298381
 20
-399.90278057562739
 30
0.0
 40
615.25000000000034
 50
95.218566767439285
 51
97.65538787789356
  0
ARC
  5
107
  8
DATA
  6
CONTINUOUS
 62
     7
 10
157.10785937304331
 20
-398.87775465433458
 30
0.0
 40
613.2500000000008
 50
96.235237852849593
 51
98.634416825817567
  0
ARC
  5
108
  8
DATA
  6
CONTINUOUS
 62
     7
 10
167.6989960572192
 20
-397.67104705361709
 30
0.0
 40
611.25000000000068
 50
97.255439119379787
 51
99.405869988915867
  0
ARC
  5
109
  8
DATA
  6
CONTINUOUS
 62
     7
 10
178.23287986831241
 20
-396.2842349405912
 30
0.0
 40
609.2500000000008
 50
98.279239393150291
 51
99.929176530011773
  0
ARC
  5
10A
  8
DATA
  6
CONTINUOUS
 62
     7
 10
188.70646098820981
 20
-394.71894775451108
 30
0.0
 40
607.25000000000068
 50
99.306714388605883
 51
100.38246031377309
  0
ARC
  5
10B
  8
DATA
  6
CONTINUOUS
 62
     7
 10
199.11672900848461
 20
-392.9768663427613
 30
0.0
 40
605.2500000000008
 50
100.3379470567791
 51
100.7167560241496
  0
ARC
  5
10C
  8
DATA
  6
CONTINUOUS
 62
     7
 10
98.528462359897958
 20
224.99870058244289
 30
0.0
 40
35.999999999999893
 50
199.06111224708849
 51
213.47666873825051
  0
ARC
  5
10D
  8
DATA
  6
CONTINUOUS
 62
     7
 10
86.453836841140188
 20
224.99870058244289
 30
0.0
 40
9.9999999999999805
 50
323.38052986972872
 51
36.61947013027369
  0
ARC
  5
10E
  8
DATA
  6
CONTINUOUS
 62
     7
 10
86.453836841140188
 20
224.99870058244289
 30
0.0
 40
11.99999999999998
 50
311.97803655010409
 51
48.021963449897441
  0
ARC
  5
10F
  8
DATA
  6
CONTINUOUS
 62
     7
 10
86.453836841140188
 20
224.99870058244289
 30
0.0
 40
13.99999999999997
 50
304.98040819151169
 51
55.019591808489452
  0
ARC
  5
110
  8
DATA
  6
CONTINUOUS
 62
     7
 10
86.453836841140188
 20
224.99870058244289
 30
0.0
 40
15.999999999999959
 50
300.10818100526848
 51
59.891818994739161
  0
ARC
  5
111
  8
DATA
  6
CONTINUOUS
 62
     7
 10
86.453836841140188
 20
224.99870058244289
 30
0.0
 40
17.999999999999989
 50
296.48075071624311
 51
63.519249283757368
  0
ARC
  5
112
  8
DATA
  6
CONTINUOUS
 62
     7
 10
86.453836841140188
 20
224.99870058244289
 30
0.0
 40
19.999999999999972
 50
293.65993649611983
 51
66.340063503880941
  0
ARC
  5
113
  8
DATA
  6
CONTINUOUS
 62
     7
 10
86.453836841140188
 20
224.99870058244289
 30
0.0
 40
21.999999999999929
 50
291.39680829645903
 51
68.60319170353479
  0
ARC
  5
114
  8
DATA
  6
CONTINUOUS
 62
     7
 10
86.453836841140188
 20
224.99870058244289
 30
0.0
 40
23.99999999999995
 50
289.53744509878811
 51
70.462554901212229
  0
ARC
  5
115
  8
DATA
  6
CONTINUOUS
 62
     7
 10
86.453836841140188
 20
224.99870058244289
 30
0.0
 40
25.999999999999961
 50
296.27342213848573
 51
63.726577861500459
  0
ARC
  5
116
  8
DATA
  6
CONTINUOUS
 62
     7
 10
86.453836841140188
 20
224.99870058244289
 30
0.0
 40
27.999999999999929
 50
307.63026380579367
 51
52.369736194206219
  0
LINE
  5
117
  8
DATA
  6
CONTINUOUS
 62
     7
 10
118.5023141502037
 20
224.99870058244289
 30
0.0
 11
94.453836841140159
 21
224.99870058244289
 31
0.0
  0
ARC
  5
118
  8
DATA
  6
CONTINUOUS
 62
     7
 10
92.453836841140216
 20
852.24870058244369
 30
0.0
 40
625.25000000000102
 50
270.18566964296349
 51
272.38768473231403
  0
ARC
  5
119
  8
DATA
  6
CONTINUOUS
 62
     7
 10
81.580973674369986
 20
852.15381454308044
 30
0.0
 40
623.25000000000114
 50
271.18589921108361
 51
273.39619134088559
  0
ARC
  5
11A
  8
DATA
  6
CONTINUOUS
 62
     7
 10
70.749259361197232
 20
851.87020016662063
 30
0.0
 40
621.2500000000008
 50
272.18913689571269
 51
274.40845064446307
  0
ARC
  5
11B
  8
DATA
  6
CONTINUOUS
 62
     7
 10
59.960296412060032
 20
851.39914631478791
 30
0.0
 40
619.25000000000068
 50
273.19557244132568
 51
275.4246701197066
  0
ARC
  5
11C
  8
DATA
  6
CONTINUOUS
 62
     7
 10
49.216080796473022
 20
850.74200193627701
 30
0.0
 40
617.2500000000008
 50
274.20536361378009
 51
276.44502713091669
  0
ARC
  5
11D
  8
DATA
  6
CONTINUOUS
 62
     7
 10
38.519741038054583
 20
849.90018174051329
 30
0.0
 40
615.25000000000057
 50
275.2185667674392
 51
277.4695991833326
  0
ARC
  5
11E
  8
DATA
  6
CONTINUOUS
 62
     7
 10
27.874439827995111
 20
848.87515581922048
 30
0.0
 40
613.25000000000102
 50
276.23523785284959
 51
278.49846518672598
  0
ARC
  5
11F
  8
DATA
  6
CONTINUOUS
 62
     7
 10
17.283303143819239
 20
847.66844821850316
 30
0.0
 40
611.25000000000068
 50
277.2554391193799
 51
279.17400247827698
  0
ARC
  5
120
  8
DATA
  6
CONTINUOUS
 62
     7
 10
6.7494193327260632
 20
846.28163610547711
 30
0.0
 40
609.25000000000114
 50
278.27923939315031
 51
279.67706384437281
  0
ARC
  5
121
  8
DATA
  6
CONTINUOUS
 62
     7
 10
-3.724161787171397
 20
844.71634891939698
 30
0.0
 40
607.25000000000068
 50
279.30671438860583
 51
280.20903936789591
  0
ARC
  5
122
  8
DATA
  6
CONTINUOUS
 62
     7
 10
-14.134429807446219
 20
842.97426750764726
 30
0.0
 40
605.2500000000008
 50
280.337947056779
 51
280.71675602414962
  0
ARC
  5
123
  8
DATA
  6
CONTINUOUS
 62
     7
 10
86.453836841140188
 20
224.99870058244289
 30
0.0
 40
29.999999999999961
 50
315.43281486382551
 51
44.56718513617448
  0
ARC
  5
124
  8
DATA
  6
CONTINUOUS
 62
     7
 10
86.453836841140188
 20
224.99870058244289
 30
0.0
 40
31.999999999999918
 50
321.0103952500022
 51
38.989604749997909
  0
ARC
  5
125
  8
DATA
  6
CONTINUOUS
 62
     7
 10
86.453836841140188
 20
224.99870058244289
 30
0.0
 40
33.999999999999908
 50
325.37612986763253
 51
340.49326972204432
  0
ARC
  5
126
  8
DATA
  6
CONTINUOUS
 62
     7
 10
86.453836841140188
 20
224.99870058244289
 30
0.0
 40
33.99999999999995
 50
19.50673027795575
 51
34.623870132367642
  0
ARC
  5
127
  8
DATA
  6
CONTINUOUS
 62
     7
 10
86.453836841140188
 20
224.99870058244289
 30
0.0
 40
35.999999999999922
 50
27.09714778166585
 51
31.046585439880609
  0
ARC
  5
128
  8
DATA
  6
CONTINUOUS
 62
     7
 10
92.453836841140145
 20
-402.25129941755768
 30
0.0
 40
625.2500000000008
 50
87.612315267684551
 51
89.814330357036425
  0
ARC
  5
129
  8
DATA
  6
CONTINUOUS
 62
     7
 10
81.580973674369915
 20
-402.1564133781942
 30
0.0
 40
623.25000000000057
 50
86.603808659111067
 51
88.814100788916377
  0
ARC
  5
12A
  8
DATA
  6
CONTINUOUS
 62
     7
 10
70.749259361197133
 20
-401.87279900173439
 30
0.0
 40
621.25000000000045
 50
85.591549355536799
 51
87.810863104287307
  0
ARC
  5
12B
  8
DATA
  6
CONTINUOUS
 62
     7
 10
59.96029641205989
 20
-401.4017451499019
 30
0.0
 40
619.25000000000057
 50
84.575329880295655
 51
86.804427558674305
  0
ARC
  5
12C
  8
DATA
  6
CONTINUOUS
 62
     7
 10
49.216080796472959
 20
-400.74460077139088
 30
0.0
 40
617.25000000000045
 50
83.554972869084381
 51
85.794636386219764
  0
ARC
  5
12D
  8
DATA
  6
CONTINUOUS
 62
     7
 10
38.519741038054534
 20
-399.90278057562739
 30
0.0
 40
615.25000000000011
 50
82.530400816660958
 51
84.781433232560687
  0
ARC
  5
12E
  8
DATA
  6
CONTINUOUS
 62
     7
 10
27.874439827995051
 20
-398.87775465433458
 30
0.0
 40
613.25000000000045
 50
81.501534813271121
 51
83.764762147150236
  0
ARC
  5
12F
  8
DATA
  6
CONTINUOUS
 62
     7
 10
17.283303143819179
 20
-397.67104705361709
 30
0.0
 40
611.25000000000068
 50
80.825997521721845
 51
82.744560880620156
  0
ARC
  5
130
  8
DATA
  6
CONTINUOUS
 62
     7
 10
6.7494193327260064
 20
-396.2842349405912
 30
0.0
 40
609.25000000000045
 50
80.322936155625513
 51
81.720760606849794
  0
ARC
  5
131
  8
DATA
  6
CONTINUOUS
 62
     7
 10
-3.724161787171453
 20
-394.71894775451108
 30
0.0
 40
607.25000000000068
 50
79.790960632103705
 51
80.693285611393961
  0
ARC
  5
132
  8
DATA
  6
CONTINUOUS
 62
     7
 10
-14.13442980744628
 20
-392.9768663427613
 30
0.0
 40
605.25000000000045
 50
79.283243975850453
 51
79.6620529432209
  0
ARC
  5
133
  8
DATA
  6
CONTINUOUS
 62
     7
 10
86.453836841140188
 20
224.99870058244289
 30
0.0
 40
35.99999999999995
 50
328.95341456011943
 51
332.90285221833398
  0
LINE
  5
134
  8
DATA
  6
CONTINUOUS
 62
     7
 10
135.50231415006311
 20
206.49870058244159
 30
0.0
 11
135.50231415006311
 21
243.49870058244159
 31
0.0
  0
LINE
  5
135
  8
DATA
  6
CONTINUOUS
 62
     7
 10
135.00231415006311
 20
207.49870058244159
 30
0.0
 11
135.50231415006311
 21
207.49870058244159
 31
0.0
  0
LINE
  5
136
  8
DATA
  6
CONTINUOUS
 62
     7
 10
135.00231415006311
 20
242.49870058244159
 30
0.0
 11
135.50231415006311
 21
242.49870058244159
 31
0.0
  0
LINE
  5
137
  8
DATA
  6
CONTINUOUS
 62
     7
 10
135.00231415006311
 20
206.49870058244159
 30
0.0
 11
135.00231415006311
 21
243.49870058244159
 31
0.0
  0
LINE
  5
138
  8
DATA
  6
CONTINUOUS
 62
     7
 10
135.00231415006311
 20
206.49870058244159
 30
0.0
 11
127.5023141500631
 21
206.49870058244159
 31
0.0
  0
LINE
  5
139
  8
DATA
  6
CONTINUOUS
 62
     7
 10
135.00231415006311
 20
243.49870058244159
 30
0.0
 11
127.5023141500631
 21
243.49870058244159
 31
0.0
  0
LINE
  5
13A
  8
DATA
  6
CONTINUOUS
 62
     7
 10
127.5023141500631
 20
206.49870058244159
 30
0.0
 11
127.5023141500631
 21
243.49870058244159
 31
0.0
  0
LINE
  5
13B
  8
DATA
  6
CONTINUOUS
 62
     7
 10
125.0023141500631
 20
206.99870058244159
 30
0.0
 11
125.0023141500631
 21
242.99870058244159
 31
0.0
  0
LINE
  5
13C
  8
DATA
  6
CONTINUOUS
 62
     7
 10
125.0023141500631
 20
206.99870058244159
 30
0.0
 11
127.5023141500631
 21
206.49870058244159
 31
0.0
  0
LINE
  5
13D
  8
DATA
  6
CONTINUOUS
 62
     7
 10
125.0023141500631
 20
242.99870058244159
 30
0.0
 11
127.5023141500631
 21
243.49870058244159
 31
0.0
  0
LINE
  5
13E
  8
DATA
  6
CONTINUOUS
 62
     7
 10
118.5023141500631
 20
205.74870058244159
 30
0.0
 11
118.5023141500631
 21
244.24870058244159
 31
0.0
  0
LINE
  5
13F
  8
DATA
  6
CONTINUOUS
 62
     7
 10
118.5023141500631
 20
205.74870058244159
 30
0.0
 11
125.0023141500631
 21
206.99870058244159
 31
0.0
  0
LINE
  5
140
  8
DATA
  6
CONTINUOUS
 62
     7
 10
118.5023141500631
 20
244.24870058244159
 30
0.0
 11
125.0023141500631
 21
242.99870058244159
 31
0.0
  0
LINE
  5
141
  8
DATA
  6
CONTINUOUS
 62
     7
 10
90.502314150063157
 20
199.9987005824415
 30
0.0
 11
90.502314150063157
 21
249.99870058244159
 31
0.0
  0
LINE
  5
142
  8
DATA
  6
CONTINUOUS
 62
     7
 10
94.502314150063157
 20
199.9987005824415
 30
0.0
 11
94.502314150063157
 21
249.99870058244159
 31
0.0
  0
LINE
  5
143
  8
DATA
  6
CONTINUOUS
 62
     7
 10
91.502314150063157
 20
199.9987005824415
 30
0.0
 11
91.502314150063157
 21
249.99870058244159
 31
0.0
  0
LINE
  5
144
  8
DATA
  6
CONTINUOUS
 62
     7
 10
93.502314150063157
 20
199.9987005824415
 30
0.0
 11
93.502314150063157
 21
249.99870058244159
 31
0.0
  0
LINE
  5
145
  8
DATA
  6
CONTINUOUS
 62
     7
 10
90.502314150063157
 20
201.99870058244159
 30
0.0
 11
90.502314150063157
 21
247.99870058244159
 31
0.0
  0
LINE
  5
146
  8
DATA
  6
CONTINUOUS
 62
     7
 10
118.5023141500631
 20
243.24870058244159
 30
0.0
 11
101.43592296371379
 21
247.7286282688583
 31
0.0
  0
LINE
  5
147
  8
DATA
  6
CONTINUOUS
 62
     7
 10
90.502314150063157
 20
249.99870058244159
 30
0.0
 11
91.502314150063157
 21
249.99870058244159
 31
0.0
  0
LINE
  5
148
  8
DATA
  6
CONTINUOUS
 62
     7
 10
93.502314150063157
 20
249.99870058244159
 30
0.0
 11
94.502314150063157
 21
249.99870058244159
 31
0.0
  0
LINE
  5
149
  8
DATA
  6
CONTINUOUS
 62
     7
 10
90.502314150063157
 20
199.9987005824415
 30
0.0
 11
91.502314150063157
 21
199.9987005824415
 31
0.0
  0
LINE
  5
14A
  8
DATA
  6
CONTINUOUS
 62
     7
 10
93.502314150063157
 20
199.9987005824415
 30
0.0
 11
94.502314150063157
 21
199.9987005824415
 31
0.0
  0
ARC
  5
14B
  8
DATA
  6
CONTINUOUS
 62
     7
 10
92.491149600378563
 20
200.59538841892859
 30
0.0
 40
1.1549164134308569
 50
211.10782291896729
 51
331.10782291896749
  0
ARC
  5
14C
  8
DATA
  6
CONTINUOUS
 62
     7
 10
92.491149600378563
 20
249.40201274595449
 30
0.0
 40
1.154916413430837
 50
28.8921770810325
 51
148.89217708103271
  0
ARC
  5
14D
  8
DATA
  6
CONTINUOUS
 62
     7
 10
92.502314150063157
 20
167.5987005824415
 30
0.0
 40
80.900000000000034
 50
91.416603643380583
 51
108.1854476288693
  0
LINE
  5
14E
  8
DATA
  6
CONTINUOUS
 62
     7
 10
94.502314150063157
 20
248.49870058244159
 30
0.0
 11
95.469316946029437
 21
248.49870058244159
 31
0.0
  0
ARC
  5
14F
  8
DATA
  6
CONTINUOUS
 62
     7
 10
95.469316946029437
 20
224.99870058244159
 30
0.0
 40
23.500000000000011
 50
75.291696100317225
 51
90.0
  0
ARC
  5
150
  8
DATA
  6
CONTINUOUS
 62
     7
 10
68.502314150063214
 20
240.65764938407719
 30
0.0
 40
4.0000000000000124
 50
108.1854476288697
 51
180.0
  0
LINE
  5
151
  8
DATA
  6
CONTINUOUS
 62
     7
 10
118.5023141500631
 20
206.74870058244159
 30
0.0
 11
101.43592296371379
 21
202.2687728960249
 31
0.0
  0
ARC
  5
152
  8
DATA
  6
CONTINUOUS
 62
     7
 10
92.502314150063157
 20
282.39870058244162
 30
0.0
 40
80.899999999999977
 50
251.8145523711307
 51
268.5833963566194
  0
LINE
  5
153
  8
DATA
  6
CONTINUOUS
 62
     7
 10
94.502314150063157
 20
201.49870058244159
 30
0.0
 11
95.469316946029437
 21
201.49870058244159
 31
0.0
  0
ARC
  5
154
  8
DATA
  6
CONTINUOUS
 62
     7
 10
95.469316946029437
 20
224.99870058244159
 30
0.0
 40
23.5
 50
270.0
 51
284.70830389968279
  0
ARC
  5
155
  8
DATA
  6
CONTINUOUS
 62
     7
 10
68.502314150063214
 20
209.3397517808061
 30
0.0
 40
4.0
 50
180.0
 51
251.8145523711303
  0
LINE
  5
156
  8
DATA
  6
CONTINUOUS
 62
     7
 10
64.502314150063214
 20
209.33975178080601
 30
0.0
 11
64.502314150063214
 21
240.65764938407719
 31
0.0
  0
TEXT
  5
157
  8
DATA
 62
     7
 10
132.92318915006319
 20
216.8113175415059
 30
0.0
 40
3.2576822916666659
  1
BETA 87A
 50
90.0
 41
0.8
 11
129.66550685839661
 21
216.8113175415059
 31
0.0
 73
     3
  0
LINE
  5
158
  8
DATA
  6
CONTINUOUS
 62
     7
 10
472.29989
 20
214.6998999999999
 30
0.0
 11
460.15008999999992
 21
202.5500999999999
 31
0.0
  0
LINE
  5
159
  8
DATA
  6
CONTINUOUS
 62
     7
 10
474.33299
 20
221.73299999999989
 30
0.0
 11
453.11698999999999
 21
200.51701999999989
 31
0.0
  0
LINE
  5
15A
  8
DATA
  6
CONTINUOUS
 62
     7
 10
447.15221999999989
 20
249.55222999999989
 30
0.0
 11
425.29775999999993
 21
227.69777999999999
 31
0.0
  0
LINE
  5
15B
  8
DATA
  6
CONTINUOUS
 62
     7
 10
440.54360999999989
 20
247.8797099999999
 30
0.0
 11
427.01422999999988
 21
234.4137099999999
 31
0.0
  0
LINE
  5
15C
  8
DATA
  6
CONTINUOUS
 62
     7
 10
426.2820099999999
 20
217.60808999999989
 30
0.0
 11
442.45809000000003
 21
201.43202999999991
 31
0.0
  0
LINE
  5
15D
  8
DATA
  6
CONTINUOUS
 62
     7
 10
462.95051000000001
 20
245.9395899999999
 30
0.0
 11
470.78958
 21
238.1005199999999
 31
0.0
  0
LINE
  5
15E
  8
DATA
  6
CONTINUOUS
 62
     7
 10
454.66370999999992
 20
249.2263899999999
 30
0.0
 11
474.07637999999992
 21
229.8137199999999
 31
0.0
  0
LINE
  5
15F
  8
DATA
  6
CONTINUOUS
 62
     7
 10
429.66060999999991
 20
239.22950999999989
 30
0.0
 11
433.68049000000002
 21
235.20962999999989
 31
0.0
  0
LINE
  5
160
  8
DATA
  6
CONTINUOUS
 62
     7
 10
427.78647000000001
 20
236.1036399999999
 30
0.0
 11
432.01830999999999
 21
231.87178999999989
 31
0.0
  0
LINE
  5
161
  8
DATA
  6
CONTINUOUS
 62
     7
 10
431.06429000000003
 20
228.4643099999999
 30
0.0
 11
425.26100000000002
 21
222.66101999999989
 31
0.0
  0
LINE
  5
162
  8
DATA
  6
CONTINUOUS
 62
     7
 10
426.3341099999999
 20
232.5559999999999
 30
0.0
 11
430.97239999999999
 21
227.91771999999989
 31
0.0
  0
LINE
  5
163
  8
DATA
  6
CONTINUOUS
 62
     7
 10
430.83139999999997
 20
223.2314299999999
 30
0.0
 11
426.03768000000002
 21
218.4377099999999
 31
0.0
  0
LINE
  5
164
  8
DATA
  6
CONTINUOUS
 62
     7
 10
425.39807999999988
 20
228.49202999999989
 30
0.0
 11
430.85001999999997
 21
223.0400799999999
 31
0.0
  0
LINE
  5
165
  8
DATA
  6
CONTINUOUS
 62
     7
 10
431.68218999999988
 20
219.08219999999989
 30
0.0
 11
427.3686699999999
 21
214.7686799999999
 31
0.0
  0
LINE
  5
166
  8
DATA
  6
CONTINUOUS
 62
     7
 10
425.18389999999999
 20
223.70620999999991
 30
0.0
 11
433.09151999999989
 21
215.7985799999999
 31
0.0
  0
LINE
  5
167
  8
DATA
  6
CONTINUOUS
 62
     7
 10
433.20067999999998
 20
215.60075999999989
 30
0.0
 11
429.13976000000002
 21
211.53984999999989
 31
0.0
  0
LINE
  5
168
  8
DATA
  6
CONTINUOUS
 62
     7
 10
444.72717999999998
 20
249.1629199999999
 30
0.0
 11
449.64339999999987
 21
244.24669999999989
 31
0.0
  0
LINE
  5
169
  8
DATA
  6
CONTINUOUS
 62
     7
 10
452.18899999999991
 20
249.58900999999989
 30
0.0
 11
446.53570999999999
 21
243.93571999999989
 31
0.0
  0
LINE
  5
16A
  8
DATA
  6
CONTINUOUS
 62
     7
 10
440.87743
 20
248.0126699999999
 30
0.0
 11
445.23831999999987
 21
243.65177999999989
 31
0.0
  0
LINE
  5
16B
  8
DATA
  6
CONTINUOUS
 62
     7
 10
437.49954999999989
 20
246.39056999999991
 30
0.0
 11
441.57949000000002
 21
242.31062999999989
 31
0.0
  0
LINE
  5
16C
  8
DATA
  6
CONTINUOUS
 62
     7
 10
456.41232000000002
 20
248.81231999999989
 30
0.0
 11
451.76857000000001
 21
244.16858999999991
 31
0.0
  0
LINE
  5
16D
  8
DATA
  6
CONTINUOUS
 62
     7
 10
449.19869
 20
249.69141999999991
 30
0.0
 11
455.41842000000003
 21
243.47169999999991
 31
0.0
  0
LINE
  5
16E
  8
DATA
  6
CONTINUOUS
 62
     7
 10
460.08132000000001
 20
247.4813299999999
 30
0.0
 11
455.9178
 21
243.31780999999989
 31
0.0
  0
LINE
  5
16F
  8
DATA
  6
CONTINUOUS
 62
     7
 10
434.52172999999988
 20
244.36837999999989
 30
0.0
 11
438.47293999999999
 21
240.41717999999989
 31
0.0
  0
LINE
  5
170
  8
DATA
  6
CONTINUOUS
 62
     7
 10
431.91109999999992
 20
241.9789999999999
 30
0.0
 11
435.84455999999989
 21
238.0455399999999
 31
0.0
  0
LINE
  5
171
  8
DATA
  6
CONTINUOUS
 62
     7
 10
437.75038000000001
 20
210.15043999999989
 30
0.0
 11
433.81365
 21
206.2136899999999
 31
0.0
  0
LINE
  5
172
  8
DATA
  6
CONTINUOUS
 62
     7
 10
435.24115999999992
 20
212.64121999999989
 30
0.0
 11
431.2956999999999
 21
208.69575999999989
 31
0.0
  0
LINE
  5
173
  8
DATA
  6
CONTINUOUS
 62
     7
 10
440.79856999999998
 20
208.09152999999989
 30
0.0
 11
448.55619000000002
 21
200.33391999999989
 31
0.0
  0
LINE
  5
174
  8
DATA
  6
CONTINUOUS
 62
     7
 10
440.72931999999992
 20
208.12940999999989
 30
0.0
 11
436.69470000000001
 21
204.0947799999999
 31
0.0
  0
LINE
  5
175
  8
DATA
  6
CONTINUOUS
 62
     7
 10
444.23387999999989
 20
206.63387999999989
 30
0.0
 11
439.96447000000001
 21
202.3644899999999
 31
0.0
  0
LINE
  5
176
  8
DATA
  6
CONTINUOUS
 62
     7
 10
448.41530999999992
 20
205.81534999999991
 30
0.0
 11
443.68239999999992
 21
201.0824199999999
 31
0.0
  0
LINE
  5
177
  8
DATA
  6
CONTINUOUS
 62
     7
 10
448.04007000000001
 20
205.85003999999989
 30
0.0
 11
453.34201999999999
 21
200.54809999999989
 31
0.0
  0
LINE
  5
178
  8
DATA
  6
CONTINUOUS
 62
     7
 10
452.91770999999989
 20
205.97240999999991
 30
0.0
 11
457.40598999999992
 21
201.4841099999999
 31
0.0
  0
LINE
  5
179
  8
DATA
  6
CONTINUOUS
 62
     7
 10
453.71107999999992
 20
206.11111999999989
 30
0.0
 11
447.97150999999991
 21
200.37152999999989
 31
0.0
  0
LINE
  5
17A
  8
DATA
  6
CONTINUOUS
 62
     7
 10
456.87177999999989
 20
207.0183199999999
 30
0.0
 11
460.95362999999998
 21
202.9364699999999
 31
0.0
  0
LINE
  5
17B
  8
DATA
  6
CONTINUOUS
 62
     7
 10
460.20960999999988
 20
208.68049999999991
 30
0.0
 11
464.07949999999988
 21
204.81061999999989
 31
0.0
  0
LINE
  5
17C
  8
DATA
  6
CONTINUOUS
 62
     7
 10
463.04552999999999
 20
210.84456999999989
 30
0.0
 11
466.82898999999992
 21
207.0611099999999
 31
0.0
  0
LINE
  5
17D
  8
DATA
  6
CONTINUOUS
 62
     7
 10
465.41717
 20
213.47294999999991
 30
0.0
 11
469.21838000000002
 21
209.67173999999989
 31
0.0
  0
LINE
  5
17E
  8
DATA
  6
CONTINUOUS
 62
     7
 10
467.31060999999988
 20
216.57949999999991
 30
0.0
 11
471.24056000000002
 21
212.64954999999989
 31
0.0
  0
LINE
  5
17F
  8
DATA
  6
CONTINUOUS
 62
     7
 10
468.65177
 20
220.23833999999991
 30
0.0
 11
472.86266000000001
 21
216.0274399999999
 31
0.0
  0
LINE
  5
180
  8
DATA
  6
CONTINUOUS
 62
     7
 10
474.47847000000002
 20
226.87847999999991
 30
0.0
 11
468.88887999999992
 21
221.2888899999999
 31
0.0
  0
LINE
  5
181
  8
DATA
  6
CONTINUOUS
 62
     7
 10
469.24669
 20
224.6434099999999
 30
0.0
 11
474.01290999999992
 21
219.8771899999999
 31
0.0
  0
LINE
  5
182
  8
DATA
  6
CONTINUOUS
 62
     7
 10
473.76758999999998
 20
231.16758999999999
 30
0.0
 11
469.18464999999992
 21
226.5846599999999
 31
0.0
  0
LINE
  5
183
  8
DATA
  6
CONTINUOUS
 62
     7
 10
468.47169000000002
 20
230.41842999999989
 30
0.0
 11
474.54140999999993
 21
224.34869999999989
 31
0.0
  0
LINE
  5
184
  8
DATA
  6
CONTINUOUS
 62
     7
 10
472.48550999999998
 20
234.8855199999999
 30
0.0
 11
468.36612000000002
 21
230.76612999999989
 31
0.0
  0
LINE
  5
185
  8
DATA
  6
CONTINUOUS
 62
     7
 10
470.75524999999999
 20
238.15524999999991
 30
0.0
 11
466.87061999999992
 21
234.2706299999999
 31
0.0
  0
LINE
  5
186
  8
DATA
  6
CONTINUOUS
 62
     7
 10
468.63632000000001
 20
241.03633999999991
 30
0.0
 11
464.84957000000003
 21
237.2495899999999
 31
0.0
  0
LINE
  5
187
  8
DATA
  6
CONTINUOUS
 62
     7
 10
466.15427
 20
243.55426999999989
 30
0.0
 11
462.35879999999992
 21
239.7588099999999
 31
0.0
  0
LINE
  5
188
  8
DATA
  6
CONTINUOUS
 62
     7
 10
463.31020000000001
 20
245.7102099999999
 30
0.0
 11
459.39927
 21
241.7992899999999
 31
0.0
  0
TEXT
  5
189
  8
DATA
 62
     7
 10
60.000000000000071
 20
42.714009999999902
 30
0.0
 40
4.8865234374999993
  1
仕様および外観は予告なく変更されることがありますので、ご了承ください。
 41
0.8
 11
60.000000000000071
 21
47.600533437499898
 31
0.0
 73
     3
  0
ENDSEC
  0
EOF
