  0
SECTION
  2
HEADER
  9
$ACADVER
  1
AC1009
  9
$INSBASE
 10
0.0
 20
0.0
 30
0.0
  9
$EXTMIN
 10
29.989015033921529
 20
7.1438620221135798
 30
-0.0015258207003583
  9
$EXTMAX
 10
570.01739634668616
 20
810.02475112515378
 30
0.0000000349246037
  9
$LIMMIN
 10
0.0
 20
0.0
  9
$LIMMAX
 10
0.0
 20
0.0
  9
$ORTHOMODE
 70
     0
  9
$REGENMODE
 70
     1
  9
$FILLMODE
 70
     1
  9
$QTEXTMODE
 70
     0
  9
$MIRRTEXT
 70
     1
  9
$DRAGMODE
 70
     2
  9
$LTSCALE
 40
15.24
  9
$OSMODE
 70
   231
  9
$ATTMODE
 70
     1
  9
$TEXTSIZE
 40
0.0
  9
$TRACEWID
 40
1.0
  9
$TEXTSTYLE
  7
STANDARD
  9
$CLAYER
  8
DATA
  9
$CELTYPE
  6
CONTINUOUS
  9
$CECOLOR
 62
   256
  9
$DIMSCALE
 40
1.0
  9
$DIMASZ
 40
0.18
  9
$DIMEXO
 40
0.0625
  9
$DIMDLI
 40
0.38
  9
$DIMRND
 40
0.0
  9
$DIMDLE
 40
0.0
  9
$DIMEXE
 40
0.18
  9
$DIMTP
 40
0.0
  9
$DIMTM
 40
0.0
  9
$DIMTXT
 40
0.18
  9
$DIMCEN
 40
0.09
  9
$DIMTSZ
 40
0.0
  9
$DIMTOL
 70
     0
  9
$DIMLIM
 70
     0
  9
$DIMTIH
 70
     1
  9
$DIMTOH
 70
     1
  9
$DIMSE1
 70
     0
  9
$DIMSE2
 70
     0
  9
$DIMTAD
 70
     0
  9
$DIMZIN
 70
     0
  9
$DIMBLK
  1

  9
$DIMASO
 70
     1
  9
$DIMSHO
 70
     1
  9
$DIMPOST
  1

  9
$DIMAPOST
  1

  9
$DIMALT
 70
     0
  9
$DIMALTD
 70
     2
  9
$DIMALTF
 40
25.399999999999999
  9
$DIMLFAC
 40
1.0
  9
$DIMTOFL
 70
     0
  9
$DIMTVP
 40
0.0
  9
$DIMTIX
 70
     0
  9
$DIMSOXD
 70
     0
  9
$DIMSAH
 70
     0
  9
$DIMBLK1
  1

  9
$DIMBLK2
  1

  9
$DIMSTYLE
  2
STANDARD
  9
$DIMCLRD
 70
     0
  9
$DIMCLRE
 70
     0
  9
$DIMCLRT
 70
     0
  9
$DIMTFAC
 40
1.0
  9
$DIMGAP
 40
0.09
  9
$LUNITS
 70
     2
  9
$LUPREC
 70
     4
  9
$SKETCHINC
 40
0.1
  9
$FILLETRAD
 40
0.0
  9
$AUNITS
 70
     0
  9
$AUPREC
 70
     0
  9
$MENU
  1
acad
  9
$ELEVATION
 40
0.0
  9
$PELEVATION
 40
0.0
  9
$THICKNESS
 40
0.0
  9
$LIMCHECK
 70
     0
  9
$BLIPMODE
 70
     0
  9
$CHAMFERA
 40
0.0
  9
$CHAMFERB
 40
0.0
  9
$SKPOLY
 70
     0
  9
$TDCREATE
 40
2453875.6895833341
  9
$TDUPDATE
 40
2453875.7354146531
  9
$TDINDWG
 40
0.0002362384
  9
$TDUSRTIMER
 40
0.0002360532
  9
$USRTIMER
 70
     1
  9
$ANGBASE
 50
0.0
  9
$ANGDIR
 70
     0
  9
$PDMODE
 70
     1
  9
$PDSIZE
 40
-2.0
  9
$PLINEWID
 40
0.0
  9
$COORDS
 70
     1
  9
$SPLFRAME
 70
     0
  9
$SPLINETYPE
 70
     6
  9
$SPLINESEGS
 70
     8
  9
$ATTDIA
 70
     0
  9
$ATTREQ
 70
     1
  9
$HANDLING
 70
     1
  9
$HANDSEED
  5
1EE
  9
$SURFTAB1
 70
     6
  9
$SURFTAB2
 70
     6
  9
$SURFTYPE
 70
     6
  9
$SURFU
 70
     6
  9
$SURFV
 70
     6
  9
$UCSNAME
  2

  9
$UCSORG
 10
0.0
 20
0.0
 30
0.0
  9
$UCSXDIR
 10
1.0
 20
0.0
 30
0.0
  9
$UCSYDIR
 10
0.0
 20
1.0
 30
0.0
  9
$PUCSNAME
  2

  9
$PUCSORG
 10
0.0
 20
0.0
 30
0.0
  9
$PUCSXDIR
 10
1.0
 20
0.0
 30
0.0
  9
$PUCSYDIR
 10
0.0
 20
1.0
 30
0.0
  9
$USERI1
 70
     0
  9
$USERI2
 70
     0
  9
$USERI3
 70
     0
  9
$USERI4
 70
     0
  9
$USERI5
 70
     0
  9
$USERR1
 40
0.0
  9
$USERR2
 40
0.0
  9
$USERR3
 40
0.0
  9
$USERR4
 40
0.0
  9
$USERR5
 40
0.0
  9
$WORLDVIEW
 70
     1
  9
$SHADEDGE
 70
     3
  9
$SHADEDIF
 70
    70
  9
$TILEMODE
 70
     1
  9
$MAXACTVP
 70
    64
  9
$PLIMCHECK
 70
     0
  9
$PEXTMIN
 10
1.0000000000000000E+020
 20
1.0000000000000000E+020
 30
1.0000000000000000E+020
  9
$PEXTMAX
 10
-1.0000000000000000E+020
 20
-1.0000000000000000E+020
 30
-1.0000000000000000E+020
  9
$PLIMMIN
 10
0.0
 20
0.0
  9
$PLIMMAX
 10
12.0
 20
9.0
  9
$UNITMODE
 70
     0
  9
$VISRETAIN
 70
     0
  9
$PLINEGEN
 70
     1
  9
$PSLTSCALE
 70
     0
  0
ENDSEC
  0
SECTION
  2
TABLES
  0
TABLE
  2
VPORT
 70
     1
  0
VPORT
  2
*ACTIVE
 70
     0
 10
0.0
 20
0.0
 11
1.0
 21
1.0
 12
300.00320569030379
 22
408.58430657363368
 13
0.0
 23
0.0
 14
1.0
 24
1.0
 15
0.0
 25
0.0
 16
0.0
 26
0.0
 36
1.0
 17
0.0
 27
0.0
 37
0.0
 40
809.54380104580434
 41
1.6703601108033239
 42
50.0
 43
0.0
 44
0.0
 50
0.0
 51
0.0
 71
     0
 72
  2000
 73
     1
 74
     1
 75
     0
 76
     0
 77
     0
 78
     0
  0
ENDTAB
  0
TABLE
  2
LTYPE
 70
    11
  0
LTYPE
  2
CONTINUOUS
 70
     0
  3
Solid line
 72
    65
 73
     0
 40
0.0
  0
ENDTAB
  0
TABLE
  2
LAYER
 70
     6
  0
LAYER
  2
0
 70
     0
 62
     7
  6
CONTINUOUS
  0
LAYER
  2
DATA
 70
     0
 62
     7
  6
CONTINUOUS
  0
LAYER
  2
HIBINO-BASE
 70
     0
 62
     7
  6
CONTINUOUS
  0
LAYER
  2
PATTERN_FILL
 70
     0
 62
     7
  6
CONTINUOUS
  0
LAYER
  2
SPEC
 70
     0
 62
     7
  6
CONTINUOUS
  0
LAYER
  2
DIMNSIONS
 70
     0
 62
     7
  6
CONTINUOUS
  0
ENDTAB
  0
TABLE
  2
STYLE
 70
     2
  0
STYLE
  2
STANDARD
 70
     0
 40
0.0
 41
1.0
 50
0.0
 71
     0
 42
0.0
  3
txt
  4
BIGFONT.SHX
  0
ENDTAB
  0
TABLE
  2
VIEW
 70
     0
  0
ENDTAB
  0
TABLE
  2
UCS
 70
     0
  0
ENDTAB
  0
TABLE
  2
APPID
 70
     1
  0
APPID
  2
ACAD
 70
     0
  0
ENDTAB
  0
TABLE
  2
DIMSTYLE
 70
     1
  0
DIMSTYLE
  2
STANDARD
 70
     0
  3

  4

  5

  6

  7

 40
1.0
 41
0.18
 42
0.0625
 43
0.38
 44
0.18
 45
0.0
 46
0.0
 47
0.0
 48
0.0
140
0.18
141
0.09
142
0.0
143
25.399999999999999
144
1.0
145
0.0
146
1.0
147
0.09
 71
     0
 72
     0
 73
     1
 74
     1
 75
     0
 76
     0
 77
     0
 78
     0
170
     0
171
     2
172
     0
173
     0
174
     0
175
     0
176
     0
177
     0
178
     0
  0
ENDTAB
  0
ENDSEC
  0
SECTION
  2
BLOCKS
  0
BLOCK
  8
0
  2
$MODEL_SPACE
 70
     0
 10
0.0
 20
0.0
 30
0.0
  3
$MODEL_SPACE
  1

  0
ENDBLK
  5
1C0
  8
0
  0
BLOCK
 67
     1
  8
0
  2
$PAPER_SPACE
 70
     0
 10
0.0
 20
0.0
 30
0.0
  3
$PAPER_SPACE
  1

  0
ENDBLK
  5
1BC
 67
     1
  8
0
  0
ENDSEC
  0
SECTION
  2
ENTITIES
  0
LINE
  5
2D
  8
HIBINO-BASE
  6
CONTINUOUS
 62
     7
 10
30.0
 20
810.0000299999997
 30
0.0
 11
570.0
 21
810.0000299999997
 31
0.0
  0
LINE
  5
2E
  8
HIBINO-BASE
  6
CONTINUOUS
 62
     7
 10
570.0
 20
30.000009999999929
 30
0.0
 11
30.0
 21
30.000009999999929
 31
0.0
  0
LINE
  5
2F
  8
HIBINO-BASE
  6
CONTINUOUS
 62
     7
 10
30.0
 20
30.000009999999929
 30
0.0
 11
30.0
 21
810.0000299999997
 31
0.0
  0
TEXT
  5
30
  8
HIBINO-BASE
 62
     7
 10
51.55201000000001
 20
10.773976599999891
 30
0.0
 40
10.800132539062499
  1
Hibino Corporation
 41
0.8
 11
51.55201000000001
 21
21.57410913906239
 31
0.0
 73
     3
  0
LINE
  5
31
  8
HIBINO-BASE
  6
CONTINUOUS
 62
     7
 10
570.0
 20
810.0000299999997
 30
0.0
 11
570.0
 21
30.000009999999929
 31
0.0
  0
LINE
  5
32
  8
HIBINO-BASE
  6
CONTINUOUS
 62
     7
 10
300.0
 20
97.499999999999872
 30
0.0
 11
570.0
 21
97.499999999999872
 31
0.0
  0
LINE
  5
33
  8
HIBINO-BASE
  6
CONTINUOUS
 62
     7
 10
300.0
 20
30.000009999999929
 30
0.0
 11
300.0
 21
97.499999999999872
 31
0.0
  0
TEXT
  5
34
  8
HIBINO-BASE
 62
     7
 10
302.69999999999999
 20
89.400008999999926
 30
0.0
 40
5.4000701171875001
  1
NOTE
 41
0.8
 11
302.69999999999999
 21
94.800079117187408
 31
0.0
 73
     3
  0
LINE
  5
35
  8
HIBINO-BASE
  6
CONTINUOUS
 62
     7
 10
404.99999000000003
 20
30.000009999999929
 30
0.0
 11
404.99999000000003
 21
97.499999999999872
 31
0.0
  0
TEXT
  5
36
  8
HIBINO-BASE
 62
     7
 10
407.69999000000001
 20
89.400008999999926
 30
0.0
 40
5.4000701171875001
  1
TITLE
 41
0.8
 11
407.69999000000001
 21
94.800079117187408
 31
0.0
 73
     3
  0
TEXT
  5
37
  8
HIBINO-BASE
 62
     7
 10
450.20515999999992
 20
10.773976599999891
 30
0.0
 40
10.800132539062499
  1
ヒビノ株式会社
 41
0.8
 11
450.20515999999992
 21
21.57410913906239
 31
0.0
 73
     3
  0
LINE
  5
38
  8
HIBINO-BASE
  6
CONTINUOUS
 62
     7
 10
300.0
 20
60.000009999999932
 30
0.0
 11
570.0
 21
60.000009999999932
 31
0.0
  0
TEXT
  5
39
  8
HIBINO-BASE
 62
     7
 10
445.19999000000001
 20
52.068958999999907
 30
0.0
 40
5.4000701171875001
  1
DRAWN
 41
0.8
 11
445.19999000000001
 21
57.469029117187397
 31
0.0
 73
     3
  0
TEXT
  5
3A
  8
HIBINO-BASE
 62
     7
 10
370.19999000000001
 20
52.068958999999907
 30
0.0
 40
5.4000701171875001
  1
DATE
 41
0.8
 11
370.19999000000001
 21
57.469029117187397
 31
0.0
 73
     3
  0
TEXT
  5
3B
  8
HIBINO-BASE
 62
     7
 10
303.30000000000001
 20
52.14163999999986
 30
0.0
 40
4.8865234375000002
  1
図面サイズ
 41
0.8
 11
303.30000000000001
 21
57.02816343749987
 31
0.0
 73
     3
  0
TEXT
  5
3C
  8
HIBINO-BASE
 62
     7
 10
340.19999000000001
 20
52.068958999999907
 30
0.0
 40
5.4000701171875001
  1
SCALE
 41
0.8
 11
340.19999000000001
 21
57.469029117187397
 31
0.0
 73
     3
  0
TEXT
  5
3D
  8
HIBINO-BASE
 62
     7
 10
407.69999000000001
 20
52.068958999999907
 30
0.0
 40
5.4000701171875001
  1
DESIGN
 41
0.8
 11
407.69999000000001
 21
57.469029117187397
 31
0.0
 73
     3
  0
TEXT
  5
3E
  8
HIBINO-BASE
 62
     7
 10
520.20000000000005
 20
52.068958999999907
 30
0.0
 40
5.4000701171875001
  1
DRAWING NO.
 41
0.8
 11
520.20000000000005
 21
57.469029117187397
 31
0.0
 73
     3
  0
TEXT
  5
3F
  8
HIBINO-BASE
 62
     7
 10
482.69999999999987
 20
52.068958999999907
 30
0.0
 40
5.4000701171875001
  1
CHECK
 41
0.8
 11
482.69999999999987
 21
57.469029117187397
 31
0.0
 73
     3
  0
LINE
  5
40
  8
HIBINO-BASE
  6
CONTINUOUS
 62
     7
 10
343.12499000000008
 20
33.750009999999932
 30
0.0
 11
354.37499000000008
 21
45.000009999999932
 31
0.0
  0
TEXT
  5
41
  8
HIBINO-BASE
 62
     7
 10
341.24999000000008
 20
39.852860999999891
 30
0.0
 40
6.5153517578124989
  1
1
 41
0.8
 11
341.24999000000008
 21
46.368212757812387
 31
0.0
 73
     3
  0
LINE
  5
42
  8
HIBINO-BASE
  6
CONTINUOUS
 62
     7
 10
337.5
 20
30.000009999999929
 30
0.0
 11
337.5
 21
60.000009999999932
 31
0.0
  0
LINE
  5
43
  8
HIBINO-BASE
  6
CONTINUOUS
 62
     7
 10
367.5
 20
30.000009999999929
 30
0.0
 11
367.5
 21
60.000009999999932
 31
0.0
  0
LINE
  5
44
  8
HIBINO-BASE
  6
CONTINUOUS
 62
     7
 10
442.49999999999989
 20
60.000009999999932
 30
0.0
 11
442.49999999999989
 21
30.000009999999929
 31
0.0
  0
LINE
  5
45
  8
HIBINO-BASE
  6
CONTINUOUS
 62
     7
 10
517.49999000000003
 20
60.000009999999932
 30
0.0
 11
517.49999000000003
 21
30.000009999999929
 31
0.0
  0
LINE
  5
46
  8
HIBINO-BASE
  6
CONTINUOUS
 62
     7
 10
479.99999000000003
 20
30.000009999999929
 30
0.0
 11
479.99999000000003
 21
60.000009999999932
 31
0.0
  0
TEXT
  5
47
  8
HIBINO-BASE
 62
     7
 10
311.73266000000001
 20
37.495368599999942
 30
0.0
 40
9.7730391796875011
  1
A4
 41
0.8
 11
311.73266000000001
 21
47.268407779687429
 31
0.0
 73
     3
  0
TEXT
  5
48
  8
HIBINO-BASE
 62
     7
 10
369.6286298555957
 20
38.017028999999937
 30
0.0
 40
5.4000701171875001
  1
'06.03.
 41
0.8
 11
369.6286298555957
 21
43.417099117187433
 31
0.0
 73
     3
  0
TEXT
  5
49
  8
HIBINO-BASE
 62
     7
 10
352.49999000000008
 20
34.227860999999891
 30
0.0
 40
6.5153517578124989
  1
3
 41
0.8
 11
352.49999000000008
 21
40.743212757812387
 31
0.0
 73
     3
  0
TEXT
  5
4A
  8
HIBINO-BASE
 62
     7
 10
447.01743003310389
 20
38.590949999999893
 30
0.0
 40
4.8865234374999993
  1
N.Sasaki
 41
0.8
 11
447.01743003310389
 21
43.477473437499889
 31
0.0
 73
     3
  0
ARC
  5
4B
  8
PATTERN_FILL
  6
CONTINUOUS
 62
     7
 10
98.524160218733485
 20
225.00336032545979
 30
0.0
 40
9.9999999999999662
 50
143.38052986972659
 51
216.61947013027159
  0
ARC
  5
4C
  8
PATTERN_FILL
  6
CONTINUOUS
 62
     7
 10
98.524160218733485
 20
225.00336032545979
 30
0.0
 40
11.999999999999989
 50
131.9780365501025
 51
228.02196344989591
  0
LINE
  5
4D
  8
PATTERN_FILL
  6
CONTINUOUS
 62
     7
 10
64.498012009039314
 20
225.00336032545979
 30
0.0
 11
90.524160218733485
 21
225.00336032545979
 31
0.0
  0
ARC
  5
4E
  8
PATTERN_FILL
  6
CONTINUOUS
 62
     7
 10
92.524160218733527
 20
852.25336032546079
 30
0.0
 40
625.25000000000102
 50
267.43091849221742
 51
269.81433035703651
  0
ARC
  5
4F
  8
PATTERN_FILL
  6
CONTINUOUS
 62
     7
 10
103.3970233855038
 20
852.15847428609709
 30
0.0
 40
623.25000000000068
 50
266.42166273347527
 51
268.81410078891639
  0
ARC
  5
50
  8
PATTERN_FILL
  6
CONTINUOUS
 62
     7
 10
114.2287376986766
 20
851.87485990963739
 30
0.0
 40
621.2500000000008
 50
265.40859142077261
 51
267.81086310428731
  0
ARC
  5
51
  8
PATTERN_FILL
  6
CONTINUOUS
 62
     7
 10
125.0177006478138
 20
851.40380605780501
 30
0.0
 40
619.25000000000068
 50
264.39149539905219
 51
266.80442755867432
  0
ARC
  5
52
  8
PATTERN_FILL
  6
CONTINUOUS
 62
     7
 10
92.524160218733485
 20
-402.24663967454069
 30
0.0
 40
625.2500000000008
 50
90.185669642762051
 51
92.569081507782599
  0
ARC
  5
53
  8
PATTERN_FILL
  6
CONTINUOUS
 62
     7
 10
103.3970233855037
 20
-402.15175363517722
 30
0.0
 40
623.25000000000057
 50
91.185899210875149
 51
93.578337266524528
  0
ARC
  5
54
  8
PATTERN_FILL
  6
CONTINUOUS
 62
     7
 10
114.2287376986765
 20
-401.86813925871752
 30
0.0
 40
621.25000000000034
 50
92.189136895548216
 51
94.591408579227419
  0
ARC
  5
55
  8
PATTERN_FILL
  6
CONTINUOUS
 62
     7
 10
125.0177006478138
 20
-401.39708540688491
 30
0.0
 40
619.25000000000057
 50
93.195572441412182
 51
95.608504600947967
  0
ARC
  5
56
  8
PATTERN_FILL
  6
CONTINUOUS
 62
     7
 10
135.76191626340079
 20
-400.73994102837389
 30
0.0
 40
617.25000000000045
 50
94.205363613739763
 51
96.629804539128216
  0
ARC
  5
57
  8
PATTERN_FILL
  6
CONTINUOUS
 62
     7
 10
146.4582560218193
 20
-399.8981208326104
 30
0.0
 40
615.25000000000034
 50
95.218566767432563
 51
97.655387877893503
  0
ARC
  5
58
  8
PATTERN_FILL
  6
CONTINUOUS
 62
     7
 10
86.471863799344945
 20
225.00336032545979
 30
0.0
 40
10.00000000000003
 50
323.38052986972599
 51
36.619470130271623
  0
ARC
  5
59
  8
PATTERN_FILL
  6
CONTINUOUS
 62
     7
 10
86.471863799344945
 20
225.00336032545979
 30
0.0
 40
12.00000000000003
 50
311.97803655010199
 51
48.021963449895971
  0
LINE
  5
5A
  8
PATTERN_FILL
  6
CONTINUOUS
 62
     7
 10
117.471863799345
 20
225.00336032545979
 30
0.0
 11
94.471863799344973
 21
225.00336032545979
 31
0.0
  0
ARC
  5
5B
  8
PATTERN_FILL
  6
CONTINUOUS
 62
     7
 10
92.471863799345087
 20
852.25336032546079
 30
0.0
 40
625.25000000000102
 50
270.18566964276198
 51
272.38563679325227
  0
ARC
  5
5C
  8
PATTERN_FILL
  6
CONTINUOUS
 62
     7
 10
81.599000632574743
 20
852.15847428609709
 30
0.0
 40
623.25000000000102
 50
271.18589921087511
 51
273.39413500297758
  0
ARC
  5
5D
  8
PATTERN_FILL
  6
CONTINUOUS
 62
     7
 10
70.767286319402047
 20
851.87485990963739
 30
0.0
 40
621.25000000000045
 50
272.18913689554819
 51
274.40638519948288
  0
ARC
  5
5E
  8
PATTERN_FILL
  6
CONTINUOUS
 62
     7
 10
59.978323370264867
 20
851.40380605780501
 30
0.0
 40
619.25000000000068
 50
273.19557244141208
 51
275.42259484067682
  0
ARC
  5
5F
  8
PATTERN_FILL
  6
CONTINUOUS
 62
     7
 10
92.471863799345059
 20
-402.24663967454069
 30
0.0
 40
625.2500000000008
 50
87.614363206748621
 51
89.81433035703634
  0
ARC
  5
60
  8
PATTERN_FILL
  6
CONTINUOUS
 62
     7
 10
81.5990006325747
 20
-402.15175363517722
 30
0.0
 40
623.25000000000057
 50
86.605864997019808
 51
88.814100788916534
  0
ARC
  5
61
  8
PATTERN_FILL
  6
CONTINUOUS
 62
     7
 10
70.767286319401975
 20
-401.86813925871752
 30
0.0
 40
621.25000000000011
 50
85.593614800517244
 51
87.810863104287066
  0
ARC
  5
62
  8
PATTERN_FILL
  6
CONTINUOUS
 62
     7
 10
59.978323370264803
 20
-401.39708540688491
 30
0.0
 40
619.25000000000057
 50
84.577405159326219
 51
86.804427558674149
  0
ARC
  5
63
  8
PATTERN_FILL
  6
CONTINUOUS
 62
     7
 10
49.234107754678007
 20
-400.73994102837389
 30
0.0
 40
617.25000000000045
 50
83.557058729743574
 51
85.794636386219764
  0
ARC
  5
64
  8
PATTERN_FILL
  6
CONTINUOUS
 62
     7
 10
38.537767996259852
 20
-399.8981208326104
 30
0.0
 40
615.25000000000011
 50
82.532498028661124
 51
84.781433232560872
  0
ARC
  5
65
  8
PATTERN_FILL
  6
CONTINUOUS
 62
     7
 10
98.524160218733485
 20
225.00336032545979
 30
0.0
 40
13.99999999999994
 50
124.9804081915107
 51
235.0195918084882
  0
ARC
  5
66
  8
PATTERN_FILL
  6
CONTINUOUS
 62
     7
 10
98.524160218733485
 20
225.00336032545979
 30
0.0
 40
16.000000000000021
 50
120.1081810052608
 51
239.89181899473169
  0
ARC
  5
67
  8
PATTERN_FILL
  6
CONTINUOUS
 62
     7
 10
98.524160218733485
 20
225.00336032545979
 30
0.0
 40
18.000000000000039
 50
116.4807507162427
 51
243.51924928375689
  0
ARC
  5
68
  8
PATTERN_FILL
  6
CONTINUOUS
 62
     7
 10
98.524160218733485
 20
225.00336032545979
 30
0.0
 40
20.000000000000039
 50
113.659936496119
 51
246.34006350388009
  0
ARC
  5
69
  8
PATTERN_FILL
  6
CONTINUOUS
 62
     7
 10
98.524160218733485
 20
225.00336032545979
 30
0.0
 40
22.00000000000011
 50
111.396808296465
 51
248.603191703541
  0
ARC
  5
6A
  8
PATTERN_FILL
  6
CONTINUOUS
 62
     7
 10
98.524160218733485
 20
225.00336032545979
 30
0.0
 40
24.000000000000121
 50
109.5374450987876
 51
250.46255490121189
  0
ARC
  5
6B
  8
PATTERN_FILL
  6
CONTINUOUS
 62
     7
 10
98.524160218733485
 20
225.00336032545979
 30
0.0
 40
26.000000000000089
 50
123.1134846238643
 51
236.8865153761358
  0
ARC
  5
6C
  8
PATTERN_FILL
  6
CONTINUOUS
 62
     7
 10
98.524160218733485
 20
225.00336032545979
 30
0.0
 40
28.000000000000028
 50
131.71520347233081
 51
228.28479652766899
  0
ARC
  5
6D
  8
PATTERN_FILL
  6
CONTINUOUS
 62
     7
 10
98.524160218733485
 20
225.00336032545979
 30
0.0
 40
30.0
 50
137.67929282664869
 51
222.32070717335091
  0
ARC
  5
6E
  8
PATTERN_FILL
  6
CONTINUOUS
 62
     7
 10
98.524160218733485
 20
225.00336032545979
 30
0.0
 40
32.000000000000043
 50
142.2771235296639
 51
217.72287647033571
  0
ARC
  5
6F
  8
PATTERN_FILL
  6
CONTINUOUS
 62
     7
 10
98.524160218733485
 20
225.00336032545979
 30
0.0
 40
33.999999999999972
 50
146.0065262730445
 51
213.99347372695499
  0
ARC
  5
70
  8
PATTERN_FILL
  6
CONTINUOUS
 62
     7
 10
135.76191626340079
 20
850.74666167929411
 30
0.0
 40
617.2500000000008
 50
263.37019546087191
 51
265.79463638621979
  0
ARC
  5
71
  8
PATTERN_FILL
  6
CONTINUOUS
 62
     7
 10
146.45825602181941
 20
849.90484148353039
 30
0.0
 40
615.25000000000034
 50
262.34461212210653
 51
264.78143323256069
  0
ARC
  5
72
  8
PATTERN_FILL
  6
CONTINUOUS
 62
     7
 10
157.1035572318788
 20
848.87981556223758
 30
0.0
 40
613.2500000000008
 50
261.36558317418252
 51
263.76476214715041
  0
ARC
  5
73
  8
PATTERN_FILL
  6
CONTINUOUS
 62
     7
 10
167.6946939160548
 20
847.67310796152003
 30
0.0
 40
611.25000000000068
 50
260.89150987877349
 51
262.7445608806201
  0
ARC
  5
74
  8
PATTERN_FILL
  6
CONTINUOUS
 62
     7
 10
178.22857772714809
 20
846.28629584849443
 30
0.0
 40
609.2500000000008
 50
260.4808610727797
 51
261.72076060684958
  0
ARC
  5
75
  8
PATTERN_FILL
  6
CONTINUOUS
 62
     7
 10
188.70215884704561
 20
844.72100866241396
 30
0.0
 40
607.25000000000068
 50
260.03248295203662
 51
260.69328561139412
  0
ARC
  5
76
  8
PATTERN_FILL
  6
CONTINUOUS
 62
     7
 10
199.11242686732049
 20
842.97892725066436
 30
0.0
 40
605.2500000000008
 50
259.54872457493087
 51
259.66205294322049
  0
ARC
  5
77
  8
PATTERN_FILL
  6
CONTINUOUS
 62
     7
 10
98.524160218733485
 20
225.00336032545979
 30
0.0
 40
35.999999999999957
 50
149.1266925675653
 51
160.93888775291131
  0
ARC
  5
78
  8
PATTERN_FILL
  6
CONTINUOUS
 62
     7
 10
98.524160218733485
 20
225.00336032545979
 30
0.0
 40
35.999999999999879
 50
199.0611122470886
 51
210.87330743243459
  0
ARC
  5
79
  8
PATTERN_FILL
  6
CONTINUOUS
 62
     7
 10
157.1035572318788
 20
-398.87309491131759
 30
0.0
 40
613.25000000000045
 50
96.235237853196637
 51
98.634416825817809
  0
ARC
  5
7A
  8
PATTERN_FILL
  6
CONTINUOUS
 62
     7
 10
167.69469391605469
 20
-397.66638731060021
 30
0.0
 40
611.25000000000057
 50
97.255439119503464
 51
99.108490121226438
  0
ARC
  5
7B
  8
PATTERN_FILL
  6
CONTINUOUS
 62
     7
 10
178.22857772714809
 20
-396.2795751975741
 30
0.0
 40
609.2500000000008
 50
98.279239393498116
 51
99.519138927220681
  0
ARC
  5
7C
  8
PATTERN_FILL
  6
CONTINUOUS
 62
     7
 10
188.70215884704561
 20
-394.71428801149409
 30
0.0
 40
607.25000000000068
 50
99.306714388576665
 51
99.967517047963014
  0
ARC
  5
7D
  8
PATTERN_FILL
  6
CONTINUOUS
 62
     7
 10
199.11242686732041
 20
-392.97220659974471
 30
0.0
 40
605.2500000000008
 50
100.3379470567171
 51
100.4512754250666
  0
ARC
  5
7E
  8
PATTERN_FILL
  6
CONTINUOUS
 62
     7
 10
86.471863799344945
 20
225.00336032545979
 30
0.0
 40
14.0
 50
304.98040819151112
 51
55.019591808488251
  0
ARC
  5
7F
  8
PATTERN_FILL
  6
CONTINUOUS
 62
     7
 10
86.471863799344945
 20
225.00336032545979
 30
0.0
 40
16.000000000000039
 50
300.10818100526899
 51
59.891818994731622
  0
ARC
  5
80
  8
PATTERN_FILL
  6
CONTINUOUS
 62
     7
 10
86.471863799344945
 20
225.00336032545979
 30
0.0
 40
17.999999999999989
 50
296.48075071624311
 51
63.519249283756992
  0
ARC
  5
81
  8
PATTERN_FILL
  6
CONTINUOUS
 62
     7
 10
86.471863799344945
 20
225.00336032545979
 30
0.0
 40
20.000000000000028
 50
293.65993649611659
 51
66.340063503880316
  0
ARC
  5
82
  8
PATTERN_FILL
  6
CONTINUOUS
 62
     7
 10
86.471863799344945
 20
225.00336032545979
 30
0.0
 40
21.999999999999972
 50
291.39680829646528
 51
68.603191703541114
  0
ARC
  5
83
  8
PATTERN_FILL
  6
CONTINUOUS
 62
     7
 10
86.471863799344945
 20
225.00336032545979
 30
0.0
 40
24.0
 50
289.53744509879249
 51
70.462554901212044
  0
ARC
  5
84
  8
PATTERN_FILL
  6
CONTINUOUS
 62
     7
 10
86.471863799344945
 20
225.00336032545979
 30
0.0
 40
26.00000000000005
 50
303.11348462386422
 51
56.886515376135598
  0
ARC
  5
85
  8
PATTERN_FILL
  6
CONTINUOUS
 62
     7
 10
86.471863799344945
 20
225.00336032545979
 30
0.0
 40
28.0
 50
311.71520347233093
 51
48.284796527669137
  0
ARC
  5
86
  8
PATTERN_FILL
  6
CONTINUOUS
 62
     7
 10
86.471863799344945
 20
225.00336032545979
 30
0.0
 40
30.0
 50
317.67929282664898
 51
42.320707173351131
  0
ARC
  5
87
  8
PATTERN_FILL
  6
CONTINUOUS
 62
     7
 10
49.234107754678057
 20
850.74666167929411
 30
0.0
 40
617.2500000000008
 50
274.2053636138894
 51
276.44294127025688
  0
ARC
  5
88
  8
PATTERN_FILL
  6
CONTINUOUS
 62
     7
 10
38.537767996259959
 20
849.90484148353039
 30
0.0
 40
615.25000000000057
 50
275.21856676743249
 51
277.4675019713369
  0
ARC
  5
89
  8
PATTERN_FILL
  6
CONTINUOUS
 62
     7
 10
27.892466786200369
 20
848.87981556223758
 30
0.0
 40
613.2500000000008
 50
276.2352378527516
 51
278.49635582971138
  0
ARC
  5
8A
  8
PATTERN_FILL
  6
CONTINUOUS
 62
     7
 10
86.471863799344945
 20
225.00336032545979
 30
0.0
 40
32.000000000000007
 50
322.27712352966421
 51
37.722876470336018
  0
ARC
  5
8B
  8
PATTERN_FILL
  6
CONTINUOUS
 62
     7
 10
86.471863799344945
 20
225.00336032545979
 30
0.0
 40
34.000000000000007
 50
326.00652627304493
 51
340.38089326998153
  0
ARC
  5
8C
  8
PATTERN_FILL
  6
CONTINUOUS
 62
     7
 10
86.471863799344945
 20
225.00336032545979
 30
0.0
 40
33.99999999999995
 50
19.61910673001826
 51
33.993473726955393
  0
ARC
  5
8D
  8
PATTERN_FILL
  6
CONTINUOUS
 62
     7
 10
86.471863799344945
 20
225.00336032545979
 30
0.0
 40
36.00000000000005
 50
27.175063625801481
 51
30.873307432434721
  0
ARC
  5
8E
  8
PATTERN_FILL
  6
CONTINUOUS
 62
     7
 10
86.471863799344945
 20
225.00336032545979
 30
0.0
 40
36.000000000000043
 50
329.12669256756521
 51
332.82493637419839
  0
ARC
  5
8F
  8
PATTERN_FILL
  6
CONTINUOUS
 62
     7
 10
17.301330102024451
 20
847.67310796152003
 30
0.0
 40
611.25000000000057
 50
277.25543911950342
 51
279.1084901212264
  0
ARC
  5
90
  8
PATTERN_FILL
  6
CONTINUOUS
 62
     7
 10
6.7674462909312751
 20
846.28629584849443
 30
0.0
 40
609.2500000000008
 50
278.27923939320459
 51
279.51913892722001
  0
ARC
  5
91
  8
PATTERN_FILL
  6
CONTINUOUS
 62
     7
 10
-3.7061348289661842
 20
844.72100866241396
 30
0.0
 40
607.25000000000068
 50
279.30671438857649
 51
279.96751704796338
  0
ARC
  5
92
  8
PATTERN_FILL
  6
CONTINUOUS
 62
     7
 10
-14.116402849241011
 20
842.97892725066436
 30
0.0
 40
605.25000000000045
 50
280.3379470567171
 51
280.4512754250664
  0
ARC
  5
93
  8
PATTERN_FILL
  6
CONTINUOUS
 62
     7
 10
27.89246678620032
 20
-398.87309491131759
 30
0.0
 40
613.2500000000008
 50
81.503644170293185
 51
83.764762147150492
  0
ARC
  5
94
  8
PATTERN_FILL
  6
CONTINUOUS
 62
     7
 10
17.301330102024391
 20
-397.66638731060021
 30
0.0
 40
611.25000000000034
 50
80.891509878773618
 51
82.74456088062017
  0
ARC
  5
95
  8
PATTERN_FILL
  6
CONTINUOUS
 62
     7
 10
6.7674462909311606
 20
-396.2795751975741
 30
0.0
 40
609.25000000000045
 50
80.480861072779788
 51
81.720760606849666
  0
ARC
  5
96
  8
PATTERN_FILL
  6
CONTINUOUS
 62
     7
 10
-3.7061348289662979
 20
-394.71428801149409
 30
0.0
 40
607.25000000000057
 50
80.032482952036617
 51
80.693285611394103
  0
ARC
  5
97
  8
PATTERN_FILL
  6
CONTINUOUS
 62
     7
 10
-14.116402849241121
 20
-392.97220659974471
 30
0.0
 40
605.25000000000045
 50
79.548724574931043
 51
79.662052943217304
  0
LINE
  5
98
  8
PATTERN_FILL
  6
CONTINUOUS
 62
     7
 10
471.0233462714483
 20
213.4233562714482
 30
0.0
 11
461.57665372855229
 21
203.97666372855221
 31
0.0
  0
LINE
  5
99
  8
PATTERN_FILL
  6
CONTINUOUS
 62
     7
 10
473.67724670264391
 20
221.07725732080311
 30
0.0
 11
453.92273035900507
 21
201.32275959944579
 31
0.0
  0
LINE
  5
9A
  8
PATTERN_FILL
  6
CONTINUOUS
 62
     7
 10
427.65951702617667
 20
216.23058467696401
 30
0.0
 11
441.23060229861568
 21
202.6595161837264
 31
0.0
  0
LINE
  5
9B
  8
PATTERN_FILL
  6
CONTINUOUS
 62
     7
 10
430.83139999999997
 20
223.2314299999999
 30
0.0
 11
426.72913463732817
 21
219.1291646373281
 31
0.0
  0
LINE
  5
9C
  8
PATTERN_FILL
  6
CONTINUOUS
 62
     7
 10
431.68218999999988
 20
219.08219999999989
 30
0.0
 11
428.00253184842569
 21
215.40254184842561
 31
0.0
  0
LINE
  5
9D
  8
PATTERN_FILL
  6
CONTINUOUS
 62
     7
 10
426.10215933704558
 20
222.78794950172079
 30
0.0
 11
433.09151999999989
 21
215.7985799999999
 31
0.0
  0
LINE
  5
9E
  8
PATTERN_FILL
  6
CONTINUOUS
 62
     7
 10
433.20067999999998
 20
215.60075999999989
 30
0.0
 11
429.7376629050658
 21
212.1377514327321
 31
0.0
  0
LINE
  5
9F
  8
PATTERN_FILL
  6
CONTINUOUS
 62
     7
 10
437.75038000000001
 20
210.15043999999989
 30
0.0
 11
434.37928491521501
 21
206.7793277888432
 31
0.0
  0
LINE
  5
A0
  8
PATTERN_FILL
  6
CONTINUOUS
 62
     7
 10
435.24115999999992
 20
212.64121999999989
 30
0.0
 11
431.87189359662239
 21
209.2719535966223
 31
0.0
  0
LINE
  5
A1
  8
PATTERN_FILL
  6
CONTINUOUS
 62
     7
 10
440.79856999999998
 20
208.09152999999989
 30
0.0
 11
447.78793969007143
 21
201.10216931961151
 31
0.0
  0
LINE
  5
A2
  8
PATTERN_FILL
  6
CONTINUOUS
 62
     7
 10
440.72931999999992
 20
208.12940999999989
 30
0.0
 11
437.26030676554552
 21
204.66038816742889
 31
0.0
  0
LINE
  5
A3
  8
PATTERN_FILL
  6
CONTINUOUS
 62
     7
 10
444.23387999999989
 20
206.63387999999989
 30
0.0
 11
440.54213971098568
 21
202.9421570048988
 31
0.0
  0
LINE
  5
A4
  8
PATTERN_FILL
  6
CONTINUOUS
 62
     7
 10
448.41530999999992
 20
205.81534999999991
 30
0.0
 11
444.28930419001881
 21
201.68932675463211
 31
0.0
  0
LINE
  5
A5
  8
PATTERN_FILL
  6
CONTINUOUS
 62
     7
 10
448.04007000000001
 20
205.85003999999989
 30
0.0
 11
452.73388898565429
 21
201.15622986735039
 31
0.0
  0
LINE
  5
A6
  8
PATTERN_FILL
  6
CONTINUOUS
 62
     7
 10
452.91770999999989
 20
205.97240999999991
 30
0.0
 11
456.88217168538313
 21
202.00793064877729
 31
0.0
  0
LINE
  5
A7
  8
PATTERN_FILL
  6
CONTINUOUS
 62
     7
 10
453.71107999999992
 20
206.11111999999989
 30
0.0
 11
448.63862980104312
 21
201.03865212567649
 31
0.0
  0
LINE
  5
A8
  8
PATTERN_FILL
  6
CONTINUOUS
 62
     7
 10
456.87177999999989
 20
207.0183199999999
 30
0.0
 11
460.48070759772202
 21
203.40939240227789
 31
0.0
  0
LINE
  5
A9
  8
PATTERN_FILL
  6
CONTINUOUS
 62
     7
 10
460.20960999999988
 20
208.68049999999991
 30
0.0
 11
463.63838566037577
 21
205.2517331997613
 31
0.0
  0
LINE
  5
AA
  8
PATTERN_FILL
  6
CONTINUOUS
 62
     7
 10
463.04552999999999
 20
210.84456999999989
 30
0.0
 11
466.40653151940569
 21
207.48356848059419
 31
0.0
  0
LINE
  5
AB
  8
PATTERN_FILL
  6
CONTINUOUS
 62
     7
 10
465.41717
 20
213.47294999999991
 30
0.0
 11
468.80378452054742
 21
210.0863354794524
 31
0.0
  0
LINE
  5
AC
  8
PATTERN_FILL
  6
CONTINUOUS
 62
     7
 10
467.31060999999988
 20
216.57949999999991
 30
0.0
 11
470.82313079408277
 21
213.06697920591711
 31
0.0
  0
LINE
  5
AD
  8
PATTERN_FILL
  6
CONTINUOUS
 62
     7
 10
468.65177
 20
220.23833999999991
 30
0.0
 11
472.42943580924441
 21
216.46066521957411
 31
0.0
  0
LINE
  5
AE
  8
PATTERN_FILL
  6
CONTINUOUS
 62
     7
 10
455.53770673607528
 20
248.35239326392451
 30
0.0
 11
473.35238326392471
 21
230.5377167360752
 31
0.0
  0
LINE
  5
AF
  8
PATTERN_FILL
  6
CONTINUOUS
 62
     7
 10
459.59746815157399
 20
246.997478151574
 30
0.0
 11
455.9178
 21
243.31780999999989
 31
0.0
  0
LINE
  5
B0
  8
PATTERN_FILL
  6
CONTINUOUS
 62
     7
 10
473.96135853690248
 20
226.3613685369024
 30
0.0
 11
468.88887999999992
 21
221.2888899999999
 31
0.0
  0
LINE
  5
B1
  8
PATTERN_FILL
  6
CONTINUOUS
 62
     7
 10
469.24669
 20
224.6434099999999
 30
0.0
 11
473.54437565602711
 21
220.34572434397279
 31
0.0
  0
LINE
  5
B2
  8
PATTERN_FILL
  6
CONTINUOUS
 62
     7
 10
473.31068748934712
 20
230.7106884863108
 30
0.0
 11
469.18464999999992
 21
226.5846599999999
 31
0.0
  0
LINE
  5
B3
  8
PATTERN_FILL
  6
CONTINUOUS
 62
     7
 10
468.47169000000002
 20
230.41842999999989
 30
0.0
 11
473.99974952322981
 21
224.89036136916781
 31
0.0
  0
LINE
  5
B4
  8
PATTERN_FILL
  6
CONTINUOUS
 62
     7
 10
472.05785518400268
 20
234.4578651840026
 30
0.0
 11
468.36612000000002
 21
230.76612999999989
 31
0.0
  0
LINE
  5
B5
  8
PATTERN_FILL
  6
CONTINUOUS
 62
     7
 10
470.3396527704474
 20
237.73965384029759
 30
0.0
 11
466.87061999999992
 21
234.2706299999999
 31
0.0
  0
LINE
  5
B6
  8
PATTERN_FILL
  6
CONTINUOUS
 62
     7
 10
468.22069276929949
 20
240.6207127692995
 30
0.0
 11
464.84957000000003
 21
237.2495899999999
 31
0.0
  0
LINE
  5
B7
  8
PATTERN_FILL
  6
CONTINUOUS
 62
     7
 10
465.72808792880511
 20
243.1280890516752
 30
0.0
 11
462.35879999999992
 21
239.7588099999999
 31
0.0
  0
LINE
  5
B8
  8
PATTERN_FILL
  6
CONTINUOUS
 62
     7
 10
462.86230590210369
 20
245.26231704734059
 30
0.0
 11
459.39927
 21
241.7992899999999
 31
0.0
  0
LINE
  5
B9
  8
PATTERN_FILL
  6
CONTINUOUS
 62
     7
 10
445.34571434397287
 20
248.54438565602689
 30
0.0
 11
449.64339999999987
 21
244.24669999999989
 31
0.0
  0
LINE
  5
BA
  8
PATTERN_FILL
  6
CONTINUOUS
 62
     7
 10
451.5499019604074
 20
248.94991196040729
 30
0.0
 11
446.53570999999999
 21
243.93571999999989
 31
0.0
  0
LINE
  5
BB
  8
PATTERN_FILL
  6
CONTINUOUS
 62
     7
 10
441.46065447444221
 20
247.42944552555761
 30
0.0
 11
445.23831999999987
 21
243.65177999999989
 31
0.0
  0
LINE
  5
BC
  8
PATTERN_FILL
  6
CONTINUOUS
 62
     7
 10
438.06697556292971
 20
245.82314443707
 30
0.0
 11
441.57949000000002
 21
242.31062999999989
 31
0.0
  0
LINE
  5
BD
  8
PATTERN_FILL
  6
CONTINUOUS
 62
     7
 10
455.87086745673912
 20
248.27086978870159
 30
0.0
 11
451.76857000000001
 21
244.16858999999991
 31
0.0
  0
LINE
  5
BE
  8
PATTERN_FILL
  6
CONTINUOUS
 62
     7
 10
449.8903515878157
 20
248.99975952422849
 30
0.0
 11
455.41842000000003
 21
243.47169999999991
 31
0.0
  0
LINE
  5
BF
  8
PATTERN_FILL
  6
CONTINUOUS
 62
     7
 10
435.08632069946623
 20
243.80379072943941
 30
0.0
 11
438.47293999999999
 21
240.41717999999989
 31
0.0
  0
LINE
  5
C0
  8
PATTERN_FILL
  6
CONTINUOUS
 62
     7
 10
432.4835584805943
 20
241.40654151940549
 30
0.0
 11
435.84455999999989
 21
238.0455399999999
 31
0.0
  0
LINE
  5
C1
  8
PATTERN_FILL
  6
CONTINUOUS
 62
     7
 10
446.31548755279277
 20
248.7154979356585
 30
0.0
 11
426.28451375027572
 21
228.68453329876439
 31
0.0
  0
LINE
  5
C2
  8
PATTERN_FILL
  6
CONTINUOUS
 62
     7
 10
438.97370302252028
 20
246.31715743966521
 30
0.0
 11
428.73486256446472
 21
236.12628205526661
 31
0.0
  0
LINE
  5
C3
  8
PATTERN_FILL
  6
CONTINUOUS
 62
     7
 10
430.25172366539277
 20
238.63839633460719
 30
0.0
 11
433.68049000000002
 21
235.20962999999989
 31
0.0
  0
LINE
  5
C4
  8
PATTERN_FILL
  6
CONTINUOUS
 62
     7
 10
428.40938518918472
 20
235.48072333884269
 30
0.0
 11
432.01830999999999
 21
231.87178999999989
 31
0.0
  0
LINE
  5
C5
  8
PATTERN_FILL
  6
CONTINUOUS
 62
     7
 10
431.06429000000003
 20
228.4643099999999
 30
0.0
 11
426.05009743178499
 21
223.4501174317848
 31
0.0
  0
LINE
  5
C6
  8
PATTERN_FILL
  6
CONTINUOUS
 62
     7
 10
427.00792274943279
 20
231.8821887032851
 30
0.0
 11
430.97239999999999
 21
227.91771999999989
 31
0.0
  0
LINE
  5
C7
  8
PATTERN_FILL
  6
CONTINUOUS
 62
     7
 10
426.15621881365439
 20
227.73388979576009
 30
0.0
 11
430.85001999999997
 21
223.0400799999999
 31
0.0
  0
TEXT
  5
C8
  8
SPEC
 62
     7
 10
56.250010000000032
 20
784.17984859999956
 30
0.0
 40
7.3297774609374979
  1
仕様
 41
0.8
 11
56.250010000000032
 21
791.50962606093719
 31
0.0
 73
     3
  0
LINE
  5
C9
  8
SPEC
  6
CONTINUOUS
 62
     7
 10
52.498851223640003
 20
780.00040438818053
 30
0.0
 11
494.99883122363912
 21
780.00040438818053
 31
0.0
  0
LINE
  5
CA
  8
SPEC
  6
CONTINUOUS
 62
     7
 10
52.498851223640003
 20
768.75040438818053
 30
0.0
 11
494.99883122363912
 21
768.75040438818053
 31
0.0
  0
LINE
  5
CB
  8
SPEC
  6
CONTINUOUS
 62
     7
 10
52.498851223640003
 20
757.50040438818053
 30
0.0
 11
494.99883122363912
 21
757.50040438818053
 31
0.0
  0
TEXT
  5
CC
  8
SPEC
 62
     7
 10
152.69885122363951
 20
771.49053242356342
 30
0.0
 40
5.700933749999999
  1
水晶制御PLLシンセサイザー方式
 41
0.8
 11
152.69885122363951
 21
777.19146617356341
 31
0.0
 73
     3
  0
LINE
  5
CD
  8
SPEC
  6
CONTINUOUS
 62
     7
 10
52.498851223640003
 20
780.00040438818053
 30
0.0
 11
52.498851223640003
 21
611.25039438818044
 31
0.0
  0
LINE
  5
CE
  8
SPEC
  6
CONTINUOUS
 62
     7
 10
149.99884122363949
 20
780.00040438818053
 30
0.0
 11
149.99884122363949
 21
611.25039438818044
 31
0.0
  0
LINE
  5
CF
  8
SPEC
  6
CONTINUOUS
 62
     7
 10
494.99883122363912
 20
780.00040438818053
 30
0.0
 11
494.99883122363912
 21
611.25039438818044
 31
0.0
  0
TEXT
  5
D0
  8
SPEC
 62
     7
 10
55.198841223639967
 20
771.50801658659657
 30
0.0
 40
5.700933749999999
  1
発振方式
 41
0.8
 11
55.198841223639967
 21
777.20895033659656
 31
0.0
 73
     3
  0
LINE
  5
D1
  8
SPEC
  6
CONTINUOUS
 62
     7
 10
52.498851223640003
 20
723.75039438818055
 30
0.0
 11
494.99883122363912
 21
723.75039438818055
 31
0.0
  0
LINE
  5
D2
  8
SPEC
  6
CONTINUOUS
 62
     7
 10
52.498851223640003
 20
712.50039438818055
 30
0.0
 11
494.99883122363912
 21
712.50039438818055
 31
0.0
  0
LINE
  5
D3
  8
SPEC
  6
CONTINUOUS
 62
     7
 10
52.498851223640003
 20
690.00039438818055
 30
0.0
 11
494.99883122363912
 21
690.00039438818055
 31
0.0
  0
LINE
  5
D4
  8
SPEC
  6
CONTINUOUS
 62
     7
 10
52.498851223640003
 20
701.25039438818055
 30
0.0
 11
494.99883122363912
 21
701.25039438818055
 31
0.0
  0
TEXT
  5
D5
  8
SPEC
 62
     7
 10
154.6344335770371
 20
760.34806477653012
 30
0.0
 40
5.700933749999999
  1
F3E
 41
0.8
 11
154.6344335770371
 21
766.04899852653011
 31
0.0
 73
     3
  0
TEXT
  5
D6
  8
SPEC
 62
     7
 10
55.198841223639967
 20
760.40570936100278
 30
0.0
 40
5.700933749999999
  1
電波型式
 41
0.8
 11
55.198841223639967
 21
766.10664311100265
 31
0.0
 73
     3
  0
TEXT
  5
D7
  8
SPEC
 62
     7
 10
153.1289806355056
 20
748.61415918818045
 30
0.0
 40
5.700933749999999
  1
U2/SM86-JBX:B型 (806～810MHz)30チャンネルのうち任意の1チャンネル
 41
0.8
 11
153.1289806355056
 21
754.31509293818056
 31
0.0
 73
     3
  0
TEXT
  5
D8
  8
SPEC
 62
     7
 10
55.149610298837899
 20
748.61415918818045
 30
0.0
 40
5.700933749999999
  1
送信周波数
 41
0.8
 11
55.149610298837899
 21
754.31509293818056
 31
0.0
 73
     3
  0
TEXT
  5
D9
  8
SPEC
 62
     7
 10
154.47313504758731
 20
715.45558712949662
 30
0.0
 40
5.700933749999999
  1
10mW
 41
0.8
 11
154.47313504758731
 21
721.15652087949661
 31
0.0
 73
     3
  0
TEXT
  5
DA
  8
SPEC
 62
     7
 10
55.001917524431711
 20
715.40569936100269
 30
0.0
 40
5.700933749999999
  1
空中線電力
 41
0.8
 11
55.001917524431711
 21
721.10663311100279
 31
0.0
 73
     3
  0
TEXT
  5
DB
  8
SPEC
 62
     7
 10
153.07521445902239
 20
703.9367562470801
 30
0.0
 40
5.700933749999999
  1
約100m(標準環境における最大値)
 41
0.8
 11
153.07521445902239
 21
709.6376899970802
 31
0.0
 73
     3
  0
TEXT
  5
DC
  8
SPEC
 62
     7
 10
55.297303073244073
 20
703.90954473699264
 30
0.0
 40
5.700933749999999
  1
到達距離
 41
0.8
 11
55.297303073244073
 21
709.61047848699263
 31
0.0
 73
     3
  0
TEXT
  5
DD
  8
SPEC
 62
     7
 10
152.69885122363951
 20
692.90182095301316
 30
0.0
 40
5.700933749999999
  1
32.768kHz
 41
0.8
 11
152.69885122363951
 21
698.60275470301326
 31
0.0
 73
     3
  0
TEXT
  5
DE
  8
SPEC
 62
     7
 10
55.198841223639967
 20
692.80723751139874
 30
0.0
 40
5.700933749999999
  1
トーン信号周波数
 41
0.8
 11
55.198841223639967
 21
698.50817126139873
 31
0.0
 73
     3
  0
TEXT
  5
DF
  8
SPEC
 62
     7
 10
152.69885122363951
 20
681.65182095301327
 30
0.0
 40
5.700933749999999
  1
50～15,000Hz ±2dB(システム全体の帯域はマイクヘッドにより変動)
 41
0.8
 11
152.69885122363951
 21
687.35275470301315
 31
0.0
 73
     3
  0
TEXT
  5
E0
  8
SPEC
 62
     7
 10
55.198841223639967
 20
681.6556993610028
 30
0.0
 40
5.700933749999999
  1
周波数特性 
 41
0.8
 11
55.198841223639967
 21
687.35663311100268
 31
0.0
 73
     3
  0
TEXT
  5
E1
  8
SPEC
 62
     7
 10
153.34404534143869
 20
670.07922389411362
 30
0.0
 40
5.700933749999999
  1
0～26dB
 41
0.8
 11
153.34404534143869
 21
675.78015764411361
 31
0.0
 73
     3
  0
TEXT
  5
E2
  8
SPEC
 62
     7
 10
55.198841223639967
 20
670.25800658659671
 30
0.0
 40
5.700933749999999
  1
ゲイン調整範囲
 41
0.8
 11
55.198841223639967
 21
675.95894033659681
 31
0.0
 73
     3
  0
LINE
  5
E3
  8
SPEC
  6
CONTINUOUS
 62
     7
 10
52.498851223640003
 20
667.50039438818044
 30
0.0
 11
494.99883122363912
 21
667.50039438818044
 31
0.0
  0
TEXT
  5
E4
  8
SPEC
 62
     7
 10
152.69885122363951
 20
647.74052242356311
 30
0.0
 40
5.700933749999999
  1
単3形アルカリ乾電池×2
 41
0.8
 11
152.69885122363951
 21
653.44145617356321
 31
0.0
 73
     3
  0
TEXT
  5
E5
  8
SPEC
 62
     7
 10
55.198841223639967
 20
647.95493028580495
 30
0.0
 40
5.700933749999999
  1
使用電池
 41
0.8
 11
55.198841223639967
 21
653.65586403580494
 31
0.0
 73
     3
  0
TEXT
  5
E6
  8
SPEC
 62
     7
 10
152.69885122363951
 20
636.54428860004634
 30
0.0
 40
5.700933749999999
  1
約12時間(Dracell MN1500 1.5V単3形アルカリ乾電池　使用時)
 41
0.8
 11
152.69885122363951
 21
642.24522235004645
 31
0.0
 73
     3
  0
TEXT
  5
E7
  8
SPEC
 62
     7
 10
55.198841223639967
 20
636.45877566179479
 30
0.0
 40
5.700933749999999
  1
バッテリー・ライフ
 41
0.8
 11
55.198841223639967
 21
642.15970941179478
 31
0.0
 73
     3
  0
LINE
  5
E8
  8
SPEC
  6
CONTINUOUS
 62
     7
 10
52.498851223640003
 20
633.75039438818044
 30
0.0
 11
494.99883122363912
 21
633.75039438818044
 31
0.0
  0
TEXT
  5
E9
  8
SPEC
 62
     7
 10
152.69885122363951
 20
602.79428860004634
 30
0.0
 40
5.700933749999999
  1
Φ49×240mm(アンテナ部含まず)
 41
0.8
 11
152.69885122363951
 21
608.49522235004645
 31
0.0
 73
     3
  0
TEXT
  5
EA
  8
SPEC
 62
     7
 10
55.198841223639967
 20
602.75800658659693
 30
0.0
 40
5.700933749999999
  1
寸法(W+H+D)
 41
0.8
 11
55.198841223639967
 21
608.45894033659692
 31
0.0
 73
     3
  0
TEXT
  5
EB
  8
SPEC
 62
     7
 10
152.9676821060558
 20
591.8668856589461
 30
0.0
 40
5.700933749999999
  1
約334g(除乾電池)
 41
0.8
 11
152.9676821060558
 21
597.56781940894621
 31
0.0
 73
     3
  0
TEXT
  5
EC
  8
SPEC
 62
     7
 10
55.198841223639967
 20
591.606468436201
 30
0.0
 40
5.700933749999999
  1
質量
 41
0.8
 11
55.198841223639967
 21
597.30740218620099
 31
0.0
 73
     3
  0
LINE
  5
ED
  8
SPEC
  6
CONTINUOUS
 62
     7
 10
52.498851223640003
 20
622.50039438818044
 30
0.0
 11
494.99883122363912
 21
622.50039438818044
 31
0.0
  0
LINE
  5
EE
  8
SPEC
  6
CONTINUOUS
 62
     7
 10
52.498851223640003
 20
611.25039438818044
 30
0.0
 11
494.99883122363912
 21
611.25039438818044
 31
0.0
  0
LINE
  5
EF
  8
SPEC
  6
CONTINUOUS
 62
     7
 10
52.498851223640003
 20
656.25039438818044
 30
0.0
 11
494.99883122363912
 21
656.25039438818044
 31
0.0
  0
TEXT
  5
F0
  8
SPEC
 62
     7
 10
152.69885122363951
 20
625.29428860004634
 30
0.0
 40
5.700933749999999
  1
SM86ヘッド
 41
0.8
 11
152.69885122363951
 21
630.99522235004645
 31
0.0
 73
     3
  0
TEXT
  5
F1
  8
SPEC
 62
     7
 10
55.198841223639967
 20
625.25800658659682
 30
0.0
 40
5.700933749999999
  1
マイク部
 41
0.8
 11
55.198841223639967
 21
630.95894033659681
 31
0.0
 73
     3
  0
LINE
  5
F2
  8
SPEC
  6
CONTINUOUS
 62
     7
 10
52.498851223640003
 20
645.00039438818044
 30
0.0
 11
494.99883122363912
 21
645.00039438818044
 31
0.0
  0
TEXT
  5
F3
  8
SPEC
 62
     7
 10
152.69885122363951
 20
613.93675624707987
 30
0.0
 40
5.700933749999999
  1
黒(ボディ本体)
 41
0.8
 11
152.69885122363951
 21
619.63768999707986
 31
0.0
 73
     3
  0
TEXT
  5
F4
  8
SPEC
 62
     7
 10
55.198841223639967
 20
613.90954473699264
 30
0.0
 40
5.700933749999999
  1
外装
 41
0.8
 11
55.198841223639967
 21
619.61047848699275
 31
0.0
 73
     3
  0
LINE
  5
F5
  8
SPEC
  6
CONTINUOUS
 62
     7
 10
52.498851223640003
 20
678.75039438818044
 30
0.0
 11
494.99883122363912
 21
678.75039438818044
 31
0.0
  0
TEXT
  5
F6
  8
SPEC
 62
     7
 10
152.69885122363951
 20
658.8292238941134
 30
0.0
 40
5.700933749999999
  1
1/4波長ヘリカル
 41
0.8
 11
152.69885122363951
 21
664.53015764411327
 31
0.0
 73
     3
  0
TEXT
  5
F7
  8
SPEC
 62
     7
 10
55.198841223639967
 20
659.10646843620088
 30
0.0
 40
5.700933749999999
  1
アンテナ
 41
0.8
 11
55.198841223639967
 21
664.80740218620099
 31
0.0
 73
     3
  0
LINE
  5
F8
  8
SPEC
  6
CONTINUOUS
 62
     7
 10
52.498851223640003
 20
600.00039438818044
 30
0.0
 11
494.99883122363912
 21
600.00039438818044
 31
0.0
  0
LINE
  5
F9
  8
SPEC
  6
CONTINUOUS
 62
     7
 10
52.498851223640003
 20
588.75039438818044
 30
0.0
 11
494.99883122363912
 21
588.75039438818044
 31
0.0
  0
LINE
  5
FA
  8
SPEC
  6
CONTINUOUS
 62
     7
 10
52.498851223640003
 20
588.75039438818044
 30
0.0
 11
52.498851223640003
 21
611.20037438818042
 31
0.0
  0
LINE
  5
FB
  8
SPEC
  6
CONTINUOUS
 62
     7
 10
149.99884122363949
 20
611.25039438818044
 30
0.0
 11
149.99884122363949
 21
588.75039438818044
 31
0.0
  0
LINE
  5
FC
  8
SPEC
  6
CONTINUOUS
 62
     7
 10
494.99883122363912
 20
588.75039438818044
 30
0.0
 11
494.99883122363912
 21
611.25039438818044
 31
0.0
  0
TEXT
  5
FD
  8
SPEC
 62
     7
 10
197.6852833041184
 20
726.86275542934902
 30
0.0
 40
5.700933749999999
  1
合計142チャンネルのうち任意の1チャンネル
 41
0.8
 11
197.6852833041184
 21
732.5636891793489
 31
0.0
 73
     3
  0
TEXT
  5
FE
  8
SPEC
 62
     7
 10
153.1289806355056
 20
737.36415918818045
 30
0.0
 40
5.700933749999999
  1
U2/SM86-A24:A型 (797～806MHz)71チャンネルとA2型(779～788MHz)71チャンネル
 41
0.8
 11
153.1289806355056
 21
743.06509293818056
 31
0.0
 73
     3
  0
LINE
  5
FF
  8
SPEC
  6
CONTINUOUS
 62
     7
 10
52.500010000000032
 20
777.0
 30
0.0
 11
52.500010000000032
 21
770.5
 31
0.0
  0
TEXT
  5
100
  8
DIMNSIONS
 62
     7
 10
240.00001
 20
66.808478599999916
 30
0.0
 40
7.3297774609374979
  1
(単位：mm)
 41
0.8
 11
240.00001
 21
74.138256060937408
 31
0.0
 73
     3
  0
LINE
  5
101
  8
DIMNSIONS
  6
CONTINUOUS
 62
     7
 10
135.50001
 20
249.50000997764809
 30
0.0
 11
135.50001
 21
280.99999997764809
 31
0.0
  0
LINE
  5
102
  8
DIMNSIONS
  6
CONTINUOUS
 62
     7
 10
304.5
 20
248.00000997764809
 30
0.0
 11
304.5
 21
280.99999997764809
 31
0.0
  0
LINE
  5
103
  8
DIMNSIONS
  6
CONTINUOUS
 62
     7
 10
135.50001
 20
274.99999999999989
 30
0.0
 11
304.5
 21
274.99999999999989
 31
0.0
  0
LINE
  5
104
  8
DIMNSIONS
  6
CONTINUOUS
 62
     7
 10
135.50001
 20
274.99999999999989
 30
0.0
 11
145.02501000000001
 21
277.55221605790632
 31
0.0
  0
LINE
  5
105
  8
DIMNSIONS
  6
CONTINUOUS
 62
     7
 10
135.50001
 20
274.99999999999989
 30
0.0
 11
145.02501000000001
 21
272.44778394209339
 31
0.0
  0
LINE
  5
106
  8
DIMNSIONS
  6
CONTINUOUS
 62
     7
 10
304.5
 20
274.99999999999989
 30
0.0
 11
294.97500000000002
 21
272.44778394209339
 31
0.0
  0
LINE
  5
107
  8
DIMNSIONS
  6
CONTINUOUS
 62
     7
 10
304.5
 20
274.99999999999989
 30
0.0
 11
294.97500000000002
 21
277.55221605790632
 31
0.0
  0
TEXT
  5
108
  8
DIMNSIONS
 62
     7
 10
212.06250499999999
 20
279.48165666666659
 30
0.0
 40
8.1442057291666661
  1
169
 41
0.8
 11
212.06250499999999
 21
287.62586239583322
 31
0.0
 73
     3
  0
LINE
  5
109
  8
DIMNSIONS
  6
CONTINUOUS
 62
     7
 10
304.5
 20
248.00000997764809
 30
0.0
 11
304.5
 21
281.00000997764801
 31
0.0
  0
LINE
  5
10A
  8
DIMNSIONS
  6
CONTINUOUS
 62
     7
 10
345.49999000000008
 20
231.00000997764809
 30
0.0
 11
345.49999000000008
 21
281.00000997764801
 31
0.0
  0
LINE
  5
10B
  8
DIMNSIONS
  6
CONTINUOUS
 62
     7
 10
304.5
 20
275.0000099999998
 30
0.0
 11
345.49999000000008
 21
275.0000099999998
 31
0.0
  0
LINE
  5
10C
  8
DIMNSIONS
  6
CONTINUOUS
 62
     7
 10
304.5
 20
275.0000099999998
 30
0.0
 11
314.02499999999998
 21
277.5522260579063
 31
0.0
  0
LINE
  5
10D
  8
DIMNSIONS
  6
CONTINUOUS
 62
     7
 10
304.5
 20
275.0000099999998
 30
0.0
 11
314.02499999999998
 21
272.44779394209343
 31
0.0
  0
LINE
  5
10E
  8
DIMNSIONS
  6
CONTINUOUS
 62
     7
 10
345.49999000000008
 20
275.0000099999998
 30
0.0
 11
335.97498999999999
 21
272.44779394209343
 31
0.0
  0
LINE
  5
10F
  8
DIMNSIONS
  6
CONTINUOUS
 62
     7
 10
345.49999000000008
 20
275.0000099999998
 30
0.0
 11
335.97498999999999
 21
277.5522260579063
 31
0.0
  0
TEXT
  5
110
  8
DIMNSIONS
 62
     7
 10
319.70833489381789
 20
279.48166479999981
 30
0.0
 40
8.1441954687500004
  1
41
 41
0.8
 11
319.70833489381789
 21
287.62586026874988
 31
0.0
 73
     3
  0
LINE
  5
111
  8
DIMNSIONS
  6
CONTINUOUS
 62
     7
 10
348.49998997764823
 20
228.00000999999989
 30
0.0
 11
368.49998997764823
 21
228.00000999999989
 31
0.0
  0
LINE
  5
112
  8
DIMNSIONS
  6
CONTINUOUS
 62
     7
 10
348.49998997764823
 20
222.00000999999989
 30
0.0
 11
368.49998997764823
 21
222.00000999999989
 31
0.0
  0
LINE
  5
113
  8
DIMNSIONS
  6
CONTINUOUS
 62
     7
 10
362.49999000000003
 20
222.00000999999989
 30
0.0
 11
362.49999000000003
 21
228.00000999999989
 31
0.0
  0
LINE
  5
114
  8
DIMNSIONS
  6
CONTINUOUS
 62
     7
 10
362.49999000000003
 20
228.00000999999989
 30
0.0
 11
362.49999000000003
 21
243.0000100150873
 31
0.0
  0
LINE
  5
115
  8
DIMNSIONS
  6
CONTINUOUS
 62
     7
 10
362.49999000000003
 20
228.00000999999989
 30
0.0
 11
359.94777394209359
 21
237.5250099999999
 31
0.0
  0
LINE
  5
116
  8
DIMNSIONS
  6
CONTINUOUS
 62
     7
 10
362.49999000000003
 20
228.00000999999989
 30
0.0
 11
365.05220605790652
 21
237.5250099999999
 31
0.0
  0
LINE
  5
117
  8
DIMNSIONS
  6
CONTINUOUS
 62
     7
 10
362.49999000000003
 20
222.00000999999989
 30
0.0
 11
362.49999000000003
 21
207.2083498938178
 31
0.0
  0
LINE
  5
118
  8
DIMNSIONS
  6
CONTINUOUS
 62
     7
 10
362.49999000000003
 20
222.00000999999989
 30
0.0
 11
365.05220605790652
 21
212.47500999999991
 31
0.0
  0
LINE
  5
119
  8
DIMNSIONS
  6
CONTINUOUS
 62
     7
 10
362.49999000000003
 20
222.00000999999989
 30
0.0
 11
359.94777394209359
 21
212.47500999999991
 31
0.0
  0
TEXT
  5
11A
  8
DIMNSIONS
 62
     7
 10
358.01833520000002
 20
207.2083498938178
 30
0.0
 40
8.1441954687500004
  1
6
 50
90.0
 41
0.8
 11
349.87413973125001
 21
207.2083498938178
 31
0.0
 73
     3
  0
LINE
  5
11B
  8
DIMNSIONS
  6
CONTINUOUS
 62
     7
 10
310.49999997764832
 20
242.00000999999989
 30
0.0
 11
330.99998997764823
 21
242.00000999999989
 31
0.0
  0
LINE
  5
11C
  8
DIMNSIONS
  6
CONTINUOUS
 62
     7
 10
310.49999997764832
 20
208.00000999999989
 30
0.0
 11
330.99998997764823
 21
208.00000999999989
 31
0.0
  0
LINE
  5
11D
  8
DIMNSIONS
  6
CONTINUOUS
 62
     7
 10
324.99999000000008
 20
208.00000999999989
 30
0.0
 11
324.99999000000008
 21
195.6666806108347
 31
0.0
  0
LINE
  5
11E
  8
DIMNSIONS
  6
CONTINUOUS
 62
     7
 10
324.99999000000008
 20
242.00000999999989
 30
0.0
 11
324.99999000000008
 21
208.00000999999989
 31
0.0
  0
LINE
  5
11F
  8
DIMNSIONS
  6
CONTINUOUS
 62
     7
 10
324.99999000000008
 20
242.00000999999989
 30
0.0
 11
327.55220605790652
 21
232.47500999999991
 31
0.0
  0
LINE
  5
120
  8
DIMNSIONS
  6
CONTINUOUS
 62
     7
 10
324.99999000000008
 20
242.00000999999989
 30
0.0
 11
322.44777394209348
 21
232.47500999999991
 31
0.0
  0
LINE
  5
121
  8
DIMNSIONS
  6
CONTINUOUS
 62
     7
 10
324.99999000000008
 20
208.00000999999989
 30
0.0
 11
322.44777394209348
 21
217.5250099999999
 31
0.0
  0
LINE
  5
122
  8
DIMNSIONS
  6
CONTINUOUS
 62
     7
 10
324.99999000000008
 20
208.00000999999989
 30
0.0
 11
327.55220605790652
 21
217.5250099999999
 31
0.0
  0
TEXT
  5
123
  8
DIMNSIONS
 62
     7
 10
320.51833239999991
 20
195.6666806108347
 30
0.0
 40
8.1442108593750007
  1
34
 50
90.0
 41
0.8
 11
312.37412154062491
 21
195.6666806108347
 31
0.0
 73
     3
  0
LINE
  5
124
  8
DIMNSIONS
  6
CONTINUOUS
 62
     7
 10
304.5
 20
248.00000997764809
 30
0.0
 11
304.5
 21
305.99999997764809
 31
0.0
  0
LINE
  5
125
  8
DIMNSIONS
  6
CONTINUOUS
 62
     7
 10
64.498012008897788
 20
247.21456555429751
 30
0.0
 11
64.498012008897788
 21
305.99999997764809
 31
0.0
  0
LINE
  5
126
  8
DIMNSIONS
  6
CONTINUOUS
 62
     7
 10
304.5
 20
299.99999999999989
 30
0.0
 11
64.498012008897788
 21
299.99999999999989
 31
0.0
  0
LINE
  5
127
  8
DIMNSIONS
  6
CONTINUOUS
 62
     7
 10
304.5
 20
299.99999999999989
 30
0.0
 11
294.97500000000002
 21
297.44778394209339
 31
0.0
  0
LINE
  5
128
  8
DIMNSIONS
  6
CONTINUOUS
 62
     7
 10
304.5
 20
299.99999999999989
 30
0.0
 11
294.97500000000002
 21
302.55221605790632
 31
0.0
  0
LINE
  5
129
  8
DIMNSIONS
  6
CONTINUOUS
 62
     7
 10
64.498012008897788
 20
299.99999999999989
 30
0.0
 11
74.02301200889778
 21
302.55221605790632
 31
0.0
  0
LINE
  5
12A
  8
DIMNSIONS
  6
CONTINUOUS
 62
     7
 10
64.498012008897788
 20
299.99999999999989
 30
0.0
 11
74.02301200889778
 21
297.44778394209339
 31
0.0
  0
TEXT
  5
12B
  8
DIMNSIONS
 62
     7
 10
176.56150600444889
 20
304.48166665549059
 30
0.0
 40
8.1442057291666661
  1
240
 41
0.8
 11
176.56150600444889
 21
312.62587238465733
 31
0.0
 73
     3
  0
LINE
  5
12C
  8
DIMNSIONS
  6
CONTINUOUS
 62
     7
 10
64.498012008897788
 20
247.21456555429751
 30
0.0
 11
64.498012008897788
 21
280.99999997764809
 31
0.0
  0
LINE
  5
12D
  8
DIMNSIONS
  6
CONTINUOUS
 62
     7
 10
135.50001
 20
249.50000997764809
 30
0.0
 11
135.50001
 21
280.99999997764809
 31
0.0
  0
LINE
  5
12E
  8
DIMNSIONS
  6
CONTINUOUS
 62
     7
 10
64.498012008897788
 20
274.99999999999989
 30
0.0
 11
135.50001
 21
274.99999999999989
 31
0.0
  0
LINE
  5
12F
  8
DIMNSIONS
  6
CONTINUOUS
 62
     7
 10
64.498012008897788
 20
274.99999999999989
 30
0.0
 11
74.02301200889778
 21
277.55221605790632
 31
0.0
  0
LINE
  5
130
  8
DIMNSIONS
  6
CONTINUOUS
 62
     7
 10
64.498012008897788
 20
274.99999999999989
 30
0.0
 11
74.02301200889778
 21
272.44778394209339
 31
0.0
  0
LINE
  5
131
  8
DIMNSIONS
  6
CONTINUOUS
 62
     7
 10
135.50001
 20
274.99999999999989
 30
0.0
 11
125.97501
 21
272.44778394209339
 31
0.0
  0
LINE
  5
132
  8
DIMNSIONS
  6
CONTINUOUS
 62
     7
 10
135.50001
 20
274.99999999999989
 30
0.0
 11
125.97501
 21
277.55221605790632
 31
0.0
  0
TEXT
  5
133
  8
DIMNSIONS
 62
     7
 10
94.707344337782246
 20
279.48166665549059
 30
0.0
 40
8.1442057291666661
  1
71
 41
0.8
 11
94.707344337782246
 21
287.62587238465733
 31
0.0
 73
     3
  0
LINE
  5
134
  8
DIMNSIONS
  6
CONTINUOUS
 62
     7
 10
459.3559606173597
 20
202.4193128084564
 30
0.0
 11
465.26185598401992
 21
193.5773051663092
 31
0.0
  0
LINE
  5
135
  8
DIMNSIONS
  6
CONTINUOUS
 62
     7
 10
459.3559606173597
 20
202.4193128084564
 30
0.0
 11
466.79815602820122
 21
195.94991103757491
 31
0.0
  0
LINE
  5
136
  8
DIMNSIONS
  6
CONTINUOUS
 62
     7
 10
459.3559606173597
 20
202.4193128084564
 30
0.0
 11
462.56639001763551
 21
193.0955488221642
 31
0.0
  0
LINE
  5
137
  8
DIMNSIONS
  6
CONTINUOUS
 62
     7
 10
465.26185598401992
 20
193.5773051663092
 30
0.0
 11
483.26185598793143
 21
193.5773051663092
 31
0.0
  0
TEXT
  5
138
  8
DIMNSIONS
 62
     7
 10
483.26185598793143
 20
189.7673051663092
 30
0.0
 40
8.1442057291666661
  1
φ49
 41
0.8
 11
483.26185598793143
 21
197.91151089547591
 31
0.0
 73
     3
  0
CIRCLE
  5
139
  8
DATA
  6
CONTINUOUS
 62
     7
 10
449.84999999999991
 20
225.00000999999989
 30
0.0
 40
24.500000000000011
  0
TEXT
  5
13A
  8
DATA
 62
     7
 10
441.29998999999992
 20
85.142688599999914
 30
0.0
 40
7.3297774609374979
  1
SHURE
 41
0.8
 11
441.29998999999992
 21
92.472466060937407
 31
0.0
 73
     3
  0
TEXT
  5
13B
  8
DATA
 62
     7
 10
433.2860184497348
 20
74.672535717071526
 30
0.0
 40
5.7009440104166647
  1
ハンドヘルド型送信機 
 41
0.8
 11
433.2860184497348
 21
80.373479727488174
 31
0.0
 73
     3
  0
TEXT
  5
13C
  8
DATA
 62
     7
 10
434.14201684420811
 20
63.423395784142713
 30
0.0
 40
6.5153645833333318
  1
U2/SM86-JBX / U2/SM86-A24
 41
0.8
 11
434.14201684420811
 21
69.93876036747605
 31
0.0
 73
     3
  0
LINE
  5
13D
  8
DATA
  6
CONTINUOUS
 62
     7
 10
229.5
 20
207.50000999999989
 30
0.0
 11
229.5
 21
242.50000999999989
 31
0.0
  0
LINE
  5
13E
  8
DATA
  6
CONTINUOUS
 62
     7
 10
251.50001
 20
207.6447399999999
 30
0.0
 11
251.50001
 21
242.00000999999989
 31
0.0
  0
LINE
  5
13F
  8
DATA
  6
CONTINUOUS
 62
     7
 10
269.50000999999997
 20
207.76316999999989
 30
0.0
 11
269.50000999999997
 21
242.23684999999989
 31
0.0
  0
LINE
  5
140
  8
DATA
  6
CONTINUOUS
 62
     7
 10
284.00000999999997
 20
207.85854999999989
 30
0.0
 11
284.00000999999997
 21
242.14145999999991
 31
0.0
  0
LINE
  5
141
  8
DATA
  6
CONTINUOUS
 62
     7
 10
294.50000999999997
 20
207.93420999999989
 30
0.0
 11
294.50000999999997
 21
242.06579999999991
 31
0.0
  0
LINE
  5
142
  8
DATA
  6
CONTINUOUS
 62
     7
 10
304.5
 20
208.00000999999989
 30
0.0
 11
304.5
 21
242.00000999999989
 31
0.0
  0
LINE
  5
143
  8
DATA
  6
CONTINUOUS
 62
     7
 10
229.5
 20
242.50000999999989
 30
0.0
 11
304.5
 21
242.00000999999989
 31
0.0
  0
LINE
  5
144
  8
DATA
  6
CONTINUOUS
 62
     7
 10
229.5
 20
207.50000999999989
 30
0.0
 11
304.5
 21
208.00000999999989
 31
0.0
  0
LINE
  5
145
  8
DATA
  6
CONTINUOUS
 62
     7
 10
307.99999000000008
 20
221.14999999999989
 30
0.0
 11
307.99999000000008
 21
228.85000999999991
 31
0.0
  0
LINE
  5
146
  8
DATA
  6
CONTINUOUS
 62
     7
 10
304.5
 20
228.85000999999991
 30
0.0
 11
307.99999000000008
 21
228.85000999999991
 31
0.0
  0
LINE
  5
147
  8
DATA
  6
CONTINUOUS
 62
     7
 10
307.99999000000008
 20
228.85000999999991
 30
0.0
 11
315.99999000000008
 21
228.25000999999989
 31
0.0
  0
LINE
  5
148
  8
DATA
  6
CONTINUOUS
 62
     7
 10
315.49999000000008
 20
228.25000999999989
 30
0.0
 11
342.49999000000008
 21
228.00000999999989
 31
0.0
  0
LINE
  5
149
  8
DATA
  6
CONTINUOUS
 62
     7
 10
304.5
 20
221.14999999999989
 30
0.0
 11
307.99999000000008
 21
221.14999999999989
 31
0.0
  0
LINE
  5
14A
  8
DATA
  6
CONTINUOUS
 62
     7
 10
307.99999000000008
 20
221.14999999999989
 30
0.0
 11
315.99999000000008
 21
221.75000999999989
 31
0.0
  0
LINE
  5
14B
  8
DATA
  6
CONTINUOUS
 62
     7
 10
315.49999000000008
 20
221.75000999999989
 30
0.0
 11
342.49999000000008
 21
222.00000999999989
 31
0.0
  0
ARC
  5
14C
  8
DATA
  6
CONTINUOUS
 62
     7
 10
342.49999000000008
 20
225.00000999999989
 30
0.0
 40
3.0
 50
270.0
 51
90.0
  0
LINE
  5
14D
  8
DATA
  6
CONTINUOUS
 62
     7
 10
155.5
 20
215.50000999999989
 30
0.0
 11
155.5
 21
234.50000999999989
 31
0.0
  0
LINE
  5
14E
  8
DATA
  6
CONTINUOUS
 62
     7
 10
174.50001
 20
214.75000999999989
 30
0.0
 11
174.50001
 21
235.25000999999989
 31
0.0
  0
LINE
  5
14F
  8
DATA
  6
CONTINUOUS
 62
     7
 10
155.5
 20
234.50000999999989
 30
0.0
 11
176.50001
 21
235.25000999999989
 31
0.0
  0
LINE
  5
150
  8
DATA
  6
CONTINUOUS
 62
     7
 10
155.5
 20
215.50000999999989
 30
0.0
 11
176.50001
 21
214.75000999999989
 31
0.0
  0
LINE
  5
151
  8
DATA
  6
CONTINUOUS
 62
     7
 10
158.25
 20
232.75000999999989
 30
0.0
 11
171.75
 21
232.75000999999989
 31
0.0
  0
LINE
  5
152
  8
DATA
  6
CONTINUOUS
 62
     7
 10
158.25
 20
217.25000999999989
 30
0.0
 11
171.75
 21
217.25000999999989
 31
0.0
  0
LINE
  5
153
  8
DATA
  6
CONTINUOUS
 62
     7
 10
171.75
 20
232.75000999999989
 30
0.0
 11
171.75
 21
217.25000999999989
 31
0.0
  0
LINE
  5
154
  8
DATA
  6
CONTINUOUS
 62
     7
 10
158.25
 20
232.75000999999989
 30
0.0
 11
158.25
 21
217.25000999999989
 31
0.0
  0
CIRCLE
  5
155
  8
DATA
  6
CONTINUOUS
 62
     7
 10
450.0
 20
225.00000999999989
 30
0.0
 40
3.0
  0
CIRCLE
  5
156
  8
DATA
  6
CONTINUOUS
 62
     7
 10
450.0
 20
225.00000999999989
 30
0.0
 40
17.0
  0
CIRCLE
  5
157
  8
DATA
  6
CONTINUOUS
 62
     7
 10
450.0
 20
225.00000999999989
 30
0.0
 40
18.5
  0
LINE
  5
158
  8
DATA
  6
CONTINUOUS
 62
     7
 10
444.5
 20
232.00000999999989
 30
0.0
 11
444.5
 21
234.50000999999989
 31
0.0
  0
LINE
  5
159
  8
DATA
  6
CONTINUOUS
 62
     7
 10
441.5
 20
232.00000999999989
 30
0.0
 11
441.5
 21
234.50000999999989
 31
0.0
  0
ARC
  5
15A
  8
DATA
  6
CONTINUOUS
 62
     7
 10
443.0
 20
234.50000999999989
 30
0.0
 40
1.5
 50
0.0
 51
180.0
  0
ARC
  5
15B
  8
DATA
  6
CONTINUOUS
 62
     7
 10
443.0
 20
232.00000999999989
 30
0.0
 40
1.5
 50
180.0
 51
0.0
  0
CIRCLE
  5
15C
  8
DATA
  6
CONTINUOUS
 62
     7
 10
443.0
 20
232.00000999999989
 30
0.0
 40
1.0
  0
TEXT
  5
15D
  8
DATA
 62
     7
 10
442.57999139999993
 20
226.9609526302082
 30
0.0
 40
2.3085860546874999
  1
ON
 50
90.0
 41
0.8
 72
     1
 11
440.27140534531247
 21
228.50000999999989
 31
0.0
 73
     3
  0
TEXT
  5
15E
  8
DATA
 62
     7
 10
447.57999139999993
 20
233.53751820833321
 30
0.0
 40
2.3085860546874999
  1
OFF
 50
90.0
 41
0.8
 72
     1
 11
445.27140534531242
 21
236.00000999999989
 31
0.0
 73
     3
  0
TEXT
  5
15F
  8
DATA
 62
     7
 10
439.62
 20
218.53594749999991
 30
0.0
 40
3.462890625
  1
SHURE
 50
90.0
 41
0.8
 72
     1
 11
436.157109375
 21
225.00000999999989
 31
0.0
 73
     3
  0
CIRCLE
  5
160
  8
DATA
  6
CONTINUOUS
 62
     7
 10
450.0
 20
225.00000999999989
 30
0.0
 40
19.25
  0
LINE
  5
161
  8
DATA
  6
CONTINUOUS
 62
     7
 10
135.50001
 20
243.50000999999989
 30
0.0
 11
229.5
 21
242.50000999999989
 31
0.0
  0
LINE
  5
162
  8
DATA
  6
CONTINUOUS
 62
     7
 10
135.50001
 20
206.50000999999989
 30
0.0
 11
229.5
 21
207.50000999999989
 31
0.0
  0
CIRCLE
  5
163
  8
DATA
  6
CONTINUOUS
 62
     7
 10
450.0
 20
225.00000999999989
 30
0.0
 40
5.5
  0
LINE
  5
164
  8
DATA
  6
CONTINUOUS
 62
     7
 10
135.49801200889769
 20
206.50336032545971
 30
0.0
 11
135.49801200889769
 21
243.50336032545979
 31
0.0
  0
LINE
  5
165
  8
DATA
  6
CONTINUOUS
 62
     7
 10
134.99801200889769
 20
207.50336032545971
 30
0.0
 11
135.49801200889769
 21
207.50336032545971
 31
0.0
  0
LINE
  5
166
  8
DATA
  6
CONTINUOUS
 62
     7
 10
134.99801200889769
 20
242.50336032545991
 30
0.0
 11
135.49801200889769
 21
242.50336032545991
 31
0.0
  0
LINE
  5
167
  8
DATA
  6
CONTINUOUS
 62
     7
 10
134.99801200889769
 20
206.50336032545971
 30
0.0
 11
134.99801200889769
 21
243.50336032545979
 31
0.0
  0
LINE
  5
168
  8
DATA
  6
CONTINUOUS
 62
     7
 10
134.99801200889769
 20
206.50336032545971
 30
0.0
 11
127.4980120088977
 21
206.50336032545971
 31
0.0
  0
LINE
  5
169
  8
DATA
  6
CONTINUOUS
 62
     7
 10
134.99801200889769
 20
243.50336032545979
 30
0.0
 11
127.4980120088977
 21
243.50336032545979
 31
0.0
  0
LINE
  5
16A
  8
DATA
  6
CONTINUOUS
 62
     7
 10
127.4980120088977
 20
206.50336032545971
 30
0.0
 11
127.4980120088977
 21
243.50336032545979
 31
0.0
  0
LINE
  5
16B
  8
DATA
  6
CONTINUOUS
 62
     7
 10
124.9980120088977
 20
207.00336032545971
 30
0.0
 11
124.9980120088977
 21
243.00336032545991
 31
0.0
  0
LINE
  5
16C
  8
DATA
  6
CONTINUOUS
 62
     7
 10
124.9980120088977
 20
207.00336032545971
 30
0.0
 11
127.4980120088977
 21
206.50336032545971
 31
0.0
  0
LINE
  5
16D
  8
DATA
  6
CONTINUOUS
 62
     7
 10
124.9980120088977
 20
243.00336032545991
 30
0.0
 11
127.4980120088977
 21
243.50336032545979
 31
0.0
  0
LINE
  5
16E
  8
DATA
  6
CONTINUOUS
 62
     7
 10
118.4980120088977
 20
205.75336032545971
 30
0.0
 11
118.4980120088977
 21
244.25336032545991
 31
0.0
  0
LINE
  5
16F
  8
DATA
  6
CONTINUOUS
 62
     7
 10
118.4980120088977
 20
205.75336032545971
 30
0.0
 11
124.9980120088977
 21
207.00336032545971
 31
0.0
  0
LINE
  5
170
  8
DATA
  6
CONTINUOUS
 62
     7
 10
118.4980120088977
 20
244.25336032545991
 30
0.0
 11
124.9980120088977
 21
243.00336032545991
 31
0.0
  0
LINE
  5
171
  8
DATA
  6
CONTINUOUS
 62
     7
 10
64.498012008897788
 20
208.7921550742704
 30
0.0
 11
64.498012008897788
 21
241.21456557664919
 31
0.0
  0
LINE
  5
172
  8
DATA
  6
CONTINUOUS
 62
     7
 10
90.498012008897703
 20
200.75336032545971
 30
0.0
 11
90.498012008897703
 21
249.25336032545999
 31
0.0
  0
LINE
  5
173
  8
DATA
  6
CONTINUOUS
 62
     7
 10
90.498012008897703
 20
200.75336032545971
 30
0.0
 11
91.498012008897703
 21
200.75336032545971
 31
0.0
  0
LINE
  5
174
  8
DATA
  6
CONTINUOUS
 62
     7
 10
93.498012008897689
 20
200.75336032545971
 30
0.0
 11
94.498012008897703
 21
200.75336032545971
 31
0.0
  0
LINE
  5
175
  8
DATA
  6
CONTINUOUS
 62
     7
 10
94.498012008897703
 20
200.75336032545971
 30
0.0
 11
94.498012008897703
 21
249.25336032545999
 31
0.0
  0
LINE
  5
176
  8
DATA
  6
CONTINUOUS
 62
     7
 10
90.498012008897703
 20
249.25336032545999
 30
0.0
 11
91.498012008897703
 21
249.25336032545999
 31
0.0
  0
LINE
  5
177
  8
DATA
  6
CONTINUOUS
 62
     7
 10
93.498012008897689
 20
249.25336032545999
 30
0.0
 11
94.498012008897703
 21
249.25336032545999
 31
0.0
  0
LINE
  5
178
  8
DATA
  6
CONTINUOUS
 62
     7
 10
91.498012008897703
 20
200.75336032545971
 30
0.0
 11
91.498012008897703
 21
249.25336032545999
 31
0.0
  0
LINE
  5
179
  8
DATA
  6
CONTINUOUS
 62
     7
 10
93.498012008897689
 20
200.75336032545971
 30
0.0
 11
93.498012008897689
 21
249.25336032545999
 31
0.0
  0
LINE
  5
17A
  8
DATA
  6
CONTINUOUS
 62
     7
 10
90.498012008897703
 20
202.00336032545979
 30
0.0
 11
90.498012008897703
 21
248.00336032545999
 31
0.0
  0
LINE
  5
17B
  8
DATA
  6
CONTINUOUS
 62
     7
 10
118.4980120088977
 20
206.75336032545971
 30
0.0
 11
118.4980120088977
 21
243.25336032545979
 31
0.0
  0
LINE
  5
17C
  8
DATA
  6
CONTINUOUS
 62
     7
 10
91.498012008897703
 20
202.00336032545979
 30
0.0
 11
93.498012008897689
 21
202.00336032545979
 31
0.0
  0
LINE
  5
17D
  8
DATA
  6
CONTINUOUS
 62
     7
 10
91.498012008897703
 20
248.00336032545999
 30
0.0
 11
93.498012008897689
 21
248.00336032545999
 31
0.0
  0
LINE
  5
17E
  8
DATA
  6
CONTINUOUS
 62
     7
 10
118.4980120088977
 20
243.25336032545979
 30
0.0
 11
94.498012008897703
 21
248.00336032545999
 31
0.0
  0
LINE
  5
17F
  8
DATA
  6
CONTINUOUS
 62
     7
 10
118.4980120088977
 20
206.75336032545971
 30
0.0
 11
94.498012008897703
 21
202.00336032545979
 31
0.0
  0
LINE
  5
180
  8
DATA
  6
CONTINUOUS
 62
     7
 10
66.109710701407863
 20
243.17650902501919
 30
0.0
 11
90.498012008897703
 21
248.00336032545999
 31
0.0
  0
ARC
  5
181
  8
DATA
  6
CONTINUOUS
 62
     7
 10
66.498012008897746
 20
208.7921550742704
 30
0.0
 40
1.9999999999999709
 50
180.0
 51
258.80488857370011
  0
ARC
  5
182
  8
DATA
  6
CONTINUOUS
 62
     7
 10
66.498012008897746
 20
241.21456557664919
 30
0.0
 40
2.0000000000000169
 50
101.1951114262999
 51
180.0
  0
LINE
  5
183
  8
DATA
  6
CONTINUOUS
 62
     7
 10
66.109710701407863
 20
206.83021162590049
 30
0.0
 11
90.498012008897703
 21
202.00336032545979
 31
0.0
  0
TEXT
  5
184
  8
DATA
 62
     7
 10
132.91888700889771
 20
233.22944770744681
 30
0.0
 40
3.2576822916666659
  1
SM86
 50
90.0
 41
0.8
 11
129.6612047172311
 21
233.22944770744681
 31
0.0
 73
     3
  0
CIRCLE
  5
185
  8
DATA
  6
CONTINUOUS
 62
     7
 10
449.84999999999991
 20
225.00000999999989
 30
0.0
 40
23.999999999999989
  0
TEXT
  5
186
  8
DATA
 62
     7
 10
60.000000000000071
 20
42.714009999999838
 30
0.0
 40
4.8865234374999993
  1
仕様および外観は予告なく変更されることがありますので、ご了承ください。
 41
0.8
 11
60.000000000000071
 21
47.600533437499848
 31
0.0
 73
     3
  0
ENDSEC
  0
EOF
