  0
SECTION
  2
HEADER
  9
$ACADVER
  1
AC1009
  9
$INSBASE
 10
0.0
 20
0.0
 30
0.0
  9
$EXTMIN
 10
29.989015033921529
 20
7.1438620221135798
 30
-0.0015258207003583
  9
$EXTMAX
 10
570.01739634668616
 20
810.02475112515378
 30
0.0000000349246037
  9
$LIMMIN
 10
0.0
 20
0.0
  9
$LIMMAX
 10
0.0
 20
0.0
  9
$ORTHOMODE
 70
     0
  9
$REGENMODE
 70
     1
  9
$FILLMODE
 70
     1
  9
$QTEXTMODE
 70
     0
  9
$MIRRTEXT
 70
     1
  9
$DRAGMODE
 70
     2
  9
$LTSCALE
 40
15.24
  9
$OSMODE
 70
   231
  9
$ATTMODE
 70
     1
  9
$TEXTSIZE
 40
0.0
  9
$TRACEWID
 40
1.0
  9
$TEXTSTYLE
  7
STANDARD
  9
$CLAYER
  8
DATA
  9
$CELTYPE
  6
CONTINUOUS
  9
$CECOLOR
 62
   256
  9
$DIMSCALE
 40
1.0
  9
$DIMASZ
 40
0.18
  9
$DIMEXO
 40
0.0625
  9
$DIMDLI
 40
0.38
  9
$DIMRND
 40
0.0
  9
$DIMDLE
 40
0.0
  9
$DIMEXE
 40
0.18
  9
$DIMTP
 40
0.0
  9
$DIMTM
 40
0.0
  9
$DIMTXT
 40
0.18
  9
$DIMCEN
 40
0.09
  9
$DIMTSZ
 40
0.0
  9
$DIMTOL
 70
     0
  9
$DIMLIM
 70
     0
  9
$DIMTIH
 70
     1
  9
$DIMTOH
 70
     1
  9
$DIMSE1
 70
     0
  9
$DIMSE2
 70
     0
  9
$DIMTAD
 70
     0
  9
$DIMZIN
 70
     0
  9
$DIMBLK
  1

  9
$DIMASO
 70
     1
  9
$DIMSHO
 70
     1
  9
$DIMPOST
  1

  9
$DIMAPOST
  1

  9
$DIMALT
 70
     0
  9
$DIMALTD
 70
     2
  9
$DIMALTF
 40
25.399999999999999
  9
$DIMLFAC
 40
1.0
  9
$DIMTOFL
 70
     0
  9
$DIMTVP
 40
0.0
  9
$DIMTIX
 70
     0
  9
$DIMSOXD
 70
     0
  9
$DIMSAH
 70
     0
  9
$DIMBLK1
  1

  9
$DIMBLK2
  1

  9
$DIMSTYLE
  2
STANDARD
  9
$DIMCLRD
 70
     0
  9
$DIMCLRE
 70
     0
  9
$DIMCLRT
 70
     0
  9
$DIMTFAC
 40
1.0
  9
$DIMGAP
 40
0.09
  9
$LUNITS
 70
     2
  9
$LUPREC
 70
     4
  9
$SKETCHINC
 40
0.1
  9
$FILLETRAD
 40
0.0
  9
$AUNITS
 70
     0
  9
$AUPREC
 70
     0
  9
$MENU
  1
acad
  9
$ELEVATION
 40
0.0
  9
$PELEVATION
 40
0.0
  9
$THICKNESS
 40
0.0
  9
$LIMCHECK
 70
     0
  9
$BLIPMODE
 70
     0
  9
$CHAMFERA
 40
0.0
  9
$CHAMFERB
 40
0.0
  9
$SKPOLY
 70
     0
  9
$TDCREATE
 40
2453875.7197106481
  9
$TDUPDATE
 40
2453875.7357099308
  9
$TDINDWG
 40
0.0002434722
  9
$TDUSRTIMER
 40
0.000243287
  9
$USRTIMER
 70
     1
  9
$ANGBASE
 50
0.0
  9
$ANGDIR
 70
     0
  9
$PDMODE
 70
     1
  9
$PDSIZE
 40
-2.0
  9
$PLINEWID
 40
0.0
  9
$COORDS
 70
     1
  9
$SPLFRAME
 70
     0
  9
$SPLINETYPE
 70
     6
  9
$SPLINESEGS
 70
     8
  9
$ATTDIA
 70
     0
  9
$ATTREQ
 70
     1
  9
$HANDLING
 70
     1
  9
$HANDSEED
  5
1EC
  9
$SURFTAB1
 70
     6
  9
$SURFTAB2
 70
     6
  9
$SURFTYPE
 70
     6
  9
$SURFU
 70
     6
  9
$SURFV
 70
     6
  9
$UCSNAME
  2

  9
$UCSORG
 10
0.0
 20
0.0
 30
0.0
  9
$UCSXDIR
 10
1.0
 20
0.0
 30
0.0
  9
$UCSYDIR
 10
0.0
 20
1.0
 30
0.0
  9
$PUCSNAME
  2

  9
$PUCSORG
 10
0.0
 20
0.0
 30
0.0
  9
$PUCSXDIR
 10
1.0
 20
0.0
 30
0.0
  9
$PUCSYDIR
 10
0.0
 20
1.0
 30
0.0
  9
$USERI1
 70
     0
  9
$USERI2
 70
     0
  9
$USERI3
 70
     0
  9
$USERI4
 70
     0
  9
$USERI5
 70
     0
  9
$USERR1
 40
0.0
  9
$USERR2
 40
0.0
  9
$USERR3
 40
0.0
  9
$USERR4
 40
0.0
  9
$USERR5
 40
0.0
  9
$WORLDVIEW
 70
     1
  9
$SHADEDGE
 70
     3
  9
$SHADEDIF
 70
    70
  9
$TILEMODE
 70
     1
  9
$MAXACTVP
 70
    64
  9
$PLIMCHECK
 70
     0
  9
$PEXTMIN
 10
1.0000000000000000E+020
 20
1.0000000000000000E+020
 30
1.0000000000000000E+020
  9
$PEXTMAX
 10
-1.0000000000000000E+020
 20
-1.0000000000000000E+020
 30
-1.0000000000000000E+020
  9
$PLIMMIN
 10
0.0
 20
0.0
  9
$PLIMMAX
 10
12.0
 20
9.0
  9
$UNITMODE
 70
     0
  9
$VISRETAIN
 70
     0
  9
$PLINEGEN
 70
     1
  9
$PSLTSCALE
 70
     0
  0
ENDSEC
  0
SECTION
  2
TABLES
  0
TABLE
  2
VPORT
 70
     1
  0
VPORT
  2
*ACTIVE
 70
     0
 10
0.0
 20
0.0
 11
1.0
 21
1.0
 12
300.00320569030379
 22
408.58430657363368
 13
0.0
 23
0.0
 14
1.0
 24
1.0
 15
0.0
 25
0.0
 16
0.0
 26
0.0
 36
1.0
 17
0.0
 27
0.0
 37
0.0
 40
809.54380104580434
 41
1.6703601108033239
 42
50.0
 43
0.0
 44
0.0
 50
0.0
 51
0.0
 71
     0
 72
  2000
 73
     1
 74
     1
 75
     0
 76
     0
 77
     0
 78
     0
  0
ENDTAB
  0
TABLE
  2
LTYPE
 70
    11
  0
LTYPE
  2
CONTINUOUS
 70
     0
  3
Solid line
 72
    65
 73
     0
 40
0.0
  0
ENDTAB
  0
TABLE
  2
LAYER
 70
     6
  0
LAYER
  2
0
 70
     0
 62
     7
  6
CONTINUOUS
  0
LAYER
  2
DATA
 70
     0
 62
     7
  6
CONTINUOUS
  0
LAYER
  2
HIBINO-BASE
 70
     0
 62
     7
  6
CONTINUOUS
  0
LAYER
  2
PATTERN_FILL
 70
     0
 62
     7
  6
CONTINUOUS
  0
LAYER
  2
SPEC
 70
     0
 62
     7
  6
CONTINUOUS
  0
LAYER
  2
DIMNSIONS
 70
     0
 62
     7
  6
CONTINUOUS
  0
ENDTAB
  0
TABLE
  2
STYLE
 70
     2
  0
STYLE
  2
STANDARD
 70
     0
 40
0.0
 41
1.0
 50
0.0
 71
     0
 42
0.0
  3
txt
  4
BIGFONT.SHX
  0
ENDTAB
  0
TABLE
  2
VIEW
 70
     0
  0
ENDTAB
  0
TABLE
  2
UCS
 70
     0
  0
ENDTAB
  0
TABLE
  2
APPID
 70
     1
  0
APPID
  2
ACAD
 70
     0
  0
ENDTAB
  0
TABLE
  2
DIMSTYLE
 70
     1
  0
DIMSTYLE
  2
STANDARD
 70
     0
  3

  4

  5

  6

  7

 40
1.0
 41
0.18
 42
0.0625
 43
0.38
 44
0.18
 45
0.0
 46
0.0
 47
0.0
 48
0.0
140
0.18
141
0.09
142
0.0
143
25.399999999999999
144
1.0
145
0.0
146
1.0
147
0.09
 71
     0
 72
     0
 73
     1
 74
     1
 75
     0
 76
     0
 77
     0
 78
     0
170
     0
171
     2
172
     0
173
     0
174
     0
175
     0
176
     0
177
     0
178
     0
  0
ENDTAB
  0
ENDSEC
  0
SECTION
  2
BLOCKS
  0
BLOCK
  8
0
  2
$MODEL_SPACE
 70
     0
 10
0.0
 20
0.0
 30
0.0
  3
$MODEL_SPACE
  1

  0
ENDBLK
  5
1BE
  8
0
  0
BLOCK
 67
     1
  8
0
  2
$PAPER_SPACE
 70
     0
 10
0.0
 20
0.0
 30
0.0
  3
$PAPER_SPACE
  1

  0
ENDBLK
  5
1BA
 67
     1
  8
0
  0
ENDSEC
  0
SECTION
  2
ENTITIES
  0
LINE
  5
2D
  8
HIBINO-BASE
  6
CONTINUOUS
 62
     7
 10
30.0
 20
810.0000299999997
 30
0.0
 11
570.0
 21
810.0000299999997
 31
0.0
  0
LINE
  5
2E
  8
HIBINO-BASE
  6
CONTINUOUS
 62
     7
 10
570.0
 20
30.000009999999929
 30
0.0
 11
30.0
 21
30.000009999999929
 31
0.0
  0
LINE
  5
2F
  8
HIBINO-BASE
  6
CONTINUOUS
 62
     7
 10
30.0
 20
30.000009999999929
 30
0.0
 11
30.0
 21
810.0000299999997
 31
0.0
  0
TEXT
  5
30
  8
HIBINO-BASE
 62
     7
 10
51.55201000000001
 20
10.773976599999891
 30
0.0
 40
10.800132539062499
  1
Hibino Corporation
 41
0.8
 11
51.55201000000001
 21
21.57410913906239
 31
0.0
 73
     3
  0
LINE
  5
31
  8
HIBINO-BASE
  6
CONTINUOUS
 62
     7
 10
570.0
 20
810.0000299999997
 30
0.0
 11
570.0
 21
30.000009999999929
 31
0.0
  0
LINE
  5
32
  8
HIBINO-BASE
  6
CONTINUOUS
 62
     7
 10
300.0
 20
97.499999999999872
 30
0.0
 11
570.0
 21
97.499999999999872
 31
0.0
  0
LINE
  5
33
  8
HIBINO-BASE
  6
CONTINUOUS
 62
     7
 10
300.0
 20
30.000009999999929
 30
0.0
 11
300.0
 21
97.499999999999872
 31
0.0
  0
TEXT
  5
34
  8
HIBINO-BASE
 62
     7
 10
302.69999999999999
 20
89.400008999999926
 30
0.0
 40
5.4000701171875001
  1
NOTE
 41
0.8
 11
302.69999999999999
 21
94.800079117187408
 31
0.0
 73
     3
  0
LINE
  5
35
  8
HIBINO-BASE
  6
CONTINUOUS
 62
     7
 10
404.99999000000003
 20
30.000009999999929
 30
0.0
 11
404.99999000000003
 21
97.499999999999872
 31
0.0
  0
TEXT
  5
36
  8
HIBINO-BASE
 62
     7
 10
407.69999000000001
 20
89.400008999999926
 30
0.0
 40
5.4000701171875001
  1
TITLE
 41
0.8
 11
407.69999000000001
 21
94.800079117187408
 31
0.0
 73
     3
  0
TEXT
  5
37
  8
HIBINO-BASE
 62
     7
 10
450.20515999999992
 20
10.773976599999891
 30
0.0
 40
10.800132539062499
  1
ヒビノ株式会社
 41
0.8
 11
450.20515999999992
 21
21.57410913906239
 31
0.0
 73
     3
  0
LINE
  5
38
  8
HIBINO-BASE
  6
CONTINUOUS
 62
     7
 10
300.0
 20
60.000009999999932
 30
0.0
 11
570.0
 21
60.000009999999932
 31
0.0
  0
TEXT
  5
39
  8
HIBINO-BASE
 62
     7
 10
445.19999000000001
 20
52.068958999999907
 30
0.0
 40
5.4000701171875001
  1
DRAWN
 41
0.8
 11
445.19999000000001
 21
57.469029117187397
 31
0.0
 73
     3
  0
TEXT
  5
3A
  8
HIBINO-BASE
 62
     7
 10
370.19999000000001
 20
52.068958999999907
 30
0.0
 40
5.4000701171875001
  1
DATE
 41
0.8
 11
370.19999000000001
 21
57.469029117187397
 31
0.0
 73
     3
  0
TEXT
  5
3B
  8
HIBINO-BASE
 62
     7
 10
303.30000000000001
 20
52.14163999999986
 30
0.0
 40
4.8865234375000002
  1
図面サイズ
 41
0.8
 11
303.30000000000001
 21
57.02816343749987
 31
0.0
 73
     3
  0
TEXT
  5
3C
  8
HIBINO-BASE
 62
     7
 10
340.19999000000001
 20
52.068958999999907
 30
0.0
 40
5.4000701171875001
  1
SCALE
 41
0.8
 11
340.19999000000001
 21
57.469029117187397
 31
0.0
 73
     3
  0
TEXT
  5
3D
  8
HIBINO-BASE
 62
     7
 10
407.69999000000001
 20
52.068958999999907
 30
0.0
 40
5.4000701171875001
  1
DESIGN
 41
0.8
 11
407.69999000000001
 21
57.469029117187397
 31
0.0
 73
     3
  0
TEXT
  5
3E
  8
HIBINO-BASE
 62
     7
 10
520.20000000000005
 20
52.068958999999907
 30
0.0
 40
5.4000701171875001
  1
DRAWING NO.
 41
0.8
 11
520.20000000000005
 21
57.469029117187397
 31
0.0
 73
     3
  0
TEXT
  5
3F
  8
HIBINO-BASE
 62
     7
 10
482.69999999999987
 20
52.068958999999907
 30
0.0
 40
5.4000701171875001
  1
CHECK
 41
0.8
 11
482.69999999999987
 21
57.469029117187397
 31
0.0
 73
     3
  0
LINE
  5
40
  8
HIBINO-BASE
  6
CONTINUOUS
 62
     7
 10
343.12499000000008
 20
33.750009999999932
 30
0.0
 11
354.37499000000008
 21
45.000009999999932
 31
0.0
  0
TEXT
  5
41
  8
HIBINO-BASE
 62
     7
 10
341.24999000000008
 20
39.852860999999891
 30
0.0
 40
6.5153517578124989
  1
1
 41
0.8
 11
341.24999000000008
 21
46.368212757812387
 31
0.0
 73
     3
  0
LINE
  5
42
  8
HIBINO-BASE
  6
CONTINUOUS
 62
     7
 10
337.5
 20
30.000009999999929
 30
0.0
 11
337.5
 21
60.000009999999932
 31
0.0
  0
LINE
  5
43
  8
HIBINO-BASE
  6
CONTINUOUS
 62
     7
 10
367.5
 20
30.000009999999929
 30
0.0
 11
367.5
 21
60.000009999999932
 31
0.0
  0
LINE
  5
44
  8
HIBINO-BASE
  6
CONTINUOUS
 62
     7
 10
442.49999999999989
 20
60.000009999999932
 30
0.0
 11
442.49999999999989
 21
30.000009999999929
 31
0.0
  0
LINE
  5
45
  8
HIBINO-BASE
  6
CONTINUOUS
 62
     7
 10
517.49999000000003
 20
60.000009999999932
 30
0.0
 11
517.49999000000003
 21
30.000009999999929
 31
0.0
  0
LINE
  5
46
  8
HIBINO-BASE
  6
CONTINUOUS
 62
     7
 10
479.99999000000003
 20
30.000009999999929
 30
0.0
 11
479.99999000000003
 21
60.000009999999932
 31
0.0
  0
TEXT
  5
47
  8
HIBINO-BASE
 62
     7
 10
311.73266000000001
 20
37.495368599999942
 30
0.0
 40
9.7730391796875011
  1
A4
 41
0.8
 11
311.73266000000001
 21
47.268407779687429
 31
0.0
 73
     3
  0
TEXT
  5
48
  8
HIBINO-BASE
 62
     7
 10
369.54178694147942
 20
38.017028999999937
 30
0.0
 40
5.4000701171875001
  1
'06.03.
 41
0.8
 11
369.54178694147942
 21
43.417099117187433
 31
0.0
 73
     3
  0
TEXT
  5
49
  8
HIBINO-BASE
 62
     7
 10
352.49999000000008
 20
34.227860999999891
 30
0.0
 40
6.5153517578124989
  1
3
 41
0.8
 11
352.49999000000008
 21
40.743212757812387
 31
0.0
 73
     3
  0
TEXT
  5
4A
  8
HIBINO-BASE
 62
     7
 10
447.01743003310389
 20
38.59094999999995
 30
0.0
 40
4.8865234374999993
  1
N.Sasaki
 41
0.8
 11
447.01743003310389
 21
43.477473437499953
 31
0.0
 73
     3
  0
ARC
  5
4B
  8
PATTERN_FILL
  6
CONTINUOUS
 62
     7
 10
99.525664566717623
 20
224.9963157403005
 30
0.0
 40
10.00000000000002
 50
154.5039312464624
 51
205.49606875353771
  0
ARC
  5
4C
  8
PATTERN_FILL
  6
CONTINUOUS
 62
     7
 10
99.525664566717623
 20
224.9963157403005
 30
0.0
 40
12.000000000000011
 50
138.77948529505801
 51
221.22051470494179
  0
ARC
  5
4D
  8
PATTERN_FILL
  6
CONTINUOUS
 62
     7
 10
99.525664566717623
 20
224.9963157403005
 30
0.0
 40
14.0
 50
130.14505046037601
 51
229.85494953962399
  0
ARC
  5
4E
  8
PATTERN_FILL
  6
CONTINUOUS
 62
     7
 10
99.525664566717623
 20
224.9963157403005
 30
0.0
 40
15.99999999999998
 50
124.3421945712103
 51
235.6578054287894
  0
LINE
  5
4F
  8
PATTERN_FILL
  6
CONTINUOUS
 62
     7
 10
65.499516357023339
 20
224.9963157403005
 30
0.0
 11
90.499516357048876
 21
224.9963157403005
 31
0.0
  0
ARC
  5
50
  8
PATTERN_FILL
  6
CONTINUOUS
 62
     7
 10
93.525664566717566
 20
852.24631574029934
 30
0.0
 40
625.24999999999886
 50
267.43091849221742
 51
269.72269300676868
  0
ARC
  5
51
  8
PATTERN_FILL
  6
CONTINUOUS
 62
     7
 10
104.3985277334879
 20
852.15142970093586
 30
0.0
 40
623.24999999999852
 50
266.42166273347527
 51
268.72214887388708
  0
ARC
  5
52
  8
PATTERN_FILL
  6
CONTINUOUS
 62
     7
 10
115.23024204666061
 20
851.86781532447617
 30
0.0
 40
621.24999999999875
 50
265.40859142077261
 51
267.71856625749081
  0
ARC
  5
53
  8
PATTERN_FILL
  6
CONTINUOUS
 62
     7
 10
126.01920499579791
 20
851.39676147264345
 30
0.0
 40
619.24999999999852
 50
264.39149539905219
 51
266.71175476886469
  0
ARC
  5
54
  8
PATTERN_FILL
  6
CONTINUOUS
 62
     7
 10
136.7634206113849
 20
850.73961709413265
 30
0.0
 40
617.24999999999852
 50
263.37019546087191
 51
265.70155592456632
  0
ARC
  5
55
  8
PATTERN_FILL
  6
CONTINUOUS
 62
     7
 10
93.525664566717495
 20
-402.25368425970231
 30
0.0
 40
625.25000000000296
 50
90.277306993232557
 51
92.569081507782684
  0
ARC
  5
56
  8
PATTERN_FILL
  6
CONTINUOUS
 62
     7
 10
104.3985277334878
 20
-402.15879822033889
 30
0.0
 40
623.25000000000296
 50
91.277851126109425
 51
93.578337266524557
  0
ARC
  5
57
  8
PATTERN_FILL
  6
CONTINUOUS
 62
     7
 10
115.23024204666061
 20
-401.87518384387909
 30
0.0
 40
621.2500000000025
 50
92.281433742508653
 51
94.591408579227277
  0
ARC
  5
58
  8
PATTERN_FILL
  6
CONTINUOUS
 62
     7
 10
126.01920499579791
 20
-401.40412999204648
 30
0.0
 40
619.25000000000239
 50
93.28824523114281
 51
95.608504600947697
  0
ARC
  5
59
  8
PATTERN_FILL
  6
CONTINUOUS
 62
     7
 10
136.76342061138479
 20
-400.74698561353563
 30
0.0
 40
617.25000000000296
 50
94.298444075438482
 51
96.629804539128187
  0
ARC
  5
5A
  8
PATTERN_FILL
  6
CONTINUOUS
 62
     7
 10
147.45976036980329
 20
-399.90516541777203
 30
0.0
 40
615.25000000000239
 50
95.31208740913641
 51
97.655387877893503
  0
ARC
  5
5B
  8
PATTERN_FILL
  6
CONTINUOUS
 62
     7
 10
87.473368147329069
 20
224.9963157403005
 30
0.0
 40
10.0
 50
323.38052986997292
 51
36.619470130026798
  0
ARC
  5
5C
  8
PATTERN_FILL
  6
CONTINUOUS
 62
     7
 10
87.473368147329069
 20
224.9963157403005
 30
0.0
 40
12.0
 50
311.97803655026962
 51
48.021963449731651
  0
ARC
  5
5D
  8
PATTERN_FILL
  6
CONTINUOUS
 62
     7
 10
87.473368147329069
 20
224.9963157403005
 30
0.0
 40
13.999999999999989
 50
304.98040819163992
 51
55.019591808360452
  0
ARC
  5
5E
  8
PATTERN_FILL
  6
CONTINUOUS
 62
     7
 10
87.473368147329069
 20
224.9963157403005
 30
0.0
 40
16.000000000000082
 50
300.10818100537381
 51
59.891818994625929
  0
LINE
  5
5F
  8
PATTERN_FILL
  6
CONTINUOUS
 62
     7
 10
119.4995163570488
 20
224.9963157403005
 30
0.0
 11
95.499516357048876
 21
224.9963157403005
 31
0.0
  0
ARC
  5
60
  8
PATTERN_FILL
  6
CONTINUOUS
 62
     7
 10
93.473368147329154
 20
852.24631574029934
 30
0.0
 40
625.24999999999886
 50
270.18567084273599
 51
272.38563679325227
  0
ARC
  5
61
  8
PATTERN_FILL
  6
CONTINUOUS
 62
     7
 10
82.600504980558867
 20
852.15142970093586
 30
0.0
 40
623.24999999999875
 50
271.18594012588829
 51
273.39413500297752
  0
ARC
  5
62
  8
PATTERN_FILL
  6
CONTINUOUS
 62
     7
 10
71.768790667386099
 20
851.86781532447617
 30
0.0
 40
621.24999999999841
 50
272.1892744134982
 51
274.40638519948288
  0
ARC
  5
63
  8
PATTERN_FILL
  6
CONTINUOUS
 62
     7
 10
60.979827718248892
 20
851.39676147264345
 30
0.0
 40
619.24999999999852
 50
273.19556825659618
 51
275.42259484067671
  0
ARC
  5
64
  8
PATTERN_FILL
  6
CONTINUOUS
 62
     7
 10
50.235612102662571
 20
850.73961709413265
 30
0.0
 40
617.24999999999852
 50
274.20535805374129
 51
276.44294127025648
  0
ARC
  5
65
  8
PATTERN_FILL
  6
CONTINUOUS
 62
     7
 10
93.473368147329083
 20
-402.25368425970231
 30
0.0
 40
625.25000000000296
 50
87.614363206748649
 51
89.814329157264098
  0
ARC
  5
66
  8
PATTERN_FILL
  6
CONTINUOUS
 62
     7
 10
82.600504980558796
 20
-402.15879822033889
 30
0.0
 40
623.25000000000296
 50
86.605864997019808
 51
88.814059874111678
  0
ARC
  5
67
  8
PATTERN_FILL
  6
CONTINUOUS
 62
     7
 10
71.768790667386043
 20
-401.87518384387909
 30
0.0
 40
621.25000000000205
 50
85.593614800517287
 51
87.81086310428509
  0
ARC
  5
68
  8
PATTERN_FILL
  6
CONTINUOUS
 62
     7
 10
60.979827718248771
 20
-401.40412999204648
 30
0.0
 40
619.25000000000273
 50
84.577405159326233
 51
86.804427558671733
  0
ARC
  5
69
  8
PATTERN_FILL
  6
CONTINUOUS
 62
     7
 10
50.235612102662458
 20
-400.74698561353563
 30
0.0
 40
617.25000000000296
 50
83.557058729743659
 51
85.794636386217547
  0
ARC
  5
6A
  8
PATTERN_FILL
  6
CONTINUOUS
 62
     7
 10
39.539272344244068
 20
-399.90516541777203
 30
0.0
 40
615.25000000000193
 50
82.532498028661152
 51
84.781433232558825
  0
ARC
  5
6B
  8
PATTERN_FILL
  6
CONTINUOUS
 62
     7
 10
99.525664566717623
 20
224.9963157403005
 30
0.0
 40
18.0
 50
120.0961550521934
 51
239.9038449478069
  0
ARC
  5
6C
  8
PATTERN_FILL
  6
CONTINUOUS
 62
     7
 10
99.525664566717623
 20
224.9963157403005
 30
0.0
 40
19.999999999999972
 50
116.8275970354827
 51
243.172402964518
  0
ARC
  5
6D
  8
PATTERN_FILL
  6
CONTINUOUS
 62
     7
 10
99.525664566717623
 20
224.9963157403005
 30
0.0
 40
22.0
 50
114.2223915050597
 51
245.77760849494101
  0
ARC
  5
6E
  8
PATTERN_FILL
  6
CONTINUOUS
 62
     7
 10
99.525664566717623
 20
224.9963157403005
 30
0.0
 40
23.999999999999972
 50
112.09166714295711
 51
247.90833285704369
  0
ARC
  5
6F
  8
PATTERN_FILL
  6
CONTINUOUS
 62
     7
 10
99.525664566717623
 20
224.9963157403005
 30
0.0
 40
26.0
 50
116.1196507462721
 51
243.8803492537302
  0
ARC
  5
70
  8
PATTERN_FILL
  6
CONTINUOUS
 62
     7
 10
99.525664566717623
 20
224.9963157403005
 30
0.0
 40
27.999999999999972
 50
125.57826457755171
 51
234.42173542244751
  0
ARC
  5
71
  8
PATTERN_FILL
  6
CONTINUOUS
 62
     7
 10
99.525664566717623
 20
224.9963157403005
 30
0.0
 40
29.99999999999995
 50
132.79646072188081
 51
227.203539278119
  0
ARC
  5
72
  8
PATTERN_FILL
  6
CONTINUOUS
 62
     7
 10
99.525664566717623
 20
224.9963157403005
 30
0.0
 40
31.999999999999929
 50
138.72730141370411
 51
221.2726985862968
  0
ARC
  5
73
  8
PATTERN_FILL
  6
CONTINUOUS
 62
     7
 10
99.525664566717623
 20
224.9963157403005
 30
0.0
 40
33.999999999999979
 50
143.8055898540851
 51
216.1944101459159
  0
ARC
  5
74
  8
PATTERN_FILL
  6
CONTINUOUS
 62
     7
 10
147.4597603698034
 20
849.89779689836894
 30
0.0
 40
615.24999999999829
 50
262.34461212210641
 51
264.68791259085879
  0
ARC
  5
75
  8
PATTERN_FILL
  6
CONTINUOUS
 62
     7
 10
158.10506157986299
 20
848.87277097707624
 30
0.0
 40
613.24999999999875
 50
261.40900860588329
 51
263.67076796915148
  0
ARC
  5
76
  8
PATTERN_FILL
  6
CONTINUOUS
 62
     7
 10
168.69619826403891
 20
847.66606337635881
 30
0.0
 40
611.24999999999875
 50
260.72493061534868
 51
262.65005888817728
  0
ARC
  5
77
  8
PATTERN_FILL
  6
CONTINUOUS
 62
     7
 10
179.23008207513209
 20
846.27925126333264
 30
0.0
 40
609.24999999999886
 50
260.1576533811309
 51
261.62571552077441
  0
ARC
  5
78
  8
PATTERN_FILL
  6
CONTINUOUS
 62
     7
 10
189.70366319502989
 20
844.71396407725263
 30
0.0
 40
607.24999999999909
 50
259.65873998124749
 51
260.59766106645469
  0
ARC
  5
79
  8
PATTERN_FILL
  6
CONTINUOUS
 62
     7
 10
200.11393121530469
 20
842.97188266550302
 30
0.0
 40
605.24999999999875
 50
259.2768125445578
 51
259.5658113966349
  0
ARC
  5
7A
  8
PATTERN_FILL
  6
CONTINUOUS
 62
     7
 10
99.525664566717623
 20
224.9963157403005
 30
0.0
 40
35.999999999999979
 50
148.2740141539561
 51
160.93888775291131
  0
ARC
  5
7B
  8
PATTERN_FILL
  6
CONTINUOUS
 62
     7
 10
99.525664566717623
 20
224.9963157403005
 30
0.0
 40
35.999999999999957
 50
199.0611122470886
 51
211.72598584604401
  0
ARC
  5
7C
  8
PATTERN_FILL
  6
CONTINUOUS
 62
     7
 10
158.10506157986291
 20
-398.88013949647922
 30
0.0
 40
613.25000000000273
 50
96.329232030852907
 51
98.590991394120877
  0
ARC
  5
7D
  8
PATTERN_FILL
  6
CONTINUOUS
 62
     7
 10
168.6961982640388
 20
-397.67343189576172
 30
0.0
 40
611.25000000000227
 50
97.349941111825785
 51
99.275069384649413
  0
ARC
  5
7E
  8
PATTERN_FILL
  6
CONTINUOUS
 62
     7
 10
179.230082075132
 20
-396.28661978273573
 30
0.0
 40
609.25000000000193
 50
98.37428447922494
 51
99.842346618860773
  0
ARC
  5
7F
  8
PATTERN_FILL
  6
CONTINUOUS
 62
     7
 10
189.7036631950298
 20
-394.7213325966556
 30
0.0
 40
607.25000000000227
 50
99.402338933542197
 51
100.3412600187503
  0
ARC
  5
80
  8
PATTERN_FILL
  6
CONTINUOUS
 62
     7
 10
200.1139312153046
 20
-392.97925118490622
 30
0.0
 40
605.2500000000025
 50
100.4341886033629
 51
100.72318745544921
  0
ARC
  5
81
  8
PATTERN_FILL
  6
CONTINUOUS
 62
     7
 10
87.473368147329069
 20
224.9963157403005
 30
0.0
 40
18.000000000000291
 50
296.48075071633332
 51
63.519249283666163
  0
ARC
  5
82
  8
PATTERN_FILL
  6
CONTINUOUS
 62
     7
 10
87.473368147329069
 20
224.9963157403005
 30
0.0
 40
20.000000000000441
 50
293.65993649619821
 51
66.340063503800451
  0
ARC
  5
83
  8
PATTERN_FILL
  6
CONTINUOUS
 62
     7
 10
87.473368147329069
 20
224.9963157403005
 30
0.0
 40
22.000000000000639
 50
291.39680829652917
 51
68.603191703469605
  0
ARC
  5
84
  8
PATTERN_FILL
  6
CONTINUOUS
 62
     7
 10
87.473368147329069
 20
224.9963157403005
 30
0.0
 40
24.000000000000799
 50
289.51692093162723
 51
70.462554901147058
  0
ARC
  5
85
  8
PATTERN_FILL
  6
CONTINUOUS
 62
     7
 10
87.473368147329069
 20
224.9963157403005
 30
0.0
 40
26.000000000000821
 50
294.84235834270442
 51
65.157641657293695
  0
ARC
  5
86
  8
PATTERN_FILL
  6
CONTINUOUS
 62
     7
 10
87.473368147329069
 20
224.9963157403005
 30
0.0
 40
28.00000000000059
 50
307.36533518297739
 51
52.595151845834287
  0
ARC
  5
87
  8
PATTERN_FILL
  6
CONTINUOUS
 62
     7
 10
87.473368147329069
 20
224.9963157403005
 30
0.0
 40
30.00000000000049
 50
315.06755832870982
 51
44.932441671286142
  0
ARC
  5
88
  8
PATTERN_FILL
  6
CONTINUOUS
 62
     7
 10
87.473368147329069
 20
224.9963157403005
 30
0.0
 40
32.000000000000377
 50
320.57863634672719
 51
39.421363653267591
  0
ARC
  5
89
  8
PATTERN_FILL
  6
CONTINUOUS
 62
     7
 10
28.89397113418454
 20
-398.88013949647922
 30
0.0
 40
613.25000000000239
 50
81.503644170293242
 51
83.764762147147977
  0
ARC
  5
8A
  8
PATTERN_FILL
  6
CONTINUOUS
 62
     7
 10
18.302834450008611
 20
-397.67343189576201
 30
0.0
 40
611.25000000000216
 50
80.781118001525755
 51
82.744560880618096
  0
ARC
  5
8B
  8
PATTERN_FILL
  6
CONTINUOUS
 62
     7
 10
87.473368147329069
 20
224.9963157403005
 30
0.0
 40
34.000000000000291
 50
324.90337528364262
 51
340.3808932699817
  0
ARC
  5
8C
  8
PATTERN_FILL
  6
CONTINUOUS
 62
     7
 10
87.473368147329069
 20
224.9963157403005
 30
0.0
 40
36.00000000000027
 50
328.45208590295209
 51
332.82493637419788
  0
ARC
  5
8D
  8
PATTERN_FILL
  6
CONTINUOUS
 62
     7
 10
7.7689506389154968
 20
-396.28661978273573
 30
0.0
 40
609.25000000000205
 50
80.29566481041843
 51
81.720760606846483
  0
ARC
  5
8E
  8
PATTERN_FILL
  6
CONTINUOUS
 62
     7
 10
-2.704630480981904
 20
-394.7213325966556
 30
0.0
 40
607.25000000000205
 50
79.77978633378963
 51
80.693285611390408
  0
ARC
  5
8F
  8
PATTERN_FILL
  6
CONTINUOUS
 62
     7
 10
-13.11489850125667
 20
-392.97925118490622
 30
0.0
 40
605.25000000000205
 50
79.241478767690253
 51
79.662052943221653
  0
ARC
  5
90
  8
PATTERN_FILL
  6
CONTINUOUS
 62
     7
 10
39.539272344244132
 20
849.89779689836894
 30
0.0
 40
615.24999999999829
 50
275.21855979541789
 51
277.46750197133667
  0
ARC
  5
91
  8
PATTERN_FILL
  6
CONTINUOUS
 62
     7
 10
28.893971134184639
 20
848.87277097707624
 30
0.0
 40
613.24999999999875
 50
276.23522942772172
 51
278.4963558297116
  0
ARC
  5
92
  8
PATTERN_FILL
  6
CONTINUOUS
 62
     7
 10
18.302834450008731
 20
847.66606337635881
 30
0.0
 40
611.24999999999852
 50
277.25542919527192
 51
279.21888199847052
  0
ARC
  5
93
  8
PATTERN_FILL
  6
CONTINUOUS
 62
     7
 10
7.7689506389156131
 20
846.27925126333264
 30
0.0
 40
609.24999999999875
 50
278.27922791910117
 51
279.7043351895843
  0
ARC
  5
94
  8
PATTERN_FILL
  6
CONTINUOUS
 62
     7
 10
-2.704630480981848
 20
844.71396407725263
 30
0.0
 40
607.24999999999898
 50
279.30670130818532
 51
280.22021366622272
  0
ARC
  5
95
  8
PATTERN_FILL
  6
CONTINUOUS
 62
     7
 10
-13.11489850125662
 20
842.97188266550302
 30
0.0
 40
605.24999999999852
 50
280.33794705672659
 51
280.75852123232482
  0
ARC
  5
96
  8
PATTERN_FILL
  6
CONTINUOUS
 62
     7
 10
87.473368147329069
 20
224.9963157403005
 30
0.0
 40
33.999999999999943
 50
19.61910673001832
 51
35.096624716351577
  0
ARC
  5
97
  8
PATTERN_FILL
  6
CONTINUOUS
 62
     7
 10
87.473368147329069
 20
224.9963157403005
 30
0.0
 40
35.999999999999957
 50
27.175063625801329
 51
31.547914097046149
  0
LINE
  5
98
  8
PATTERN_FILL
  6
CONTINUOUS
 62
     7
 10
471.19283403506921
 20
213.59284403506919
 30
0.0
 11
461.25716596493061
 21
203.65717596493059
 31
0.0
  0
LINE
  5
99
  8
PATTERN_FILL
  6
CONTINUOUS
 62
     7
 10
427.07682888890389
 20
216.8132720938049
 30
0.0
 11
441.66329025042938
 21
202.22682876688529
 31
0.0
  0
LINE
  5
9A
  8
PATTERN_FILL
  6
CONTINUOUS
 62
     7
 10
431.68218999999988
 20
219.08219999999989
 30
0.0
 11
427.7467530686248
 21
215.14676306862481
 31
0.0
  0
LINE
  5
9B
  8
PATTERN_FILL
  6
CONTINUOUS
 62
     7
 10
433.20067999999998
 20
215.60075999999989
 30
0.0
 11
429.50135173697288
 21
211.90144084655449
 31
0.0
  0
LINE
  5
9C
  8
PATTERN_FILL
  6
CONTINUOUS
 62
     7
 10
437.75038000000001
 20
210.15043999999989
 30
0.0
 11
434.16833088901291
 21
206.56837269091889
 31
0.0
  0
LINE
  5
9D
  8
PATTERN_FILL
  6
CONTINUOUS
 62
     7
 10
435.24115999999992
 20
212.64121999999989
 30
0.0
 11
431.65001325042721
 21
209.05007325042709
 31
0.0
  0
LINE
  5
9E
  8
PATTERN_FILL
  6
CONTINUOUS
 62
     7
 10
440.79856999999998
 20
208.09152999999989
 30
0.0
 11
448.02087424514082
 21
200.86923506480761
 31
0.0
  0
LINE
  5
9F
  8
PATTERN_FILL
  6
CONTINUOUS
 62
     7
 10
440.72931999999992
 20
208.12940999999989
 30
0.0
 11
437.0574917445702
 21
204.45757264376701
 31
0.0
  0
LINE
  5
A0
  8
PATTERN_FILL
  6
CONTINUOUS
 62
     7
 10
444.23387999999989
 20
206.63387999999989
 30
0.0
 11
440.34483759854049
 21
202.744855816713
 31
0.0
  0
LINE
  5
A1
  8
PATTERN_FILL
  6
CONTINUOUS
 62
     7
 10
448.41530999999992
 20
205.81534999999991
 30
0.0
 11
444.09439334892028
 21
201.4944150898929
 31
0.0
  0
LINE
  5
A2
  8
PATTERN_FILL
  6
CONTINUOUS
 62
     7
 10
448.04007000000001
 20
205.85003999999989
 30
0.0
 11
452.8974617236579
 21
200.99265743786131
 31
0.0
  0
LINE
  5
A3
  8
PATTERN_FILL
  6
CONTINUOUS
 62
     7
 10
452.91770999999989
 20
205.97240999999991
 30
0.0
 11
457.00742784032809
 21
201.88267393568449
 31
0.0
  0
LINE
  5
A4
  8
PATTERN_FILL
  6
CONTINUOUS
 62
     7
 10
453.71107999999992
 20
206.11111999999989
 30
0.0
 11
448.44103910689972
 21
200.84106074301209
 31
0.0
  0
LINE
  5
A5
  8
PATTERN_FILL
  6
CONTINUOUS
 62
     7
 10
456.87177999999989
 20
207.0183199999999
 30
0.0
 11
460.58084674445348
 21
203.30925325554639
 31
0.0
  0
LINE
  5
A6
  8
PATTERN_FILL
  6
CONTINUOUS
 62
     7
 10
460.20960999999988
 20
208.68049999999991
 30
0.0
 11
463.72057159161852
 21
205.16954748089131
 31
0.0
  0
LINE
  5
A7
  8
PATTERN_FILL
  6
CONTINUOUS
 62
     7
 10
463.04552999999999
 20
210.84456999999989
 30
0.0
 11
466.47529691857682
 21
207.41480308142309
 31
0.0
  0
LINE
  5
A8
  8
PATTERN_FILL
  6
CONTINUOUS
 62
     7
 10
465.41717
 20
213.47294999999991
 30
0.0
 11
468.86238791213918
 21
210.0277320878607
 31
0.0
  0
LINE
  5
A9
  8
PATTERN_FILL
  6
CONTINUOUS
 62
     7
 10
467.31060999999988
 20
216.57949999999991
 30
0.0
 11
470.87426606734152
 21
213.01584393265841
 31
0.0
  0
LINE
  5
AA
  8
PATTERN_FILL
  6
CONTINUOUS
 62
     7
 10
473.74020729475342
 20
221.1402178535607
 30
0.0
 11
453.70976962549241
 21
201.109799066688
 31
0.0
  0
LINE
  5
AB
  8
PATTERN_FILL
  6
CONTINUOUS
 62
     7
 10
455.31530628494141
 20
248.57479371505841
 30
0.0
 11
473.4247837150586
 21
230.46531628494139
 31
0.0
  0
LINE
  5
AC
  8
PATTERN_FILL
  6
CONTINUOUS
 62
     7
 10
459.70324693137508
 20
247.103256931375
 30
0.0
 11
455.9178
 21
243.31780999999989
 31
0.0
  0
LINE
  5
AD
  8
PATTERN_FILL
  6
CONTINUOUS
 62
     7
 10
468.65177
 20
220.23833999999991
 30
0.0
 11
472.47578035871197
 21
216.4143205600476
 31
0.0
  0
LINE
  5
AE
  8
PATTERN_FILL
  6
CONTINUOUS
 62
     7
 10
474.00894989821222
 20
226.40895989821209
 30
0.0
 11
468.88887999999992
 21
221.2888899999999
 31
0.0
  0
LINE
  5
AF
  8
PATTERN_FILL
  6
CONTINUOUS
 62
     7
 10
469.24669
 20
224.6434099999999
 30
0.0
 11
473.589353815761
 21
220.3007461842389
 31
0.0
  0
LINE
  5
B0
  8
PATTERN_FILL
  6
CONTINUOUS
 62
     7
 10
473.3555990096736
 20
230.75559990863999
 30
0.0
 11
469.18464999999992
 21
226.5846599999999
 31
0.0
  0
LINE
  5
B1
  8
PATTERN_FILL
  6
CONTINUOUS
 62
     7
 10
468.47169000000002
 20
230.41842999999989
 30
0.0
 11
474.04947519689119
 21
224.84063561358209
 31
0.0
  0
LINE
  5
B2
  8
PATTERN_FILL
  6
CONTINUOUS
 62
     7
 10
472.10515664280427
 20
234.5051666428042
 30
0.0
 11
468.36612000000002
 21
230.76612999999989
 31
0.0
  0
LINE
  5
B3
  8
PATTERN_FILL
  6
CONTINUOUS
 62
     7
 10
470.39246804340343
 20
237.79246897729399
 30
0.0
 11
466.87061999999992
 21
234.2706299999999
 31
0.0
  0
LINE
  5
B4
  8
PATTERN_FILL
  6
CONTINUOUS
 62
     7
 10
468.24504000000002
 20
240.64505999999989
 30
0.0
 11
464.84957000000003
 21
237.2495899999999
 31
0.0
  0
LINE
  5
B5
  8
PATTERN_FILL
  6
CONTINUOUS
 62
     7
 10
465.74504946090917
 20
243.14505053909059
 30
0.0
 11
462.35879999999992
 21
239.7588099999999
 31
0.0
  0
LINE
  5
B6
  8
PATTERN_FILL
  6
CONTINUOUS
 62
     7
 10
462.94861671968027
 20
245.34862764422579
 30
0.0
 11
459.39927
 21
241.7992899999999
 31
0.0
  0
LINE
  5
B7
  8
PATTERN_FILL
  6
CONTINUOUS
 62
     7
 10
445.15073618423912
 20
248.7393638157609
 30
0.0
 11
449.64339999999987
 21
244.24669999999989
 31
0.0
  0
LINE
  5
B8
  8
PATTERN_FILL
  6
CONTINUOUS
 62
     7
 10
451.72709117796052
 20
249.12710117796041
 30
0.0
 11
446.53570999999999
 21
243.93571999999989
 31
0.0
  0
LINE
  5
B9
  8
PATTERN_FILL
  6
CONTINUOUS
 62
     7
 10
441.26430989402121
 20
247.62579010597869
 30
0.0
 11
445.23831999999987
 21
243.65177999999989
 31
0.0
  0
LINE
  5
BA
  8
PATTERN_FILL
  6
CONTINUOUS
 62
     7
 10
437.86584030202141
 20
246.0242796979785
 30
0.0
 11
441.57949000000002
 21
242.31062999999989
 31
0.0
  0
LINE
  5
BB
  8
PATTERN_FILL
  6
CONTINUOUS
 62
     7
 10
456.00436290649083
 20
248.40436466350661
 30
0.0
 11
451.76857000000001
 21
244.16858999999991
 31
0.0
  0
LINE
  5
BC
  8
PATTERN_FILL
  6
CONTINUOUS
 62
     7
 10
449.69062559416432
 20
249.19948519676311
 30
0.0
 11
455.41842000000003
 21
243.47169999999991
 31
0.0
  0
LINE
  5
BD
  8
PATTERN_FILL
  6
CONTINUOUS
 62
     7
 10
434.87771699749078
 20
244.01239390346589
 30
0.0
 11
438.47293999999999
 21
240.41717999999989
 31
0.0
  0
LINE
  5
BE
  8
PATTERN_FILL
  6
CONTINUOUS
 62
     7
 10
446.57774691553561
 20
248.97775717839869
 30
0.0
 11
425.87225431889681
 21
228.2722740560238
 31
0.0
  0
LINE
  5
BF
  8
PATTERN_FILL
  6
CONTINUOUS
 62
     7
 10
439.56500882935973
 20
246.90569320367649
 30
0.0
 11
427.99285241876458
 21
235.3877479449082
 31
0.0
  0
LINE
  5
C0
  8
PATTERN_FILL
  6
CONTINUOUS
 62
     7
 10
430.01953786262459
 20
238.8705821373751
 30
0.0
 11
433.68049000000002
 21
235.20962999999989
 31
0.0
  0
LINE
  5
C1
  8
PATTERN_FILL
  6
CONTINUOUS
 62
     7
 10
428.15924627377632
 20
235.73086284533889
 30
0.0
 11
432.01830999999999
 21
231.87178999999989
 31
0.0
  0
LINE
  5
C2
  8
PATTERN_FILL
  6
CONTINUOUS
 62
     7
 10
431.06429000000003
 20
228.4643099999999
 30
0.0
 11
425.72290810019911
 21
223.122928100199
 31
0.0
  0
LINE
  5
C3
  8
PATTERN_FILL
  6
CONTINUOUS
 62
     7
 10
426.73266608311059
 20
232.157444776163
 30
0.0
 11
430.97239999999999
 21
227.91771999999989
 31
0.0
  0
LINE
  5
C4
  8
PATTERN_FILL
  6
CONTINUOUS
 62
     7
 10
430.83139999999997
 20
223.2314299999999
 30
0.0
 11
426.4456394560857
 21
218.84566945608569
 31
0.0
  0
LINE
  5
C5
  8
PATTERN_FILL
  6
CONTINUOUS
 62
     7
 10
425.84264631405648
 20
228.04746287051569
 30
0.0
 11
430.85001999999997
 21
223.0400799999999
 31
0.0
  0
LINE
  5
C6
  8
PATTERN_FILL
  6
CONTINUOUS
 62
     7
 10
425.71922506373483
 20
223.17088425929131
 30
0.0
 11
433.09151999999989
 21
215.7985799999999
 31
0.0
  0
LINE
  5
C7
  8
PATTERN_FILL
  6
CONTINUOUS
 62
     7
 10
432.26479308142308
 20
241.6253069185768
 30
0.0
 11
435.84455999999989
 21
238.0455399999999
 31
0.0
  0
TEXT
  5
C8
  8
SPEC
 62
     7
 10
56.250010000000032
 20
784.17984859999956
 30
0.0
 40
7.3297774609374979
  1
仕様
 41
0.8
 11
56.250010000000032
 21
791.50962606093719
 31
0.0
 73
     3
  0
LINE
  5
C9
  8
SPEC
  6
CONTINUOUS
 62
     7
 10
52.498851223640003
 20
780.00040438818053
 30
0.0
 11
494.99883122363912
 21
780.00040438818053
 31
0.0
  0
LINE
  5
CA
  8
SPEC
  6
CONTINUOUS
 62
     7
 10
52.498851223640003
 20
768.75040438818053
 30
0.0
 11
494.99883122363912
 21
768.75040438818053
 31
0.0
  0
LINE
  5
CB
  8
SPEC
  6
CONTINUOUS
 62
     7
 10
52.498851223640003
 20
757.50040438818053
 30
0.0
 11
494.99883122363912
 21
757.50040438818053
 31
0.0
  0
TEXT
  5
CC
  8
SPEC
 62
     7
 10
152.69885122363951
 20
771.6308139844275
 30
0.0
 40
5.700933749999999
  1
水晶制御PLLシンセサイザー方式
 41
0.8
 11
152.69885122363951
 21
777.33174773442738
 31
0.0
 73
     3
  0
LINE
  5
CD
  8
SPEC
  6
CONTINUOUS
 62
     7
 10
52.498851223640003
 20
780.00040438818053
 30
0.0
 11
52.498851223640003
 21
611.25039438818044
 31
0.0
  0
LINE
  5
CE
  8
SPEC
  6
CONTINUOUS
 62
     7
 10
149.99884122363949
 20
780.00040438818053
 30
0.0
 11
149.99884122363949
 21
611.25039438818044
 31
0.0
  0
LINE
  5
CF
  8
SPEC
  6
CONTINUOUS
 62
     7
 10
494.99883122363912
 20
780.00040438818053
 30
0.0
 11
494.99883122363912
 21
611.25039438818044
 31
0.0
  0
TEXT
  5
D0
  8
SPEC
 62
     7
 10
55.198841223639967
 20
771.55461495545808
 30
0.0
 40
5.700933749999999
  1
発振方式
 41
0.8
 11
55.198841223639967
 21
777.25554870545818
 31
0.0
 73
     3
  0
LINE
  5
D1
  8
SPEC
  6
CONTINUOUS
 62
     7
 10
52.498851223640003
 20
723.75039438818055
 30
0.0
 11
494.99883122363912
 21
723.75039438818055
 31
0.0
  0
LINE
  5
D2
  8
SPEC
  6
CONTINUOUS
 62
     7
 10
52.498851223640003
 20
712.50039438818055
 30
0.0
 11
494.99883122363912
 21
712.50039438818055
 31
0.0
  0
LINE
  5
D3
  8
SPEC
  6
CONTINUOUS
 62
     7
 10
52.498851223640003
 20
690.00039438818055
 30
0.0
 11
494.99883122363912
 21
690.00039438818055
 31
0.0
  0
LINE
  5
D4
  8
SPEC
  6
CONTINUOUS
 62
     7
 10
52.498851223640003
 20
701.25039438818055
 30
0.0
 11
494.99883122363912
 21
701.25039438818055
 31
0.0
  0
TEXT
  5
D5
  8
SPEC
 62
     7
 10
154.42100054446229
 20
760.20859905234533
 30
0.0
 40
5.700933749999999
  1
F3E
 41
0.8
 11
154.42100054446229
 21
765.90953280234532
 31
0.0
 73
     3
  0
TEXT
  5
D6
  8
SPEC
 62
     7
 10
55.158800699341953
 20
760.46477705265011
 30
0.0
 40
5.700933749999999
  1
電波型式
 41
0.8
 11
55.158800699341953
 21
766.1657108026501
 31
0.0
 73
     3
  0
TEXT
  5
D7
  8
SPEC
 62
     7
 10
153.0863348208247
 20
748.61415918818045
 30
0.0
 40
5.700933749999999
  1
U2/SM87-JBX:B型 (806～810MHz)30チャンネルのうち任意の1チャンネル
 41
0.8
 11
153.0863348208247
 21
754.31509293818056
 31
0.0
 73
     3
  0
TEXT
  5
D8
  8
SPEC
 62
     7
 10
55.198841223639967
 20
748.61415918818045
 30
0.0
 40
5.700933749999999
  1
送信周波数
 41
0.8
 11
55.198841223639967
 21
754.31509293818056
 31
0.0
 73
     3
  0
TEXT
  5
D9
  8
SPEC
 62
     7
 10
152.69885122363951
 20
714.86415918818045
 30
0.0
 40
5.700933749999999
  1
10mW
 41
0.8
 11
152.69885122363951
 21
720.56509293818056
 31
0.0
 73
     3
  0
TEXT
  5
DA
  8
SPEC
 62
     7
 10
55.158800699341953
 20
715.50480757694811
 30
0.0
 40
5.700933749999999
  1
空中線電力
 41
0.8
 11
55.158800699341953
 21
721.2057413269481
 31
0.0
 73
     3
  0
TEXT
  5
DB
  8
SPEC
 62
     7
 10
152.69885122363951
 20
703.92600132519533
 30
0.0
 40
5.700933749999999
  1
約100m(標準環境における最大値)
 41
0.8
 11
152.69885122363951
 21
709.62693507519532
 31
0.0
 73
     3
  0
TEXT
  5
DC
  8
SPEC
 62
     7
 10
55.198841223639967
 20
704.25480757694811
 30
0.0
 40
5.700933749999999
  1
到達距離
 41
0.8
 11
55.198841223639967
 21
709.95574132694799
 31
0.0
 73
     3
  0
TEXT
  5
DD
  8
SPEC
 62
     7
 10
154.38279876352021
 20
692.80073818000119
 30
0.0
 40
5.700933749999999
  1
32.768kHz
 41
0.8
 11
154.38279876352021
 21
698.50167193000118
 31
0.0
 73
     3
  0
TEXT
  5
DE
  8
SPEC
 62
     7
 10
54.758395456361882
 20
692.76456443116012
 30
0.0
 40
5.700933749999999
  1
トーン信号周波数
 41
0.8
 11
54.758395456361882
 21
698.46549818116011
 31
0.0
 73
     3
  0
TEXT
  5
DF
  8
SPEC
 62
     7
 10
154.38279876352021
 20
681.67547503480728
 30
0.0
 40
5.700933749999999
  1
50～15,000Hz ±2dB(システム全体の帯域はマイクヘッドにより変動)
 41
0.8
 11
154.38279876352021
 21
687.37640878480738
 31
0.0
 73
     3
  0
TEXT
  5
E0
  8
SPEC
 62
     7
 10
55.118760175043938
 20
681.59464547975608
 30
0.0
 40
5.700933749999999
  1
周波数特性 
 41
0.8
 11
55.118760175043938
 21
687.29557922975607
 31
0.0
 73
     3
  0
TEXT
  5
E1
  8
SPEC
 62
     7
 10
154.3204303361172
 20
670.55021188961325
 30
0.0
 40
5.700933749999999
  1
0～26dB
 41
0.8
 11
154.3204303361172
 21
676.25114563961324
 31
0.0
 73
     3
  0
TEXT
  5
E2
  8
SPEC
 62
     7
 10
55.198841223639967
 20
670.18448338256417
 30
0.0
 40
5.700933749999999
  1
ゲイン調整範囲
 41
0.8
 11
55.198841223639967
 21
675.88541713256416
 31
0.0
 73
     3
  0
LINE
  5
E3
  8
SPEC
  6
CONTINUOUS
 62
     7
 10
52.498851223640003
 20
667.50039438818044
 30
0.0
 11
494.99883122363912
 21
667.50039438818044
 31
0.0
  0
TEXT
  5
E4
  8
SPEC
 62
     7
 10
152.69885122363951
 20
647.73836975259837
 30
0.0
 40
5.700933749999999
  1
単3形アルカリ乾電池×2
 41
0.8
 11
152.69885122363951
 21
653.43930350259825
 31
0.0
 73
     3
  0
TEXT
  5
E5
  8
SPEC
 62
     7
 10
55.198841223639967
 20
647.88468600405452
 30
0.0
 40
5.700933749999999
  1
使用電池
 41
0.8
 11
55.198841223639967
 21
653.58561975405451
 31
0.0
 73
     3
  0
TEXT
  5
E6
  8
SPEC
 62
     7
 10
152.69885122363951
 20
636.36363289779217
 30
0.0
 40
5.700933749999999
  1
約12時間(Dracell MN1500 1.5V単3形アルカリ乾電池　使用時)
 41
0.8
 11
152.69885122363951
 21
642.06456664779228
 31
0.0
 73
     3
  0
TEXT
  5
E7
  8
SPEC
 62
     7
 10
55.198841223639967
 20
636.59464547975642
 30
0.0
 40
5.700933749999999
  1
バッテリー・ライフ
 41
0.8
 11
55.198841223639967
 21
642.29557922975641
 31
0.0
 73
     3
  0
LINE
  5
E8
  8
SPEC
  6
CONTINUOUS
 62
     7
 10
52.498851223640003
 20
633.75039438818044
 30
0.0
 11
494.99883122363912
 21
633.75039438818044
 31
0.0
  0
TEXT
  5
E9
  8
SPEC
 62
     7
 10
152.69885122363951
 20
602.73836975259837
 30
0.0
 40
5.700933749999999
  1
Φ50×239mm(アンテナ部含まず)
 41
0.8
 11
152.69885122363951
 21
608.43930350259825
 31
0.0
 73
     3
  0
TEXT
  5
EA
  8
SPEC
 62
     7
 10
55.198841223639967
 20
603.04484810124654
 30
0.0
 40
5.700933749999999
  1
寸法(W+H+D)
 41
0.8
 11
55.198841223639967
 21
608.74578185124653
 31
0.0
 73
     3
  0
TEXT
  5
EB
  8
SPEC
 62
     7
 10
152.69885122363951
 20
591.86258031701607
 30
0.0
 40
5.700933749999999
  1
約334g(除乾電池)
 41
0.8
 11
152.69885122363951
 21
597.56351406701617
 31
0.0
 73
     3
  0
TEXT
  5
EC
  8
SPEC
 62
     7
 10
55.198841223639967
 20
592.07513177133251
 30
0.0
 40
5.700933749999999
  1
質量
 41
0.8
 11
55.198841223639967
 21
597.77606552133261
 31
0.0
 73
     3
  0
LINE
  5
ED
  8
SPEC
  6
CONTINUOUS
 62
     7
 10
52.498851223640003
 20
622.50039438818044
 30
0.0
 11
494.99883122363912
 21
622.50039438818044
 31
0.0
  0
LINE
  5
EE
  8
SPEC
  6
CONTINUOUS
 62
     7
 10
52.498851223640003
 20
611.25039438818044
 30
0.0
 11
494.99883122363912
 21
611.25039438818044
 31
0.0
  0
LINE
  5
EF
  8
SPEC
  6
CONTINUOUS
 62
     7
 10
52.498851223640003
 20
656.25039438818044
 30
0.0
 11
494.99883122363912
 21
656.25039438818044
 31
0.0
  0
TEXT
  5
F0
  8
SPEC
 62
     7
 10
154.07095662650519
 20
625.23836975259826
 30
0.0
 40
5.700933749999999
  1
SM87ヘッド
 41
0.8
 11
154.07095662650519
 21
630.93930350259825
 31
0.0
 73
     3
  0
TEXT
  5
F1
  8
SPEC
 62
     7
 10
55.198841223639967
 20
625.62492914984239
 30
0.0
 40
5.700933749999999
  1
マイク部
 41
0.8
 11
55.198841223639967
 21
631.32586289984249
 31
0.0
 73
     3
  0
LINE
  5
F2
  8
SPEC
  6
CONTINUOUS
 62
     7
 10
52.498851223640003
 20
645.00039438818044
 30
0.0
 11
494.99883122363912
 21
645.00039438818044
 31
0.0
  0
TEXT
  5
F3
  8
SPEC
 62
     7
 10
152.69885122363951
 20
614.17547503480728
 30
0.0
 40
5.700933749999999
  1
黒(ボディ本体)
 41
0.8
 11
152.69885122363951
 21
619.87640878480715
 31
0.0
 73
     3
  0
TEXT
  5
F4
  8
SPEC
 62
     7
 10
55.198841223639967
 20
614.1346860040544
 30
0.0
 40
5.700933749999999
  1
外装
 41
0.8
 11
55.198841223639967
 21
619.83561975405451
 31
0.0
 73
     3
  0
LINE
  5
F5
  8
SPEC
  6
CONTINUOUS
 62
     7
 10
52.498851223640003
 20
678.75039438818044
 30
0.0
 11
494.99883122363912
 21
678.75039438818044
 31
0.0
  0
TEXT
  5
F6
  8
SPEC
 62
     7
 10
154.38279876352021
 20
659.05073818000108
 30
0.0
 40
5.700933749999999
  1
1/4波長ヘリカル
 41
0.8
 11
154.38279876352021
 21
664.75167193000107
 31
0.0
 73
     3
  0
TEXT
  5
F7
  8
SPEC
 62
     7
 10
55.198841223639967
 20
659.05460495545833
 30
0.0
 40
5.700933749999999
  1
アンテナ
 41
0.8
 11
55.198841223639967
 21
664.75553870545832
 31
0.0
 73
     3
  0
LINE
  5
F8
  8
SPEC
  6
CONTINUOUS
 62
     7
 10
52.498851223640003
 20
600.00039438818044
 30
0.0
 11
494.99883122363912
 21
600.00039438818044
 31
0.0
  0
LINE
  5
F9
  8
SPEC
  6
CONTINUOUS
 62
     7
 10
52.498851223640003
 20
588.75039438818044
 30
0.0
 11
494.99883122363912
 21
588.75039438818044
 31
0.0
  0
LINE
  5
FA
  8
SPEC
  6
CONTINUOUS
 62
     7
 10
52.498851223640003
 20
588.75039438818044
 30
0.0
 11
52.498851223640003
 21
611.20037438818042
 31
0.0
  0
LINE
  5
FB
  8
SPEC
  6
CONTINUOUS
 62
     7
 10
149.99884122363949
 20
611.25039438818044
 30
0.0
 11
149.99884122363949
 21
588.75039438818044
 31
0.0
  0
LINE
  5
FC
  8
SPEC
  6
CONTINUOUS
 62
     7
 10
494.99883122363912
 20
588.75039438818044
 30
0.0
 11
494.99883122363912
 21
611.25039438818044
 31
0.0
  0
TEXT
  5
FD
  8
SPEC
 62
     7
 10
197.6852833041184
 20
726.86275542934902
 30
0.0
 40
5.700933749999999
  1
合計142チャンネルのうち任意の1チャンネル
 41
0.8
 11
197.6852833041184
 21
732.5636891793489
 31
0.0
 73
     3
  0
TEXT
  5
FE
  8
SPEC
 62
     7
 10
153.0863348208247
 20
737.36415918818045
 30
0.0
 40
5.700933749999999
  1
U2/SM87-A24:A型 (797～806MHz)71チャンネルとA2型(779～788MHz)71チャンネル
 41
0.8
 11
153.0863348208247
 21
743.06509293818056
 31
0.0
 73
     3
  0
LINE
  5
FF
  8
SPEC
  6
CONTINUOUS
 62
     7
 10
52.500010000000032
 20
777.0
 30
0.0
 11
52.500010000000032
 21
770.5
 31
0.0
  0
TEXT
  5
100
  8
DIMNSIONS
 62
     7
 10
240.00001
 20
66.808478599999916
 30
0.0
 40
7.3297774609374979
  1
(単位：mm)
 41
0.8
 11
240.00001
 21
74.138256060937408
 31
0.0
 73
     3
  0
LINE
  5
101
  8
DIMNSIONS
  6
CONTINUOUS
 62
     7
 10
304.5
 20
248.00000997764809
 30
0.0
 11
304.5
 21
281.00000997764801
 31
0.0
  0
LINE
  5
102
  8
DIMNSIONS
  6
CONTINUOUS
 62
     7
 10
345.49999000000008
 20
231.00000997764809
 30
0.0
 11
345.49999000000008
 21
281.00000997764801
 31
0.0
  0
LINE
  5
103
  8
DIMNSIONS
  6
CONTINUOUS
 62
     7
 10
304.5
 20
275.0000099999998
 30
0.0
 11
345.49999000000008
 21
275.0000099999998
 31
0.0
  0
LINE
  5
104
  8
DIMNSIONS
  6
CONTINUOUS
 62
     7
 10
304.5
 20
275.0000099999998
 30
0.0
 11
314.02499999999998
 21
277.5522260579063
 31
0.0
  0
LINE
  5
105
  8
DIMNSIONS
  6
CONTINUOUS
 62
     7
 10
304.5
 20
275.0000099999998
 30
0.0
 11
314.02499999999998
 21
272.44779394209343
 31
0.0
  0
LINE
  5
106
  8
DIMNSIONS
  6
CONTINUOUS
 62
     7
 10
345.49999000000008
 20
275.0000099999998
 30
0.0
 11
335.97498999999999
 21
272.44779394209343
 31
0.0
  0
LINE
  5
107
  8
DIMNSIONS
  6
CONTINUOUS
 62
     7
 10
345.49999000000008
 20
275.0000099999998
 30
0.0
 11
335.97498999999999
 21
277.5522260579063
 31
0.0
  0
TEXT
  5
108
  8
DIMNSIONS
 62
     7
 10
319.70832833333333
 20
279.48166666666651
 30
0.0
 40
8.1442057291666661
  1
41
 41
0.8
 11
319.70832833333333
 21
287.6258723958332
 31
0.0
 73
     3
  0
LINE
  5
109
  8
DIMNSIONS
  6
CONTINUOUS
 62
     7
 10
348.49998997764823
 20
228.00000999999989
 30
0.0
 11
368.49998997764823
 21
228.00000999999989
 31
0.0
  0
LINE
  5
10A
  8
DIMNSIONS
  6
CONTINUOUS
 62
     7
 10
348.49998997764823
 20
222.00000999999989
 30
0.0
 11
368.49998997764823
 21
222.00000999999989
 31
0.0
  0
LINE
  5
10B
  8
DIMNSIONS
  6
CONTINUOUS
 62
     7
 10
362.49999000000003
 20
222.00000999999989
 30
0.0
 11
362.49999000000003
 21
228.00000999999989
 31
0.0
  0
LINE
  5
10C
  8
DIMNSIONS
  6
CONTINUOUS
 62
     7
 10
362.49999000000003
 20
228.00000999999989
 30
0.0
 11
362.49999000000003
 21
243.0000100150873
 31
0.0
  0
LINE
  5
10D
  8
DIMNSIONS
  6
CONTINUOUS
 62
     7
 10
362.49999000000003
 20
228.00000999999989
 30
0.0
 11
359.94777394209359
 21
237.5250099999999
 31
0.0
  0
LINE
  5
10E
  8
DIMNSIONS
  6
CONTINUOUS
 62
     7
 10
362.49999000000003
 20
228.00000999999989
 30
0.0
 11
365.05220605790652
 21
237.5250099999999
 31
0.0
  0
LINE
  5
10F
  8
DIMNSIONS
  6
CONTINUOUS
 62
     7
 10
362.49999000000003
 20
222.00000999999989
 30
0.0
 11
362.49999000000003
 21
207.2083433333332
 31
0.0
  0
LINE
  5
110
  8
DIMNSIONS
  6
CONTINUOUS
 62
     7
 10
362.49999000000003
 20
222.00000999999989
 30
0.0
 11
365.05220605790652
 21
212.47500999999991
 31
0.0
  0
LINE
  5
111
  8
DIMNSIONS
  6
CONTINUOUS
 62
     7
 10
362.49999000000003
 20
222.00000999999989
 30
0.0
 11
359.94777394209359
 21
212.47500999999991
 31
0.0
  0
TEXT
  5
112
  8
DIMNSIONS
 62
     7
 10
358.01833333333337
 20
207.2083433333332
 30
0.0
 40
8.1442057291666661
  1
6
 50
90.0
 41
0.8
 11
349.8741276041668
 21
207.2083433333332
 31
0.0
 73
     3
  0
LINE
  5
113
  8
DIMNSIONS
  6
CONTINUOUS
 62
     7
 10
310.49999997764832
 20
242.00000999999989
 30
0.0
 11
330.99998997764823
 21
242.00000999999989
 31
0.0
  0
LINE
  5
114
  8
DIMNSIONS
  6
CONTINUOUS
 62
     7
 10
310.49999997764832
 20
208.00000999999989
 30
0.0
 11
330.99998997764823
 21
208.00000999999989
 31
0.0
  0
LINE
  5
115
  8
DIMNSIONS
  6
CONTINUOUS
 62
     7
 10
324.99999000000008
 20
208.00000999999989
 30
0.0
 11
324.99999000000008
 21
195.66668666666649
 31
0.0
  0
LINE
  5
116
  8
DIMNSIONS
  6
CONTINUOUS
 62
     7
 10
324.99999000000008
 20
242.00000999999989
 30
0.0
 11
324.99999000000008
 21
208.00000999999989
 31
0.0
  0
LINE
  5
117
  8
DIMNSIONS
  6
CONTINUOUS
 62
     7
 10
324.99999000000008
 20
242.00000999999989
 30
0.0
 11
327.55220605790652
 21
232.47500999999991
 31
0.0
  0
LINE
  5
118
  8
DIMNSIONS
  6
CONTINUOUS
 62
     7
 10
324.99999000000008
 20
242.00000999999989
 30
0.0
 11
322.44777394209348
 21
232.47500999999991
 31
0.0
  0
LINE
  5
119
  8
DIMNSIONS
  6
CONTINUOUS
 62
     7
 10
324.99999000000008
 20
208.00000999999989
 30
0.0
 11
322.44777394209348
 21
217.5250099999999
 31
0.0
  0
LINE
  5
11A
  8
DIMNSIONS
  6
CONTINUOUS
 62
     7
 10
324.99999000000008
 20
208.00000999999989
 30
0.0
 11
327.55220605790652
 21
217.5250099999999
 31
0.0
  0
TEXT
  5
11B
  8
DIMNSIONS
 62
     7
 10
320.51833333333337
 20
195.66668666666661
 30
0.0
 40
8.1442057291666661
  1
34
 50
90.0
 41
0.8
 11
312.37412760416669
 21
195.66668666666661
 31
0.0
 73
     3
  0
LINE
  5
11C
  8
DIMNSIONS
  6
CONTINUOUS
 62
     7
 10
463.89428910054522
 20
204.1813555218597
 30
0.0
 11
474.74942823672598
 21
187.89864679936301
 31
0.0
  0
LINE
  5
11D
  8
DIMNSIONS
  6
CONTINUOUS
 62
     7
 10
463.89428910054522
 20
204.1813555218597
 30
0.0
 11
471.3364845113868
 21
197.71195375097821
 31
0.0
  0
LINE
  5
11E
  8
DIMNSIONS
  6
CONTINUOUS
 62
     7
 10
463.89428910054522
 20
204.1813555218597
 30
0.0
 11
467.10471850082132
 21
194.85759153556751
 31
0.0
  0
LINE
  5
11F
  8
DIMNSIONS
  6
CONTINUOUS
 62
     7
 10
474.74942823672598
 20
187.89864679936301
 30
0.0
 11
492.7494282406376
 21
187.89864679936301
 31
0.0
  0
TEXT
  5
120
  8
DIMNSIONS
 62
     7
 10
492.7494282406376
 20
184.088646799363
 30
0.0
 40
8.1442057291666661
  1
φ50
 41
0.8
 11
492.7494282406376
 21
192.23285252852969
 31
0.0
 73
     3
  0
LINE
  5
121
  8
DIMNSIONS
  6
CONTINUOUS
 62
     7
 10
135.50001
 20
249.50000997764809
 30
0.0
 11
135.50001
 21
281.00000997764801
 31
0.0
  0
LINE
  5
122
  8
DIMNSIONS
  6
CONTINUOUS
 62
     7
 10
304.5
 20
248.00000997764809
 30
0.0
 11
304.5
 21
281.00000997764801
 31
0.0
  0
LINE
  5
123
  8
DIMNSIONS
  6
CONTINUOUS
 62
     7
 10
135.50001
 20
275.0000099999998
 30
0.0
 11
304.5
 21
275.0000099999998
 31
0.0
  0
LINE
  5
124
  8
DIMNSIONS
  6
CONTINUOUS
 62
     7
 10
135.50001
 20
275.0000099999998
 30
0.0
 11
145.02501000000001
 21
277.5522260579063
 31
0.0
  0
LINE
  5
125
  8
DIMNSIONS
  6
CONTINUOUS
 62
     7
 10
135.50001
 20
275.0000099999998
 30
0.0
 11
145.02501000000001
 21
272.44779394209343
 31
0.0
  0
LINE
  5
126
  8
DIMNSIONS
  6
CONTINUOUS
 62
     7
 10
304.5
 20
275.0000099999998
 30
0.0
 11
294.97500000000002
 21
272.44779394209343
 31
0.0
  0
LINE
  5
127
  8
DIMNSIONS
  6
CONTINUOUS
 62
     7
 10
304.5
 20
275.0000099999998
 30
0.0
 11
294.97500000000002
 21
277.5522260579063
 31
0.0
  0
TEXT
  5
128
  8
DIMNSIONS
 62
     7
 10
212.06250499999999
 20
279.48167665549067
 30
0.0
 40
8.1442057291666661
  1
169
 41
0.8
 11
212.06250499999999
 21
287.62588238465742
 31
0.0
 73
     3
  0
LINE
  5
129
  8
DIMNSIONS
  6
CONTINUOUS
 62
     7
 10
65.499516357039937
 20
246.13138184369831
 30
0.0
 11
65.499516357039937
 21
281.00000997764801
 31
0.0
  0
LINE
  5
12A
  8
DIMNSIONS
  6
CONTINUOUS
 62
     7
 10
135.50001
 20
249.50000997764809
 30
0.0
 11
135.50001
 21
281.00000997764801
 31
0.0
  0
LINE
  5
12B
  8
DIMNSIONS
  6
CONTINUOUS
 62
     7
 10
65.499516357039937
 20
275.0000099999998
 30
0.0
 11
135.50001
 21
275.0000099999998
 31
0.0
  0
LINE
  5
12C
  8
DIMNSIONS
  6
CONTINUOUS
 62
     7
 10
65.499516357039937
 20
275.0000099999998
 30
0.0
 11
75.024516357039943
 21
277.5522260579063
 31
0.0
  0
LINE
  5
12D
  8
DIMNSIONS
  6
CONTINUOUS
 62
     7
 10
65.499516357039937
 20
275.0000099999998
 30
0.0
 11
75.024516357039943
 21
272.44779394209343
 31
0.0
  0
LINE
  5
12E
  8
DIMNSIONS
  6
CONTINUOUS
 62
     7
 10
135.50001
 20
275.0000099999998
 30
0.0
 11
125.97501
 21
272.44779394209343
 31
0.0
  0
LINE
  5
12F
  8
DIMNSIONS
  6
CONTINUOUS
 62
     7
 10
135.50001
 20
275.0000099999998
 30
0.0
 11
125.97501
 21
277.5522260579063
 31
0.0
  0
TEXT
  5
130
  8
DIMNSIONS
 62
     7
 10
95.208096511853313
 20
279.48167665549067
 30
0.0
 40
8.1442057291666661
  1
70
 41
0.8
 11
95.208096511853313
 21
287.62588238465742
 31
0.0
 73
     3
  0
LINE
  5
131
  8
DIMNSIONS
  6
CONTINUOUS
 62
     7
 10
304.5
 20
248.00000997764809
 30
0.0
 11
304.5
 21
305.99999997764809
 31
0.0
  0
LINE
  5
132
  8
DIMNSIONS
  6
CONTINUOUS
 62
     7
 10
65.49951635704889
 20
245.85964828153789
 30
0.0
 11
65.49951635704889
 21
305.99999997764809
 31
0.0
  0
LINE
  5
133
  8
DIMNSIONS
  6
CONTINUOUS
 62
     7
 10
304.5
 20
299.99999999999989
 30
0.0
 11
65.49951635704889
 21
299.99999999999989
 31
0.0
  0
LINE
  5
134
  8
DIMNSIONS
  6
CONTINUOUS
 62
     7
 10
304.5
 20
299.99999999999989
 30
0.0
 11
294.97500000000002
 21
297.44778394209339
 31
0.0
  0
LINE
  5
135
  8
DIMNSIONS
  6
CONTINUOUS
 62
     7
 10
304.5
 20
299.99999999999989
 30
0.0
 11
294.97500000000002
 21
302.55221605790632
 31
0.0
  0
LINE
  5
136
  8
DIMNSIONS
  6
CONTINUOUS
 62
     7
 10
65.49951635704889
 20
299.99999999999989
 30
0.0
 11
75.024516357048896
 21
302.55221605790632
 31
0.0
  0
LINE
  5
137
  8
DIMNSIONS
  6
CONTINUOUS
 62
     7
 10
65.49951635704889
 20
299.99999999999989
 30
0.0
 11
75.024516357048896
 21
297.44778394209339
 31
0.0
  0
TEXT
  5
138
  8
DIMNSIONS
 62
     7
 10
177.06225817852439
 20
304.48166665549059
 30
0.0
 40
8.1442057291666661
  1
239
 41
0.8
 11
177.06225817852439
 21
312.62587238465733
 31
0.0
 73
     3
  0
CIRCLE
  5
139
  8
DATA
  6
CONTINUOUS
 62
     7
 10
450.0
 20
225.00000999999989
 30
0.0
 40
25.0
  0
TEXT
  5
13A
  8
DATA
 62
     7
 10
441.29998999999992
 20
85.142688599999914
 30
0.0
 40
7.3297774609374979
  1
SHURE
 41
0.8
 11
441.29998999999992
 21
92.472466060937407
 31
0.0
 73
     3
  0
TEXT
  5
13B
  8
DATA
 62
     7
 10
435.7976385763904
 20
75.974061548793031
 30
0.0
 40
5.7009440104166647
  1
ハンドヘルド型送信機 
 41
0.8
 11
435.7976385763904
 21
81.675005559209694
 31
0.0
 73
     3
  0
TEXT
  5
13C
  8
DATA
 62
     7
 10
436.40095539058251
 20
64.375960870469683
 30
0.0
 40
6.5153645833333318
  1
U2/SM87-JBX / U2/SM87-A24
 41
0.8
 11
436.40095539058251
 21
70.89132545380302
 31
0.0
 73
     3
  0
LINE
  5
13D
  8
DATA
  6
CONTINUOUS
 62
     7
 10
229.5
 20
207.50000999999989
 30
0.0
 11
229.5
 21
242.50000999999989
 31
0.0
  0
LINE
  5
13E
  8
DATA
  6
CONTINUOUS
 62
     7
 10
251.50001
 20
207.6447399999999
 30
0.0
 11
251.50001
 21
242.00000999999989
 31
0.0
  0
LINE
  5
13F
  8
DATA
  6
CONTINUOUS
 62
     7
 10
269.50000999999997
 20
207.76316999999989
 30
0.0
 11
269.50000999999997
 21
242.23684999999989
 31
0.0
  0
LINE
  5
140
  8
DATA
  6
CONTINUOUS
 62
     7
 10
284.00000999999997
 20
207.85854999999989
 30
0.0
 11
284.00000999999997
 21
242.14145999999991
 31
0.0
  0
LINE
  5
141
  8
DATA
  6
CONTINUOUS
 62
     7
 10
294.50000999999997
 20
207.93420999999989
 30
0.0
 11
294.50000999999997
 21
242.06579999999991
 31
0.0
  0
LINE
  5
142
  8
DATA
  6
CONTINUOUS
 62
     7
 10
304.5
 20
208.00000999999989
 30
0.0
 11
304.5
 21
242.00000999999989
 31
0.0
  0
LINE
  5
143
  8
DATA
  6
CONTINUOUS
 62
     7
 10
229.5
 20
242.50000999999989
 30
0.0
 11
304.5
 21
242.00000999999989
 31
0.0
  0
LINE
  5
144
  8
DATA
  6
CONTINUOUS
 62
     7
 10
229.5
 20
207.50000999999989
 30
0.0
 11
304.5
 21
208.00000999999989
 31
0.0
  0
LINE
  5
145
  8
DATA
  6
CONTINUOUS
 62
     7
 10
307.99999000000008
 20
221.14999999999989
 30
0.0
 11
307.99999000000008
 21
228.85000999999991
 31
0.0
  0
LINE
  5
146
  8
DATA
  6
CONTINUOUS
 62
     7
 10
304.5
 20
228.85000999999991
 30
0.0
 11
307.99999000000008
 21
228.85000999999991
 31
0.0
  0
LINE
  5
147
  8
DATA
  6
CONTINUOUS
 62
     7
 10
307.99999000000008
 20
228.85000999999991
 30
0.0
 11
315.99999000000008
 21
228.25000999999989
 31
0.0
  0
LINE
  5
148
  8
DATA
  6
CONTINUOUS
 62
     7
 10
315.49999000000008
 20
228.25000999999989
 30
0.0
 11
342.49999000000008
 21
228.00000999999989
 31
0.0
  0
LINE
  5
149
  8
DATA
  6
CONTINUOUS
 62
     7
 10
304.5
 20
221.14999999999989
 30
0.0
 11
307.99999000000008
 21
221.14999999999989
 31
0.0
  0
LINE
  5
14A
  8
DATA
  6
CONTINUOUS
 62
     7
 10
307.99999000000008
 20
221.14999999999989
 30
0.0
 11
315.99999000000008
 21
221.75000999999989
 31
0.0
  0
LINE
  5
14B
  8
DATA
  6
CONTINUOUS
 62
     7
 10
315.49999000000008
 20
221.75000999999989
 30
0.0
 11
342.49999000000008
 21
222.00000999999989
 31
0.0
  0
ARC
  5
14C
  8
DATA
  6
CONTINUOUS
 62
     7
 10
342.49999000000008
 20
225.00000999999989
 30
0.0
 40
3.0
 50
270.0
 51
90.0
  0
LINE
  5
14D
  8
DATA
  6
CONTINUOUS
 62
     7
 10
155.5
 20
215.50000999999989
 30
0.0
 11
155.5
 21
234.50000999999989
 31
0.0
  0
LINE
  5
14E
  8
DATA
  6
CONTINUOUS
 62
     7
 10
174.50001
 20
214.75000999999989
 30
0.0
 11
174.50001
 21
235.25000999999989
 31
0.0
  0
LINE
  5
14F
  8
DATA
  6
CONTINUOUS
 62
     7
 10
155.5
 20
234.50000999999989
 30
0.0
 11
176.50001
 21
235.25000999999989
 31
0.0
  0
LINE
  5
150
  8
DATA
  6
CONTINUOUS
 62
     7
 10
155.5
 20
215.50000999999989
 30
0.0
 11
176.50001
 21
214.75000999999989
 31
0.0
  0
LINE
  5
151
  8
DATA
  6
CONTINUOUS
 62
     7
 10
158.25
 20
232.75000999999989
 30
0.0
 11
171.75
 21
232.75000999999989
 31
0.0
  0
LINE
  5
152
  8
DATA
  6
CONTINUOUS
 62
     7
 10
158.25
 20
217.25000999999989
 30
0.0
 11
171.75
 21
217.25000999999989
 31
0.0
  0
LINE
  5
153
  8
DATA
  6
CONTINUOUS
 62
     7
 10
171.75
 20
232.75000999999989
 30
0.0
 11
171.75
 21
217.25000999999989
 31
0.0
  0
LINE
  5
154
  8
DATA
  6
CONTINUOUS
 62
     7
 10
158.25
 20
232.75000999999989
 30
0.0
 11
158.25
 21
217.25000999999989
 31
0.0
  0
CIRCLE
  5
155
  8
DATA
  6
CONTINUOUS
 62
     7
 10
450.0
 20
225.00000999999989
 30
0.0
 40
3.0
  0
CIRCLE
  5
156
  8
DATA
  6
CONTINUOUS
 62
     7
 10
450.0
 20
225.00000999999989
 30
0.0
 40
17.0
  0
CIRCLE
  5
157
  8
DATA
  6
CONTINUOUS
 62
     7
 10
450.0
 20
225.00000999999989
 30
0.0
 40
18.5
  0
LINE
  5
158
  8
DATA
  6
CONTINUOUS
 62
     7
 10
444.5
 20
232.00000999999989
 30
0.0
 11
444.5
 21
234.50000999999989
 31
0.0
  0
LINE
  5
159
  8
DATA
  6
CONTINUOUS
 62
     7
 10
441.5
 20
232.00000999999989
 30
0.0
 11
441.5
 21
234.50000999999989
 31
0.0
  0
ARC
  5
15A
  8
DATA
  6
CONTINUOUS
 62
     7
 10
443.0
 20
234.50000999999989
 30
0.0
 40
1.5
 50
0.0
 51
180.0
  0
ARC
  5
15B
  8
DATA
  6
CONTINUOUS
 62
     7
 10
443.0
 20
232.00000999999989
 30
0.0
 40
1.5
 50
180.0
 51
0.0
  0
CIRCLE
  5
15C
  8
DATA
  6
CONTINUOUS
 62
     7
 10
443.0
 20
232.00000999999989
 30
0.0
 40
1.0
  0
TEXT
  5
15D
  8
DATA
 62
     7
 10
442.57999139999993
 20
226.9609526302082
 30
0.0
 40
2.3085860546874999
  1
ON
 50
90.0
 41
0.8
 72
     1
 11
440.27140534531247
 21
228.50000999999989
 31
0.0
 73
     3
  0
TEXT
  5
15E
  8
DATA
 62
     7
 10
447.57999139999993
 20
233.53751820833321
 30
0.0
 40
2.3085860546874999
  1
OFF
 50
90.0
 41
0.8
 72
     1
 11
445.27140534531242
 21
236.00000999999989
 31
0.0
 73
     3
  0
TEXT
  5
15F
  8
DATA
 62
     7
 10
439.62
 20
218.53594749999991
 30
0.0
 40
3.462890625
  1
SHURE
 50
90.0
 41
0.8
 72
     1
 11
436.157109375
 21
225.00000999999989
 31
0.0
 73
     3
  0
CIRCLE
  5
160
  8
DATA
  6
CONTINUOUS
 62
     7
 10
450.0
 20
225.00000999999989
 30
0.0
 40
19.25
  0
LINE
  5
161
  8
DATA
  6
CONTINUOUS
 62
     7
 10
135.50001
 20
243.50000999999989
 30
0.0
 11
229.5
 21
242.50000999999989
 31
0.0
  0
LINE
  5
162
  8
DATA
  6
CONTINUOUS
 62
     7
 10
135.50001
 20
206.50000999999989
 30
0.0
 11
229.5
 21
207.50000999999989
 31
0.0
  0
CIRCLE
  5
163
  8
DATA
  6
CONTINUOUS
 62
     7
 10
450.0
 20
225.00000999999989
 30
0.0
 40
5.5
  0
LINE
  5
164
  8
DATA
  6
CONTINUOUS
 62
     7
 10
134.4995163570488
 20
206.49631574029991
 30
0.0
 11
134.4995163570488
 21
243.4963157403005
 31
0.0
  0
TEXT
  5
165
  8
DATA
 62
     7
 10
133.25868302371549
 20
218.3817324069671
 30
0.0
 40
4.072102864583333
  1
SM87A
 50
90.0
 41
0.8
 11
129.18658015913221
 21
218.3817324069671
 31
0.0
 73
     3
  0
LINE
  5
166
  8
DATA
  6
CONTINUOUS
 62
     7
 10
134.4995163570488
 20
206.49631574029991
 30
0.0
 11
127.4995163570489
 21
206.49631574029991
 31
0.0
  0
LINE
  5
167
  8
DATA
  6
CONTINUOUS
 62
     7
 10
134.4995163570488
 20
243.4963157403005
 30
0.0
 11
127.4995163570489
 21
243.4963157403005
 31
0.0
  0
LINE
  5
168
  8
DATA
  6
CONTINUOUS
 62
     7
 10
134.4995163570488
 20
207.49631574029999
 30
0.0
 11
134.9995163570488
 21
207.49631574029999
 31
0.0
  0
LINE
  5
169
  8
DATA
  6
CONTINUOUS
 62
     7
 10
134.4995163570488
 20
242.49631574030039
 30
0.0
 11
134.9995163570488
 21
242.49631574030039
 31
0.0
  0
LINE
  5
16A
  8
DATA
  6
CONTINUOUS
 62
     7
 10
127.4995163570489
 20
206.49631574029991
 30
0.0
 11
127.4995163570489
 21
243.4963157403005
 31
0.0
  0
LINE
  5
16B
  8
DATA
  6
CONTINUOUS
 62
     7
 10
125.4995163570489
 20
206.99631574029999
 30
0.0
 11
125.4995163570489
 21
242.9963157403005
 31
0.0
  0
LINE
  5
16C
  8
DATA
  6
CONTINUOUS
 62
     7
 10
125.4995163570489
 20
206.99631574029999
 30
0.0
 11
127.4995163570489
 21
206.49631574029991
 31
0.0
  0
LINE
  5
16D
  8
DATA
  6
CONTINUOUS
 62
     7
 10
125.4995163570489
 20
242.9963157403005
 30
0.0
 11
127.4995163570489
 21
243.4963157403005
 31
0.0
  0
LINE
  5
16E
  8
DATA
  6
CONTINUOUS
 62
     7
 10
119.4995163570488
 20
205.74631574029979
 30
0.0
 11
119.4995163570488
 21
244.24631574030039
 31
0.0
  0
LINE
  5
16F
  8
DATA
  6
CONTINUOUS
 62
     7
 10
119.4995163570488
 20
205.74631574029979
 30
0.0
 11
125.4995163570489
 21
206.99631574029999
 31
0.0
  0
LINE
  5
170
  8
DATA
  6
CONTINUOUS
 62
     7
 10
119.4995163570488
 20
244.24631574030039
 30
0.0
 11
125.4995163570489
 21
242.9963157403005
 31
0.0
  0
LINE
  5
171
  8
DATA
  6
CONTINUOUS
 62
     7
 10
95.499516357048876
 20
200.24631574029939
 30
0.0
 11
95.499516357048876
 21
249.7463157403005
 31
0.0
  0
LINE
  5
172
  8
DATA
  6
CONTINUOUS
 62
     7
 10
90.499516357048876
 20
200.99631574029951
 30
0.0
 11
90.499516357048876
 21
248.99631574030039
 31
0.0
  0
LINE
  5
173
  8
DATA
  6
CONTINUOUS
 62
     7
 10
90.499516357048876
 20
200.99631574029951
 30
0.0
 11
95.499516357048876
 21
200.24631574029939
 31
0.0
  0
LINE
  5
174
  8
DATA
  6
CONTINUOUS
 62
     7
 10
90.499516357048876
 20
248.99631574030039
 30
0.0
 11
95.499516357048876
 21
249.7463157403005
 31
0.0
  0
LINE
  5
175
  8
DATA
  6
CONTINUOUS
 62
     7
 10
65.49951635704889
 20
210.13298317671109
 30
0.0
 11
65.49951635704889
 21
239.8596483038896
 31
0.0
  0
LINE
  5
176
  8
DATA
  6
CONTINUOUS
 62
     7
 10
119.4995163570488
 20
206.49631574029991
 30
0.0
 11
100.8810018596607
 21
201.85689333954471
 31
0.0
  0
LINE
  5
177
  8
DATA
  6
CONTINUOUS
 62
     7
 10
95.499516357048932
 20
201.26346698485671
 30
0.0
 11
96.045208300266381
 21
201.26346698485671
 31
0.0
  0
ARC
  5
178
  8
DATA
  6
CONTINUOUS
 62
     7
 10
93.661723714908433
 20
269.7555130647151
 30
0.0
 40
68.332405012172245
 50
247.93960187798649
 51
267.34758544127573
  0
ARC
  5
179
  8
DATA
  6
CONTINUOUS
 62
     7
 10
69.49951635704889
 20
210.13298317671109
 30
0.0
 40
4.0
 50
180.0
 51
247.93960187798791
  0
ARC
  5
17A
  8
DATA
  6
CONTINUOUS
 62
     7
 10
96.045208300266395
 20
221.26346698485759
 30
0.0
 40
20.000000000000941
 50
269.99999999999989
 51
283.9921927065032
  0
ARC
  5
17B
  8
DATA
  6
CONTINUOUS
 62
     7
 10
93.661723714908433
 20
180.23711841588371
 30
0.0
 40
68.332405012173808
 50
92.652414558724246
 51
112.060398122013
  0
ARC
  5
17C
  8
DATA
  6
CONTINUOUS
 62
     7
 10
69.49951635704889
 20
239.8596483038896
 30
0.0
 40
3.999999999999992
 50
112.06039812201359
 51
180.0
  0
LINE
  5
17D
  8
DATA
  6
CONTINUOUS
 62
     7
 10
119.4995163570488
 20
243.4963157403005
 30
0.0
 11
100.8810018596607
 21
248.1357381410553
 31
0.0
  0
LINE
  5
17E
  8
DATA
  6
CONTINUOUS
 62
     7
 10
95.499516357048932
 20
248.7291644957433
 30
0.0
 11
96.045208300266381
 21
248.7291644957433
 31
0.0
  0
ARC
  5
17F
  8
DATA
  6
CONTINUOUS
 62
     7
 10
96.045208300266395
 20
228.7291644957433
 30
0.0
 40
20.0
 50
76.007807293496271
 51
90.000000000000114
  0
LINE
  5
180
  8
DATA
  6
CONTINUOUS
 62
     7
 10
135.50001
 20
206.50000999999989
 30
0.0
 11
135.50001
 21
243.5
 31
0.0
  0
LINE
  5
181
  8
DATA
  6
CONTINUOUS
 62
     7
 10
134.4995163570488
 20
242.49631574030039
 30
0.0
 11
135.50001
 21
242.49631574030039
 31
0.0
  0
LINE
  5
182
  8
DATA
  6
CONTINUOUS
 62
     7
 10
134.4995163570488
 20
207.49631574029999
 30
0.0
 11
135.50001
 21
207.49631574029999
 31
0.0
  0
CIRCLE
  5
183
  8
DATA
  6
CONTINUOUS
 62
     7
 10
450.0
 20
225.00000999999989
 30
0.0
 40
24.20000000000001
  0
TEXT
  5
184
  8
DATA
 62
     7
 10
60.000000000000071
 20
42.714009999999902
 30
0.0
 40
4.8865234374999993
  1
仕様および外観は予告なく変更されることがありますので、ご了承ください。
 41
0.8
 11
60.000000000000071
 21
47.600533437499898
 31
0.0
 73
     3
  0
ENDSEC
  0
EOF
