  0
SECTION
  2
HEADER
  9
$ACADVER
  1
AC1009
  9
$INSBASE
 10
0.0
 20
0.0
 30
0.0
  9
$EXTMIN
 10
59.978030067843058
 20
14.28772404422716
 30
-0.0015258207003583
  9
$EXTMAX
 10
1140.0347926933721
 20
1620.049502250308
 30
0.0000000349246037
  9
$LIMMIN
 10
0.0
 20
0.0
  9
$LIMMAX
 10
0.0
 20
0.0
  9
$ORTHOMODE
 70
     0
  9
$REGENMODE
 70
     1
  9
$FILLMODE
 70
     1
  9
$QTEXTMODE
 70
     0
  9
$MIRRTEXT
 70
     1
  9
$DRAGMODE
 70
     2
  9
$LTSCALE
 40
30.48
  9
$OSMODE
 70
   231
  9
$ATTMODE
 70
     1
  9
$TEXTSIZE
 40
0.0
  9
$TRACEWID
 40
1.0
  9
$TEXTSTYLE
  7
STANDARD
  9
$CLAYER
  8
DATA
  9
$CELTYPE
  6
CONTINUOUS
  9
$CECOLOR
 62
   256
  9
$DIMSCALE
 40
1.0
  9
$DIMASZ
 40
0.18
  9
$DIMEXO
 40
0.0625
  9
$DIMDLI
 40
0.38
  9
$DIMRND
 40
0.0
  9
$DIMDLE
 40
0.0
  9
$DIMEXE
 40
0.18
  9
$DIMTP
 40
0.0
  9
$DIMTM
 40
0.0
  9
$DIMTXT
 40
0.18
  9
$DIMCEN
 40
0.09
  9
$DIMTSZ
 40
0.0
  9
$DIMTOL
 70
     0
  9
$DIMLIM
 70
     0
  9
$DIMTIH
 70
     1
  9
$DIMTOH
 70
     1
  9
$DIMSE1
 70
     0
  9
$DIMSE2
 70
     0
  9
$DIMTAD
 70
     0
  9
$DIMZIN
 70
     0
  9
$DIMBLK
  1

  9
$DIMASO
 70
     1
  9
$DIMSHO
 70
     1
  9
$DIMPOST
  1

  9
$DIMAPOST
  1

  9
$DIMALT
 70
     0
  9
$DIMALTD
 70
     2
  9
$DIMALTF
 40
25.399999999999999
  9
$DIMLFAC
 40
1.0
  9
$DIMTOFL
 70
     0
  9
$DIMTVP
 40
0.0
  9
$DIMTIX
 70
     0
  9
$DIMSOXD
 70
     0
  9
$DIMSAH
 70
     0
  9
$DIMBLK1
  1

  9
$DIMBLK2
  1

  9
$DIMSTYLE
  2
STANDARD
  9
$DIMCLRD
 70
     0
  9
$DIMCLRE
 70
     0
  9
$DIMCLRT
 70
     0
  9
$DIMTFAC
 40
1.0
  9
$DIMGAP
 40
0.09
  9
$LUNITS
 70
     2
  9
$LUPREC
 70
     4
  9
$SKETCHINC
 40
0.1
  9
$FILLETRAD
 40
0.0
  9
$AUNITS
 70
     0
  9
$AUPREC
 70
     0
  9
$MENU
  1
acad
  9
$ELEVATION
 40
0.0
  9
$PELEVATION
 40
0.0
  9
$THICKNESS
 40
0.0
  9
$LIMCHECK
 70
     0
  9
$BLIPMODE
 70
     0
  9
$CHAMFERA
 40
0.0
  9
$CHAMFERB
 40
0.0
  9
$SKPOLY
 70
     0
  9
$TDCREATE
 40
2453875.7403240739
  9
$TDUPDATE
 40
2453875.7430123729
  9
$TDINDWG
 40
0.0002505324
  9
$TDUSRTIMER
 40
0.0002503472
  9
$USRTIMER
 70
     1
  9
$ANGBASE
 50
0.0
  9
$ANGDIR
 70
     0
  9
$PDMODE
 70
     1
  9
$PDSIZE
 40
-2.0
  9
$PLINEWID
 40
0.0
  9
$COORDS
 70
     1
  9
$SPLFRAME
 70
     0
  9
$SPLINETYPE
 70
     6
  9
$SPLINESEGS
 70
     8
  9
$ATTDIA
 70
     0
  9
$ATTREQ
 70
     1
  9
$HANDLING
 70
     1
  9
$HANDSEED
  5
1191
  9
$SURFTAB1
 70
     6
  9
$SURFTAB2
 70
     6
  9
$SURFTYPE
 70
     6
  9
$SURFU
 70
     6
  9
$SURFV
 70
     6
  9
$UCSNAME
  2

  9
$UCSORG
 10
0.0
 20
0.0
 30
0.0
  9
$UCSXDIR
 10
1.0
 20
0.0
 30
0.0
  9
$UCSYDIR
 10
0.0
 20
1.0
 30
0.0
  9
$PUCSNAME
  2

  9
$PUCSORG
 10
0.0
 20
0.0
 30
0.0
  9
$PUCSXDIR
 10
1.0
 20
0.0
 30
0.0
  9
$PUCSYDIR
 10
0.0
 20
1.0
 30
0.0
  9
$USERI1
 70
     0
  9
$USERI2
 70
     0
  9
$USERI3
 70
     0
  9
$USERI4
 70
     0
  9
$USERI5
 70
     0
  9
$USERR1
 40
0.0
  9
$USERR2
 40
0.0
  9
$USERR3
 40
0.0
  9
$USERR4
 40
0.0
  9
$USERR5
 40
0.0
  9
$WORLDVIEW
 70
     1
  9
$SHADEDGE
 70
     3
  9
$SHADEDIF
 70
    70
  9
$TILEMODE
 70
     1
  9
$MAXACTVP
 70
    64
  9
$PLIMCHECK
 70
     0
  9
$PEXTMIN
 10
1.0000000000000000E+020
 20
1.0000000000000000E+020
 30
1.0000000000000000E+020
  9
$PEXTMAX
 10
-1.0000000000000000E+020
 20
-1.0000000000000000E+020
 30
-1.0000000000000000E+020
  9
$PLIMMIN
 10
0.0
 20
0.0
  9
$PLIMMAX
 10
12.0
 20
9.0
  9
$UNITMODE
 70
     0
  9
$VISRETAIN
 70
     0
  9
$PLINEGEN
 70
     1
  9
$PSLTSCALE
 70
     0
  0
ENDSEC
  0
SECTION
  2
TABLES
  0
TABLE
  2
VPORT
 70
     1
  0
VPORT
  2
*ACTIVE
 70
     0
 10
0.0
 20
0.0
 11
1.0
 21
1.0
 12
600.00641138060757
 22
817.16861314726748
 13
0.0
 23
0.0
 14
1.0
 24
1.0
 15
0.0
 25
0.0
 16
0.0
 26
0.0
 36
1.0
 17
0.0
 27
0.0
 37
0.0
 40
1619.087602091608
 41
1.6703601108033239
 42
50.0
 43
0.0
 44
0.0
 50
0.0
 51
0.0
 71
     0
 72
  2000
 73
     1
 74
     1
 75
     0
 76
     0
 77
     0
 78
     0
  0
ENDTAB
  0
TABLE
  2
LTYPE
 70
    11
  0
LTYPE
  2
CONTINUOUS
 70
     0
  3
Solid line
 72
    65
 73
     0
 40
0.0
  0
ENDTAB
  0
TABLE
  2
LAYER
 70
     5
  0
LAYER
  2
0
 70
     0
 62
     7
  6
CONTINUOUS
  0
LAYER
  2
DATA
 70
     0
 62
     7
  6
CONTINUOUS
  0
LAYER
  2
HIBINO-BASE
 70
     0
 62
     7
  6
CONTINUOUS
  0
LAYER
  2
SPEC
 70
     0
 62
     7
  6
CONTINUOUS
  0
LAYER
  2
DIMNSIONS
 70
     0
 62
     7
  6
CONTINUOUS
  0
ENDTAB
  0
TABLE
  2
STYLE
 70
     2
  0
STYLE
  2
STANDARD
 70
     0
 40
0.0
 41
1.0
 50
0.0
 71
     0
 42
0.0
  3
txt
  4
BIGFONT.SHX
  0
ENDTAB
  0
TABLE
  2
VIEW
 70
     0
  0
ENDTAB
  0
TABLE
  2
UCS
 70
     0
  0
ENDTAB
  0
TABLE
  2
APPID
 70
     1
  0
APPID
  2
ACAD
 70
     0
  0
ENDTAB
  0
TABLE
  2
DIMSTYLE
 70
     1
  0
DIMSTYLE
  2
STANDARD
 70
     0
  3

  4

  5

  6

  7

 40
1.0
 41
0.18
 42
0.0625
 43
0.38
 44
0.18
 45
0.0
 46
0.0
 47
0.0
 48
0.0
140
0.18
141
0.09
142
0.0
143
25.399999999999999
144
1.0
145
0.0
146
1.0
147
0.09
 71
     0
 72
     0
 73
     1
 74
     1
 75
     0
 76
     0
 77
     0
 78
     0
170
     0
171
     2
172
     0
173
     0
174
     0
175
     0
176
     0
177
     0
178
     0
  0
ENDTAB
  0
ENDSEC
  0
SECTION
  2
BLOCKS
  0
BLOCK
  8
0
  2
$MODEL_SPACE
 70
     0
 10
0.0
 20
0.0
 30
0.0
  3
$MODEL_SPACE
  1

  0
ENDBLK
  5
A9E
  8
0
  0
BLOCK
 67
     1
  8
0
  2
$PAPER_SPACE
 70
     0
 10
0.0
 20
0.0
 30
0.0
  3
$PAPER_SPACE
  1

  0
ENDBLK
  5
A9A
 67
     1
  8
0
  0
ENDSEC
  0
SECTION
  2
ENTITIES
  0
LINE
  5
2C
  8
HIBINO-BASE
  6
CONTINUOUS
 62
     7
 10
60.0
 20
1620.0000599999989
 30
0.0
 11
1140.0
 21
1620.0000599999989
 31
0.0
  0
LINE
  5
2D
  8
HIBINO-BASE
  6
CONTINUOUS
 62
     7
 10
1140.0
 20
60.000009999999847
 30
0.0
 11
60.0
 21
60.000009999999847
 31
0.0
  0
LINE
  5
2E
  8
HIBINO-BASE
  6
CONTINUOUS
 62
     7
 10
60.0
 20
60.000009999999847
 30
0.0
 11
60.0
 21
1620.0000599999989
 31
0.0
  0
TEXT
  5
2F
  8
HIBINO-BASE
 62
     7
 10
103.10401
 20
21.5479431999998
 30
0.0
 40
21.600265078124998
  1
Hibino Corporation
 41
0.8
 11
103.10401
 21
43.148208278124791
 31
0.0
 73
     3
  0
LINE
  5
30
  8
HIBINO-BASE
  6
CONTINUOUS
 62
     7
 10
1140.0
 20
1620.0000599999989
 30
0.0
 11
1140.0
 21
60.000009999999847
 31
0.0
  0
LINE
  5
31
  8
HIBINO-BASE
  6
CONTINUOUS
 62
     7
 10
600.0
 20
194.99999999999969
 30
0.0
 11
1140.0
 21
194.99999999999969
 31
0.0
  0
LINE
  5
32
  8
HIBINO-BASE
  6
CONTINUOUS
 62
     7
 10
600.0
 20
60.000009999999847
 30
0.0
 11
600.0
 21
194.99999999999969
 31
0.0
  0
TEXT
  5
33
  8
HIBINO-BASE
 62
     7
 10
605.39999999999998
 20
178.79999939999971
 30
0.0
 40
10.800147929687499
  1
NOTE
 41
0.8
 11
605.39999999999998
 21
189.6001473296873
 31
0.0
 73
     3
  0
LINE
  5
34
  8
HIBINO-BASE
  6
CONTINUOUS
 62
     7
 10
809.99999000000003
 20
60.000009999999847
 30
0.0
 11
809.99999000000003
 21
194.99999999999969
 31
0.0
  0
TEXT
  5
35
  8
HIBINO-BASE
 62
     7
 10
815.39999
 20
178.79999939999971
 30
0.0
 40
10.800147929687499
  1
TITLE
 41
0.8
 11
815.39999
 21
189.6001473296873
 31
0.0
 73
     3
  0
TEXT
  5
36
  8
HIBINO-BASE
 62
     7
 10
900.41032999999982
 20
21.5479431999998
 30
0.0
 40
21.600265078124998
  1
ヒビノ株式会社
 41
0.8
 11
900.41032999999982
 21
43.148208278124791
 31
0.0
 73
     3
  0
LINE
  5
37
  8
HIBINO-BASE
  6
CONTINUOUS
 62
     7
 10
600.0
 20
120.0000099999998
 30
0.0
 11
1140.0
 21
120.0000099999998
 31
0.0
  0
TEXT
  5
38
  8
HIBINO-BASE
 62
     7
 10
890.39999
 20
104.1379093999997
 30
0.0
 40
10.800147929687499
  1
DRAWN
 41
0.8
 11
890.39999
 21
114.9380573296872
 31
0.0
 73
     3
  0
TEXT
  5
39
  8
HIBINO-BASE
 62
     7
 10
740.39999
 20
104.1379093999997
 30
0.0
 40
10.800147929687499
  1
DATE
 41
0.8
 11
740.39999
 21
114.9380573296872
 31
0.0
 73
     3
  0
TEXT
  5
3A
  8
HIBINO-BASE
 62
     7
 10
606.60000000000002
 20
104.2832713999998
 30
0.0
 40
9.7730545703124996
  1
図面サイズ
 41
0.8
 11
606.60000000000002
 21
114.0563259703123
 31
0.0
 73
     3
  0
TEXT
  5
3B
  8
HIBINO-BASE
 62
     7
 10
680.39998999999989
 20
104.1379093999997
 30
0.0
 40
10.800147929687499
  1
SCALE
 41
0.8
 11
680.39998999999989
 21
114.9380573296872
 31
0.0
 73
     3
  0
TEXT
  5
3C
  8
HIBINO-BASE
 62
     7
 10
815.39999
 20
104.1379093999997
 30
0.0
 40
10.800147929687499
  1
DESIGN
 41
0.8
 11
815.39999
 21
114.9380573296872
 31
0.0
 73
     3
  0
TEXT
  5
3D
  8
HIBINO-BASE
 62
     7
 10
1040.4000000000001
 20
104.1379093999997
 30
0.0
 40
10.800147929687499
  1
DRAWING NO.
 41
0.8
 11
1040.4000000000001
 21
114.9380573296872
 31
0.0
 73
     3
  0
TEXT
  5
3E
  8
HIBINO-BASE
 62
     7
 10
965.39999999999986
 20
104.1379093999997
 30
0.0
 40
10.800147929687499
  1
CHECK
 41
0.8
 11
965.39999999999986
 21
114.9380573296872
 31
0.0
 73
     3
  0
LINE
  5
3F
  8
HIBINO-BASE
  6
CONTINUOUS
 62
     7
 10
686.24999000000003
 20
67.500009999999861
 30
0.0
 11
708.74999000000003
 21
90.000009999999861
 31
0.0
  0
TEXT
  5
40
  8
HIBINO-BASE
 62
     7
 10
682.49999000000003
 20
79.705703399999834
 30
0.0
 40
13.030711210937501
  1
1
 41
0.8
 11
682.49999000000003
 21
92.736414610937345
 31
0.0
 73
     3
  0
LINE
  5
41
  8
HIBINO-BASE
  6
CONTINUOUS
 62
     7
 10
675.0
 20
60.000009999999847
 30
0.0
 11
675.0
 21
120.0000099999998
 31
0.0
  0
LINE
  5
42
  8
HIBINO-BASE
  6
CONTINUOUS
 62
     7
 10
735.0
 20
60.000009999999847
 30
0.0
 11
735.0
 21
120.0000099999998
 31
0.0
  0
LINE
  5
43
  8
HIBINO-BASE
  6
CONTINUOUS
 62
     7
 10
885.0
 20
120.0000099999998
 30
0.0
 11
885.0
 21
60.000009999999847
 31
0.0
  0
LINE
  5
44
  8
HIBINO-BASE
  6
CONTINUOUS
 62
     7
 10
1034.99999
 20
120.0000099999998
 30
0.0
 11
1034.99999
 21
60.000009999999847
 31
0.0
  0
LINE
  5
45
  8
HIBINO-BASE
  6
CONTINUOUS
 62
     7
 10
959.99999000000003
 20
60.000009999999847
 30
0.0
 11
959.99999000000003
 21
120.0000099999998
 31
0.0
  0
TEXT
  5
46
  8
HIBINO-BASE
 62
     7
 10
623.46532999999988
 20
74.99073719999987
 30
0.0
 40
19.546078359374999
  1
A4
 41
0.8
 11
623.46532999999988
 21
94.536815559374872
 31
0.0
 73
     3
  0
TEXT
  5
47
  8
HIBINO-BASE
 62
     7
 10
737.13923999999975
 20
76.034039399999827
 30
0.0
 40
10.800147929687499
  1
'06.03.
 41
0.8
 11
737.13923999999975
 21
86.834187329687325
 31
0.0
 73
     3
  0
TEXT
  5
48
  8
HIBINO-BASE
 62
     7
 10
704.99999000000003
 20
68.455703399999834
 30
0.0
 40
13.030711210937501
  1
6
 41
0.8
 11
704.99999000000003
 21
81.486414610937345
 31
0.0
 73
     3
  0
TEXT
  5
49
  8
HIBINO-BASE
 62
     7
 10
894.03486006620744
 20
77.181889999999697
 30
0.0
 40
9.7730468749999986
  1
N.Sasaki
 41
0.8
 11
894.03486006620744
 21
86.954936874999675
 31
0.0
 73
     3
  0
LINE
  5
4A
  8
SPEC
  6
CONTINUOUS
 62
     7
 10
105.00001
 20
1560.0000599999989
 30
0.0
 11
1049.99999
 21
1560.0000599999989
 31
0.0
  0
LINE
  5
4B
  8
SPEC
  6
CONTINUOUS
 62
     7
 10
105.00001
 20
1537.5000599999989
 30
0.0
 11
1049.99999
 21
1537.5000599999989
 31
0.0
  0
TEXT
  5
4C
  8
SPEC
 62
     7
 10
306.30003597824702
 20
1543.1276155782471
 30
0.0
 40
11.4018675
  1
A帯・B帯共用デュアルチャンネル・ダイバーシティ・レシーバー(Dual cannel diversity)
 41
0.8
 11
306.30003597824702
 21
1554.529483078247
 31
0.0
 73
     3
  0
LINE
  5
4D
  8
SPEC
  6
CONTINUOUS
 62
     7
 10
105.00001
 20
1560.0000599999989
 30
0.0
 11
105.00001
 21
1290.000049999999
 31
0.0
  0
TEXT
  5
4E
  8
SPEC
 62
     7
 10
112.50001
 20
1568.3596886
 30
0.0
 40
14.6595626171875
  1
仕様
 41
0.8
 11
112.50001
 21
1583.019251217187
 31
0.0
 73
     3
  0
LINE
  5
4F
  8
SPEC
  6
CONTINUOUS
 62
     7
 10
300.0
 20
1560.0000599999989
 30
0.0
 11
300.0
 21
1290.000049999999
 31
0.0
  0
LINE
  5
50
  8
SPEC
  6
CONTINUOUS
 62
     7
 10
1049.99999
 20
1560.0000599999989
 30
0.0
 11
1049.99999
 21
1290.000049999999
 31
0.0
  0
TEXT
  5
51
  8
SPEC
 62
     7
 10
110.40000000000001
 20
1542.421620679947
 30
0.0
 40
11.4018675
  1
形式
 41
0.8
 11
110.40000000000001
 21
1553.8234881799469
 31
0.0
 73
     3
  0
TEXT
  5
52
  8
SPEC
 62
     7
 10
110.2059689200529
 20
1519.7275896000001
 30
0.0
 40
11.4018675
  1
受信周波数
 41
0.8
 11
110.2059689200529
 21
1531.1294571000001
 31
0.0
 73
     3
  0
TEXT
  5
53
  8
SPEC
 62
     7
 10
306.30003597824702
 20
1519.7275896000001
 30
0.0
 40
11.4018675
  1
B型 (806～810MHz)30チャンネル、A型 (797～806MHz)71チャンネル、A2型(779～788MHz)71チャンネル
 41
0.8
 11
306.30003597824702
 21
1531.1294571000001
 31
0.0
 73
     3
  0
LINE
  5
54
  8
SPEC
  6
CONTINUOUS
 62
     7
 10
105.00001
 20
1492.500049999999
 30
0.0
 11
1049.99999
 21
1492.500049999999
 31
0.0
  0
TEXT
  5
55
  8
SPEC
 62
     7
 10
110.40000000000001
 20
1475.4280528128049
 30
0.0
 40
11.4018675
  1
アンテナ入力  
 41
0.8
 11
110.40000000000001
 21
1486.8299203128049
 31
0.0
 73
     3
  0
TEXT
  5
56
  8
SPEC
 62
     7
 10
302.58742881797832
 20
1475.2900958364039
 30
0.0
 40
11.4018675
  1
実効インピーダンス:50Ω　BNCコネクター
 41
0.8
 11
302.58742881797832
 21
1486.6919633364039
 31
0.0
 73
     3
  0
LINE
  5
57
  8
SPEC
  6
CONTINUOUS
 62
     7
 10
105.00001
 20
1470.000049999999
 30
0.0
 11
1049.99999
 21
1470.000049999999
 31
0.0
  0
TEXT
  5
58
  8
SPEC
 62
     7
 10
110.40000000000001
 20
1408.227579599999
 30
0.0
 40
11.4018675
  1
出力レベル
 41
0.8
 11
110.40000000000001
 21
1419.629447099999
 31
0.0
 73
     3
  0
TEXT
  5
59
  8
SPEC
 62
     7
 10
110.2599053574389
 20
1452.946188885122
 30
0.0
 40
11.4018675
  1
出力コネクタ 
 41
0.8
 11
110.2599053574389
 21
1464.3480563851219
 31
0.0
 73
     3
  0
TEXT
  5
5A
  8
SPEC
 62
     7
 10
306.1875327309661
 20
1408.34008284728
 30
0.0
 40
11.4018675
  1
-22dBV(マイク)、+2dBV(ライン) マイク/ライン切替スイッチ付
 41
0.8
 11
306.1875327309661
 21
1419.7419503472811
 31
0.0
 73
     3
  0
TEXT
  5
5B
  8
SPEC
 62
     7
 10
306.32627213478918
 20
1452.8903977292889
 30
0.0
 40
11.4018675
  1
XLR3ピン オス(2-HOT,バランス)、2Pフォーンジャック(アンバランス)、モニタ ーヘッドフォーンジャック
 41
0.8
 11
306.32627213478918
 21
1464.2922652292889
 31
0.0
 73
     3
  0
TEXT
  5
5C
  8
SPEC
 62
     7
 10
304.04997103262963
 20
1430.3692385673701
 30
0.0
 40
11.4018675
  1
バランス 30Ω、アンバランス 1kΩ
 41
0.8
 11
304.04997103262963
 21
1441.7711060673701
 31
0.0
 73
     3
  0
TEXT
  5
5D
  8
SPEC
 62
     7
 10
110.40000000000001
 20
1430.3664728128049
 30
0.0
 40
11.4018675
  1
出力インピーダンス
 41
0.8
 11
110.40000000000001
 21
1441.7683403128051
 31
0.0
 73
     3
  0
LINE
  5
5E
  8
SPEC
  6
CONTINUOUS
 62
     7
 10
105.00001
 20
1447.500049999999
 30
0.0
 11
1049.99999
 21
1447.500049999999
 31
0.0
  0
LINE
  5
5F
  8
SPEC
  6
CONTINUOUS
 62
     7
 10
105.00001
 20
1425.000049999999
 30
0.0
 11
1049.99999
 21
1425.000049999999
 31
0.0
  0
TEXT
  5
60
  8
SPEC
 62
     7
 10
110.40000000000001
 20
1386.3858203148779
 30
0.0
 40
11.4018675
  1
外装
 41
0.8
 11
110.40000000000001
 21
1397.7876878148779
 31
0.0
 73
     3
  0
TEXT
  5
61
  8
SPEC
 62
     7
 10
302.69993206525919
 20
1386.1034933635949
 30
0.0
 40
11.4018675
  1
黒
 41
0.8
 11
302.69993206525919
 21
1397.5053608635949
 31
0.0
 73
     3
  0
LINE
  5
62
  8
SPEC
  6
CONTINUOUS
 62
     7
 10
105.00001
 20
1380.000049999999
 30
0.0
 11
1049.99999
 21
1380.000049999999
 31
0.0
  0
LINE
  5
63
  8
SPEC
  6
CONTINUOUS
 62
     7
 10
105.00001
 20
1335.000049999999
 30
0.0
 11
1049.99999
 21
1335.000049999999
 31
0.0
  0
LINE
  5
64
  8
SPEC
  6
CONTINUOUS
 62
     7
 10
105.00001
 20
1357.500049999999
 30
0.0
 11
1049.99999
 21
1357.500049999999
 31
0.0
  0
TEXT
  5
65
  8
SPEC
 62
     7
 10
109.97971607231671
 20
1317.9082520979271
 30
0.0
 40
11.4018675
  1
重量
 41
0.8
 11
109.97971607231671
 21
1329.310119597927
 31
0.0
 73
     3
  0
TEXT
  5
66
  8
SPEC
 62
     7
 10
305.40001000000001
 20
1340.402599083684
 30
0.0
 40
11.4018675
  1
483×44×295.3mm
 41
0.8
 11
305.40001000000001
 21
1351.8044665836851
 31
0.0
 73
     3
  0
TEXT
  5
67
  8
SPEC
 62
     7
 10
303.59995804350598
 20
1318.8401448037739
 30
0.0
 40
11.4018675
  1
約3.85kg
 41
0.8
 11
303.59995804350598
 21
1330.242012303775
 31
0.0
 73
     3
  0
TEXT
  5
68
  8
SPEC
 62
     7
 10
110.6801892851222
 20
1340.794663527683
 30
0.0
 40
11.4018675
  1
寸法(W+H+D)
 41
0.8
 11
110.6801892851222
 21
1352.196531027683
 31
0.0
 73
     3
  0
LINE
  5
69
  8
SPEC
  6
CONTINUOUS
 62
     7
 10
105.00001
 20
1402.500049999999
 30
0.0
 11
1049.99999
 21
1402.500049999999
 31
0.0
  0
TEXT
  5
6A
  8
SPEC
 62
     7
 10
110.2599053574389
 20
1294.567684242561
 30
0.0
 40
11.4018675
  1
付属品
 41
0.8
 11
110.2599053574389
 21
1305.969551742561
 31
0.0
 73
     3
  0
TEXT
  5
6B
  8
SPEC
 62
     7
 10
302.69993206525919
 20
1294.427589599999
 30
0.0
 40
11.4018675
  1
電源ケ－ブル　1本、ル－プ接続用電源ケ－ブル（40cm）１本、 1/2波長アンテナ 2本
 41
0.8
 11
302.69993206525919
 21
1305.829457099999
 31
0.0
 73
     3
  0
TEXT
  5
6C
  8
SPEC
 62
     7
 10
302.69993206525919
 20
1276.427589599999
 30
0.0
 40
11.4018675
  1
バルクヘッドアダプタ－　2個、50Ω同軸アンテナケ－ブル（60cm）2本、ハードウェアキット 1袋
 41
0.8
 11
302.69993206525919
 21
1287.829457099999
 31
0.0
 73
     3
  0
TEXT
  5
6D
  8
SPEC
 62
     7
 10
109.97971607231671
 20
1363.8858203148779
 30
0.0
 40
11.4018675
  1
電源/消費電力
 41
0.8
 11
109.97971607231671
 21
1375.2876878148779
 31
0.0
 73
     3
  0
TEXT
  5
6E
  8
SPEC
 62
     7
 10
306.30003597824702
 20
1363.4909901163139
 30
0.0
 40
11.4018675
  1
AC100V 50/60Hz 0.5A
 41
0.8
 11
306.30003597824702
 21
1374.8928576163139
 31
0.0
 73
     3
  0
TEXT
  5
6F
  8
SPEC
 62
     7
 10
429.81526806465263
 20
1498.6993422882169
 30
0.0
 40
11.4018675
  1
合計172チャンネルのうち任意の2チャンネル
 41
0.8
 11
429.81526806465263
 21
1510.1012097882169
 31
0.0
 73
     3
  0
LINE
  5
70
  8
SPEC
  6
CONTINUOUS
 62
     7
 10
105.00001
 20
1312.500049999999
 30
0.0
 11
1049.99999
 21
1312.500049999999
 31
0.0
  0
LINE
  5
71
  8
SPEC
  6
CONTINUOUS
 62
     7
 10
105.00001
 20
1267.500049999999
 30
0.0
 11
1049.99999
 21
1267.500049999999
 31
0.0
  0
LINE
  5
72
  8
SPEC
  6
CONTINUOUS
 62
     7
 10
105.00001
 20
1267.500049999999
 30
0.0
 11
105.00001
 21
1290.2
 31
0.0
  0
LINE
  5
73
  8
SPEC
  6
CONTINUOUS
 62
     7
 10
300.0
 20
1290.000049999999
 30
0.0
 11
300.0
 21
1267.500049999999
 31
0.0
  0
LINE
  5
74
  8
SPEC
  6
CONTINUOUS
 62
     7
 10
1049.99999
 20
1267.500049999999
 30
0.0
 11
1049.99999
 21
1291.0
 31
0.0
  0
TEXT
  5
75
  8
DIMNSIONS
 62
     7
 10
480.00000999999997
 20
133.6169485999998
 30
0.0
 40
14.6595626171875
  1
(単位：mm)
 41
0.8
 11
480.00000999999997
 21
148.27651121718731
 31
0.0
 73
     3
  0
LINE
  5
76
  8
DIMNSIONS
  6
CONTINUOUS
 62
     7
 10
200.00001
 20
338.00001004470317
 30
0.0
 11
200.00001
 21
288.00002004470332
 31
0.0
  0
LINE
  5
77
  8
DIMNSIONS
  6
CONTINUOUS
 62
     7
 10
682.99999000000003
 20
338.00001004470317
 30
0.0
 11
682.99999000000003
 21
288.00002004470332
 31
0.0
  0
LINE
  5
78
  8
DIMNSIONS
  6
CONTINUOUS
 62
     7
 10
200.00001
 20
300.00001999999978
 30
0.0
 11
682.99999000000003
 21
300.00001999999978
 31
0.0
  0
LINE
  5
79
  8
DIMNSIONS
  6
CONTINUOUS
 62
     7
 10
200.00001
 20
300.00001999999978
 30
0.0
 11
219.05000999999999
 21
305.10445211581282
 31
0.0
  0
LINE
  5
7A
  8
DIMNSIONS
  6
CONTINUOUS
 62
     7
 10
200.00001
 20
300.00001999999978
 30
0.0
 11
219.05000999999999
 21
294.89558788418691
 31
0.0
  0
LINE
  5
7B
  8
DIMNSIONS
  6
CONTINUOUS
 62
     7
 10
682.99999000000003
 20
300.00001999999978
 30
0.0
 11
663.94998999999984
 21
294.89558788418691
 31
0.0
  0
LINE
  5
7C
  8
DIMNSIONS
  6
CONTINUOUS
 62
     7
 10
682.99999000000003
 20
300.00001999999978
 30
0.0
 11
663.94998999999984
 21
305.10445211581282
 31
0.0
  0
TEXT
  5
7D
  8
DIMNSIONS
 62
     7
 10
425.62499697208398
 20
308.96334379999968
 30
0.0
 40
16.2884140234375
  1
483
 41
0.8
 11
425.62499697208398
 21
325.25175782343717
 31
0.0
 73
     3
  0
LINE
  5
7E
  8
DIMNSIONS
  6
CONTINUOUS
 62
     7
 10
239.00001
 20
806.9749999552962
 30
0.0
 11
239.00001
 21
861.99999995529629
 31
0.0
  0
LINE
  5
7F
  8
DIMNSIONS
  6
CONTINUOUS
 62
     7
 10
643.99999000000003
 20
806.9749999552962
 30
0.0
 11
643.99999000000003
 21
861.99999995529629
 31
0.0
  0
LINE
  5
80
  8
DIMNSIONS
  6
CONTINUOUS
 62
     7
 10
239.00001
 20
849.99999999999955
 30
0.0
 11
643.99999000000003
 21
849.99999999999955
 31
0.0
  0
LINE
  5
81
  8
DIMNSIONS
  6
CONTINUOUS
 62
     7
 10
239.00001
 20
849.99999999999955
 30
0.0
 11
258.05000999999999
 21
855.10443211581264
 31
0.0
  0
LINE
  5
82
  8
DIMNSIONS
  6
CONTINUOUS
 62
     7
 10
239.00001
 20
849.99999999999955
 30
0.0
 11
258.05000999999999
 21
844.8955678841869
 31
0.0
  0
LINE
  5
83
  8
DIMNSIONS
  6
CONTINUOUS
 62
     7
 10
643.99999000000003
 20
849.99999999999955
 30
0.0
 11
624.94998999999984
 21
844.8955678841869
 31
0.0
  0
LINE
  5
84
  8
DIMNSIONS
  6
CONTINUOUS
 62
     7
 10
643.99999000000003
 20
849.99999999999955
 30
0.0
 11
624.94998999999984
 21
855.10443211581264
 31
0.0
  0
TEXT
  5
85
  8
DIMNSIONS
 62
     7
 10
425.62499697208398
 20
858.96332379999967
 30
0.0
 40
16.2884140234375
  1
405
 41
0.8
 11
425.62499697208398
 21
875.25173782343722
 31
0.0
 73
     3
  0
LINE
  5
86
  8
DIMNSIONS
  6
CONTINUOUS
 62
     7
 10
233.00001
 20
732.75000995529615
 30
0.0
 11
233.00001
 21
911.99999995529629
 31
0.0
  0
LINE
  5
87
  8
DIMNSIONS
  6
CONTINUOUS
 62
     7
 10
649.99999000000003
 20
732.75000995529615
 30
0.0
 11
649.99999000000003
 21
911.99999995529629
 31
0.0
  0
LINE
  5
88
  8
DIMNSIONS
  6
CONTINUOUS
 62
     7
 10
233.00001
 20
899.99999999999955
 30
0.0
 11
649.99999000000003
 21
899.99999999999955
 31
0.0
  0
LINE
  5
89
  8
DIMNSIONS
  6
CONTINUOUS
 62
     7
 10
233.00001
 20
899.99999999999955
 30
0.0
 11
252.05000999999999
 21
905.10443211581264
 31
0.0
  0
LINE
  5
8A
  8
DIMNSIONS
  6
CONTINUOUS
 62
     7
 10
233.00001
 20
899.99999999999955
 30
0.0
 11
252.05000999999999
 21
894.8955678841869
 31
0.0
  0
LINE
  5
8B
  8
DIMNSIONS
  6
CONTINUOUS
 62
     7
 10
649.99999000000003
 20
899.99999999999955
 30
0.0
 11
630.94998999999984
 21
894.8955678841869
 31
0.0
  0
LINE
  5
8C
  8
DIMNSIONS
  6
CONTINUOUS
 62
     7
 10
649.99999000000003
 20
899.99999999999955
 30
0.0
 11
630.94998999999984
 21
905.10443211581264
 31
0.0
  0
TEXT
  5
8D
  8
DIMNSIONS
 62
     7
 10
425.62499697208398
 20
908.96332379999967
 30
0.0
 40
16.2884140234375
  1
417
 41
0.8
 11
425.62499697208398
 21
925.25173782343722
 31
0.0
 73
     3
  0
LINE
  5
8E
  8
DIMNSIONS
  6
CONTINUOUS
 62
     7
 10
188.00001004470349
 20
394.29999999999978
 30
0.0
 11
163.00002004470349
 21
394.29999999999978
 31
0.0
  0
LINE
  5
8F
  8
DIMNSIONS
  6
CONTINUOUS
 62
     7
 10
188.00001004470349
 20
350.0000099999998
 30
0.0
 11
163.00002004470349
 21
350.0000099999998
 31
0.0
  0
LINE
  5
90
  8
DIMNSIONS
  6
CONTINUOUS
 62
     7
 10
175.00002000000001
 20
394.29999999999978
 30
0.0
 11
175.00002000000001
 21
350.0000099999998
 31
0.0
  0
LINE
  5
91
  8
DIMNSIONS
  6
CONTINUOUS
 62
     7
 10
175.00002000000001
 20
394.29999999999978
 30
0.0
 11
180.1044521158129
 21
375.24999999999977
 31
0.0
  0
LINE
  5
92
  8
DIMNSIONS
  6
CONTINUOUS
 62
     7
 10
175.00002000000001
 20
394.29999999999978
 30
0.0
 11
169.89558788418719
 21
375.24999999999977
 31
0.0
  0
LINE
  5
93
  8
DIMNSIONS
  6
CONTINUOUS
 62
     7
 10
175.00002000000001
 20
350.0000099999998
 30
0.0
 11
169.89558788418719
 21
369.05000999999987
 31
0.0
  0
LINE
  5
94
  8
DIMNSIONS
  6
CONTINUOUS
 62
     7
 10
175.00002000000001
 20
350.0000099999998
 30
0.0
 11
180.1044521158129
 21
369.05000999999987
 31
0.0
  0
TEXT
  5
95
  8
DIMNSIONS
 62
     7
 10
166.03669620000011
 20
350.98333429611188
 30
0.0
 40
16.2884140234375
  1
44.3
 50
90.0
 41
0.8
 11
149.74828217656261
 21
350.98333429611188
 31
0.0
 73
     3
  0
LINE
  5
96
  8
DIMNSIONS
  6
CONTINUOUS
 62
     7
 10
227.00001004470349
 20
794.97499999999968
 30
0.0
 11
163.00002004470349
 21
794.97499999999968
 31
0.0
  0
LINE
  5
97
  8
DIMNSIONS
  6
CONTINUOUS
 62
     7
 10
188.00001004470349
 20
499.70000999999979
 30
0.0
 11
163.00002004470349
 21
499.70000999999979
 31
0.0
  0
LINE
  5
98
  8
DIMNSIONS
  6
CONTINUOUS
 62
     7
 10
175.00002000000001
 20
794.97499999999968
 30
0.0
 11
175.00002000000001
 21
499.70000999999979
 31
0.0
  0
LINE
  5
99
  8
DIMNSIONS
  6
CONTINUOUS
 62
     7
 10
175.00002000000001
 20
794.97499999999968
 30
0.0
 11
180.1044521158129
 21
775.92499999999973
 31
0.0
  0
LINE
  5
9A
  8
DIMNSIONS
  6
CONTINUOUS
 62
     7
 10
175.00002000000001
 20
794.97499999999968
 30
0.0
 11
169.89558788418719
 21
775.92499999999973
 31
0.0
  0
LINE
  5
9B
  8
DIMNSIONS
  6
CONTINUOUS
 62
     7
 10
175.00002000000001
 20
499.70000999999979
 30
0.0
 11
169.89558788418719
 21
518.75000999999975
 31
0.0
  0
LINE
  5
9C
  8
DIMNSIONS
  6
CONTINUOUS
 62
     7
 10
175.00002000000001
 20
499.70000999999979
 30
0.0
 11
180.1044521158129
 21
518.75000999999975
 31
0.0
  0
TEXT
  5
9D
  8
DIMNSIONS
 62
     7
 10
166.03669620000011
 20
620.87916762944531
 30
0.0
 40
16.2884140234375
  1
295.3
 50
90.0
 41
0.8
 11
149.74828217656261
 21
620.87916762944531
 31
0.0
 73
     3
  0
LINE
  5
9E
  8
DIMNSIONS
  6
CONTINUOUS
 62
     7
 10
576.15000004470357
 20
485.39999999999981
 30
0.0
 11
125.5000000447035
 21
485.39999999999981
 31
0.0
  0
LINE
  5
9F
  8
DIMNSIONS
  6
CONTINUOUS
 62
     7
 10
246.74500004470349
 20
808.97499999999957
 30
0.0
 11
125.5000000447035
 21
808.97499999999957
 31
0.0
  0
LINE
  5
A0
  8
DIMNSIONS
  6
CONTINUOUS
 62
     7
 10
137.5
 20
485.39999999999981
 30
0.0
 11
137.5
 21
808.97499999999957
 31
0.0
  0
LINE
  5
A1
  8
DIMNSIONS
  6
CONTINUOUS
 62
     7
 10
137.5
 20
485.39999999999981
 30
0.0
 11
132.3955678841871
 21
504.44999999999982
 31
0.0
  0
LINE
  5
A2
  8
DIMNSIONS
  6
CONTINUOUS
 62
     7
 10
137.5
 20
485.39999999999981
 30
0.0
 11
142.60443211581281
 21
504.44999999999982
 31
0.0
  0
LINE
  5
A3
  8
DIMNSIONS
  6
CONTINUOUS
 62
     7
 10
137.5
 20
808.97499999999957
 30
0.0
 11
142.60443211581281
 21
789.92499999999973
 31
0.0
  0
LINE
  5
A4
  8
DIMNSIONS
  6
CONTINUOUS
 62
     7
 10
137.5
 20
808.97499999999957
 30
0.0
 11
132.3955678841871
 21
789.92499999999973
 31
0.0
  0
TEXT
  5
A5
  8
DIMNSIONS
 62
     7
 10
128.53667619999999
 20
620.72916262944523
 30
0.0
 40
16.2884140234375
  1
323.6
 50
90.0
 41
0.8
 11
112.24826217656251
 21
620.72916262944523
 31
0.0
 73
     3
  0
LINE
  5
A6
  8
DIMNSIONS
  6
CONTINUOUS
 62
     7
 10
188.00001004470349
 20
499.70000999999979
 30
0.0
 11
163.00002004470349
 21
499.70000999999979
 31
0.0
  0
LINE
  5
A7
  8
DIMNSIONS
  6
CONTINUOUS
 62
     7
 10
576.15000004470357
 20
485.39999999999981
 30
0.0
 11
163.00002004470349
 21
485.39999999999981
 31
0.0
  0
LINE
  5
A8
  8
DIMNSIONS
  6
CONTINUOUS
 62
     7
 10
175.00002000000001
 20
485.39999999999981
 30
0.0
 11
175.00002000000001
 21
499.70000999999979
 31
0.0
  0
LINE
  5
A9
  8
DIMNSIONS
  6
CONTINUOUS
 62
     7
 10
175.00002000000001
 20
499.70000999999979
 30
0.0
 11
175.00002000000001
 21
529.70001003017467
 31
0.0
  0
LINE
  5
AA
  8
DIMNSIONS
  6
CONTINUOUS
 62
     7
 10
175.00002000000001
 20
499.70000999999979
 30
0.0
 11
169.89558788418719
 21
518.75000999999975
 31
0.0
  0
LINE
  5
AB
  8
DIMNSIONS
  6
CONTINUOUS
 62
     7
 10
175.00002000000001
 20
499.70000999999979
 30
0.0
 11
180.1044521158129
 21
518.75000999999975
 31
0.0
  0
LINE
  5
AC
  8
DIMNSIONS
  6
CONTINUOUS
 62
     7
 10
175.00002000000001
 20
485.39999999999981
 30
0.0
 11
175.00002000000001
 21
420.16665859222388
 31
0.0
  0
LINE
  5
AD
  8
DIMNSIONS
  6
CONTINUOUS
 62
     7
 10
175.00002000000001
 20
485.39999999999981
 30
0.0
 11
180.1044521158129
 21
466.3499999999998
 31
0.0
  0
LINE
  5
AE
  8
DIMNSIONS
  6
CONTINUOUS
 62
     7
 10
175.00002000000001
 20
485.39999999999981
 30
0.0
 11
169.89558788418719
 21
466.3499999999998
 31
0.0
  0
TEXT
  5
AF
  8
DIMNSIONS
 62
     7
 10
166.03669620000011
 20
420.16665859222388
 30
0.0
 40
16.2884140234375
  1
14.3
 50
90.0
 41
0.8
 11
149.74828217656261
 21
420.16665859222388
 31
0.0
 73
     3
  0
TEXT
  5
B0
  8
DATA
 62
     7
 10
882.59998999999971
 20
173.28535859999991
 30
0.0
 40
14.6595626171875
  1
SHURE
 41
0.8
 11
882.59998999999971
 21
187.94492121718741
 31
0.0
 73
     3
  0
TEXT
  5
B1
  8
DATA
 62
     7
 10
832.88246204359359
 20
151.95814408584101
 30
0.0
 40
9.7730468749999986
  1
デュアルチャンネル・ダイバーシティ受信機
 41
0.8
 11
832.88246204359359
 21
161.73119096084099
 31
0.0
 73
     3
  0
TEXT
  5
B2
  8
DATA
 62
     7
 10
875.0
 20
127.6770244239526
 30
0.0
 40
13.03072916666666
  1
U4D-ABJ
 41
0.8
 11
875.0
 21
140.70775359061929
 31
0.0
 73
     3
  0
LINE
  5
B3
  8
DATA
  6
CONTINUOUS
 62
     7
 10
682.99999000000003
 20
499.70000999999979
 30
0.0
 11
200.00001
 21
499.70000999999979
 31
0.0
  0
LINE
  5
B4
  8
DATA
  6
CONTINUOUS
 62
     7
 10
239.00001
 20
794.97499999999968
 30
0.0
 11
643.99999000000003
 21
794.97499999999968
 31
0.0
  0
LINE
  5
B5
  8
DATA
  6
CONTINUOUS
 62
     7
 10
682.99999000000003
 20
504.5000099999998
 30
0.0
 11
200.00001
 21
504.5000099999998
 31
0.0
  0
LINE
  5
B6
  8
DATA
  6
CONTINUOUS
 62
     7
 10
643.99999000000003
 20
794.97499999999968
 30
0.0
 11
643.99999000000003
 21
504.5000099999998
 31
0.0
  0
LINE
  5
B7
  8
DATA
  6
CONTINUOUS
 62
     7
 10
239.00001
 20
794.97499999999968
 30
0.0
 11
239.00001
 21
504.5000099999998
 31
0.0
  0
LINE
  5
B8
  8
DATA
  6
CONTINUOUS
 62
     7
 10
646.99999000000003
 20
732.50000999999975
 30
0.0
 11
646.99999000000003
 21
507.5000099999998
 31
0.0
  0
LINE
  5
B9
  8
DATA
  6
CONTINUOUS
 62
     7
 10
236.00001
 20
732.50000999999975
 30
0.0
 11
236.00001
 21
507.5000099999998
 31
0.0
  0
LINE
  5
BA
  8
DATA
  6
CONTINUOUS
 62
     7
 10
682.99999000000003
 20
507.5000099999998
 30
0.0
 11
646.99999000000003
 21
507.5000099999998
 31
0.0
  0
LINE
  5
BB
  8
DATA
  6
CONTINUOUS
 62
     7
 10
236.00001
 20
507.5000099999998
 30
0.0
 11
200.00001
 21
507.5000099999998
 31
0.0
  0
LINE
  5
BC
  8
DATA
  6
CONTINUOUS
 62
     7
 10
236.00001
 20
732.50000999999975
 30
0.0
 11
239.00001
 21
732.50000999999975
 31
0.0
  0
LINE
  5
BD
  8
DATA
  6
CONTINUOUS
 62
     7
 10
646.99999000000003
 20
732.50000999999975
 30
0.0
 11
643.99999000000003
 21
732.50000999999975
 31
0.0
  0
LINE
  5
BE
  8
DATA
  6
CONTINUOUS
 62
     7
 10
200.00001
 20
507.5000099999998
 30
0.0
 11
200.00001
 21
499.70000999999979
 31
0.0
  0
LINE
  5
BF
  8
DATA
  6
CONTINUOUS
 62
     7
 10
682.99999000000003
 20
507.5000099999998
 30
0.0
 11
682.99999000000003
 21
499.70000999999979
 31
0.0
  0
LINE
  5
C0
  8
DATA
  6
CONTINUOUS
 62
     7
 10
236.00001
 20
729.50000999999975
 30
0.0
 11
239.00001
 21
729.50000999999975
 31
0.0
  0
LINE
  5
C1
  8
DATA
  6
CONTINUOUS
 62
     7
 10
646.99999000000003
 20
729.50000999999975
 30
0.0
 11
643.99999000000003
 21
729.50000999999975
 31
0.0
  0
LINE
  5
C2
  8
DATA
  6
CONTINUOUS
 62
     7
 10
680.0
 20
507.5000099999998
 30
0.0
 11
680.0
 21
504.5000099999998
 31
0.0
  0
LINE
  5
C3
  8
DATA
  6
CONTINUOUS
 62
     7
 10
203.00001
 20
507.5000099999998
 30
0.0
 11
203.00001
 21
504.5000099999998
 31
0.0
  0
LINE
  5
C4
  8
DATA
  6
CONTINUOUS
 62
     7
 10
629.60000000000002
 20
499.70000999999979
 30
0.0
 11
629.60000000000002
 21
493.20000999999968
 31
0.0
  0
LINE
  5
C5
  8
DATA
  6
CONTINUOUS
 62
     7
 10
607.39999999999986
 20
499.70000999999979
 30
0.0
 11
607.39999999999986
 21
493.20000999999968
 31
0.0
  0
LINE
  5
C6
  8
DATA
  6
CONTINUOUS
 62
     7
 10
627.60000000000002
 20
497.70000999999968
 30
0.0
 11
627.60000000000002
 21
493.20000999999968
 31
0.0
  0
LINE
  5
C7
  8
DATA
  6
CONTINUOUS
 62
     7
 10
609.39999
 20
497.70000999999968
 30
0.0
 11
609.39999
 21
493.20000999999968
 31
0.0
  0
LINE
  5
C8
  8
DATA
  6
CONTINUOUS
 62
     7
 10
609.39999
 20
497.70000999999968
 30
0.0
 11
627.60000000000002
 21
497.70000999999968
 31
0.0
  0
LINE
  5
C9
  8
DATA
  6
CONTINUOUS
 62
     7
 10
607.39999999999986
 20
493.20000999999968
 30
0.0
 11
609.39999
 21
493.20000999999968
 31
0.0
  0
LINE
  5
CA
  8
DATA
  6
CONTINUOUS
 62
     7
 10
627.60000000000002
 20
493.20000999999968
 30
0.0
 11
629.60000000000002
 21
493.20000999999968
 31
0.0
  0
LINE
  5
CB
  8
DATA
  6
CONTINUOUS
 62
     7
 10
611.99999000000003
 20
493.20000999999968
 30
0.0
 11
624.99999000000003
 21
493.20000999999968
 31
0.0
  0
LINE
  5
CC
  8
DATA
  6
CONTINUOUS
 62
     7
 10
611.99999000000003
 20
493.20000999999968
 30
0.0
 11
611.99999000000003
 21
497.70000999999968
 31
0.0
  0
LINE
  5
CD
  8
DATA
  6
CONTINUOUS
 62
     7
 10
624.99999000000003
 20
493.20000999999968
 30
0.0
 11
624.99999000000003
 21
497.70000999999968
 31
0.0
  0
LINE
  5
CE
  8
DATA
  6
CONTINUOUS
 62
     7
 10
646.99999000000003
 20
593.90000999999984
 30
0.0
 11
649.70000000000005
 21
593.90000999999984
 31
0.0
  0
LINE
  5
CF
  8
DATA
  6
CONTINUOUS
 62
     7
 10
646.99999000000003
 20
587.10000999999977
 30
0.0
 11
649.99999000000003
 21
587.10000999999977
 31
0.0
  0
LINE
  5
D0
  8
DATA
  6
CONTINUOUS
 62
     7
 10
649.99999000000003
 20
593.90000999999984
 30
0.0
 11
649.99999000000003
 21
587.10000999999977
 31
0.0
  0
LINE
  5
D1
  8
DATA
  6
CONTINUOUS
 62
     7
 10
646.99999000000003
 20
720.75000999999975
 30
0.0
 11
649.99999000000003
 21
720.75000999999975
 31
0.0
  0
LINE
  5
D2
  8
DATA
  6
CONTINUOUS
 62
     7
 10
646.99999000000003
 20
713.95000999999957
 30
0.0
 11
649.99999000000003
 21
713.95000999999957
 31
0.0
  0
LINE
  5
D3
  8
DATA
  6
CONTINUOUS
 62
     7
 10
649.99999000000003
 20
720.75000999999975
 30
0.0
 11
649.99999000000003
 21
713.95000999999957
 31
0.0
  0
LINE
  5
D4
  8
DATA
  6
CONTINUOUS
 62
     7
 10
236.00001
 20
593.90000999999984
 30
0.0
 11
233.30000000000001
 21
593.90000999999984
 31
0.0
  0
LINE
  5
D5
  8
DATA
  6
CONTINUOUS
 62
     7
 10
236.00001
 20
587.10000999999977
 30
0.0
 11
233.00001
 21
587.10000999999977
 31
0.0
  0
LINE
  5
D6
  8
DATA
  6
CONTINUOUS
 62
     7
 10
233.00001
 20
593.90000999999984
 30
0.0
 11
233.00001
 21
587.10000999999977
 31
0.0
  0
LINE
  5
D7
  8
DATA
  6
CONTINUOUS
 62
     7
 10
236.00001
 20
720.75000999999975
 30
0.0
 11
233.00001
 21
720.75000999999975
 31
0.0
  0
LINE
  5
D8
  8
DATA
  6
CONTINUOUS
 62
     7
 10
236.00001
 20
713.95000999999957
 30
0.0
 11
233.00001
 21
713.95000999999957
 31
0.0
  0
LINE
  5
D9
  8
DATA
  6
CONTINUOUS
 62
     7
 10
233.00001
 20
720.75000999999975
 30
0.0
 11
233.00001
 21
713.95000999999957
 31
0.0
  0
LINE
  5
DA
  8
DATA
  6
CONTINUOUS
 62
     7
 10
414.00000999999992
 20
519.49999999999966
 30
0.0
 11
414.00000999999992
 21
523.49999999999966
 31
0.0
  0
LINE
  5
DB
  8
DATA
  6
CONTINUOUS
 62
     7
 10
412.00000999999992
 20
521.49999999999977
 30
0.0
 11
416.00000999999992
 21
521.49999999999977
 31
0.0
  0
CIRCLE
  5
DC
  8
DATA
  6
CONTINUOUS
 62
     7
 10
414.00000999999992
 20
521.49999999999977
 30
0.0
 40
3.25
  0
CIRCLE
  5
DD
  8
DATA
  6
CONTINUOUS
 62
     7
 10
414.00000999999992
 20
521.49999999999977
 30
0.0
 40
8.0
  0
LINE
  5
DE
  8
DATA
  6
CONTINUOUS
 62
     7
 10
483.00000999999992
 20
773.69999999999982
 30
0.0
 11
483.00000999999992
 21
777.69999999999982
 31
0.0
  0
LINE
  5
DF
  8
DATA
  6
CONTINUOUS
 62
     7
 10
481.00000999999992
 20
775.69999999999982
 30
0.0
 11
485.00000999999992
 21
775.69999999999982
 31
0.0
  0
CIRCLE
  5
E0
  8
DATA
  6
CONTINUOUS
 62
     7
 10
483.00000999999992
 20
775.69999999999982
 30
0.0
 40
3.25
  0
CIRCLE
  5
E1
  8
DATA
  6
CONTINUOUS
 62
     7
 10
483.00000999999992
 20
775.69999999999982
 30
0.0
 40
8.0
  0
LINE
  5
E2
  8
DATA
  6
CONTINUOUS
 62
     7
 10
536.77501000000007
 20
798.97499999999968
 30
0.0
 11
536.77501000000007
 21
808.97499999999957
 31
0.0
  0
LINE
  5
E3
  8
DATA
  6
CONTINUOUS
 62
     7
 10
527.27500999999995
 20
798.47499999999968
 30
0.0
 11
527.27500999999995
 21
808.97499999999957
 31
0.0
  0
LINE
  5
E4
  8
DATA
  6
CONTINUOUS
 62
     7
 10
527.27500999999995
 20
808.97499999999957
 30
0.0
 11
536.77501000000007
 21
808.97499999999957
 31
0.0
  0
LINE
  5
E5
  8
DATA
  6
CONTINUOUS
 62
     7
 10
539.17499999999995
 20
795.97499999999957
 30
0.0
 11
539.17499999999995
 21
794.97499999999968
 31
0.0
  0
LINE
  5
E6
  8
DATA
  6
CONTINUOUS
 62
     7
 10
524.875
 20
795.97499999999957
 30
0.0
 11
524.875
 21
794.97499999999968
 31
0.0
  0
LINE
  5
E7
  8
DATA
  6
CONTINUOUS
 62
     7
 10
524.875
 20
795.97499999999957
 30
0.0
 11
539.17499999999995
 21
795.97499999999957
 31
0.0
  0
LINE
  5
E8
  8
DATA
  6
CONTINUOUS
 62
     7
 10
526.27500999999995
 20
798.47499999999968
 30
0.0
 11
537.77500999999995
 21
798.47499999999968
 31
0.0
  0
CIRCLE
  5
E9
  8
DATA
  6
CONTINUOUS
 62
     7
 10
532.02500999999995
 20
804.97499999999968
 30
0.0
 40
1.0
  0
LINE
  5
EA
  8
DATA
  6
CONTINUOUS
 62
     7
 10
609.0
 20
794.97499999999968
 30
0.0
 11
609.0
 21
796.47499999999957
 31
0.0
  0
LINE
  5
EB
  8
DATA
  6
CONTINUOUS
 62
     7
 10
586.50000999999986
 20
794.97499999999968
 30
0.0
 11
586.50000999999986
 21
796.47499999999957
 31
0.0
  0
LINE
  5
EC
  8
DATA
  6
CONTINUOUS
 62
     7
 10
554.00000999999986
 20
794.97499999999968
 30
0.0
 11
554.00000999999986
 21
796.47499999999957
 31
0.0
  0
LINE
  5
ED
  8
DATA
  6
CONTINUOUS
 62
     7
 10
554.00000999999986
 20
796.47499999999957
 30
0.0
 11
609.0
 21
796.47499999999957
 31
0.0
  0
LINE
  5
EE
  8
DATA
  6
CONTINUOUS
 62
     7
 10
239.00001
 20
949.99998999999968
 30
0.0
 11
239.00001
 21
994.29998999999964
 31
0.0
  0
LINE
  5
EF
  8
DATA
  6
CONTINUOUS
 62
     7
 10
643.99999000000003
 20
949.99998999999968
 30
0.0
 11
643.99999000000003
 21
994.29998999999964
 31
0.0
  0
LINE
  5
F0
  8
DATA
  6
CONTINUOUS
 62
     7
 10
200.00001
 20
949.99998999999968
 30
0.0
 11
682.99999000000003
 21
949.99998999999968
 31
0.0
  0
LINE
  5
F1
  8
DATA
  6
CONTINUOUS
 62
     7
 10
200.00001
 20
949.99998999999968
 30
0.0
 11
200.00001
 21
994.29998999999964
 31
0.0
  0
LINE
  5
F2
  8
DATA
  6
CONTINUOUS
 62
     7
 10
682.99999000000003
 20
949.99998999999968
 30
0.0
 11
682.99999000000003
 21
994.29998999999964
 31
0.0
  0
LINE
  5
F3
  8
DATA
  6
CONTINUOUS
 62
     7
 10
646.99999000000003
 20
949.99998999999968
 30
0.0
 11
646.99999000000003
 21
994.29998999999964
 31
0.0
  0
LINE
  5
F4
  8
DATA
  6
CONTINUOUS
 62
     7
 10
236.00001
 20
949.99998999999968
 30
0.0
 11
236.00001
 21
994.29998999999964
 31
0.0
  0
LINE
  5
F5
  8
DATA
  6
CONTINUOUS
 62
     7
 10
649.70000000000005
 20
971.94998999999973
 30
0.0
 11
649.70000000000005
 21
978.64998999999966
 31
0.0
  0
LINE
  5
F6
  8
DATA
  6
CONTINUOUS
 62
     7
 10
200.00001
 20
994.29998999999964
 30
0.0
 11
682.99999000000003
 21
994.29998999999964
 31
0.0
  0
CIRCLE
  5
F7
  8
DATA
  6
CONTINUOUS
 62
     7
 10
263.50000999999997
 20
973.99999999999955
 30
0.0
 40
4.75
  0
CIRCLE
  5
F8
  8
DATA
  6
CONTINUOUS
 62
     7
 10
263.50000999999997
 20
973.99999999999955
 30
0.0
 40
5.75
  0
POLYLINE
  5
F9
  8
DATA
  6
CONTINUOUS
 62
     7
 66
     1
 10
0.0
 20
0.0
 30
0.0
 70
     1
  0
VERTEX
  5
ABB
  8
DATA
  6
CONTINUOUS
 62
     7
 10
270.65003000000002
 20
969.87177999999972
 30
0.0
  0
VERTEX
  5
ABC
  8
DATA
  6
CONTINUOUS
 62
     7
 10
270.65021000000002
 20
978.12787999999966
 30
0.0
  0
VERTEX
  5
ABD
  8
DATA
  6
CONTINUOUS
 62
     7
 10
263.50026000000003
 20
982.25609999999961
 30
0.0
  0
VERTEX
  5
ABE
  8
DATA
  6
CONTINUOUS
 62
     7
 10
256.35005000000001
 20
978.12831999999969
 30
0.0
  0
VERTEX
  5
ABF
  8
DATA
  6
CONTINUOUS
 62
     7
 10
256.34980000000002
 20
969.87211999999965
 30
0.0
  0
VERTEX
  5
AC0
  8
DATA
  6
CONTINUOUS
 62
     7
 10
263.49975000000001
 20
965.74388999999974
 30
0.0
  0
SEQEND
  5
AC1
  8
DATA
  6
CONTINUOUS
 62
     7
  0
CIRCLE
  5
102
  8
DATA
  6
CONTINUOUS
 62
     7
 10
263.50000999999997
 20
973.99999999999955
 30
0.0
 40
8.5000100000000174
  0
CIRCLE
  5
103
  8
DATA
  6
CONTINUOUS
 62
     7
 10
263.50000999999997
 20
973.99999999999955
 30
0.0
 40
2.25
  0
CIRCLE
  5
104
  8
DATA
  6
CONTINUOUS
 62
     7
 10
263.50000999999997
 20
973.99999999999955
 30
0.0
 40
0.6500100000000089
  0
CIRCLE
  5
105
  8
DATA
  6
CONTINUOUS
 62
     7
 10
532.02500999999995
 20
973.99999999999955
 30
0.0
 40
4.75
  0
CIRCLE
  5
106
  8
DATA
  6
CONTINUOUS
 62
     7
 10
532.02500999999995
 20
973.99999999999955
 30
0.0
 40
5.75
  0
POLYLINE
  5
107
  8
DATA
  6
CONTINUOUS
 62
     7
 66
     1
 10
0.0
 20
0.0
 30
0.0
 70
     1
  0
VERTEX
  5
AC2
  8
DATA
  6
CONTINUOUS
 62
     7
 10
539.17502000000002
 20
969.87177999999972
 30
0.0
  0
VERTEX
  5
AC3
  8
DATA
  6
CONTINUOUS
 62
     7
 10
539.17521999999985
 20
978.12787999999966
 30
0.0
  0
VERTEX
  5
AC4
  8
DATA
  6
CONTINUOUS
 62
     7
 10
532.02525999999989
 20
982.25609999999961
 30
0.0
  0
VERTEX
  5
AC5
  8
DATA
  6
CONTINUOUS
 62
     7
 10
524.87504999999987
 20
978.12831999999969
 30
0.0
  0
VERTEX
  5
AC6
  8
DATA
  6
CONTINUOUS
 62
     7
 10
524.87481000000002
 20
969.87211999999965
 30
0.0
  0
VERTEX
  5
AC7
  8
DATA
  6
CONTINUOUS
 62
     7
 10
532.02476000000001
 20
965.74388999999974
 30
0.0
  0
SEQEND
  5
AC8
  8
DATA
  6
CONTINUOUS
 62
     7
  0
CIRCLE
  5
110
  8
DATA
  6
CONTINUOUS
 62
     7
 10
532.02500999999995
 20
973.99999999999955
 30
0.0
 40
8.5000100000000174
  0
CIRCLE
  5
111
  8
DATA
  6
CONTINUOUS
 62
     7
 10
532.02500999999995
 20
973.99999999999955
 30
0.0
 40
2.25
  0
CIRCLE
  5
112
  8
DATA
  6
CONTINUOUS
 62
     7
 10
532.02500999999995
 20
973.99999999999955
 30
0.0
 40
0.6500100000000089
  0
LINE
  5
113
  8
DATA
  6
CONTINUOUS
 62
     7
 10
554.00000999999986
 20
956.29998999999953
 30
0.0
 11
554.00000999999986
 21
986.29998999999964
 31
0.0
  0
LINE
  5
114
  8
DATA
  6
CONTINUOUS
 62
     7
 10
586.50000999999986
 20
956.29998999999953
 30
0.0
 11
586.50000999999986
 21
986.29998999999964
 31
0.0
  0
LINE
  5
115
  8
DATA
  6
CONTINUOUS
 62
     7
 10
609.0
 20
956.29998999999953
 30
0.0
 11
609.0
 21
986.29998999999964
 31
0.0
  0
LINE
  5
116
  8
DATA
  6
CONTINUOUS
 62
     7
 10
609.0
 20
986.29998999999964
 30
0.0
 11
554.00000999999986
 21
986.29998999999964
 31
0.0
  0
LINE
  5
117
  8
DATA
  6
CONTINUOUS
 62
     7
 10
609.0
 20
956.29998999999953
 30
0.0
 11
554.00000999999986
 21
956.29998999999953
 31
0.0
  0
LINE
  5
118
  8
DATA
  6
CONTINUOUS
 62
     7
 10
246.00001
 20
956.99998999999968
 30
0.0
 11
554.00000999999986
 21
956.99998999999968
 31
0.0
  0
LINE
  5
119
  8
DATA
  6
CONTINUOUS
 62
     7
 10
609.0
 20
956.99998999999968
 30
0.0
 11
637.0
 21
956.99998999999968
 31
0.0
  0
LINE
  5
11A
  8
DATA
  6
CONTINUOUS
 62
     7
 10
637.0
 20
956.99998999999968
 30
0.0
 11
637.0
 21
994.29998999999964
 31
0.0
  0
LINE
  5
11B
  8
DATA
  6
CONTINUOUS
 62
     7
 10
637.0
 20
956.99998999999968
 30
0.0
 11
643.99999000000003
 21
949.99998999999968
 31
0.0
  0
LINE
  5
11C
  8
DATA
  6
CONTINUOUS
 62
     7
 10
606.14999999999986
 20
962.14999999999975
 30
0.0
 11
606.14999999999986
 21
980.44998999999973
 31
0.0
  0
LINE
  5
11D
  8
DATA
  6
CONTINUOUS
 62
     7
 10
589.35000999999988
 20
965.44280999999955
 30
0.0
 11
589.35000999999988
 21
977.15717999999958
 31
0.0
  0
LINE
  5
11E
  8
DATA
  6
CONTINUOUS
 62
     7
 10
603.14999999999998
 20
959.14999999999975
 30
0.0
 11
596.24761999999998
 21
959.14999999999975
 31
0.0
  0
LINE
  5
11F
  8
DATA
  6
CONTINUOUS
 62
     7
 10
603.14999999999998
 20
983.44998999999973
 30
0.0
 11
596.24761999999998
 21
983.44998999999973
 31
0.0
  0
LINE
  5
120
  8
DATA
  6
CONTINUOUS
 62
     7
 10
594.31155000000001
 20
959.85832999999968
 30
0.0
 11
590.41394000000003
 21
963.15113999999971
 31
0.0
  0
LINE
  5
121
  8
DATA
  6
CONTINUOUS
 62
     7
 10
590.41395999999986
 20
979.44884999999965
 30
0.0
 11
594.31155000000001
 21
982.74165999999968
 31
0.0
  0
LINE
  5
122
  8
DATA
  6
CONTINUOUS
 62
     7
 10
593.35000000000002
 20
970.29998999999964
 30
0.0
 11
593.35000000000002
 21
972.29998999999964
 31
0.0
  0
LINE
  5
123
  8
DATA
  6
CONTINUOUS
 62
     7
 10
597.35000000000002
 20
970.29998999999964
 30
0.0
 11
597.35000000000002
 21
972.29998999999964
 31
0.0
  0
LINE
  5
124
  8
DATA
  6
CONTINUOUS
 62
     7
 10
597.35000000000002
 20
970.29998999999964
 30
0.0
 11
593.35000000000002
 21
970.29998999999964
 31
0.0
  0
LINE
  5
125
  8
DATA
  6
CONTINUOUS
 62
     7
 10
597.35000000000002
 20
972.29998999999964
 30
0.0
 11
593.35000000000002
 21
972.29998999999964
 31
0.0
  0
LINE
  5
126
  8
DATA
  6
CONTINUOUS
 62
     7
 10
599.75000999999986
 20
963.29998999999964
 30
0.0
 11
599.75000999999986
 21
965.29998999999953
 31
0.0
  0
LINE
  5
127
  8
DATA
  6
CONTINUOUS
 62
     7
 10
603.74999000000003
 20
963.29998999999964
 30
0.0
 11
603.74999000000003
 21
965.29998999999953
 31
0.0
  0
LINE
  5
128
  8
DATA
  6
CONTINUOUS
 62
     7
 10
603.74999000000003
 20
963.29998999999964
 30
0.0
 11
599.75000999999986
 21
963.29998999999964
 31
0.0
  0
LINE
  5
129
  8
DATA
  6
CONTINUOUS
 62
     7
 10
603.74999000000003
 20
965.29998999999953
 30
0.0
 11
599.75000999999986
 21
965.29998999999953
 31
0.0
  0
LINE
  5
12A
  8
DATA
  6
CONTINUOUS
 62
     7
 10
599.75000999999986
 20
977.29998999999964
 30
0.0
 11
599.75000999999986
 21
979.29998999999964
 31
0.0
  0
LINE
  5
12B
  8
DATA
  6
CONTINUOUS
 62
     7
 10
603.74999000000003
 20
977.29998999999964
 30
0.0
 11
603.74999000000003
 21
979.29998999999964
 31
0.0
  0
LINE
  5
12C
  8
DATA
  6
CONTINUOUS
 62
     7
 10
603.74999000000003
 20
977.29998999999964
 30
0.0
 11
599.75000999999986
 21
977.29998999999964
 31
0.0
  0
LINE
  5
12D
  8
DATA
  6
CONTINUOUS
 62
     7
 10
603.74999000000003
 20
979.29998999999964
 30
0.0
 11
599.75000999999986
 21
979.29998999999964
 31
0.0
  0
LINE
  5
12E
  8
DATA
  6
CONTINUOUS
 62
     7
 10
579.40000999999995
 20
980.09999999999957
 30
0.0
 11
561.10000000000002
 21
980.09999999999957
 31
0.0
  0
LINE
  5
12F
  8
DATA
  6
CONTINUOUS
 62
     7
 10
576.10720000000003
 20
963.29998999999964
 30
0.0
 11
564.39282000000003
 21
963.29998999999964
 31
0.0
  0
LINE
  5
130
  8
DATA
  6
CONTINUOUS
 62
     7
 10
582.40000999999995
 20
977.09999999999968
 30
0.0
 11
582.40000999999995
 21
970.19760999999971
 31
0.0
  0
LINE
  5
131
  8
DATA
  6
CONTINUOUS
 62
     7
 10
558.10000000000002
 20
977.09999999999968
 30
0.0
 11
558.10000000000002
 21
970.19760999999971
 31
0.0
  0
LINE
  5
132
  8
DATA
  6
CONTINUOUS
 62
     7
 10
581.69167000000004
 20
968.26154999999972
 30
0.0
 11
578.3988599999999
 21
964.36392999999964
 31
0.0
  0
LINE
  5
133
  8
DATA
  6
CONTINUOUS
 62
     7
 10
562.10116000000005
 20
964.36392999999964
 30
0.0
 11
558.80834000000004
 21
968.26154999999972
 31
0.0
  0
LINE
  5
134
  8
DATA
  6
CONTINUOUS
 62
     7
 10
571.25000999999986
 20
967.29998999999975
 30
0.0
 11
569.25000999999997
 21
967.29998999999975
 31
0.0
  0
LINE
  5
135
  8
DATA
  6
CONTINUOUS
 62
     7
 10
571.25000999999986
 20
971.29998999999964
 30
0.0
 11
569.25000999999997
 21
971.29998999999964
 31
0.0
  0
LINE
  5
136
  8
DATA
  6
CONTINUOUS
 62
     7
 10
571.25000999999986
 20
971.29998999999964
 30
0.0
 11
571.25000999999986
 21
967.29998999999975
 31
0.0
  0
LINE
  5
137
  8
DATA
  6
CONTINUOUS
 62
     7
 10
569.25000999999997
 20
971.29998999999964
 30
0.0
 11
569.25000999999997
 21
967.29998999999975
 31
0.0
  0
LINE
  5
138
  8
DATA
  6
CONTINUOUS
 62
     7
 10
578.25000999999997
 20
973.69998999999973
 30
0.0
 11
576.25000999999986
 21
973.69998999999973
 31
0.0
  0
LINE
  5
139
  8
DATA
  6
CONTINUOUS
 62
     7
 10
578.25000999999997
 20
977.69998999999984
 30
0.0
 11
576.25000999999986
 21
977.69998999999984
 31
0.0
  0
LINE
  5
13A
  8
DATA
  6
CONTINUOUS
 62
     7
 10
578.25000999999997
 20
977.69998999999984
 30
0.0
 11
578.25000999999997
 21
973.69998999999973
 31
0.0
  0
LINE
  5
13B
  8
DATA
  6
CONTINUOUS
 62
     7
 10
576.25000999999986
 20
977.69998999999984
 30
0.0
 11
576.25000999999986
 21
973.69998999999973
 31
0.0
  0
LINE
  5
13C
  8
DATA
  6
CONTINUOUS
 62
     7
 10
564.25
 20
973.69998999999973
 30
0.0
 11
562.25
 21
973.69998999999973
 31
0.0
  0
LINE
  5
13D
  8
DATA
  6
CONTINUOUS
 62
     7
 10
564.25
 20
977.69998999999984
 30
0.0
 11
562.25
 21
977.69998999999984
 31
0.0
  0
LINE
  5
13E
  8
DATA
  6
CONTINUOUS
 62
     7
 10
564.25
 20
977.69998999999984
 30
0.0
 11
564.25
 21
973.69998999999973
 31
0.0
  0
LINE
  5
13F
  8
DATA
  6
CONTINUOUS
 62
     7
 10
562.25
 20
977.69998999999984
 30
0.0
 11
562.25
 21
973.69998999999973
 31
0.0
  0
LINE
  5
140
  8
DATA
  6
CONTINUOUS
 62
     7
 10
577.73213999999984
 20
959.79998999999964
 30
0.0
 11
562.76787000000002
 21
959.79998999999964
 31
0.0
  0
LINE
  5
141
  8
DATA
  6
CONTINUOUS
 62
     7
 10
581.90000999999995
 20
983.59999999999957
 30
0.0
 11
558.60000000000002
 21
983.59999999999957
 31
0.0
  0
LINE
  5
142
  8
DATA
  6
CONTINUOUS
 62
     7
 10
554.60000000000002
 20
979.59999999999968
 30
0.0
 11
554.60000000000002
 21
967.81946999999968
 31
0.0
  0
LINE
  5
143
  8
DATA
  6
CONTINUOUS
 62
     7
 10
585.89999999999986
 20
979.59999999999968
 30
0.0
 11
585.89999999999986
 21
967.81946999999968
 31
0.0
  0
ARC
  5
144
  8
DATA
  6
CONTINUOUS
 62
     7
 10
581.90000999999995
 20
979.59999999999968
 30
0.0
 40
3.9999899999999982
 50
0.0
 51
90.0
  0
ARC
  5
145
  8
DATA
  6
CONTINUOUS
 62
     7
 10
558.60000000000002
 20
979.59999999999968
 30
0.0
 40
4.0
 50
90.0
 51
180.0
  0
ARC
  5
146
  8
DATA
  6
CONTINUOUS
 62
     7
 10
579.40000999999995
 20
977.09999999999968
 30
0.0
 40
3.0
 50
0.0
 51
90.0
  0
ARC
  5
147
  8
DATA
  6
CONTINUOUS
 62
     7
 10
561.10000000000002
 20
977.09999999999968
 30
0.0
 40
3.0
 50
90.0
 51
180.0
  0
ARC
  5
148
  8
DATA
  6
CONTINUOUS
 62
     7
 10
579.40000999999995
 20
970.19759999999985
 30
0.0
 40
2.9999991930165542
 50
319.80806463930088
 51
0.0
  0
ARC
  5
149
  8
DATA
  6
CONTINUOUS
 62
     7
 10
561.10000000000002
 20
970.19759999999985
 30
0.0
 40
3.0000000000166658
 50
179.99980901406821
 51
220.19208125207061
  0
ARC
  5
14A
  8
DATA
  6
CONTINUOUS
 62
     7
 10
564.39279999999985
 20
966.29998999999975
 30
0.0
 40
2.9999903688512148
 50
220.19232775921361
 51
270.00019098656838
  0
ARC
  5
14B
  8
DATA
  6
CONTINUOUS
 62
     7
 10
576.1072099999999
 20
966.29998999999975
 30
0.0
 40
3.0000000000166658
 50
269.99980901406832
 51
319.80779549467172
  0
ARC
  5
14C
  8
DATA
  6
CONTINUOUS
 62
     7
 10
596.24760000000003
 20
962.14999999999975
 30
0.0
 40
3.0000068318922182
 50
229.80818789182419
 51
270.00019098593168
  0
ARC
  5
14D
  8
DATA
  6
CONTINUOUS
 62
     7
 10
592.35000000000002
 20
965.44279999999969
 30
0.0
 40
2.9999900000166662
 50
179.99980901343159
 51
229.80791874792959
  0
ARC
  5
14E
  8
DATA
  6
CONTINUOUS
 62
     7
 10
592.35000000000002
 20
977.15717999999958
 30
0.0
 40
3.00000037841665
 50
130.1916662162829
 51
180.0
  0
ARC
  5
14F
  8
DATA
  6
CONTINUOUS
 62
     7
 10
596.24760000000003
 20
980.44998999999973
 30
0.0
 40
3.0000000000666658
 50
89.999618028136609
 51
130.19181210817561
  0
ARC
  5
150
  8
DATA
  6
CONTINUOUS
 62
     7
 10
603.14999999999998
 20
980.44998999999973
 30
0.0
 40
3.0
 50
0.0
 51
90.0
  0
ARC
  5
151
  8
DATA
  6
CONTINUOUS
 62
     7
 10
603.14999999999998
 20
962.14999999999975
 30
0.0
 40
3.0
 50
270.0
 51
0.0
  0
ARC
  5
152
  8
DATA
  6
CONTINUOUS
 62
     7
 10
577.73213999999984
 20
962.79998999999975
 30
0.0
 40
3.0
 50
270.0
 51
319.8081878918241
  0
ARC
  5
153
  8
DATA
  6
CONTINUOUS
 62
     7
 10
562.76787000000002
 20
962.79998999999975
 30
0.0
 40
2.999999193016563
 50
220.1919353606994
 51
270.0
  0
LINE
  5
154
  8
DATA
  6
CONTINUOUS
 62
     7
 10
246.00001
 20
956.99998999999968
 30
0.0
 11
246.00001
 21
994.29998999999964
 31
0.0
  0
LINE
  5
155
  8
DATA
  6
CONTINUOUS
 62
     7
 10
246.00001
 20
956.99998999999968
 30
0.0
 11
239.00001
 21
949.99998999999968
 31
0.0
  0
TEXT
  5
156
  8
DATA
 62
     7
 10
540.21279520729172
 20
986.37998139999956
 30
0.0
 40
2.3085860546874999
  1
12 Vdc OUT
 50
180.0
 41
0.8
 72
     1
 11
532.02500999999995
 21
984.07139534531211
 31
0.0
 73
     3
  0
TEXT
  5
157
  8
DATA
 62
     7
 10
535.87265342447927
 20
989.37997139999959
 30
0.0
 40
2.3085860546874999
  1
150mA
 50
180.0
 41
0.8
 72
     1
 11
532.02500999999995
 21
987.07138534531225
 31
0.0
 73
     3
  0
TEXT
  5
158
  8
DATA
 62
     7
 10
537.81186571041678
 20
992.37996139999984
 30
0.0
 40
2.3085860546874999
  1
CLASS 2
 50
180.0
 41
0.8
 72
     1
 11
532.02500999999995
 21
990.07137534531228
 31
0.0
 73
     3
  0
TEXT
  5
159
  8
DATA
 62
     7
 10
541.75185257708335
 20
962.47999139999956
 30
0.0
 40
2.3085860546874999
  1
ANTENNA B IN
 50
180.0
 41
0.8
 72
     1
 11
532.02500999999995
 21
960.17140534531222
 31
0.0
 73
     3
  0
TEXT
  5
15A
  8
DATA
 62
     7
 10
582.73804125000004
 20
989.72198999999966
 30
0.0
 40
2.077734374999999
  1
OUTPUT.90-120 VAC
 50
180.0
 41
0.8
 72
     1
 11
570.05001000000004
 21
987.6442556249998
 31
0.0
 73
     3
  0
TEXT
  5
15B
  8
DATA
 62
     7
 10
582.07316624999999
 20
992.42198999999971
 30
0.0
 40
2.077734374999999
  1
5A 50/60 Hz UNSW
 50
180.0
 41
0.8
 72
     1
 11
570.05001000000004
 21
990.34425562499973
 31
0.0
 73
     3
  0
TEXT
  5
15C
  8
DATA
 62
     7
 10
609.57991625
 20
989.72198999999966
 30
0.0
 40
2.077734374999999
  1
INPUT.90-120 VAC
 50
180.0
 41
0.8
 72
     1
 11
598.00000999999986
 21
987.6442556249998
 31
0.0
 73
     3
  0
TEXT
  5
15D
  8
DATA
 62
     7
 10
606.89271312499989
 20
992.42198999999971
 30
0.0
 40
2.077734374999999
  1
0.5A 50/60 Hz
 50
180.0
 41
0.8
 72
     1
 11
598.00000999999986
 21
990.34425562499973
 31
0.0
 73
     3
  0
LINE
  5
15E
  8
DATA
  6
CONTINUOUS
 62
     7
 10
646.99999000000003
 20
978.64998999999966
 30
0.0
 11
649.70000000000005
 21
978.64998999999966
 31
0.0
  0
LINE
  5
15F
  8
DATA
  6
CONTINUOUS
 62
     7
 10
646.99999000000003
 20
971.94998999999973
 30
0.0
 11
649.70000000000005
 21
971.94998999999973
 31
0.0
  0
LINE
  5
160
  8
DATA
  6
CONTINUOUS
 62
     7
 10
643.99999000000003
 20
991.29998999999975
 30
0.0
 11
646.99999000000003
 21
991.29998999999975
 31
0.0
  0
LINE
  5
161
  8
DATA
  6
CONTINUOUS
 62
     7
 10
643.99999000000003
 20
952.99998999999957
 30
0.0
 11
646.99999000000003
 21
952.99998999999957
 31
0.0
  0
LINE
  5
162
  8
DATA
  6
CONTINUOUS
 62
     7
 10
650.99999000000003
 20
976.64998999999966
 30
0.0
 11
649.70000000000005
 21
976.64998999999966
 31
0.0
  0
LINE
  5
163
  8
DATA
  6
CONTINUOUS
 62
     7
 10
650.99999000000003
 20
967.64999999999975
 30
0.0
 11
646.99999000000003
 21
967.64999999999975
 31
0.0
  0
LINE
  5
164
  8
DATA
  6
CONTINUOUS
 62
     7
 10
651.99999000000003
 20
964.54998999999975
 30
0.0
 11
651.99999000000003
 21
966.64999999999975
 31
0.0
  0
LINE
  5
165
  8
DATA
  6
CONTINUOUS
 62
     7
 10
660.99999000000003
 20
964.54998999999975
 30
0.0
 11
660.99999000000003
 21
966.64997999999957
 31
0.0
  0
LINE
  5
166
  8
DATA
  6
CONTINUOUS
 62
     7
 10
660.99999000000003
 20
979.74999999999966
 30
0.0
 11
651.99999000000003
 21
979.74999999999966
 31
0.0
  0
LINE
  5
167
  8
DATA
  6
CONTINUOUS
 62
     7
 10
660.99999000000003
 20
964.54998999999975
 30
0.0
 11
651.99999000000003
 21
964.54998999999975
 31
0.0
  0
ARC
  5
168
  8
DATA
  6
CONTINUOUS
 62
     7
 10
656.49999000000003
 20
972.14998999999955
 30
0.0
 40
7.106329757371225
 50
129.54597387888799
 51
140.7105307362115
  0
LINE
  5
169
  8
DATA
  6
CONTINUOUS
 62
     7
 10
660.99999000000003
 20
979.74999999999966
 30
0.0
 11
660.99999000000003
 21
977.64999999999964
 31
0.0
  0
ARC
  5
16A
  8
DATA
  6
CONTINUOUS
 62
     7
 10
656.49999000000003
 20
972.14998999999955
 30
0.0
 40
7.1063314034528382
 50
181.6846084670423
 51
309.2894068625003
  0
LINE
  5
16B
  8
DATA
  6
CONTINUOUS
 62
     7
 10
233.30000000000001
 20
971.94998999999973
 30
0.0
 11
233.30000000000001
 21
978.64998999999966
 31
0.0
  0
LINE
  5
16C
  8
DATA
  6
CONTINUOUS
 62
     7
 10
236.00001
 20
978.64998999999966
 30
0.0
 11
233.30000000000001
 21
978.64998999999966
 31
0.0
  0
LINE
  5
16D
  8
DATA
  6
CONTINUOUS
 62
     7
 10
236.00001
 20
971.94998999999973
 30
0.0
 11
233.30000000000001
 21
971.94998999999973
 31
0.0
  0
LINE
  5
16E
  8
DATA
  6
CONTINUOUS
 62
     7
 10
232.00001000000009
 20
976.64998999999966
 30
0.0
 11
233.30000000000001
 21
976.64998999999966
 31
0.0
  0
LINE
  5
16F
  8
DATA
  6
CONTINUOUS
 62
     7
 10
232.00001000000009
 20
967.64999999999975
 30
0.0
 11
236.00001
 21
967.64999999999975
 31
0.0
  0
LINE
  5
170
  8
DATA
  6
CONTINUOUS
 62
     7
 10
231.00001
 20
964.54998999999975
 30
0.0
 11
231.00001
 21
966.64999999999975
 31
0.0
  0
LINE
  5
171
  8
DATA
  6
CONTINUOUS
 62
     7
 10
222.00001
 20
964.54998999999975
 30
0.0
 11
222.00001
 21
966.64997999999957
 31
0.0
  0
LINE
  5
172
  8
DATA
  6
CONTINUOUS
 62
     7
 10
222.00001
 20
979.74999999999966
 30
0.0
 11
231.00001
 21
979.74999999999966
 31
0.0
  0
LINE
  5
173
  8
DATA
  6
CONTINUOUS
 62
     7
 10
222.00001
 20
964.54998999999975
 30
0.0
 11
231.00001
 21
964.54998999999975
 31
0.0
  0
ARC
  5
174
  8
DATA
  6
CONTINUOUS
 62
     7
 10
226.50001
 20
972.14998999999955
 30
0.0
 40
7.1063352017759289
 50
39.289406862500194
 51
50.454026121111838
  0
ARC
  5
175
  8
DATA
  6
CONTINUOUS
 62
     7
 10
226.50001
 20
972.14998999999955
 30
0.0
 40
7.106342941351742
 50
129.289355806911
 51
224.99994298865039
  0
LINE
  5
176
  8
DATA
  6
CONTINUOUS
 62
     7
 10
222.00001
 20
979.74999999999966
 30
0.0
 11
222.00001
 21
977.64999999999964
 31
0.0
  0
ARC
  5
177
  8
DATA
  6
CONTINUOUS
 62
     7
 10
226.50001
 20
972.14998999999955
 30
0.0
 40
7.106335501508501
 50
239.99988596034609
 51
358.31539153295768
  0
LINE
  5
178
  8
DATA
  6
CONTINUOUS
 62
     7
 10
239.00001
 20
991.29998999999975
 30
0.0
 11
236.00001
 21
991.29998999999975
 31
0.0
  0
LINE
  5
179
  8
DATA
  6
CONTINUOUS
 62
     7
 10
239.00001
 20
952.99998999999957
 30
0.0
 11
236.00001
 21
952.99998999999957
 31
0.0
  0
LINE
  5
17A
  8
DATA
  6
CONTINUOUS
 62
     7
 10
676.05179999999984
 20
952.39999999999975
 30
0.0
 11
672.94818999999995
 21
952.39999999999975
 31
0.0
  0
LINE
  5
17B
  8
DATA
  6
CONTINUOUS
 62
     7
 10
676.05179999999984
 20
959.39999999999975
 30
0.0
 11
672.94818999999995
 21
959.39999999999975
 31
0.0
  0
ARC
  5
17C
  8
DATA
  6
CONTINUOUS
 62
     7
 10
672.94818999999995
 20
955.89999999999975
 30
0.0
 40
3.5
 50
90.0
 51
270.0
  0
ARC
  5
17D
  8
DATA
  6
CONTINUOUS
 62
     7
 10
676.05179999999984
 20
955.89999999999975
 30
0.0
 40
3.5
 50
270.0
 51
90.0
  0
LINE
  5
17E
  8
DATA
  6
CONTINUOUS
 62
     7
 10
676.05179999999984
 20
991.89998999999966
 30
0.0
 11
672.94818999999995
 21
991.89998999999966
 31
0.0
  0
LINE
  5
17F
  8
DATA
  6
CONTINUOUS
 62
     7
 10
676.05179999999984
 20
984.89998999999966
 30
0.0
 11
672.94818999999995
 21
984.89998999999966
 31
0.0
  0
ARC
  5
180
  8
DATA
  6
CONTINUOUS
 62
     7
 10
672.94818999999995
 20
988.39998999999966
 30
0.0
 40
3.5
 50
90.0
 51
270.0
  0
ARC
  5
181
  8
DATA
  6
CONTINUOUS
 62
     7
 10
676.05179999999984
 20
988.39998999999966
 30
0.0
 40
3.5
 50
270.0
 51
90.0
  0
LINE
  5
182
  8
DATA
  6
CONTINUOUS
 62
     7
 10
206.94819000000001
 20
952.39999999999975
 30
0.0
 11
210.05181999999999
 21
952.39999999999975
 31
0.0
  0
LINE
  5
183
  8
DATA
  6
CONTINUOUS
 62
     7
 10
206.94819000000001
 20
959.39999999999975
 30
0.0
 11
210.05181999999999
 21
959.39999999999975
 31
0.0
  0
ARC
  5
184
  8
DATA
  6
CONTINUOUS
 62
     7
 10
210.05181999999999
 20
955.89999999999975
 30
0.0
 40
3.5
 50
270.0
 51
90.0
  0
ARC
  5
185
  8
DATA
  6
CONTINUOUS
 62
     7
 10
206.94819000000001
 20
955.89999999999975
 30
0.0
 40
3.5
 50
90.0
 51
270.0
  0
LINE
  5
186
  8
DATA
  6
CONTINUOUS
 62
     7
 10
206.94819000000001
 20
991.89998999999966
 30
0.0
 11
210.05181999999999
 21
991.89998999999966
 31
0.0
  0
LINE
  5
187
  8
DATA
  6
CONTINUOUS
 62
     7
 10
206.94819000000001
 20
984.89998999999966
 30
0.0
 11
210.05181999999999
 21
984.89998999999966
 31
0.0
  0
ARC
  5
188
  8
DATA
  6
CONTINUOUS
 62
     7
 10
210.05181999999999
 20
988.39998999999966
 30
0.0
 40
3.5
 50
270.0
 51
90.0
  0
ARC
  5
189
  8
DATA
  6
CONTINUOUS
 62
     7
 10
206.94819000000001
 20
988.39998999999966
 30
0.0
 40
3.5
 50
90.0
 51
270.0
  0
LINE
  5
18A
  8
DATA
  6
CONTINUOUS
 62
     7
 10
200.00001
 20
350.0000099999998
 30
0.0
 11
682.99999000000003
 21
350.0000099999998
 31
0.0
  0
LINE
  5
18B
  8
DATA
  6
CONTINUOUS
 62
     7
 10
200.00001
 20
350.0000099999998
 30
0.0
 11
200.00001
 21
394.29999999999978
 31
0.0
  0
LINE
  5
18C
  8
DATA
  6
CONTINUOUS
 62
     7
 10
682.99999000000003
 20
350.0000099999998
 30
0.0
 11
682.99999000000003
 21
394.29999999999978
 31
0.0
  0
LINE
  5
18D
  8
DATA
  6
CONTINUOUS
 62
     7
 10
200.00001
 20
394.29999999999978
 30
0.0
 11
682.99999000000003
 21
394.29999999999978
 31
0.0
  0
ARC
  5
18E
  8
DATA
  6
CONTINUOUS
 62
     7
 10
656.49999000000003
 20
372.14999999999992
 30
0.0
 40
7.106350202459776
 50
309.5460468883623
 51
230.71064419308871
  0
LINE
  5
18F
  8
DATA
  6
CONTINUOUS
 62
     7
 10
661.02458999999988
 20
366.67021999999992
 30
0.0
 11
651.99999000000003
 21
366.64999999999992
 31
0.0
  0
ARC
  5
190
  8
DATA
  6
CONTINUOUS
 62
     7
 10
226.49692999999999
 20
372.14999999999992
 30
0.0
 40
7.1063254898224404
 50
314.18693157628542
 51
230.4539126143469
  0
LINE
  5
191
  8
DATA
  6
CONTINUOUS
 62
     7
 10
676.05179999999984
 20
352.39999999999992
 30
0.0
 11
672.94818999999995
 21
352.39999999999992
 31
0.0
  0
LINE
  5
192
  8
DATA
  6
CONTINUOUS
 62
     7
 10
676.05179999999984
 20
359.39999999999981
 30
0.0
 11
672.94818999999995
 21
359.39999999999981
 31
0.0
  0
ARC
  5
193
  8
DATA
  6
CONTINUOUS
 62
     7
 10
672.94818999999995
 20
355.89999999999992
 30
0.0
 40
3.5
 50
90.0
 51
270.0
  0
ARC
  5
194
  8
DATA
  6
CONTINUOUS
 62
     7
 10
676.05179999999984
 20
355.89999999999992
 30
0.0
 40
3.5
 50
270.0
 51
90.0
  0
LINE
  5
195
  8
DATA
  6
CONTINUOUS
 62
     7
 10
676.05179999999984
 20
391.89999999999992
 30
0.0
 11
672.94818999999995
 21
391.89999999999992
 31
0.0
  0
LINE
  5
196
  8
DATA
  6
CONTINUOUS
 62
     7
 10
676.05179999999984
 20
384.89999999999992
 30
0.0
 11
672.94818999999995
 21
384.89999999999992
 31
0.0
  0
ARC
  5
197
  8
DATA
  6
CONTINUOUS
 62
     7
 10
672.94818999999995
 20
388.39999999999981
 30
0.0
 40
3.5
 50
90.0
 51
270.0
  0
ARC
  5
198
  8
DATA
  6
CONTINUOUS
 62
     7
 10
676.05179999999984
 20
388.39999999999981
 30
0.0
 40
3.5
 50
270.0
 51
90.0
  0
LINE
  5
199
  8
DATA
  6
CONTINUOUS
 62
     7
 10
206.94819000000001
 20
352.39999999999992
 30
0.0
 11
210.05181999999999
 21
352.39999999999992
 31
0.0
  0
LINE
  5
19A
  8
DATA
  6
CONTINUOUS
 62
     7
 10
206.94819000000001
 20
359.39999999999981
 30
0.0
 11
210.05181999999999
 21
359.39999999999981
 31
0.0
  0
ARC
  5
19B
  8
DATA
  6
CONTINUOUS
 62
     7
 10
210.05181999999999
 20
355.89999999999992
 30
0.0
 40
3.5
 50
270.0
 51
90.0
  0
ARC
  5
19C
  8
DATA
  6
CONTINUOUS
 62
     7
 10
206.94819000000001
 20
355.89999999999992
 30
0.0
 40
3.5
 50
90.0
 51
270.0
  0
LINE
  5
19D
  8
DATA
  6
CONTINUOUS
 62
     7
 10
206.94819000000001
 20
391.89999999999992
 30
0.0
 11
210.05181999999999
 21
391.89999999999992
 31
0.0
  0
LINE
  5
19E
  8
DATA
  6
CONTINUOUS
 62
     7
 10
206.94819000000001
 20
384.89999999999992
 30
0.0
 11
210.05181999999999
 21
384.89999999999992
 31
0.0
  0
ARC
  5
19F
  8
DATA
  6
CONTINUOUS
 62
     7
 10
210.05181999999999
 20
388.39999999999981
 30
0.0
 40
3.5
 50
270.0
 51
90.0
  0
ARC
  5
1A0
  8
DATA
  6
CONTINUOUS
 62
     7
 10
206.94819000000001
 20
388.39999999999981
 30
0.0
 40
3.5
 50
90.0
 51
270.0
  0
LINE
  5
1A1
  8
DATA
  6
CONTINUOUS
 62
     7
 10
629.60000000000002
 20
387.29999999999978
 30
0.0
 11
629.60000000000002
 21
357.00000999999992
 31
0.0
  0
LINE
  5
1A2
  8
DATA
  6
CONTINUOUS
 62
     7
 10
627.60000000000002
 20
387.29999999999978
 30
0.0
 11
627.60000000000002
 21
357.00000999999992
 31
0.0
  0
LINE
  5
1A3
  8
DATA
  6
CONTINUOUS
 62
     7
 10
624.99999000000003
 20
382.14999999999981
 30
0.0
 11
624.99999000000003
 21
362.14999999999992
 31
0.0
  0
LINE
  5
1A4
  8
DATA
  6
CONTINUOUS
 62
     7
 10
611.99999000000003
 20
382.14999999999981
 30
0.0
 11
611.99999000000003
 21
362.14999999999992
 31
0.0
  0
LINE
  5
1A5
  8
DATA
  6
CONTINUOUS
 62
     7
 10
609.39999
 20
387.29999999999978
 30
0.0
 11
609.39999
 21
357.00000999999992
 31
0.0
  0
LINE
  5
1A6
  8
DATA
  6
CONTINUOUS
 62
     7
 10
607.39999999999986
 20
387.29999999999978
 30
0.0
 11
607.39999999999986
 21
357.00000999999992
 31
0.0
  0
LINE
  5
1A7
  8
DATA
  6
CONTINUOUS
 62
     7
 10
607.39999999999986
 20
387.29999999999978
 30
0.0
 11
629.60000000000002
 21
387.29999999999978
 31
0.0
  0
LINE
  5
1A8
  8
DATA
  6
CONTINUOUS
 62
     7
 10
607.39999999999986
 20
357.00000999999992
 30
0.0
 11
629.60000000000002
 21
357.00000999999992
 31
0.0
  0
LINE
  5
1A9
  8
DATA
  6
CONTINUOUS
 62
     7
 10
609.39999
 20
385.84999999999991
 30
0.0
 11
627.60000000000002
 21
385.84999999999991
 31
0.0
  0
LINE
  5
1AA
  8
DATA
  6
CONTINUOUS
 62
     7
 10
609.39999
 20
358.45000999999979
 30
0.0
 11
627.60000000000002
 21
358.45000999999979
 31
0.0
  0
LINE
  5
1AB
  8
DATA
  6
CONTINUOUS
 62
     7
 10
611.99999000000003
 20
382.14999999999981
 30
0.0
 11
624.99999000000003
 21
382.14999999999981
 31
0.0
  0
LINE
  5
1AC
  8
DATA
  6
CONTINUOUS
 62
     7
 10
611.99999000000003
 20
362.14999999999992
 30
0.0
 11
624.99999000000003
 21
362.14999999999992
 31
0.0
  0
LINE
  5
1AD
  8
DATA
  6
CONTINUOUS
 62
     7
 10
611.99999000000003
 20
377.64999999999992
 30
0.0
 11
624.99999000000003
 21
377.64999999999992
 31
0.0
  0
CIRCLE
  5
1AE
  8
DATA
  6
CONTINUOUS
 62
     7
 10
618.5
 20
366.55000999999987
 30
0.0
 40
1.9999915386320739
  0
LINE
  5
1AF
  8
DATA
  6
CONTINUOUS
 62
     7
 10
618.5
 20
376.39999999999992
 30
0.0
 11
618.5
 21
373.39999999999992
 31
0.0
  0
LINE
  5
1B0
  8
DATA
  6
CONTINUOUS
 62
     7
 10
635.59999000000005
 20
394.29999999999978
 30
0.0
 11
635.59999000000005
 21
350.0000099999998
 31
0.0
  0
LINE
  5
1B1
  8
DATA
  6
CONTINUOUS
 62
     7
 10
636.59999000000016
 20
394.29999999999978
 30
0.0
 11
636.59999000000016
 21
350.0000099999998
 31
0.0
  0
LINE
  5
1B2
  8
DATA
  6
CONTINUOUS
 62
     7
 10
247.40000000000001
 20
394.29999999999978
 30
0.0
 11
247.40000000000001
 21
350.0000099999998
 31
0.0
  0
LINE
  5
1B3
  8
DATA
  6
CONTINUOUS
 62
     7
 10
246.40000000000001
 20
394.29999999999978
 30
0.0
 11
246.40000000000001
 21
350.0000099999998
 31
0.0
  0
TEXT
  5
1B4
  8
DATA
 62
     7
 10
603.23252544583318
 20
388.44000859999971
 30
0.0
 40
4.617179804687499
  1
SHURE UHF
 41
0.8
 72
     1
 11
618.5
 21
393.05718840468728
 31
0.0
 73
     3
  0
TEXT
  5
1B5
  8
DATA
 62
     7
 10
612.11249999999995
 20
351.77199999999971
 30
0.0
 40
3.6937500000000001
  1
POWER
 41
0.8
 72
     1
 11
619.5
 21
355.46574999999979
 31
0.0
 73
     3
  0
LINE
  5
1B6
  8
DATA
  6
CONTINUOUS
 62
     7
 10
750.0
 20
350.0000099999998
 30
0.0
 11
1045.2750000000001
 21
350.0000099999998
 31
0.0
  0
LINE
  5
1B7
  8
DATA
  6
CONTINUOUS
 62
     7
 10
750.0
 20
394.29999999999978
 30
0.0
 11
1045.2750000000001
 21
394.29999999999978
 31
0.0
  0
LINE
  5
1B8
  8
DATA
  6
CONTINUOUS
 62
     7
 10
750.0
 20
394.29999999999978
 30
0.0
 11
750.0
 21
350.0000099999998
 31
0.0
  0
LINE
  5
1B9
  8
DATA
  6
CONTINUOUS
 62
     7
 10
754.79998999999987
 20
394.29999999999978
 30
0.0
 11
754.79998999999987
 21
350.0000099999998
 31
0.0
  0
LINE
  5
1BA
  8
DATA
  6
CONTINUOUS
 62
     7
 10
757.79998999999998
 20
394.29999999999978
 30
0.0
 11
757.79998999999998
 21
350.0000099999998
 31
0.0
  0
LINE
  5
1BB
  8
DATA
  6
CONTINUOUS
 62
     7
 10
840.70000000000005
 20
367.00000999999992
 30
0.0
 11
840.70000000000005
 21
371.0000099999998
 31
0.0
  0
LINE
  5
1BC
  8
DATA
  6
CONTINUOUS
 62
     7
 10
982.79998999999998
 20
391.29999999999978
 30
0.0
 11
982.79998999999998
 21
353.00000999999992
 31
0.0
  0
LINE
  5
1BD
  8
DATA
  6
CONTINUOUS
 62
     7
 10
1045.2750000000001
 20
394.29999999999978
 30
0.0
 11
1045.2750000000001
 21
350.0000099999998
 31
0.0
  0
LINE
  5
1BE
  8
DATA
  6
CONTINUOUS
 62
     7
 10
747.5
 20
387.29999999999978
 30
0.0
 11
750.0
 21
387.29999999999978
 31
0.0
  0
LINE
  5
1BF
  8
DATA
  6
CONTINUOUS
 62
     7
 10
747.5
 20
357.00000999999992
 30
0.0
 11
750.0
 21
357.00000999999992
 31
0.0
  0
LINE
  5
1C0
  8
DATA
  6
CONTINUOUS
 62
     7
 10
743.51368999999988
 20
360.00000999999992
 30
0.0
 11
743.51368999999988
 21
384.99849999999992
 31
0.0
  0
LINE
  5
1C1
  8
DATA
  6
CONTINUOUS
 62
     7
 10
627.60000000000002
 20
384.64999999999992
 30
0.0
 11
629.60000000000002
 21
384.64999999999992
 31
0.0
  0
LINE
  5
1C2
  8
DATA
  6
CONTINUOUS
 62
     7
 10
627.60000000000002
 20
359.64999999999992
 30
0.0
 11
629.60000000000002
 21
359.64999999999992
 31
0.0
  0
LINE
  5
1C3
  8
DATA
  6
CONTINUOUS
 62
     7
 10
609.39999
 20
384.64999999999992
 30
0.0
 11
607.39999999999986
 21
384.64999999999992
 31
0.0
  0
LINE
  5
1C4
  8
DATA
  6
CONTINUOUS
 62
     7
 10
609.39999
 20
359.64999999999992
 30
0.0
 11
607.39999999999986
 21
359.64999999999992
 31
0.0
  0
LINE
  5
1C5
  8
DATA
  6
CONTINUOUS
 62
     7
 10
747.5
 20
387.29999999999978
 30
0.0
 11
743.51368999999988
 21
384.99849999999992
 31
0.0
  0
LINE
  5
1C6
  8
DATA
  6
CONTINUOUS
 62
     7
 10
747.5
 20
357.00000999999992
 30
0.0
 11
743.56777999999974
 21
359.64999999999992
 31
0.0
  0
LINE
  5
1C7
  8
DATA
  6
CONTINUOUS
 62
     7
 10
754.79998999999987
 20
391.29999999999978
 30
0.0
 11
757.79998999999998
 21
391.29999999999978
 31
0.0
  0
LINE
  5
1C8
  8
DATA
  6
CONTINUOUS
 62
     7
 10
754.79998999999987
 20
353.00000999999992
 30
0.0
 11
757.79998999999998
 21
353.00000999999992
 31
0.0
  0
LINE
  5
1C9
  8
DATA
  6
CONTINUOUS
 62
     7
 10
838.70000000000005
 20
369.00000999999992
 30
0.0
 11
842.70000000000005
 21
369.00000999999992
 31
0.0
  0
CIRCLE
  5
1CA
  8
DATA
  6
CONTINUOUS
 62
     7
 10
840.70000000000005
 20
369.00000999999992
 30
0.0
 40
3.3499898838056121
  0
LINE
  5
1CB
  8
DATA
  6
CONTINUOUS
 62
     7
 10
967.54998999999998
 20
367.00000999999992
 30
0.0
 11
967.54998999999998
 21
371.0000099999998
 31
0.0
  0
LINE
  5
1CC
  8
DATA
  6
CONTINUOUS
 62
     7
 10
965.54998999999998
 20
369.00000999999992
 30
0.0
 11
969.54998999999987
 21
369.00000999999992
 31
0.0
  0
CIRCLE
  5
1CD
  8
DATA
  6
CONTINUOUS
 62
     7
 10
967.54998999999998
 20
369.00000999999992
 30
0.0
 40
3.349990047701624
  0
LINE
  5
1CE
  8
DATA
  6
CONTINUOUS
 62
     7
 10
979.79998999999998
 20
394.29999999999978
 30
0.0
 11
982.79998999999998
 21
391.29999999999978
 31
0.0
  0
LINE
  5
1CF
  8
DATA
  6
CONTINUOUS
 62
     7
 10
979.79998999999998
 20
350.0000099999998
 30
0.0
 11
982.79998999999998
 21
353.00000999999992
 31
0.0
  0
LINE
  5
1D0
  8
DATA
  6
CONTINUOUS
 62
     7
 10
1046.7750000000001
 20
358.00000999999992
 30
0.0
 11
1046.7750000000001
 21
388.00000999999992
 31
0.0
  0
LINE
  5
1D1
  8
DATA
  6
CONTINUOUS
 62
     7
 10
1059.2762600000001
 20
365.64999999999981
 30
0.0
 11
1059.2737199999999
 21
375.14999999999992
 31
0.0
  0
LINE
  5
1D2
  8
DATA
  6
CONTINUOUS
 62
     7
 10
1046.7750000000001
 20
388.00000999999992
 30
0.0
 11
1045.2750000000001
 21
388.00000999999992
 31
0.0
  0
LINE
  5
1D3
  8
DATA
  6
CONTINUOUS
 62
     7
 10
1046.7750000000001
 20
358.00000999999992
 30
0.0
 11
1045.2750000000001
 21
358.00000999999992
 31
0.0
  0
LINE
  5
1D4
  8
DATA
  6
CONTINUOUS
 62
     7
 10
1059.2737199999999
 20
375.14999999999992
 30
0.0
 11
1046.7750000000001
 21
375.14999999999992
 31
0.0
  0
LINE
  5
1D5
  8
DATA
  6
CONTINUOUS
 62
     7
 10
1059.2762600000001
 20
365.64999999999981
 30
0.0
 11
1046.7750000000001
 21
365.64999999999981
 31
0.0
  0
LINE
  5
1D6
  8
DATA
  6
CONTINUOUS
 62
     7
 10
1054.2782
 20
375.14999999999992
 30
0.0
 11
1054.2782
 21
375.64999999999992
 31
0.0
  0
LINE
  5
1D7
  8
DATA
  6
CONTINUOUS
 62
     7
 10
1054.2782
 20
365.64999999999981
 30
0.0
 11
1054.2782
 21
365.14999999999992
 31
0.0
  0
LINE
  5
1D8
  8
DATA
  6
CONTINUOUS
 62
     7
 10
1056.2782
 20
375.14999999999992
 30
0.0
 11
1056.2782
 21
375.64999999999992
 31
0.0
  0
LINE
  5
1D9
  8
DATA
  6
CONTINUOUS
 62
     7
 10
1056.2782
 20
365.64999999999981
 30
0.0
 11
1056.2782
 21
365.14999999999992
 31
0.0
  0
LINE
  5
1DA
  8
DATA
  6
CONTINUOUS
 62
     7
 10
1054.2782
 20
375.64999999999992
 30
0.0
 11
1056.0781999999999
 21
375.64999999999992
 31
0.0
  0
LINE
  5
1DB
  8
DATA
  6
CONTINUOUS
 62
     7
 10
1054.2782
 20
365.14999999999992
 30
0.0
 11
1056.0781999999999
 21
365.14999999999992
 31
0.0
  0
LINE
  5
1DC
  8
DATA
  6
CONTINUOUS
 62
     7
 10
262.50000999999997
 20
971.48442999999975
 30
0.0
 11
264.50000999999997
 21
971.48442999999975
 31
0.0
  0
LINE
  5
1DD
  8
DATA
  6
CONTINUOUS
 62
     7
 10
531.02501000000007
 20
976.51555999999982
 30
0.0
 11
533.02500999999995
 21
976.51555999999982
 31
0.0
  0
LINE
  5
1DE
  8
DATA
  6
CONTINUOUS
 62
     7
 10
531.02501000000007
 20
971.48442999999975
 30
0.0
 11
533.02500999999995
 21
971.48442999999975
 31
0.0
  0
LINE
  5
1DF
  8
DATA
  6
CONTINUOUS
 62
     7
 10
680.0
 20
994.29998999999964
 30
0.0
 11
682.99999000000003
 21
991.29998999999975
 31
0.0
  0
LINE
  5
1E0
  8
DATA
  6
CONTINUOUS
 62
     7
 10
680.0
 20
949.99998999999968
 30
0.0
 11
682.99999000000003
 21
952.99998999999957
 31
0.0
  0
LINE
  5
1E1
  8
DATA
  6
CONTINUOUS
 62
     7
 10
203.00001
 20
994.29998999999964
 30
0.0
 11
200.00001
 21
991.29998999999975
 31
0.0
  0
LINE
  5
1E2
  8
DATA
  6
CONTINUOUS
 62
     7
 10
203.00001
 20
949.99998999999968
 30
0.0
 11
200.00001
 21
952.99998999999957
 31
0.0
  0
LINE
  5
1E3
  8
DATA
  6
CONTINUOUS
 62
     7
 10
788.32255999999984
 20
376.64999999999992
 30
0.0
 11
757.79998999999998
 21
376.64999999999992
 31
0.0
  0
LINE
  5
1E4
  8
DATA
  6
CONTINUOUS
 62
     7
 10
788.32255999999984
 20
367.64999999999981
 30
0.0
 11
757.79998999999998
 21
367.64999999999981
 31
0.0
  0
ARC
  5
1E5
  8
DATA
  6
CONTINUOUS
 62
     7
 10
788.32255999999984
 20
372.14999999999992
 30
0.0
 40
4.5
 50
270.0
 51
90.0
  0
CIRCLE
  5
1E6
  8
DATA
  6
CONTINUOUS
 62
     7
 10
840.70000000000005
 20
375.03204999999991
 30
0.0
 40
2.0
  0
CIRCLE
  5
1E7
  8
DATA
  6
CONTINUOUS
 62
     7
 10
967.54998999999998
 20
375.20000999999979
 30
0.0
 40
2.0
  0
LINE
  5
1E8
  8
DATA
  6
CONTINUOUS
 62
     7
 10
393.00000999999997
 20
971.19998999999962
 30
0.0
 11
428.01001000000002
 21
971.19998999999962
 31
0.0
  0
LINE
  5
1E9
  8
DATA
  6
CONTINUOUS
 62
     7
 10
393.38715999999999
 20
962.79998999999975
 30
0.0
 11
427.62285999999989
 21
962.79998999999975
 31
0.0
  0
POLYLINE
  5
1EA
  8
DATA
  6
CONTINUOUS
 62
     7
 66
     1
 10
0.0
 20
0.0
 30
0.0
 70
   129
  0
VERTEX
  5
AC9
  8
DATA
  6
CONTINUOUS
 62
     7
 10
397.58499999999998
 20
965.57998999999984
 30
0.0
 42
-0.4142135623730951
  0
VERTEX
  5
ACA
  8
DATA
  6
CONTINUOUS
 62
     7
 10
398.08499999999998
 20
966.07998999999973
 30
0.0
 42
-0.4142135623731117
  0
VERTEX
  5
ACB
  8
DATA
  6
CONTINUOUS
 62
     7
 10
398.58499999999998
 20
965.57998999999984
 30
0.0
 42
-0.4142135623730951
  0
VERTEX
  5
ACC
  8
DATA
  6
CONTINUOUS
 62
     7
 10
398.08499999999998
 20
965.07998999999973
 30
0.0
 42
-0.4142135623730784
  0
VERTEX
  5
ACD
  8
DATA
  6
CONTINUOUS
 62
     7
 10
397.58499999999998
 20
965.57998999999984
 30
0.0
  0
SEQEND
  5
ACE
  8
DATA
  6
CONTINUOUS
 62
     7
  0
POLYLINE
  5
1F1
  8
DATA
  6
CONTINUOUS
 62
     7
 66
     1
 10
0.0
 20
0.0
 30
0.0
 70
   129
  0
VERTEX
  5
ACF
  8
DATA
  6
CONTINUOUS
 62
     7
 10
386.23500000000001
 20
968.29903743580337
 30
0.0
  0
VERTEX
  5
AD0
  8
DATA
  6
CONTINUOUS
 62
     7
 10
386.24589052798598
 20
968.30526845280872
 30
0.0
  0
VERTEX
  5
AD1
  8
DATA
  6
CONTINUOUS
 62
     7
 10
386.2568073487343
 20
968.31140134356156
 30
0.0
  0
VERTEX
  5
AD2
  8
DATA
  6
CONTINUOUS
 62
     7
 10
386.26775046224498
 20
968.31743610806245
 30
0.0
  0
VERTEX
  5
AD3
  8
DATA
  6
CONTINUOUS
 62
     7
 10
386.27871986851801
 20
968.32337274631163
 30
0.0
  0
VERTEX
  5
AD4
  8
DATA
  6
CONTINUOUS
 62
     7
 10
386.28971556755317
 20
968.32921125830853
 30
0.0
  0
VERTEX
  5
AD5
  8
DATA
  6
CONTINUOUS
 62
     7
 10
386.30073755935109
 20
968.33495164405304
 30
0.0
  0
VERTEX
  5
AD6
  8
DATA
  6
CONTINUOUS
 62
     7
 10
386.3117858439112
 20
968.34059390354571
 30
0.0
  0
VERTEX
  5
AD7
  8
DATA
  6
CONTINUOUS
 62
     7
 10
386.3228604212336
 20
968.34613803678678
 30
0.0
  0
VERTEX
  5
AD8
  8
DATA
  6
CONTINUOUS
 62
     7
 10
386.3339612913183
 20
968.35158404377603
 30
0.0
  0
VERTEX
  5
AD9
  8
DATA
  6
CONTINUOUS
 62
     7
 10
386.34508845416542
 20
968.35693192451231
 30
0.0
  0
VERTEX
  5
ADA
  8
DATA
  6
CONTINUOUS
 62
     7
 10
386.35624190977478
 20
968.36218167899665
 30
0.0
  0
VERTEX
  5
ADB
  8
DATA
  6
CONTINUOUS
 62
     7
 10
386.36742165814672
 20
968.3673333072295
 30
0.0
  0
VERTEX
  5
ADC
  8
DATA
  6
CONTINUOUS
 62
     7
 10
386.37862769928091
 20
968.37238680920996
 30
0.0
  0
VERTEX
  5
ADD
  8
DATA
  6
CONTINUOUS
 62
     7
 10
386.38986003317729
 20
968.37734218493836
 30
0.0
  0
VERTEX
  5
ADE
  8
DATA
  6
CONTINUOUS
 62
     7
 10
386.40111865983619
 20
968.38219943441482
 30
0.0
  0
VERTEX
  5
ADF
  8
DATA
  6
CONTINUOUS
 62
     7
 10
386.4124035792575
 20
968.38695855763945
 30
0.0
  0
VERTEX
  5
AE0
  8
DATA
  6
CONTINUOUS
 62
     7
 10
386.423714791441
 20
968.39161955461157
 30
0.0
  0
VERTEX
  5
AE1
  8
DATA
  6
CONTINUOUS
 62
     7
 10
386.43505229638703
 20
968.39618242533209
 30
0.0
  0
VERTEX
  5
AE2
  8
DATA
  6
CONTINUOUS
 62
     7
 10
386.44641609409518
 20
968.40064716979987
 30
0.0
  0
VERTEX
  5
AE3
  8
DATA
  6
CONTINUOUS
 62
     7
 10
386.45780618456581
 20
968.40501378801628
 30
0.0
  0
VERTEX
  5
AE4
  8
DATA
  6
CONTINUOUS
 62
     7
 10
386.46922256779879
 20
968.4092822799804
 30
0.0
  0
VERTEX
  5
AE5
  8
DATA
  6
CONTINUOUS
 62
     7
 10
386.48066524379419
 20
968.41345264569259
 30
0.0
  0
VERTEX
  5
AE6
  8
DATA
  6
CONTINUOUS
 62
     7
 10
386.49213421255178
 20
968.41752488515249
 30
0.0
  0
VERTEX
  5
AE7
  8
DATA
  6
CONTINUOUS
 62
     7
 10
386.50362947407189
 20
968.42149899836045
 30
0.0
  0
VERTEX
  5
AE8
  8
DATA
  6
CONTINUOUS
 62
     7
 10
386.51515102835418
 20
968.42537498531635
 30
0.0
  0
VERTEX
  5
AE9
  8
DATA
  6
CONTINUOUS
 62
     7
 10
386.52669887539912
 20
968.42915284602054
 30
0.0
  0
VERTEX
  5
AEA
  8
DATA
  6
CONTINUOUS
 62
     7
 10
386.53827301520607
 20
968.432832580472
 30
0.0
  0
VERTEX
  5
AEB
  8
DATA
  6
CONTINUOUS
 62
     7
 10
386.5498734477755
 20
968.43641418867207
 30
0.0
  0
VERTEX
  5
AEC
  8
DATA
  6
CONTINUOUS
 62
     7
 10
386.56150017310722
 20
968.43989767061942
 30
0.0
  0
VERTEX
  5
AED
  8
DATA
  6
CONTINUOUS
 62
     7
 10
386.57315319120141
 20
968.44328302631527
 30
0.0
  0
VERTEX
  5
AEE
  8
DATA
  6
CONTINUOUS
 62
     7
 10
386.58483250205779
 20
968.44657025575896
 30
0.0
  0
VERTEX
  5
AEF
  8
DATA
  6
CONTINUOUS
 62
     7
 10
386.5965381056767
 20
968.44975935895081
 30
0.0
  0
VERTEX
  5
AF0
  8
DATA
  6
CONTINUOUS
 62
     7
 10
386.60827000205779
 20
968.45285033589005
 30
0.0
  0
VERTEX
  5
AF1
  8
DATA
  6
CONTINUOUS
 62
     7
 10
386.62002819120141
 20
968.45584318657768
 30
0.0
  0
VERTEX
  5
AF2
  8
DATA
  6
CONTINUOUS
 62
     7
 10
386.63181267310722
 20
968.45873791101315
 30
0.0
  0
VERTEX
  5
AF3
  8
DATA
  6
CONTINUOUS
 62
     7
 10
386.6436234477755
 20
968.46153450919644
 30
0.0
  0
VERTEX
  5
AF4
  8
DATA
  6
CONTINUOUS
 62
     7
 10
386.65546051520607
 20
968.46423298112779
 30
0.0
  0
VERTEX
  5
AF5
  8
DATA
  6
CONTINUOUS
 62
     7
 10
386.66732387539912
 20
968.4668333268072
 30
0.0
  0
VERTEX
  5
AF6
  8
DATA
  6
CONTINUOUS
 62
     7
 10
386.67921352835418
 20
968.46933554623445
 30
0.0
  0
VERTEX
  5
AF7
  8
DATA
  6
CONTINUOUS
 62
     7
 10
386.69112947407189
 20
968.47173963940975
 30
0.0
  0
VERTEX
  5
AF8
  8
DATA
  6
CONTINUOUS
 62
     7
 10
386.70307171255178
 20
968.47404560633265
 30
0.0
  0
VERTEX
  5
AF9
  8
DATA
  6
CONTINUOUS
 62
     7
 10
386.71504024379419
 20
968.47625344700384
 30
0.0
  0
VERTEX
  5
AFA
  8
DATA
  6
CONTINUOUS
 62
     7
 10
386.72703506779879
 20
968.47836316142275
 30
0.0
  0
VERTEX
  5
AFB
  8
DATA
  6
CONTINUOUS
 62
     7
 10
386.73905618456581
 20
968.48037474959017
 30
0.0
  0
VERTEX
  5
AFC
  8
DATA
  6
CONTINUOUS
 62
     7
 10
386.75110359409513
 20
968.48228821150485
 30
0.0
  0
VERTEX
  5
AFD
  8
DATA
  6
CONTINUOUS
 62
     7
 10
386.76317729638703
 20
968.48410354716771
 30
0.0
  0
VERTEX
  5
AFE
  8
DATA
  6
CONTINUOUS
 62
     7
 10
386.775277291441
 20
968.48582075657885
 30
0.0
  0
VERTEX
  5
AFF
  8
DATA
  6
CONTINUOUS
 62
     7
 10
386.7874035792575
 20
968.48743983973759
 30
0.0
  0
VERTEX
  5
B00
  8
DATA
  6
CONTINUOUS
 62
     7
 10
386.79955615983619
 20
968.48896079664405
 30
0.0
  0
VERTEX
  5
B01
  8
DATA
  6
CONTINUOUS
 62
     7
 10
386.8117350331774
 20
968.49038362729902
 30
0.0
  0
VERTEX
  5
B02
  8
DATA
  6
CONTINUOUS
 62
     7
 10
386.82394019928091
 20
968.49170833170172
 30
0.0
  0
VERTEX
  5
B03
  8
DATA
  6
CONTINUOUS
 62
     7
 10
386.83617165814672
 20
968.49293490985212
 30
0.0
  0
VERTEX
  5
B04
  8
DATA
  6
CONTINUOUS
 62
     7
 10
386.84842940977478
 20
968.4940633617507
 30
0.0
  0
VERTEX
  5
B05
  8
DATA
  6
CONTINUOUS
 62
     7
 10
386.86071345416542
 20
968.49509368739712
 30
0.0
  0
VERTEX
  5
B06
  8
DATA
  6
CONTINUOUS
 62
     7
 10
386.8730237913183
 20
968.4960258867917
 30
0.0
  0
VERTEX
  5
B07
  8
DATA
  6
CONTINUOUS
 62
     7
 10
386.8853604212336
 20
968.49685995993423
 30
0.0
  0
VERTEX
  5
B08
  8
DATA
  6
CONTINUOUS
 62
     7
 10
386.8977233439112
 20
968.49759590682436
 30
0.0
  0
VERTEX
  5
B09
  8
DATA
  6
CONTINUOUS
 62
     7
 10
386.91011255935121
 20
968.49823372746289
 30
0.0
  0
VERTEX
  5
B0A
  8
DATA
  6
CONTINUOUS
 62
     7
 10
386.92252806755317
 20
968.49877342184925
 30
0.0
  0
VERTEX
  5
B0B
  8
DATA
  6
CONTINUOUS
 62
     7
 10
386.93496986851801
 20
968.49921498998322
 30
0.0
  0
VERTEX
  5
B0C
  8
DATA
  6
CONTINUOUS
 62
     7
 10
386.94743796224498
 20
968.49955843186558
 30
0.0
  0
VERTEX
  5
B0D
  8
DATA
  6
CONTINUOUS
 62
     7
 10
386.9599323487343
 20
968.49980374749543
 30
0.0
  0
VERTEX
  5
B0E
  8
DATA
  6
CONTINUOUS
 62
     7
 10
386.97245302798598
 20
968.4999509368738
 30
0.0
  0
VERTEX
  5
B0F
  8
DATA
  6
CONTINUOUS
 62
     7
 10
386.98500000000001
 20
968.49999999999955
 30
0.0
  0
VERTEX
  5
B10
  8
DATA
  6
CONTINUOUS
 62
     7
 10
386.99754697201411
 20
968.4999509368738
 30
0.0
  0
VERTEX
  5
B11
  8
DATA
  6
CONTINUOUS
 62
     7
 10
387.01006765126567
 20
968.49980374749543
 30
0.0
  0
VERTEX
  5
B12
  8
DATA
  6
CONTINUOUS
 62
     7
 10
387.02256203775511
 20
968.49955843186558
 30
0.0
  0
VERTEX
  5
B13
  8
DATA
  6
CONTINUOUS
 62
     7
 10
387.03503013148202
 20
968.49921498998322
 30
0.0
  0
VERTEX
  5
B14
  8
DATA
  6
CONTINUOUS
 62
     7
 10
387.04747193244663
 20
968.49877342184925
 30
0.0
  0
VERTEX
  5
B15
  8
DATA
  6
CONTINUOUS
 62
     7
 10
387.05988744064888
 20
968.49823372746289
 30
0.0
  0
VERTEX
  5
B16
  8
DATA
  6
CONTINUOUS
 62
     7
 10
387.07227665608889
 20
968.49759590682436
 30
0.0
  0
VERTEX
  5
B17
  8
DATA
  6
CONTINUOUS
 62
     7
 10
387.08463957876648
 20
968.49685995993423
 30
0.0
  0
VERTEX
  5
B18
  8
DATA
  6
CONTINUOUS
 62
     7
 10
387.09697620868172
 20
968.4960258867917
 30
0.0
  0
VERTEX
  5
B19
  8
DATA
  6
CONTINUOUS
 62
     7
 10
387.10928654583461
 20
968.49509368739712
 30
0.0
  0
VERTEX
  5
B1A
  8
DATA
  6
CONTINUOUS
 62
     7
 10
387.12157059022508
 20
968.4940633617507
 30
0.0
  0
VERTEX
  5
B1B
  8
DATA
  6
CONTINUOUS
 62
     7
 10
387.13382834185342
 20
968.49293490985212
 30
0.0
  0
VERTEX
  5
B1C
  8
DATA
  6
CONTINUOUS
 62
     7
 10
387.14605980071917
 20
968.49170833170172
 30
0.0
  0
VERTEX
  5
B1D
  8
DATA
  6
CONTINUOUS
 62
     7
 10
387.15826496682263
 20
968.49038362729902
 30
0.0
  0
VERTEX
  5
B1E
  8
DATA
  6
CONTINUOUS
 62
     7
 10
387.17044384016373
 20
968.48896079664405
 30
0.0
  0
VERTEX
  5
B1F
  8
DATA
  6
CONTINUOUS
 62
     7
 10
387.18259642074253
 20
968.48743983973759
 30
0.0
  0
VERTEX
  5
B20
  8
DATA
  6
CONTINUOUS
 62
     7
 10
387.19472270855903
 20
968.48582075657885
 30
0.0
  0
VERTEX
  5
B21
  8
DATA
  6
CONTINUOUS
 62
     7
 10
387.20682270361311
 20
968.48410354716771
 30
0.0
  0
VERTEX
  5
B22
  8
DATA
  6
CONTINUOUS
 62
     7
 10
387.21889640590479
 20
968.48228821150485
 30
0.0
  0
VERTEX
  5
B23
  8
DATA
  6
CONTINUOUS
 62
     7
 10
387.23094381543422
 20
968.48037474959017
 30
0.0
  0
VERTEX
  5
B24
  8
DATA
  6
CONTINUOUS
 62
     7
 10
387.24296493220118
 20
968.47836316142275
 30
0.0
  0
VERTEX
  5
B25
  8
DATA
  6
CONTINUOUS
 62
     7
 10
387.25495975620572
 20
968.47625344700384
 30
0.0
  0
VERTEX
  5
B26
  8
DATA
  6
CONTINUOUS
 62
     7
 10
387.2669282874482
 20
968.47404560633265
 30
0.0
  0
VERTEX
  5
B27
  8
DATA
  6
CONTINUOUS
 62
     7
 10
387.2788705259282
 20
968.47173963940975
 30
0.0
  0
VERTEX
  5
B28
  8
DATA
  6
CONTINUOUS
 62
     7
 10
387.29078647164567
 20
968.46933554623445
 30
0.0
  0
VERTEX
  5
B29
  8
DATA
  6
CONTINUOUS
 62
     7
 10
387.30267612460091
 20
968.4668333268072
 30
0.0
  0
VERTEX
  5
B2A
  8
DATA
  6
CONTINUOUS
 62
     7
 10
387.31453948479401
 20
968.46423298112779
 30
0.0
  0
VERTEX
  5
B2B
  8
DATA
  6
CONTINUOUS
 62
     7
 10
387.32637655222447
 20
968.46153450919644
 30
0.0
  0
VERTEX
  5
B2C
  8
DATA
  6
CONTINUOUS
 62
     7
 10
387.33818732689269
 20
968.45873791101315
 30
0.0
  0
VERTEX
  5
B2D
  8
DATA
  6
CONTINUOUS
 62
     7
 10
387.34997180879861
 20
968.45584318657768
 30
0.0
  0
VERTEX
  5
B2E
  8
DATA
  6
CONTINUOUS
 62
     7
 10
387.36172999794218
 20
968.45285033589005
 30
0.0
  0
VERTEX
  5
B2F
  8
DATA
  6
CONTINUOUS
 62
     7
 10
387.37346189432333
 20
968.44975935895081
 30
0.0
  0
VERTEX
  5
B30
  8
DATA
  6
CONTINUOUS
 62
     7
 10
387.38516749794218
 20
968.44657025575896
 30
0.0
  0
VERTEX
  5
B31
  8
DATA
  6
CONTINUOUS
 62
     7
 10
387.39684680879861
 20
968.44328302631527
 30
0.0
  0
VERTEX
  5
B32
  8
DATA
  6
CONTINUOUS
 62
     7
 10
387.40849982689269
 20
968.43989767061942
 30
0.0
  0
VERTEX
  5
B33
  8
DATA
  6
CONTINUOUS
 62
     7
 10
387.42012655222447
 20
968.43641418867207
 30
0.0
  0
VERTEX
  5
B34
  8
DATA
  6
CONTINUOUS
 62
     7
 10
387.43172698479401
 20
968.432832580472
 30
0.0
  0
VERTEX
  5
B35
  8
DATA
  6
CONTINUOUS
 62
     7
 10
387.44330112460091
 20
968.42915284602054
 30
0.0
  0
VERTEX
  5
B36
  8
DATA
  6
CONTINUOUS
 62
     7
 10
387.45484897164579
 20
968.42537498531635
 30
0.0
  0
VERTEX
  5
B37
  8
DATA
  6
CONTINUOUS
 62
     7
 10
387.4663705259282
 20
968.42149899836045
 30
0.0
  0
VERTEX
  5
B38
  8
DATA
  6
CONTINUOUS
 62
     7
 10
387.4778657874482
 20
968.41752488515249
 30
0.0
  0
VERTEX
  5
B39
  8
DATA
  6
CONTINUOUS
 62
     7
 10
387.48933475620572
 20
968.41345264569259
 30
0.0
  0
VERTEX
  5
B3A
  8
DATA
  6
CONTINUOUS
 62
     7
 10
387.50077743220118
 20
968.4092822799804
 30
0.0
  0
VERTEX
  5
B3B
  8
DATA
  6
CONTINUOUS
 62
     7
 10
387.51219381543422
 20
968.40501378801628
 30
0.0
  0
VERTEX
  5
B3C
  8
DATA
  6
CONTINUOUS
 62
     7
 10
387.52358390590479
 20
968.40064716979987
 30
0.0
  0
VERTEX
  5
B3D
  8
DATA
  6
CONTINUOUS
 62
     7
 10
387.53494770361311
 20
968.39618242533209
 30
0.0
  0
VERTEX
  5
B3E
  8
DATA
  6
CONTINUOUS
 62
     7
 10
387.54628520855903
 20
968.39161955461157
 30
0.0
  0
VERTEX
  5
B3F
  8
DATA
  6
CONTINUOUS
 62
     7
 10
387.55759642074253
 20
968.38695855763945
 30
0.0
  0
VERTEX
  5
B40
  8
DATA
  6
CONTINUOUS
 62
     7
 10
387.56888134016373
 20
968.38219943441482
 30
0.0
  0
VERTEX
  5
B41
  8
DATA
  6
CONTINUOUS
 62
     7
 10
387.58013996682263
 20
968.37734218493836
 30
0.0
  0
VERTEX
  5
B42
  8
DATA
  6
CONTINUOUS
 62
     7
 10
387.59137230071917
 20
968.37238680920996
 30
0.0
  0
VERTEX
  5
B43
  8
DATA
  6
CONTINUOUS
 62
     7
 10
387.60257834185342
 20
968.3673333072295
 30
0.0
  0
VERTEX
  5
B44
  8
DATA
  6
CONTINUOUS
 62
     7
 10
387.61375809022519
 20
968.36218167899665
 30
0.0
  0
VERTEX
  5
B45
  8
DATA
  6
CONTINUOUS
 62
     7
 10
387.62491154583461
 20
968.35693192451231
 30
0.0
  0
VERTEX
  5
B46
  8
DATA
  6
CONTINUOUS
 62
     7
 10
387.63603870868172
 20
968.35158404377603
 30
0.0
  0
VERTEX
  5
B47
  8
DATA
  6
CONTINUOUS
 62
     7
 10
387.64713957876648
 20
968.34613803678678
 30
0.0
  0
VERTEX
  5
B48
  8
DATA
  6
CONTINUOUS
 62
     7
 10
387.65821415608889
 20
968.34059390354571
 30
0.0
  0
VERTEX
  5
B49
  8
DATA
  6
CONTINUOUS
 62
     7
 10
387.66926244064888
 20
968.33495164405304
 30
0.0
  0
VERTEX
  5
B4A
  8
DATA
  6
CONTINUOUS
 62
     7
 10
387.68028443244663
 20
968.32921125830853
 30
0.0
  0
VERTEX
  5
B4B
  8
DATA
  6
CONTINUOUS
 62
     7
 10
387.69128013148202
 20
968.32337274631163
 30
0.0
  0
VERTEX
  5
B4C
  8
DATA
  6
CONTINUOUS
 62
     7
 10
387.70224953775511
 20
968.31743610806245
 30
0.0
  0
VERTEX
  5
B4D
  8
DATA
  6
CONTINUOUS
 62
     7
 10
387.71319265126579
 20
968.31140134356156
 30
0.0
  0
VERTEX
  5
B4E
  8
DATA
  6
CONTINUOUS
 62
     7
 10
387.72410947201411
 20
968.30526845280872
 30
0.0
  0
VERTEX
  5
B4F
  8
DATA
  6
CONTINUOUS
 62
     7
 10
387.73500000000001
 20
968.29903743580337
 30
0.0
  0
VERTEX
  5
B50
  8
DATA
  6
CONTINUOUS
 62
     7
 10
387.74584146502337
 20
968.29272143897117
 30
0.0
  0
VERTEX
  5
B51
  8
DATA
  6
CONTINUOUS
 62
     7
 10
387.75661109688428
 20
968.28633360873721
 30
0.0
  0
VERTEX
  5
B52
  8
DATA
  6
CONTINUOUS
 62
     7
 10
387.76730889558257
 20
968.27987394510069
 30
0.0
  0
VERTEX
  5
B53
  8
DATA
  6
CONTINUOUS
 62
     7
 10
387.7779348611183
 20
968.27334244806229
 30
0.0
  0
VERTEX
  5
B54
  8
DATA
  6
CONTINUOUS
 62
     7
 10
387.7884889934914
 20
968.26673911762202
 30
0.0
  0
VERTEX
  5
B55
  8
DATA
  6
CONTINUOUS
 62
     7
 10
387.79897129270171
 20
968.26006395377942
 30
0.0
  0
VERTEX
  5
B56
  8
DATA
  6
CONTINUOUS
 62
     7
 10
387.80938175874962
 20
968.25331695653506
 30
0.0
  0
VERTEX
  5
B57
  8
DATA
  6
CONTINUOUS
 62
     7
 10
387.8197203916348
 20
968.24649812588848
 30
0.0
  0
VERTEX
  5
B58
  8
DATA
  6
CONTINUOUS
 62
     7
 10
387.82998719135742
 20
968.23960746184014
 30
0.0
  0
VERTEX
  5
B59
  8
DATA
  6
CONTINUOUS
 62
     7
 10
387.84018215791741
 20
968.23264496438935
 30
0.0
  0
VERTEX
  5
B5A
  8
DATA
  6
CONTINUOUS
 62
     7
 10
387.85030529131461
 20
968.22561063353635
 30
0.0
  0
VERTEX
  5
B5B
  8
DATA
  6
CONTINUOUS
 62
     7
 10
387.86035659154948
 20
968.21850446928181
 30
0.0
  0
VERTEX
  5
B5C
  8
DATA
  6
CONTINUOUS
 62
     7
 10
387.8703360586216
 20
968.21132647162483
 30
0.0
  0
VERTEX
  5
B5D
  8
DATA
  6
CONTINUOUS
 62
     7
 10
387.88024369253111
 20
968.20407664056609
 30
0.0
  0
VERTEX
  5
B5E
  8
DATA
  6
CONTINUOUS
 62
     7
 10
387.89007949327799
 20
968.19675497610524
 30
0.0
  0
VERTEX
  5
B5F
  8
DATA
  6
CONTINUOUS
 62
     7
 10
387.89984346086243
 20
968.18936147824195
 30
0.0
  0
VERTEX
  5
B60
  8
DATA
  6
CONTINUOUS
 62
     7
 10
387.90953559528401
 20
968.1818961469769
 30
0.0
  0
VERTEX
  5
B61
  8
DATA
  6
CONTINUOUS
 62
     7
 10
387.91915589654309
 20
968.17435898231008
 30
0.0
  0
VERTEX
  5
B62
  8
DATA
  6
CONTINUOUS
 62
     7
 10
387.92870436463949
 20
968.1667499842406
 30
0.0
  0
VERTEX
  5
B63
  8
DATA
  6
CONTINUOUS
 62
     7
 10
387.93818099957338
 20
968.15906915276946
 30
0.0
  0
VERTEX
  5
B64
  8
DATA
  6
CONTINUOUS
 62
     7
 10
387.94758580134459
 20
968.151316487896
 30
0.0
  0
VERTEX
  5
B65
  8
DATA
  6
CONTINUOUS
 62
     7
 10
387.95691876995318
 20
968.14349198962077
 30
0.0
  0
VERTEX
  5
B66
  8
DATA
  6
CONTINUOUS
 62
     7
 10
387.96617990539931
 20
968.13559565794344
 30
0.0
  0
VERTEX
  5
B67
  8
DATA
  6
CONTINUOUS
 62
     7
 10
387.9753692076826
 20
968.12762749286424
 30
0.0
  0
VERTEX
  5
B68
  8
DATA
  6
CONTINUOUS
 62
     7
 10
387.98448667680339
 20
968.11958749438224
 30
0.0
  0
VERTEX
  5
B69
  8
DATA
  6
CONTINUOUS
 62
     7
 10
387.9935323127616
 20
968.11147566249895
 30
0.0
  0
VERTEX
  5
B6A
  8
DATA
  6
CONTINUOUS
 62
     7
 10
388.00250611555708
 20
968.10329199721298
 30
0.0
  0
VERTEX
  5
B6B
  8
DATA
  6
CONTINUOUS
 62
     7
 10
388.01140808519023
 20
968.0950364985257
 30
0.0
  0
VERTEX
  5
B6C
  8
DATA
  6
CONTINUOUS
 62
     7
 10
388.02023822166052
 20
968.08670916643575
 30
0.0
  0
VERTEX
  5
B6D
  8
DATA
  6
CONTINUOUS
 62
     7
 10
388.02899652496819
 20
968.07831000094404
 30
0.0
  0
VERTEX
  5
B6E
  8
DATA
  6
CONTINUOUS
 62
     7
 10
388.0376829951133
 20
968.06983900205034
 30
0.0
  0
VERTEX
  5
B6F
  8
DATA
  6
CONTINUOUS
 62
     7
 10
388.04629763209579
 20
968.0612961697542
 30
0.0
  0
VERTEX
  5
B70
  8
DATA
  6
CONTINUOUS
 62
     7
 10
388.05484043591571
 20
968.0526815040563
 30
0.0
  0
VERTEX
  5
B71
  8
DATA
  6
CONTINUOUS
 62
     7
 10
388.06331140657301
 20
968.0439950049564
 30
0.0
  0
VERTEX
  5
B72
  8
DATA
  6
CONTINUOUS
 62
     7
 10
388.07171054406768
 20
968.03523667245452
 30
0.0
  0
VERTEX
  5
B73
  8
DATA
  6
CONTINUOUS
 62
     7
 10
388.08003784839968
 20
968.02640650655019
 30
0.0
  0
VERTEX
  5
B74
  8
DATA
  6
CONTINUOUS
 62
     7
 10
388.08829331956917
 20
968.0175045072441
 30
0.0
  0
VERTEX
  5
B75
  8
DATA
  6
CONTINUOUS
 62
     7
 10
388.09647695757599
 20
968.00853067453579
 30
0.0
  0
VERTEX
  5
B76
  8
DATA
  6
CONTINUOUS
 62
     7
 10
388.10458876242018
 20
967.99948500842561
 30
0.0
  0
VERTEX
  5
B77
  8
DATA
  6
CONTINUOUS
 62
     7
 10
388.1126287341018
 20
967.99036750891344
 30
0.0
  0
VERTEX
  5
B78
  8
DATA
  6
CONTINUOUS
 62
     7
 10
388.12059687262092
 20
967.98117817599871
 30
0.0
  0
VERTEX
  5
B79
  8
DATA
  6
CONTINUOUS
 62
     7
 10
388.12849317797719
 20
967.97191700968244
 30
0.0
  0
VERTEX
  5
B7A
  8
DATA
  6
CONTINUOUS
 62
     7
 10
388.13631765017089
 20
967.96258400996351
 30
0.0
  0
VERTEX
  5
B7B
  8
DATA
  6
CONTINUOUS
 62
     7
 10
388.14407028920209
 20
967.95317917684315
 30
0.0
  0
VERTEX
  5
B7C
  8
DATA
  6
CONTINUOUS
 62
     7
 10
388.15175109507072
 20
967.94370251032035
 30
0.0
  0
VERTEX
  5
B7D
  8
DATA
  6
CONTINUOUS
 62
     7
 10
388.15936006777662
 20
967.93415401039567
 30
0.0
  0
VERTEX
  5
B7E
  8
DATA
  6
CONTINUOUS
 62
     7
 10
388.16689720732001
 20
967.92453367706889
 30
0.0
  0
VERTEX
  5
B7F
  8
DATA
  6
CONTINUOUS
 62
     7
 10
388.17436251370071
 20
967.91484151034012
 30
0.0
  0
VERTEX
  5
B80
  8
DATA
  6
CONTINUOUS
 62
     7
 10
388.18175598691857
 20
967.90507751020925
 30
0.0
  0
VERTEX
  5
B81
  8
DATA
  6
CONTINUOUS
 62
     7
 10
388.18907762697421
 20
967.89524167667651
 30
0.0
  0
VERTEX
  5
B82
  8
DATA
  6
CONTINUOUS
 62
     7
 10
388.19632743386711
 20
967.88533400974154
 30
0.0
  0
VERTEX
  5
B83
  8
DATA
  6
CONTINUOUS
 62
     7
 10
388.20350540759739
 20
967.87535450940436
 30
0.0
  0
VERTEX
  5
B84
  8
DATA
  6
CONTINUOUS
 62
     7
 10
388.2106115481651
 20
967.86530317566542
 30
0.0
  0
VERTEX
  5
B85
  8
DATA
  6
CONTINUOUS
 62
     7
 10
388.21764585557003
 20
967.85518000852414
 30
0.0
  0
VERTEX
  5
B86
  8
DATA
  6
CONTINUOUS
 62
     7
 10
388.2246083298125
 20
967.84498500798088
 30
0.0
  0
VERTEX
  5
B87
  8
DATA
  6
CONTINUOUS
 62
     7
 10
388.23149897089218
 20
967.8347181740354
 30
0.0
  0
VERTEX
  5
B88
  8
DATA
  6
CONTINUOUS
 62
     7
 10
388.23831777880952
 20
967.82437950668827
 30
0.0
  0
VERTEX
  5
B89
  8
DATA
  6
CONTINUOUS
 62
     7
 10
388.24506475356401
 20
967.81396900593916
 30
0.0
  0
VERTEX
  5
B8A
  8
DATA
  6
CONTINUOUS
 62
     7
 10
388.25173989515611
 20
967.8034866717876
 30
0.0
  0
VERTEX
  5
B8B
  8
DATA
  6
CONTINUOUS
 62
     7
 10
388.25834320358541
 20
967.79293250423382
 30
0.0
  0
VERTEX
  5
B8C
  8
DATA
  6
CONTINUOUS
 62
     7
 10
388.26487467885221
 20
967.78230650327885
 30
0.0
  0
VERTEX
  5
B8D
  8
DATA
  6
CONTINUOUS
 62
     7
 10
388.27133432095621
 20
967.77160866892098
 30
0.0
  0
VERTEX
  5
B8E
  8
DATA
  6
CONTINUOUS
 62
     7
 10
388.27772212989771
 20
967.76083900116146
 30
0.0
  0
VERTEX
  5
B8F
  8
DATA
  6
CONTINUOUS
 62
     7
 10
388.28403810567659
 20
967.74999749999984
 30
0.0
  0
VERTEX
  5
B90
  8
DATA
  6
CONTINUOUS
 62
     7
 10
388.29026910191192
 20
967.73910693571213
 30
0.0
  0
VERTEX
  5
B91
  8
DATA
  6
CONTINUOUS
 62
     7
 10
388.29640197222187
 20
967.72819007857424
 30
0.0
  0
VERTEX
  5
B92
  8
DATA
  6
CONTINUOUS
 62
     7
 10
388.30243671660719
 20
967.71724692858641
 30
0.0
  0
VERTEX
  5
B93
  8
DATA
  6
CONTINUOUS
 62
     7
 10
388.3083733350673
 20
967.70627748574873
 30
0.0
  0
VERTEX
  5
B94
  8
DATA
  6
CONTINUOUS
 62
     7
 10
388.31421182760261
 20
967.69528175006121
 30
0.0
  0
VERTEX
  5
B95
  8
DATA
  6
CONTINUOUS
 62
     7
 10
388.31995219421287
 20
967.6842597215234
 30
0.0
  0
VERTEX
  5
B96
  8
DATA
  6
CONTINUOUS
 62
     7
 10
388.32559443489828
 20
967.67321140013576
 30
0.0
  0
VERTEX
  5
B97
  8
DATA
  6
CONTINUOUS
 62
     7
 10
388.33113854965859
 20
967.6621367858977
 30
0.0
  0
VERTEX
  5
B98
  8
DATA
  6
CONTINUOUS
 62
     7
 10
388.33658453849409
 20
967.65103587881026
 30
0.0
  0
VERTEX
  5
B99
  8
DATA
  6
CONTINUOUS
 62
     7
 10
388.34193240140462
 20
967.63990867887264
 30
0.0
  0
VERTEX
  5
B9A
  8
DATA
  6
CONTINUOUS
 62
     7
 10
388.34718213839011
 20
967.62875518608519
 30
0.0
  0
VERTEX
  5
B9B
  8
DATA
  6
CONTINUOUS
 62
     7
 10
388.35233374945051
 20
967.61757540044766
 30
0.0
  0
VERTEX
  5
B9C
  8
DATA
  6
CONTINUOUS
 62
     7
 10
388.35738723458633
 20
967.60636932195985
 30
0.0
  0
VERTEX
  5
B9D
  8
DATA
  6
CONTINUOUS
 62
     7
 10
388.36234259379688
 20
967.59513695062242
 30
0.0
  0
VERTEX
  5
B9E
  8
DATA
  6
CONTINUOUS
 62
     7
 10
388.36719982708252
 20
967.58387828643436
 30
0.0
  0
VERTEX
  5
B9F
  8
DATA
  6
CONTINUOUS
 62
     7
 10
388.37195893444311
 20
967.57259332939702
 30
0.0
  0
VERTEX
  5
BA0
  8
DATA
  6
CONTINUOUS
 62
     7
 10
388.3766199158789
 20
967.56128207950928
 30
0.0
  0
VERTEX
  5
BA1
  8
DATA
  6
CONTINUOUS
 62
     7
 10
388.3811827713896
 20
967.54994453677182
 30
0.0
  0
VERTEX
  5
BA2
  8
DATA
  6
CONTINUOUS
 62
     7
 10
388.38564750097532
 20
967.53858070118395
 30
0.0
  0
VERTEX
  5
BA3
  8
DATA
  6
CONTINUOUS
 62
     7
 10
388.39001410463618
 20
967.52719057274635
 30
0.0
  0
VERTEX
  5
BA4
  8
DATA
  6
CONTINUOUS
 62
     7
 10
388.39428258237211
 20
967.51577415145903
 30
0.0
  0
VERTEX
  5
BA5
  8
DATA
  6
CONTINUOUS
 62
     7
 10
388.39845293418313
 20
967.50433143732153
 30
0.0
  0
VERTEX
  5
BA6
  8
DATA
  6
CONTINUOUS
 62
     7
 10
388.40252516006899
 20
967.49286243033373
 30
0.0
  0
VERTEX
  5
BA7
  8
DATA
  6
CONTINUOUS
 62
     7
 10
388.40649926002988
 20
967.48136713049632
 30
0.0
  0
VERTEX
  5
BA8
  8
DATA
  6
CONTINUOUS
 62
     7
 10
388.41037523406601
 20
967.46984553780885
 30
0.0
  0
VERTEX
  5
BA9
  8
DATA
  6
CONTINUOUS
 62
     7
 10
388.41415308217699
 20
967.4582976522712
 30
0.0
  0
VERTEX
  5
BAA
  8
DATA
  6
CONTINUOUS
 62
     7
 10
388.41783280436312
 20
967.44672347388337
 30
0.0
  0
VERTEX
  5
BAB
  8
DATA
  6
CONTINUOUS
 62
     7
 10
388.42141440062431
 20
967.43512300264615
 30
0.0
  0
VERTEX
  5
BAC
  8
DATA
  6
CONTINUOUS
 62
     7
 10
388.42489787096042
 20
967.42349623855841
 30
0.0
  0
VERTEX
  5
BAD
  8
DATA
  6
CONTINUOUS
 62
     7
 10
388.42828321537161
 20
967.41184318162095
 30
0.0
  0
VERTEX
  5
BAE
  8
DATA
  6
CONTINUOUS
 62
     7
 10
388.43157043385793
 20
967.40016383183365
 30
0.0
  0
VERTEX
  5
BAF
  8
DATA
  6
CONTINUOUS
 62
     7
 10
388.43475952641921
 20
967.38845818919606
 30
0.0
  0
VERTEX
  5
BB0
  8
DATA
  6
CONTINUOUS
 62
     7
 10
388.43785049305552
 20
967.37672625370863
 30
0.0
  0
VERTEX
  5
BB1
  8
DATA
  6
CONTINUOUS
 62
     7
 10
388.44084333376679
 20
967.36496802537124
 30
0.0
  0
VERTEX
  5
BB2
  8
DATA
  6
CONTINUOUS
 62
     7
 10
388.4437380485532
 20
967.35318350418368
 30
0.0
  0
VERTEX
  5
BB3
  8
DATA
  6
CONTINUOUS
 62
     7
 10
388.44653463741457
 20
967.34137269014582
 30
0.0
  0
VERTEX
  5
BB4
  8
DATA
  6
CONTINUOUS
 62
     7
 10
388.44923310035119
 20
967.32953558325869
 30
0.0
  0
VERTEX
  5
BB5
  8
DATA
  6
CONTINUOUS
 62
     7
 10
388.45183343736261
 20
967.31767218352127
 30
0.0
  0
VERTEX
  5
BB6
  8
DATA
  6
CONTINUOUS
 62
     7
 10
388.45433564844922
 20
967.30578249093367
 30
0.0
  0
VERTEX
  5
BB7
  8
DATA
  6
CONTINUOUS
 62
     7
 10
388.4567397336109
 20
967.29386650549645
 30
0.0
  0
VERTEX
  5
BB8
  8
DATA
  6
CONTINUOUS
 62
     7
 10
388.45904569284738
 20
967.28192422720872
 30
0.0
  0
VERTEX
  5
BB9
  8
DATA
  6
CONTINUOUS
 62
     7
 10
388.46125352615911
 20
967.26995565607149
 30
0.0
  0
VERTEX
  5
BBA
  8
DATA
  6
CONTINUOUS
 62
     7
 10
388.46336323354581
 20
967.25796079208408
 30
0.0
  0
VERTEX
  5
BBB
  8
DATA
  6
CONTINUOUS
 62
     7
 10
388.46537481500741
 20
967.24593963524649
 30
0.0
  0
VERTEX
  5
BBC
  8
DATA
  6
CONTINUOUS
 62
     7
 10
388.46728827054432
 20
967.23389218555917
 30
0.0
  0
VERTEX
  5
BBD
  8
DATA
  6
CONTINUOUS
 62
     7
 10
388.46910360015607
 20
967.22181844302168
 30
0.0
  0
VERTEX
  5
BBE
  8
DATA
  6
CONTINUOUS
 62
     7
 10
388.4708208038428
 20
967.20971840763445
 30
0.0
  0
VERTEX
  5
BBF
  8
DATA
  6
CONTINUOUS
 62
     7
 10
388.47243988160483
 20
967.19759207939683
 30
0.0
  0
VERTEX
  5
BC0
  8
DATA
  6
CONTINUOUS
 62
     7
 10
388.47396083344171
 20
967.18543945830982
 30
0.0
  0
VERTEX
  5
BC1
  8
DATA
  6
CONTINUOUS
 62
     7
 10
388.47538365935372
 20
967.17326054437206
 30
0.0
  0
VERTEX
  5
BC2
  8
DATA
  6
CONTINUOUS
 62
     7
 10
388.47670835934082
 20
967.16105533758468
 30
0.0
  0
VERTEX
  5
BC3
  8
DATA
  6
CONTINUOUS
 62
     7
 10
388.47793493340282
 20
967.14882383794759
 30
0.0
  0
VERTEX
  5
BC4
  8
DATA
  6
CONTINUOUS
 62
     7
 10
388.47906338153979
 20
967.1365660454602
 30
0.0
  0
VERTEX
  5
BC5
  8
DATA
  6
CONTINUOUS
 62
     7
 10
388.48009370375189
 20
967.12428196012286
 30
0.0
  0
VERTEX
  5
BC6
  8
DATA
  6
CONTINUOUS
 62
     7
 10
388.48102590003913
 20
967.11197158193545
 30
0.0
  0
VERTEX
  5
BC7
  8
DATA
  6
CONTINUOUS
 62
     7
 10
388.48185997040122
 20
967.09963491089843
 30
0.0
  0
VERTEX
  5
BC8
  8
DATA
  6
CONTINUOUS
 62
     7
 10
388.48259591483838
 20
967.08727194701066
 30
0.0
  0
VERTEX
  5
BC9
  8
DATA
  6
CONTINUOUS
 62
     7
 10
388.48323373335057
 20
967.07488269027363
 30
0.0
  0
VERTEX
  5
BCA
  8
DATA
  6
CONTINUOUS
 62
     7
 10
388.48377342593801
 20
967.06246714068618
 30
0.0
  0
VERTEX
  5
BCB
  8
DATA
  6
CONTINUOUS
 62
     7
 10
388.4842149926003
 20
967.05002529824878
 30
0.0
  0
VERTEX
  5
BCC
  8
DATA
  6
CONTINUOUS
 62
     7
 10
388.48455843333772
 20
967.03755716296155
 30
0.0
  0
VERTEX
  5
BCD
  8
DATA
  6
CONTINUOUS
 62
     7
 10
388.48480374815
 20
967.02506273482425
 30
0.0
  0
VERTEX
  5
BCE
  8
DATA
  6
CONTINUOUS
 62
     7
 10
388.48495093703752
 20
967.01254201383699
 30
0.0
  0
VERTEX
  5
BCF
  8
DATA
  6
CONTINUOUS
 62
     7
 10
388.48500000000001
 20
966.9999949999999
 30
0.0
  0
VERTEX
  5
BD0
  8
DATA
  6
CONTINUOUS
 62
     7
 10
388.48495093703752
 20
966.98744798616235
 30
0.0
  0
VERTEX
  5
BD1
  8
DATA
  6
CONTINUOUS
 62
     7
 10
388.48480374815
 20
966.97492726517532
 30
0.0
  0
VERTEX
  5
BD2
  8
DATA
  6
CONTINUOUS
 62
     7
 10
388.48455843333772
 20
966.96243283703825
 30
0.0
  0
VERTEX
  5
BD3
  8
DATA
  6
CONTINUOUS
 62
     7
 10
388.4842149926003
 20
966.94996470175022
 30
0.0
  0
VERTEX
  5
BD4
  8
DATA
  6
CONTINUOUS
 62
     7
 10
388.48377342593801
 20
966.93752285931316
 30
0.0
  0
VERTEX
  5
BD5
  8
DATA
  6
CONTINUOUS
 62
     7
 10
388.48323373335057
 20
966.92510730972595
 30
0.0
  0
VERTEX
  5
BD6
  8
DATA
  6
CONTINUOUS
 62
     7
 10
388.48259591483838
 20
966.91271805298868
 30
0.0
  0
VERTEX
  5
BD7
  8
DATA
  6
CONTINUOUS
 62
     7
 10
388.48185997040122
 20
966.90035508910114
 30
0.0
  0
VERTEX
  5
BD8
  8
DATA
  6
CONTINUOUS
 62
     7
 10
388.48102590003913
 20
966.88801841806401
 30
0.0
  0
VERTEX
  5
BD9
  8
DATA
  6
CONTINUOUS
 62
     7
 10
388.48009370375189
 20
966.87570803987671
 30
0.0
  0
VERTEX
  5
BDA
  8
DATA
  6
CONTINUOUS
 62
     7
 10
388.47906338153979
 20
966.86342395453914
 30
0.0
  0
VERTEX
  5
BDB
  8
DATA
  6
CONTINUOUS
 62
     7
 10
388.47793493340282
 20
966.85116616205221
 30
0.0
  0
VERTEX
  5
BDC
  8
DATA
  6
CONTINUOUS
 62
     7
 10
388.47670835934082
 20
966.83893466241454
 30
0.0
  0
VERTEX
  5
BDD
  8
DATA
  6
CONTINUOUS
 62
     7
 10
388.47538365935372
 20
966.8267294556274
 30
0.0
  0
VERTEX
  5
BDE
  8
DATA
  6
CONTINUOUS
 62
     7
 10
388.47396083344171
 20
966.81455054168975
 30
0.0
  0
VERTEX
  5
BDF
  8
DATA
  6
CONTINUOUS
 62
     7
 10
388.47243988160483
 20
966.8023979206024
 30
0.0
  0
VERTEX
  5
BE0
  8
DATA
  6
CONTINUOUS
 62
     7
 10
388.4708208038428
 20
966.790271592365
 30
0.0
  0
VERTEX
  5
BE1
  8
DATA
  6
CONTINUOUS
 62
     7
 10
388.46910360015607
 20
966.77817155697767
 30
0.0
  0
VERTEX
  5
BE2
  8
DATA
  6
CONTINUOUS
 62
     7
 10
388.46728827054432
 20
966.76609781444017
 30
0.0
  0
VERTEX
  5
BE3
  8
DATA
  6
CONTINUOUS
 62
     7
 10
388.46537481500741
 20
966.75405036475274
 30
0.0
  0
VERTEX
  5
BE4
  8
DATA
  6
CONTINUOUS
 62
     7
 10
388.46336323354581
 20
966.74202920791549
 30
0.0
  0
VERTEX
  5
BE5
  8
DATA
  6
CONTINUOUS
 62
     7
 10
388.46125352615911
 20
966.73003434392808
 30
0.0
  0
VERTEX
  5
BE6
  8
DATA
  6
CONTINUOUS
 62
     7
 10
388.45904569284738
 20
966.71806577279062
 30
0.0
  0
VERTEX
  5
BE7
  8
DATA
  6
CONTINUOUS
 62
     7
 10
388.4567397336109
 20
966.706123494503
 30
0.0
  0
VERTEX
  5
BE8
  8
DATA
  6
CONTINUOUS
 62
     7
 10
388.45433564844922
 20
966.69420750906568
 30
0.0
  0
VERTEX
  5
BE9
  8
DATA
  6
CONTINUOUS
 62
     7
 10
388.45183343736261
 20
966.68231781647853
 30
0.0
  0
VERTEX
  5
BEA
  8
DATA
  6
CONTINUOUS
 62
     7
 10
388.44923310035119
 20
966.67045441674065
 30
0.0
  0
VERTEX
  5
BEB
  8
DATA
  6
CONTINUOUS
 62
     7
 10
388.44653463741457
 20
966.65861730985353
 30
0.0
  0
VERTEX
  5
BEC
  8
DATA
  6
CONTINUOUS
 62
     7
 10
388.4437380485532
 20
966.64680649581589
 30
0.0
  0
VERTEX
  5
BED
  8
DATA
  6
CONTINUOUS
 62
     7
 10
388.44084333376679
 20
966.63502197462844
 30
0.0
  0
VERTEX
  5
BEE
  8
DATA
  6
CONTINUOUS
 62
     7
 10
388.43785049305552
 20
966.62326374629095
 30
0.0
  0
VERTEX
  5
BEF
  8
DATA
  6
CONTINUOUS
 62
     7
 10
388.43475952641921
 20
966.61153181080329
 30
0.0
  0
VERTEX
  5
BF0
  8
DATA
  6
CONTINUOUS
 62
     7
 10
388.43157043385793
 20
966.59982616816615
 30
0.0
  0
VERTEX
  5
BF1
  8
DATA
  6
CONTINUOUS
 62
     7
 10
388.42828321537161
 20
966.5881468183785
 30
0.0
  0
VERTEX
  5
BF2
  8
DATA
  6
CONTINUOUS
 62
     7
 10
388.42489787096042
 20
966.57649376144059
 30
0.0
  0
VERTEX
  5
BF3
  8
DATA
  6
CONTINUOUS
 62
     7
 10
388.42141440062431
 20
966.56486699735353
 30
0.0
  0
VERTEX
  5
BF4
  8
DATA
  6
CONTINUOUS
 62
     7
 10
388.41783280436312
 20
966.55326652611575
 30
0.0
  0
VERTEX
  5
BF5
  8
DATA
  6
CONTINUOUS
 62
     7
 10
388.41415308217699
 20
966.54169234772803
 30
0.0
  0
VERTEX
  5
BF6
  8
DATA
  6
CONTINUOUS
 62
     7
 10
388.41037523406601
 20
966.53014446219061
 30
0.0
  0
VERTEX
  5
BF7
  8
DATA
  6
CONTINUOUS
 62
     7
 10
388.40649926002988
 20
966.51862286950313
 30
0.0
  0
VERTEX
  5
BF8
  8
DATA
  6
CONTINUOUS
 62
     7
 10
388.40252516006899
 20
966.50712756966573
 30
0.0
  0
VERTEX
  5
BF9
  8
DATA
  6
CONTINUOUS
 62
     7
 10
388.39845293418313
 20
966.49565856267805
 30
0.0
  0
VERTEX
  5
BFA
  8
DATA
  6
CONTINUOUS
 62
     7
 10
388.39428258237211
 20
966.48421584854054
 30
0.0
  0
VERTEX
  5
BFB
  8
DATA
  6
CONTINUOUS
 62
     7
 10
388.39001410463618
 20
966.47279942725277
 30
0.0
  0
VERTEX
  5
BFC
  8
DATA
  6
CONTINUOUS
 62
     7
 10
388.38564750097532
 20
966.46140929881517
 30
0.0
  0
VERTEX
  5
BFD
  8
DATA
  6
CONTINUOUS
 62
     7
 10
388.3811827713896
 20
966.45004546322753
 30
0.0
  0
VERTEX
  5
BFE
  8
DATA
  6
CONTINUOUS
 62
     7
 10
388.3766199158789
 20
966.43870792048983
 30
0.0
  0
VERTEX
  5
BFF
  8
DATA
  6
CONTINUOUS
 62
     7
 10
388.37195893444311
 20
966.42739667060255
 30
0.0
  0
VERTEX
  5
C00
  8
DATA
  6
CONTINUOUS
 62
     7
 10
388.36719982708252
 20
966.41611171356465
 30
0.0
  0
VERTEX
  5
C01
  8
DATA
  6
CONTINUOUS
 62
     7
 10
388.36234259379688
 20
966.40485304937715
 30
0.0
  0
VERTEX
  5
C02
  8
DATA
  6
CONTINUOUS
 62
     7
 10
388.35738723458633
 20
966.3936206780395
 30
0.0
  0
VERTEX
  5
C03
  8
DATA
  6
CONTINUOUS
 62
     7
 10
388.35233374945051
 20
966.38241459955191
 30
0.0
  0
VERTEX
  5
C04
  8
DATA
  6
CONTINUOUS
 62
     7
 10
388.34718213839011
 20
966.37123481391438
 30
0.0
  0
VERTEX
  5
C05
  8
DATA
  6
CONTINUOUS
 62
     7
 10
388.34193240140462
 20
966.3600813211267
 30
0.0
  0
VERTEX
  5
C06
  8
DATA
  6
CONTINUOUS
 62
     7
 10
388.33658453849409
 20
966.34895412118908
 30
0.0
  0
VERTEX
  5
C07
  8
DATA
  6
CONTINUOUS
 62
     7
 10
388.33113854965859
 20
966.33785321410153
 30
0.0
  0
VERTEX
  5
C08
  8
DATA
  6
CONTINUOUS
 62
     7
 10
388.32559443489828
 20
966.32677859986359
 30
0.0
  0
VERTEX
  5
C09
  8
DATA
  6
CONTINUOUS
 62
     7
 10
388.31995219421287
 20
966.31573027847594
 30
0.0
  0
VERTEX
  5
C0A
  8
DATA
  6
CONTINUOUS
 62
     7
 10
388.31421182760261
 20
966.30470824993824
 30
0.0
  0
VERTEX
  5
C0B
  8
DATA
  6
CONTINUOUS
 62
     7
 10
388.3083733350673
 20
966.2937125142505
 30
0.0
  0
VERTEX
  5
C0C
  8
DATA
  6
CONTINUOUS
 62
     7
 10
388.30243671660719
 20
966.28274307141294
 30
0.0
  0
VERTEX
  5
C0D
  8
DATA
  6
CONTINUOUS
 62
     7
 10
388.29640197222187
 20
966.27179992142533
 30
0.0
  0
VERTEX
  5
C0E
  8
DATA
  6
CONTINUOUS
 62
     7
 10
388.29026910191192
 20
966.26088306428755
 30
0.0
  0
VERTEX
  5
C0F
  8
DATA
  6
CONTINUOUS
 62
     7
 10
388.28403810567659
 20
966.24999249999962
 30
0.0
  0
VERTEX
  5
C10
  8
DATA
  6
CONTINUOUS
 62
     7
 10
388.27772212989771
 20
966.23915099883811
 30
0.0
  0
VERTEX
  5
C11
  8
DATA
  6
CONTINUOUS
 62
     7
 10
388.27133432095621
 20
966.22838133107837
 30
0.0
  0
VERTEX
  5
C12
  8
DATA
  6
CONTINUOUS
 62
     7
 10
388.26487467885221
 20
966.21768349672072
 30
0.0
  0
VERTEX
  5
C13
  8
DATA
  6
CONTINUOUS
 62
     7
 10
388.25834320358541
 20
966.20705749576507
 30
0.0
  0
VERTEX
  5
C14
  8
DATA
  6
CONTINUOUS
 62
     7
 10
388.25173989515611
 20
966.19650332821152
 30
0.0
  0
VERTEX
  5
C15
  8
DATA
  6
CONTINUOUS
 62
     7
 10
388.24506475356401
 20
966.18602099406064
 30
0.0
  0
VERTEX
  5
C16
  8
DATA
  6
CONTINUOUS
 62
     7
 10
388.23831777880952
 20
966.17561049331096
 30
0.0
  0
VERTEX
  5
C17
  8
DATA
  6
CONTINUOUS
 62
     7
 10
388.23149897089218
 20
966.16527182596349
 30
0.0
  0
VERTEX
  5
C18
  8
DATA
  6
CONTINUOUS
 62
     7
 10
388.2246083298125
 20
966.15500499201846
 30
0.0
  0
VERTEX
  5
C19
  8
DATA
  6
CONTINUOUS
 62
     7
 10
388.21764585557003
 20
966.1448099914752
 30
0.0
  0
VERTEX
  5
C1A
  8
DATA
  6
CONTINUOUS
 62
     7
 10
388.2106115481651
 20
966.13468682433415
 30
0.0
  0
VERTEX
  5
C1B
  8
DATA
  6
CONTINUOUS
 62
     7
 10
388.20350540759739
 20
966.1246354905951
 30
0.0
  0
VERTEX
  5
C1C
  8
DATA
  6
CONTINUOUS
 62
     7
 10
388.19632743386711
 20
966.11465599025792
 30
0.0
  0
VERTEX
  5
C1D
  8
DATA
  6
CONTINUOUS
 62
     7
 10
388.18907762697421
 20
966.10474832332307
 30
0.0
  0
VERTEX
  5
C1E
  8
DATA
  6
CONTINUOUS
 62
     7
 10
388.18175598691857
 20
966.0949124897902
 30
0.0
  0
VERTEX
  5
C1F
  8
DATA
  6
CONTINUOUS
 62
     7
 10
388.17436251370071
 20
966.08514848965933
 30
0.0
  0
VERTEX
  5
C20
  8
DATA
  6
CONTINUOUS
 62
     7
 10
388.16689720732001
 20
966.07545632293034
 30
0.0
  0
VERTEX
  5
C21
  8
DATA
  6
CONTINUOUS
 62
     7
 10
388.15936006777662
 20
966.06583598960344
 30
0.0
  0
VERTEX
  5
C22
  8
DATA
  6
CONTINUOUS
 62
     7
 10
388.15175109507072
 20
966.05628748967877
 30
0.0
  0
VERTEX
  5
C23
  8
DATA
  6
CONTINUOUS
 62
     7
 10
388.14407028920209
 20
966.04681082315631
 30
0.0
  0
VERTEX
  5
C24
  8
DATA
  6
CONTINUOUS
 62
     7
 10
388.13631765017089
 20
966.03740599003595
 30
0.0
  0
VERTEX
  5
C25
  8
DATA
  6
CONTINUOUS
 62
     7
 10
388.12849317797719
 20
966.02807299031701
 30
0.0
  0
VERTEX
  5
C26
  8
DATA
  6
CONTINUOUS
 62
     7
 10
388.12059687262092
 20
966.01881182400075
 30
0.0
  0
VERTEX
  5
C27
  8
DATA
  6
CONTINUOUS
 62
     7
 10
388.1126287341018
 20
966.00962249108636
 30
0.0
  0
VERTEX
  5
C28
  8
DATA
  6
CONTINUOUS
 62
     7
 10
388.10458876242018
 20
966.00050499157396
 30
0.0
  0
VERTEX
  5
C29
  8
DATA
  6
CONTINUOUS
 62
     7
 10
388.09647695757599
 20
965.99145932546355
 30
0.0
  0
VERTEX
  5
C2A
  8
DATA
  6
CONTINUOUS
 62
     7
 10
388.08829331956917
 20
965.98248549275559
 30
0.0
  0
VERTEX
  5
C2B
  8
DATA
  6
CONTINUOUS
 62
     7
 10
388.08003784839968
 20
965.97358349344915
 30
0.0
  0
VERTEX
  5
C2C
  8
DATA
  6
CONTINUOUS
 62
     7
 10
388.07171054406768
 20
965.96475332754528
 30
0.0
  0
VERTEX
  5
C2D
  8
DATA
  6
CONTINUOUS
 62
     7
 10
388.06331140657301
 20
965.95599499504317
 30
0.0
  0
VERTEX
  5
C2E
  8
DATA
  6
CONTINUOUS
 62
     7
 10
388.05484043591571
 20
965.94730849594328
 30
0.0
  0
VERTEX
  5
C2F
  8
DATA
  6
CONTINUOUS
 62
     7
 10
388.04629763209579
 20
965.93869383024503
 30
0.0
  0
VERTEX
  5
C30
  8
DATA
  6
CONTINUOUS
 62
     7
 10
388.0376829951133
 20
965.930150997949
 30
0.0
  0
VERTEX
  5
C31
  8
DATA
  6
CONTINUOUS
 62
     7
 10
388.02899652496819
 20
965.92167999905519
 30
0.0
  0
VERTEX
  5
C32
  8
DATA
  6
CONTINUOUS
 62
     7
 10
388.02023822166052
 20
965.91328083356382
 30
0.0
  0
VERTEX
  5
C33
  8
DATA
  6
CONTINUOUS
 62
     7
 10
388.01140808519023
 20
965.90495350147364
 30
0.0
  0
VERTEX
  5
C34
  8
DATA
  6
CONTINUOUS
 62
     7
 10
388.00250611555708
 20
965.89669800278625
 30
0.0
  0
VERTEX
  5
C35
  8
DATA
  6
CONTINUOUS
 62
     7
 10
387.9935323127616
 20
965.88851433750051
 30
0.0
  0
VERTEX
  5
C36
  8
DATA
  6
CONTINUOUS
 62
     7
 10
387.98448667680339
 20
965.88040250561698
 30
0.0
  0
VERTEX
  5
C37
  8
DATA
  6
CONTINUOUS
 62
     7
 10
387.9753692076826
 20
965.87236250713534
 30
0.0
  0
VERTEX
  5
C38
  8
DATA
  6
CONTINUOUS
 62
     7
 10
387.96617990539931
 20
965.86439434205602
 30
0.0
  0
VERTEX
  5
C39
  8
DATA
  6
CONTINUOUS
 62
     7
 10
387.95691876995318
 20
965.85649801037857
 30
0.0
  0
VERTEX
  5
C3A
  8
DATA
  6
CONTINUOUS
 62
     7
 10
387.94758580134459
 20
965.84867351210323
 30
0.0
  0
VERTEX
  5
C3B
  8
DATA
  6
CONTINUOUS
 62
     7
 10
387.93818099957338
 20
965.84092084723011
 30
0.0
  0
VERTEX
  5
C3C
  8
DATA
  6
CONTINUOUS
 62
     7
 10
387.92870436463949
 20
965.83324001575875
 30
0.0
  0
VERTEX
  5
C3D
  8
DATA
  6
CONTINUOUS
 62
     7
 10
387.91915589654309
 20
965.82563101768972
 30
0.0
  0
VERTEX
  5
C3E
  8
DATA
  6
CONTINUOUS
 62
     7
 10
387.90953559528401
 20
965.81809385302233
 30
0.0
  0
VERTEX
  5
C3F
  8
DATA
  6
CONTINUOUS
 62
     7
 10
387.89984346086243
 20
965.81062852175717
 30
0.0
  0
VERTEX
  5
C40
  8
DATA
  6
CONTINUOUS
 62
     7
 10
387.89007949327799
 20
965.80323502389444
 30
0.0
  0
VERTEX
  5
C41
  8
DATA
  6
CONTINUOUS
 62
     7
 10
387.88024369253111
 20
965.79591335943348
 30
0.0
  0
VERTEX
  5
C42
  8
DATA
  6
CONTINUOUS
 62
     7
 10
387.8703360586216
 20
965.78866352837451
 30
0.0
  0
VERTEX
  5
C43
  8
DATA
  6
CONTINUOUS
 62
     7
 10
387.86035659154948
 20
965.78148553071765
 30
0.0
  0
VERTEX
  5
C44
  8
DATA
  6
CONTINUOUS
 62
     7
 10
387.85030529131461
 20
965.77437936646288
 30
0.0
  0
VERTEX
  5
C45
  8
DATA
  6
CONTINUOUS
 62
     7
 10
387.84018215791741
 20
965.76734503561011
 30
0.0
  0
VERTEX
  5
C46
  8
DATA
  6
CONTINUOUS
 62
     7
 10
387.82998719135742
 20
965.76038253815966
 30
0.0
  0
VERTEX
  5
C47
  8
DATA
  6
CONTINUOUS
 62
     7
 10
387.8197203916348
 20
965.75349187411075
 30
0.0
  0
VERTEX
  5
C48
  8
DATA
  6
CONTINUOUS
 62
     7
 10
387.80938175874962
 20
965.74667304346428
 30
0.0
  0
VERTEX
  5
C49
  8
DATA
  6
CONTINUOUS
 62
     7
 10
387.79897129270171
 20
965.73992604621992
 30
0.0
  0
VERTEX
  5
C4A
  8
DATA
  6
CONTINUOUS
 62
     7
 10
387.7884889934914
 20
965.73325088237743
 30
0.0
  0
VERTEX
  5
C4B
  8
DATA
  6
CONTINUOUS
 62
     7
 10
387.7779348611183
 20
965.72664755193694
 30
0.0
  0
VERTEX
  5
C4C
  8
DATA
  6
CONTINUOUS
 62
     7
 10
387.76730889558257
 20
965.72011605489888
 30
0.0
  0
VERTEX
  5
C4D
  8
DATA
  6
CONTINUOUS
 62
     7
 10
387.75661109688428
 20
965.71365639126236
 30
0.0
  0
VERTEX
  5
C4E
  8
DATA
  6
CONTINUOUS
 62
     7
 10
387.74584146502337
 20
965.7072685610284
 30
0.0
  0
VERTEX
  5
C4F
  8
DATA
  6
CONTINUOUS
 62
     7
 10
387.73500000000001
 20
965.7009525641962
 30
0.0
  0
VERTEX
  5
C50
  8
DATA
  6
CONTINUOUS
 62
     7
 10
387.72410947201411
 20
965.69472154719074
 30
0.0
  0
VERTEX
  5
C51
  8
DATA
  6
CONTINUOUS
 62
     7
 10
387.71319265126579
 20
965.68858865643801
 30
0.0
  0
VERTEX
  5
C52
  8
DATA
  6
CONTINUOUS
 62
     7
 10
387.70224953775511
 20
965.682553891937
 30
0.0
  0
VERTEX
  5
C53
  8
DATA
  6
CONTINUOUS
 62
     7
 10
387.69128013148202
 20
965.67661725368805
 30
0.0
  0
VERTEX
  5
C54
  8
DATA
  6
CONTINUOUS
 62
     7
 10
387.68028443244663
 20
965.67077874169092
 30
0.0
  0
VERTEX
  5
C55
  8
DATA
  6
CONTINUOUS
 62
     7
 10
387.66926244064888
 20
965.66503835594619
 30
0.0
  0
VERTEX
  5
C56
  8
DATA
  6
CONTINUOUS
 62
     7
 10
387.65821415608889
 20
965.65939609645329
 30
0.0
  0
VERTEX
  5
C57
  8
DATA
  6
CONTINUOUS
 62
     7
 10
387.64713957876648
 20
965.65385196321245
 30
0.0
  0
VERTEX
  5
C58
  8
DATA
  6
CONTINUOUS
 62
     7
 10
387.63603870868172
 20
965.64840595622422
 30
0.0
  0
VERTEX
  5
C59
  8
DATA
  6
CONTINUOUS
 62
     7
 10
387.62491154583461
 20
965.64305807548715
 30
0.0
  0
VERTEX
  5
C5A
  8
DATA
  6
CONTINUOUS
 62
     7
 10
387.61375809022519
 20
965.63780832100247
 30
0.0
  0
VERTEX
  5
C5B
  8
DATA
  6
CONTINUOUS
 62
     7
 10
387.60257834185342
 20
965.63265669276996
 30
0.0
  0
VERTEX
  5
C5C
  8
DATA
  6
CONTINUOUS
 62
     7
 10
387.59137230071917
 20
965.62760319078961
 30
0.0
  0
VERTEX
  5
C5D
  8
DATA
  6
CONTINUOUS
 62
     7
 10
387.58013996682263
 20
965.62264781506099
 30
0.0
  0
VERTEX
  5
C5E
  8
DATA
  6
CONTINUOUS
 62
     7
 10
387.56888134016373
 20
965.61779056558441
 30
0.0
  0
VERTEX
  5
C5F
  8
DATA
  6
CONTINUOUS
 62
     7
 10
387.55759642074253
 20
965.6130314423599
 30
0.0
  0
VERTEX
  5
C60
  8
DATA
  6
CONTINUOUS
 62
     7
 10
387.54628520855903
 20
965.608370445388
 30
0.0
  0
VERTEX
  5
C61
  8
DATA
  6
CONTINUOUS
 62
     7
 10
387.53494770361311
 20
965.60380757466771
 30
0.0
  0
VERTEX
  5
C62
  8
DATA
  6
CONTINUOUS
 62
     7
 10
387.52358390590479
 20
965.59934283019925
 30
0.0
  0
VERTEX
  5
C63
  8
DATA
  6
CONTINUOUS
 62
     7
 10
387.51219381543422
 20
965.59497621198329
 30
0.0
  0
VERTEX
  5
C64
  8
DATA
  6
CONTINUOUS
 62
     7
 10
387.50077743220118
 20
965.59070772001905
 30
0.0
  0
VERTEX
  5
C65
  8
DATA
  6
CONTINUOUS
 62
     7
 10
387.48933475620572
 20
965.58653735430698
 30
0.0
  0
VERTEX
  5
C66
  8
DATA
  6
CONTINUOUS
 62
     7
 10
387.4778657874482
 20
965.58246511484685
 30
0.0
  0
VERTEX
  5
C67
  8
DATA
  6
CONTINUOUS
 62
     7
 10
387.4663705259282
 20
965.57849100163889
 30
0.0
  0
VERTEX
  5
C68
  8
DATA
  6
CONTINUOUS
 62
     7
 10
387.45484897164579
 20
965.57461501468299
 30
0.0
  0
VERTEX
  5
C69
  8
DATA
  6
CONTINUOUS
 62
     7
 10
387.44330112460091
 20
965.57083715397914
 30
0.0
  0
VERTEX
  5
C6A
  8
DATA
  6
CONTINUOUS
 62
     7
 10
387.43172698479401
 20
965.56715741952723
 30
0.0
  0
VERTEX
  5
C6B
  8
DATA
  6
CONTINUOUS
 62
     7
 10
387.42012655222447
 20
965.56357581132772
 30
0.0
  0
VERTEX
  5
C6C
  8
DATA
  6
CONTINUOUS
 62
     7
 10
387.40849982689269
 20
965.56009232938004
 30
0.0
  0
VERTEX
  5
C6D
  8
DATA
  6
CONTINUOUS
 62
     7
 10
387.39684680879861
 20
965.55670697368384
 30
0.0
  0
VERTEX
  5
C6E
  8
DATA
  6
CONTINUOUS
 62
     7
 10
387.38516749794218
 20
965.55341974424039
 30
0.0
  0
VERTEX
  5
C6F
  8
DATA
  6
CONTINUOUS
 62
     7
 10
387.37346189432333
 20
965.55023064104876
 30
0.0
  0
VERTEX
  5
C70
  8
DATA
  6
CONTINUOUS
 62
     7
 10
387.36172999794218
 20
965.54713966410907
 30
0.0
  0
VERTEX
  5
C71
  8
DATA
  6
CONTINUOUS
 62
     7
 10
387.34997180879861
 20
965.54414681342166
 30
0.0
  0
VERTEX
  5
C72
  8
DATA
  6
CONTINUOUS
 62
     7
 10
387.33818732689269
 20
965.5412520889862
 30
0.0
  0
VERTEX
  5
C73
  8
DATA
  6
CONTINUOUS
 62
     7
 10
387.32637655222447
 20
965.53845549080302
 30
0.0
  0
VERTEX
  5
C74
  8
DATA
  6
CONTINUOUS
 62
     7
 10
387.31453948479401
 20
965.53575701887155
 30
0.0
  0
VERTEX
  5
C75
  8
DATA
  6
CONTINUOUS
 62
     7
 10
387.30267612460091
 20
965.53315667319248
 30
0.0
  0
VERTEX
  5
C76
  8
DATA
  6
CONTINUOUS
 62
     7
 10
387.29078647164567
 20
965.53065445376501
 30
0.0
  0
VERTEX
  5
C77
  8
DATA
  6
CONTINUOUS
 62
     7
 10
387.2788705259282
 20
965.52825036059005
 30
0.0
  0
VERTEX
  5
C78
  8
DATA
  6
CONTINUOUS
 62
     7
 10
387.2669282874482
 20
965.52594439366669
 30
0.0
  0
VERTEX
  5
C79
  8
DATA
  6
CONTINUOUS
 62
     7
 10
387.25495975620572
 20
965.52373655299539
 30
0.0
  0
VERTEX
  5
C7A
  8
DATA
  6
CONTINUOUS
 62
     7
 10
387.24296493220118
 20
965.52162683857637
 30
0.0
  0
VERTEX
  5
C7B
  8
DATA
  6
CONTINUOUS
 62
     7
 10
387.23094381543422
 20
965.51961525040986
 30
0.0
  0
VERTEX
  5
C7C
  8
DATA
  6
CONTINUOUS
 62
     7
 10
387.21889640590479
 20
965.51770178849461
 30
0.0
  0
VERTEX
  5
C7D
  8
DATA
  6
CONTINUOUS
 62
     7
 10
387.20682270361311
 20
965.51588645283152
 30
0.0
  0
VERTEX
  5
C7E
  8
DATA
  6
CONTINUOUS
 62
     7
 10
387.19472270855903
 20
965.51416924342084
 30
0.0
  0
VERTEX
  5
C7F
  8
DATA
  6
CONTINUOUS
 62
     7
 10
387.18259642074253
 20
965.51255016026198
 30
0.0
  0
VERTEX
  5
C80
  8
DATA
  6
CONTINUOUS
 62
     7
 10
387.17044384016373
 20
965.51102920335529
 30
0.0
  0
VERTEX
  5
C81
  8
DATA
  6
CONTINUOUS
 62
     7
 10
387.15826496682263
 20
965.50960637270055
 30
0.0
  0
VERTEX
  5
C82
  8
DATA
  6
CONTINUOUS
 62
     7
 10
387.14605980071917
 20
965.50828166829774
 30
0.0
  0
VERTEX
  5
C83
  8
DATA
  6
CONTINUOUS
 62
     7
 10
387.13382834185342
 20
965.50705509014722
 30
0.0
  0
VERTEX
  5
C84
  8
DATA
  6
CONTINUOUS
 62
     7
 10
387.12157059022508
 20
965.50592663824875
 30
0.0
  0
VERTEX
  5
C85
  8
DATA
  6
CONTINUOUS
 62
     7
 10
387.10928654583461
 20
965.50489631260223
 30
0.0
  0
VERTEX
  5
C86
  8
DATA
  6
CONTINUOUS
 62
     7
 10
387.09697620868172
 20
965.50396411320753
 30
0.0
  0
VERTEX
  5
C87
  8
DATA
  6
CONTINUOUS
 62
     7
 10
387.08463957876648
 20
965.50313004006523
 30
0.0
  0
VERTEX
  5
C88
  8
DATA
  6
CONTINUOUS
 62
     7
 10
387.07227665608889
 20
965.50239409317476
 30
0.0
  0
VERTEX
  5
C89
  8
DATA
  6
CONTINUOUS
 62
     7
 10
387.05988744064888
 20
965.50175627253645
 30
0.0
  0
VERTEX
  5
C8A
  8
DATA
  6
CONTINUOUS
 62
     7
 10
387.04747193244663
 20
965.50121657815032
 30
0.0
  0
VERTEX
  5
C8B
  8
DATA
  6
CONTINUOUS
 62
     7
 10
387.03503013148202
 20
965.50077501001601
 30
0.0
  0
VERTEX
  5
C8C
  8
DATA
  6
CONTINUOUS
 62
     7
 10
387.02256203775511
 20
965.50043156813445
 30
0.0
  0
VERTEX
  5
C8D
  8
DATA
  6
CONTINUOUS
 62
     7
 10
387.01006765126567
 20
965.50018625250402
 30
0.0
  0
VERTEX
  5
C8E
  8
DATA
  6
CONTINUOUS
 62
     7
 10
386.99754697201411
 20
965.50003906312566
 30
0.0
  0
VERTEX
  5
C8F
  8
DATA
  6
CONTINUOUS
 62
     7
 10
386.98500000000001
 20
965.49998999999957
 30
0.0
  0
VERTEX
  5
C90
  8
DATA
  6
CONTINUOUS
 62
     7
 10
386.97245302798598
 20
965.50003906312566
 30
0.0
  0
VERTEX
  5
C91
  8
DATA
  6
CONTINUOUS
 62
     7
 10
386.9599323487343
 20
965.50018625250402
 30
0.0
  0
VERTEX
  5
C92
  8
DATA
  6
CONTINUOUS
 62
     7
 10
386.94743796224498
 20
965.50043156813445
 30
0.0
  0
VERTEX
  5
C93
  8
DATA
  6
CONTINUOUS
 62
     7
 10
386.93496986851801
 20
965.50077501001601
 30
0.0
  0
VERTEX
  5
C94
  8
DATA
  6
CONTINUOUS
 62
     7
 10
386.92252806755317
 20
965.50121657815032
 30
0.0
  0
VERTEX
  5
C95
  8
DATA
  6
CONTINUOUS
 62
     7
 10
386.91011255935121
 20
965.50175627253645
 30
0.0
  0
VERTEX
  5
C96
  8
DATA
  6
CONTINUOUS
 62
     7
 10
386.8977233439112
 20
965.50239409317476
 30
0.0
  0
VERTEX
  5
C97
  8
DATA
  6
CONTINUOUS
 62
     7
 10
386.8853604212336
 20
965.50313004006523
 30
0.0
  0
VERTEX
  5
C98
  8
DATA
  6
CONTINUOUS
 62
     7
 10
386.8730237913183
 20
965.50396411320753
 30
0.0
  0
VERTEX
  5
C99
  8
DATA
  6
CONTINUOUS
 62
     7
 10
386.86071345416542
 20
965.50489631260223
 30
0.0
  0
VERTEX
  5
C9A
  8
DATA
  6
CONTINUOUS
 62
     7
 10
386.84842940977478
 20
965.50592663824875
 30
0.0
  0
VERTEX
  5
C9B
  8
DATA
  6
CONTINUOUS
 62
     7
 10
386.83617165814672
 20
965.50705509014722
 30
0.0
  0
VERTEX
  5
C9C
  8
DATA
  6
CONTINUOUS
 62
     7
 10
386.82394019928091
 20
965.50828166829774
 30
0.0
  0
VERTEX
  5
C9D
  8
DATA
  6
CONTINUOUS
 62
     7
 10
386.8117350331774
 20
965.50960637270055
 30
0.0
  0
VERTEX
  5
C9E
  8
DATA
  6
CONTINUOUS
 62
     7
 10
386.79955615983619
 20
965.51102920335529
 30
0.0
  0
VERTEX
  5
C9F
  8
DATA
  6
CONTINUOUS
 62
     7
 10
386.7874035792575
 20
965.51255016026198
 30
0.0
  0
VERTEX
  5
CA0
  8
DATA
  6
CONTINUOUS
 62
     7
 10
386.775277291441
 20
965.51416924342084
 30
0.0
  0
VERTEX
  5
CA1
  8
DATA
  6
CONTINUOUS
 62
     7
 10
386.76317729638703
 20
965.51588645283152
 30
0.0
  0
VERTEX
  5
CA2
  8
DATA
  6
CONTINUOUS
 62
     7
 10
386.75110359409513
 20
965.51770178849461
 30
0.0
  0
VERTEX
  5
CA3
  8
DATA
  6
CONTINUOUS
 62
     7
 10
386.73905618456581
 20
965.51961525040986
 30
0.0
  0
VERTEX
  5
CA4
  8
DATA
  6
CONTINUOUS
 62
     7
 10
386.72703506779879
 20
965.52162683857637
 30
0.0
  0
VERTEX
  5
CA5
  8
DATA
  6
CONTINUOUS
 62
     7
 10
386.71504024379419
 20
965.52373655299539
 30
0.0
  0
VERTEX
  5
CA6
  8
DATA
  6
CONTINUOUS
 62
     7
 10
386.70307171255178
 20
965.52594439366669
 30
0.0
  0
VERTEX
  5
CA7
  8
DATA
  6
CONTINUOUS
 62
     7
 10
386.69112947407189
 20
965.52825036059005
 30
0.0
  0
VERTEX
  5
CA8
  8
DATA
  6
CONTINUOUS
 62
     7
 10
386.67921352835418
 20
965.53065445376501
 30
0.0
  0
VERTEX
  5
CA9
  8
DATA
  6
CONTINUOUS
 62
     7
 10
386.66732387539912
 20
965.53315667319248
 30
0.0
  0
VERTEX
  5
CAA
  8
DATA
  6
CONTINUOUS
 62
     7
 10
386.65546051520607
 20
965.53575701887155
 30
0.0
  0
VERTEX
  5
CAB
  8
DATA
  6
CONTINUOUS
 62
     7
 10
386.6436234477755
 20
965.53845549080302
 30
0.0
  0
VERTEX
  5
CAC
  8
DATA
  6
CONTINUOUS
 62
     7
 10
386.63181267310722
 20
965.5412520889862
 30
0.0
  0
VERTEX
  5
CAD
  8
DATA
  6
CONTINUOUS
 62
     7
 10
386.62002819120141
 20
965.54414681342166
 30
0.0
  0
VERTEX
  5
CAE
  8
DATA
  6
CONTINUOUS
 62
     7
 10
386.60827000205779
 20
965.54713966410907
 30
0.0
  0
VERTEX
  5
CAF
  8
DATA
  6
CONTINUOUS
 62
     7
 10
386.5965381056767
 20
965.55023064104876
 30
0.0
  0
VERTEX
  5
CB0
  8
DATA
  6
CONTINUOUS
 62
     7
 10
386.58483250205779
 20
965.55341974424039
 30
0.0
  0
VERTEX
  5
CB1
  8
DATA
  6
CONTINUOUS
 62
     7
 10
386.57315319120141
 20
965.55670697368384
 30
0.0
  0
VERTEX
  5
CB2
  8
DATA
  6
CONTINUOUS
 62
     7
 10
386.56150017310722
 20
965.56009232938004
 30
0.0
  0
VERTEX
  5
CB3
  8
DATA
  6
CONTINUOUS
 62
     7
 10
386.5498734477755
 20
965.56357581132772
 30
0.0
  0
VERTEX
  5
CB4
  8
DATA
  6
CONTINUOUS
 62
     7
 10
386.53827301520607
 20
965.56715741952723
 30
0.0
  0
VERTEX
  5
CB5
  8
DATA
  6
CONTINUOUS
 62
     7
 10
386.52669887539912
 20
965.57083715397914
 30
0.0
  0
VERTEX
  5
CB6
  8
DATA
  6
CONTINUOUS
 62
     7
 10
386.51515102835418
 20
965.57461501468299
 30
0.0
  0
VERTEX
  5
CB7
  8
DATA
  6
CONTINUOUS
 62
     7
 10
386.50362947407189
 20
965.57849100163889
 30
0.0
  0
VERTEX
  5
CB8
  8
DATA
  6
CONTINUOUS
 62
     7
 10
386.49213421255178
 20
965.58246511484685
 30
0.0
  0
VERTEX
  5
CB9
  8
DATA
  6
CONTINUOUS
 62
     7
 10
386.48066524379419
 20
965.58653735430698
 30
0.0
  0
VERTEX
  5
CBA
  8
DATA
  6
CONTINUOUS
 62
     7
 10
386.46922256779879
 20
965.59070772001905
 30
0.0
  0
VERTEX
  5
CBB
  8
DATA
  6
CONTINUOUS
 62
     7
 10
386.45780618456581
 20
965.59497621198329
 30
0.0
  0
VERTEX
  5
CBC
  8
DATA
  6
CONTINUOUS
 62
     7
 10
386.44641609409518
 20
965.59934283019925
 30
0.0
  0
VERTEX
  5
CBD
  8
DATA
  6
CONTINUOUS
 62
     7
 10
386.43505229638703
 20
965.60380757466771
 30
0.0
  0
VERTEX
  5
CBE
  8
DATA
  6
CONTINUOUS
 62
     7
 10
386.423714791441
 20
965.608370445388
 30
0.0
  0
VERTEX
  5
CBF
  8
DATA
  6
CONTINUOUS
 62
     7
 10
386.4124035792575
 20
965.6130314423599
 30
0.0
  0
VERTEX
  5
CC0
  8
DATA
  6
CONTINUOUS
 62
     7
 10
386.40111865983619
 20
965.61779056558441
 30
0.0
  0
VERTEX
  5
CC1
  8
DATA
  6
CONTINUOUS
 62
     7
 10
386.38986003317729
 20
965.62264781506099
 30
0.0
  0
VERTEX
  5
CC2
  8
DATA
  6
CONTINUOUS
 62
     7
 10
386.37862769928091
 20
965.62760319078961
 30
0.0
  0
VERTEX
  5
CC3
  8
DATA
  6
CONTINUOUS
 62
     7
 10
386.36742165814672
 20
965.63265669276996
 30
0.0
  0
VERTEX
  5
CC4
  8
DATA
  6
CONTINUOUS
 62
     7
 10
386.35624190977478
 20
965.63780832100247
 30
0.0
  0
VERTEX
  5
CC5
  8
DATA
  6
CONTINUOUS
 62
     7
 10
386.34508845416542
 20
965.64305807548715
 30
0.0
  0
VERTEX
  5
CC6
  8
DATA
  6
CONTINUOUS
 62
     7
 10
386.3339612913183
 20
965.64840595622422
 30
0.0
  0
VERTEX
  5
CC7
  8
DATA
  6
CONTINUOUS
 62
     7
 10
386.3228604212336
 20
965.65385196321245
 30
0.0
  0
VERTEX
  5
CC8
  8
DATA
  6
CONTINUOUS
 62
     7
 10
386.3117858439112
 20
965.65939609645329
 30
0.0
  0
VERTEX
  5
CC9
  8
DATA
  6
CONTINUOUS
 62
     7
 10
386.30073755935109
 20
965.66503835594619
 30
0.0
  0
VERTEX
  5
CCA
  8
DATA
  6
CONTINUOUS
 62
     7
 10
386.28971556755317
 20
965.67077874169092
 30
0.0
  0
VERTEX
  5
CCB
  8
DATA
  6
CONTINUOUS
 62
     7
 10
386.27871986851801
 20
965.67661725368805
 30
0.0
  0
VERTEX
  5
CCC
  8
DATA
  6
CONTINUOUS
 62
     7
 10
386.26775046224498
 20
965.682553891937
 30
0.0
  0
VERTEX
  5
CCD
  8
DATA
  6
CONTINUOUS
 62
     7
 10
386.2568073487343
 20
965.68858865643801
 30
0.0
  0
VERTEX
  5
CCE
  8
DATA
  6
CONTINUOUS
 62
     7
 10
386.24589052798598
 20
965.69472154719074
 30
0.0
  0
VERTEX
  5
CCF
  8
DATA
  6
CONTINUOUS
 62
     7
 10
386.23500000000001
 20
965.7009525641962
 30
0.0
  0
VERTEX
  5
CD0
  8
DATA
  6
CONTINUOUS
 62
     7
 10
386.22415853497648
 20
965.7072685610284
 30
0.0
  0
VERTEX
  5
CD1
  8
DATA
  6
CONTINUOUS
 62
     7
 10
386.21338890311569
 20
965.71365639126236
 30
0.0
  0
VERTEX
  5
CD2
  8
DATA
  6
CONTINUOUS
 62
     7
 10
386.20269110441751
 20
965.72011605489888
 30
0.0
  0
VERTEX
  5
CD3
  8
DATA
  6
CONTINUOUS
 62
     7
 10
386.19206513888167
 20
965.72664755193694
 30
0.0
  0
VERTEX
  5
CD4
  8
DATA
  6
CONTINUOUS
 62
     7
 10
386.18151100650869
 20
965.73325088237743
 30
0.0
  0
VERTEX
  5
CD5
  8
DATA
  6
CONTINUOUS
 62
     7
 10
386.17102870729832
 20
965.73992604621992
 30
0.0
  0
VERTEX
  5
CD6
  8
DATA
  6
CONTINUOUS
 62
     7
 10
386.16061824125052
 20
965.74667304346428
 30
0.0
  0
VERTEX
  5
CD7
  8
DATA
  6
CONTINUOUS
 62
     7
 10
386.15027960836522
 20
965.75349187411075
 30
0.0
  0
VERTEX
  5
CD8
  8
DATA
  6
CONTINUOUS
 62
     7
 10
386.14001280864272
 20
965.76038253815966
 30
0.0
  0
VERTEX
  5
CD9
  8
DATA
  6
CONTINUOUS
 62
     7
 10
386.12981784208279
 20
965.76734503561011
 30
0.0
  0
VERTEX
  5
CDA
  8
DATA
  6
CONTINUOUS
 62
     7
 10
386.1196947086853
 20
965.77437936646288
 30
0.0
  0
VERTEX
  5
CDB
  8
DATA
  6
CONTINUOUS
 62
     7
 10
386.10964340845049
 20
965.78148553071765
 30
0.0
  0
VERTEX
  5
CDC
  8
DATA
  6
CONTINUOUS
 62
     7
 10
386.09966394137848
 20
965.78866352837451
 30
0.0
  0
VERTEX
  5
CDD
  8
DATA
  6
CONTINUOUS
 62
     7
 10
386.08975630746892
 20
965.79591335943348
 30
0.0
  0
VERTEX
  5
CDE
  8
DATA
  6
CONTINUOUS
 62
     7
 10
386.07992050672209
 20
965.80323502389444
 30
0.0
  0
VERTEX
  5
CDF
  8
DATA
  6
CONTINUOUS
 62
     7
 10
386.0701565391376
 20
965.81062852175717
 30
0.0
  0
VERTEX
  5
CE0
  8
DATA
  6
CONTINUOUS
 62
     7
 10
386.06046440471601
 20
965.81809385302233
 30
0.0
  0
VERTEX
  5
CE1
  8
DATA
  6
CONTINUOUS
 62
     7
 10
386.050844103457
 20
965.82563101768972
 30
0.0
  0
VERTEX
  5
CE2
  8
DATA
  6
CONTINUOUS
 62
     7
 10
386.04129563536048
 20
965.83324001575875
 30
0.0
  0
VERTEX
  5
CE3
  8
DATA
  6
CONTINUOUS
 62
     7
 10
386.03181900042659
 20
965.84092084723011
 30
0.0
  0
VERTEX
  5
CE4
  8
DATA
  6
CONTINUOUS
 62
     7
 10
386.02241419865538
 20
965.84867351210323
 30
0.0
  0
VERTEX
  5
CE5
  8
DATA
  6
CONTINUOUS
 62
     7
 10
386.01308123004679
 20
965.85649801037857
 30
0.0
  0
VERTEX
  5
CE6
  8
DATA
  6
CONTINUOUS
 62
     7
 10
386.00382009460083
 20
965.86439434205602
 30
0.0
  0
VERTEX
  5
CE7
  8
DATA
  6
CONTINUOUS
 62
     7
 10
385.99463079231742
 20
965.87236250713534
 30
0.0
  0
VERTEX
  5
CE8
  8
DATA
  6
CONTINUOUS
 62
     7
 10
385.98551332319659
 20
965.88040250561698
 30
0.0
  0
VERTEX
  5
CE9
  8
DATA
  6
CONTINUOUS
 62
     7
 10
385.97646768723843
 20
965.88851433750051
 30
0.0
  0
VERTEX
  5
CEA
  8
DATA
  6
CONTINUOUS
 62
     7
 10
385.96749388444289
 20
965.89669800278625
 30
0.0
  0
VERTEX
  5
CEB
  8
DATA
  6
CONTINUOUS
 62
     7
 10
385.9585919148098
 20
965.90495350147364
 30
0.0
  0
VERTEX
  5
CEC
  8
DATA
  6
CONTINUOUS
 62
     7
 10
385.94976177833939
 20
965.91328083356382
 30
0.0
  0
VERTEX
  5
CED
  8
DATA
  6
CONTINUOUS
 62
     7
 10
385.94100347503178
 20
965.92167999905519
 30
0.0
  0
VERTEX
  5
CEE
  8
DATA
  6
CONTINUOUS
 62
     7
 10
385.93231700488661
 20
965.930150997949
 30
0.0
  0
VERTEX
  5
CEF
  8
DATA
  6
CONTINUOUS
 62
     7
 10
385.92370236790418
 20
965.93869383024503
 30
0.0
  0
VERTEX
  5
CF0
  8
DATA
  6
CONTINUOUS
 62
     7
 10
385.91515956408432
 20
965.94730849594328
 30
0.0
  0
VERTEX
  5
CF1
  8
DATA
  6
CONTINUOUS
 62
     7
 10
385.90668859342702
 20
965.95599499504317
 30
0.0
  0
VERTEX
  5
CF2
  8
DATA
  6
CONTINUOUS
 62
     7
 10
385.89828945593229
 20
965.96475332754528
 30
0.0
  0
VERTEX
  5
CF3
  8
DATA
  6
CONTINUOUS
 62
     7
 10
385.88996215160029
 20
965.97358349344915
 30
0.0
  0
VERTEX
  5
CF4
  8
DATA
  6
CONTINUOUS
 62
     7
 10
385.88170668043091
 20
965.98248549275559
 30
0.0
  0
VERTEX
  5
CF5
  8
DATA
  6
CONTINUOUS
 62
     7
 10
385.87352304242398
 20
965.99145932546355
 30
0.0
  0
VERTEX
  5
CF6
  8
DATA
  6
CONTINUOUS
 62
     7
 10
385.86541123757979
 20
966.00050499157396
 30
0.0
  0
VERTEX
  5
CF7
  8
DATA
  6
CONTINUOUS
 62
     7
 10
385.85737126589828
 20
966.00962249108636
 30
0.0
  0
VERTEX
  5
CF8
  8
DATA
  6
CONTINUOUS
 62
     7
 10
385.84940312737922
 20
966.01881182400075
 30
0.0
  0
VERTEX
  5
CF9
  8
DATA
  6
CONTINUOUS
 62
     7
 10
385.84150682202278
 20
966.02807299031701
 30
0.0
  0
VERTEX
  5
CFA
  8
DATA
  6
CONTINUOUS
 62
     7
 10
385.83368234982902
 20
966.03740599003595
 30
0.0
  0
VERTEX
  5
CFB
  8
DATA
  6
CONTINUOUS
 62
     7
 10
385.82592971079788
 20
966.04681082315631
 30
0.0
  0
VERTEX
  5
CFC
  8
DATA
  6
CONTINUOUS
 62
     7
 10
385.81824890492942
 20
966.05628748967877
 30
0.0
  0
VERTEX
  5
CFD
  8
DATA
  6
CONTINUOUS
 62
     7
 10
385.81063993222341
 20
966.06583598960344
 30
0.0
  0
VERTEX
  5
CFE
  8
DATA
  6
CONTINUOUS
 62
     7
 10
385.80310279268008
 20
966.07545632293034
 30
0.0
  0
VERTEX
  5
CFF
  8
DATA
  6
CONTINUOUS
 62
     7
 10
385.79563748629943
 20
966.08514848965933
 30
0.0
  0
VERTEX
  5
D00
  8
DATA
  6
CONTINUOUS
 62
     7
 10
385.78824401308128
 20
966.0949124897902
 30
0.0
  0
VERTEX
  5
D01
  8
DATA
  6
CONTINUOUS
 62
     7
 10
385.7809223730257
 20
966.10474832332307
 30
0.0
  0
VERTEX
  5
D02
  8
DATA
  6
CONTINUOUS
 62
     7
 10
385.77367256613297
 20
966.11465599025792
 30
0.0
  0
VERTEX
  5
D03
  8
DATA
  6
CONTINUOUS
 62
     7
 10
385.76649459240258
 20
966.1246354905951
 30
0.0
  0
VERTEX
  5
D04
  8
DATA
  6
CONTINUOUS
 62
     7
 10
385.75938845183492
 20
966.13468682433415
 30
0.0
  0
VERTEX
  5
D05
  8
DATA
  6
CONTINUOUS
 62
     7
 10
385.75235414443
 20
966.1448099914752
 30
0.0
  0
VERTEX
  5
D06
  8
DATA
  6
CONTINUOUS
 62
     7
 10
385.74539167018759
 20
966.15500499201846
 30
0.0
  0
VERTEX
  5
D07
  8
DATA
  6
CONTINUOUS
 62
     7
 10
385.73850102910768
 20
966.16527182596349
 30
0.0
  0
VERTEX
  5
D08
  8
DATA
  6
CONTINUOUS
 62
     7
 10
385.73168222119062
 20
966.17561049331096
 30
0.0
  0
VERTEX
  5
D09
  8
DATA
  6
CONTINUOUS
 62
     7
 10
385.72493524643602
 20
966.18602099406064
 30
0.0
  0
VERTEX
  5
D0A
  8
DATA
  6
CONTINUOUS
 62
     7
 10
385.71826010484398
 20
966.19650332821152
 30
0.0
  0
VERTEX
  5
D0B
  8
DATA
  6
CONTINUOUS
 62
     7
 10
385.71165679641462
 20
966.20705749576507
 30
0.0
  0
VERTEX
  5
D0C
  8
DATA
  6
CONTINUOUS
 62
     7
 10
385.70512532114799
 20
966.21768349672072
 30
0.0
  0
VERTEX
  5
D0D
  8
DATA
  6
CONTINUOUS
 62
     7
 10
385.69866567904381
 20
966.22838133107837
 30
0.0
  0
VERTEX
  5
D0E
  8
DATA
  6
CONTINUOUS
 62
     7
 10
385.69227787010232
 20
966.23915099883811
 30
0.0
  0
VERTEX
  5
D0F
  8
DATA
  6
CONTINUOUS
 62
     7
 10
385.68596189432333
 20
966.24999249999962
 30
0.0
  0
VERTEX
  5
D10
  8
DATA
  6
CONTINUOUS
 62
     7
 10
385.67973089808822
 20
966.26088306428755
 30
0.0
  0
VERTEX
  5
D11
  8
DATA
  6
CONTINUOUS
 62
     7
 10
385.6735980277781
 20
966.27179992142533
 30
0.0
  0
VERTEX
  5
D12
  8
DATA
  6
CONTINUOUS
 62
     7
 10
385.66756328339278
 20
966.28274307141294
 30
0.0
  0
VERTEX
  5
D13
  8
DATA
  6
CONTINUOUS
 62
     7
 10
385.66162666493278
 20
966.2937125142505
 30
0.0
  0
VERTEX
  5
D14
  8
DATA
  6
CONTINUOUS
 62
     7
 10
385.65578817239742
 20
966.30470824993824
 30
0.0
  0
VERTEX
  5
D15
  8
DATA
  6
CONTINUOUS
 62
     7
 10
385.6500478057871
 20
966.31573027847594
 30
0.0
  0
VERTEX
  5
D16
  8
DATA
  6
CONTINUOUS
 62
     7
 10
385.64440556510169
 20
966.32677859986359
 30
0.0
  0
VERTEX
  5
D17
  8
DATA
  6
CONTINUOUS
 62
     7
 10
385.63886145034132
 20
966.33785321410153
 30
0.0
  0
VERTEX
  5
D18
  8
DATA
  6
CONTINUOUS
 62
     7
 10
385.63341546150599
 20
966.34895412118908
 30
0.0
  0
VERTEX
  5
D19
  8
DATA
  6
CONTINUOUS
 62
     7
 10
385.62806759859541
 20
966.3600813211267
 30
0.0
  0
VERTEX
  5
D1A
  8
DATA
  6
CONTINUOUS
 62
     7
 10
385.62281786160997
 20
966.37123481391438
 30
0.0
  0
VERTEX
  5
D1B
  8
DATA
  6
CONTINUOUS
 62
     7
 10
385.61766625054952
 20
966.38241459955191
 30
0.0
  0
VERTEX
  5
D1C
  8
DATA
  6
CONTINUOUS
 62
     7
 10
385.61261276541381
 20
966.3936206780395
 30
0.0
  0
VERTEX
  5
D1D
  8
DATA
  6
CONTINUOUS
 62
     7
 10
385.60765740620309
 20
966.40485304937715
 30
0.0
  0
VERTEX
  5
D1E
  8
DATA
  6
CONTINUOUS
 62
     7
 10
385.60280017291763
 20
966.41611171356465
 30
0.0
  0
VERTEX
  5
D1F
  8
DATA
  6
CONTINUOUS
 62
     7
 10
385.59804106555691
 20
966.42739667060255
 30
0.0
  0
VERTEX
  5
D20
  8
DATA
  6
CONTINUOUS
 62
     7
 10
385.59338008412112
 20
966.43870792048983
 30
0.0
  0
VERTEX
  5
D21
  8
DATA
  6
CONTINUOUS
 62
     7
 10
385.58881722861042
 20
966.45004546322753
 30
0.0
  0
VERTEX
  5
D22
  8
DATA
  6
CONTINUOUS
 62
     7
 10
385.58435249902459
 20
966.46140929881517
 30
0.0
  0
VERTEX
  5
D23
  8
DATA
  6
CONTINUOUS
 62
     7
 10
385.57998589536368
 20
966.47279942725277
 30
0.0
  0
VERTEX
  5
D24
  8
DATA
  6
CONTINUOUS
 62
     7
 10
385.57571741762803
 20
966.48421584854054
 30
0.0
  0
VERTEX
  5
D25
  8
DATA
  6
CONTINUOUS
 62
     7
 10
385.57154706581701
 20
966.49565856267805
 30
0.0
  0
VERTEX
  5
D26
  8
DATA
  6
CONTINUOUS
 62
     7
 10
385.56747483993109
 20
966.50712756966573
 30
0.0
  0
VERTEX
  5
D27
  8
DATA
  6
CONTINUOUS
 62
     7
 10
385.5635007399701
 20
966.51862286950313
 30
0.0
  0
VERTEX
  5
D28
  8
DATA
  6
CONTINUOUS
 62
     7
 10
385.55962476593402
 20
966.53014446219061
 30
0.0
  0
VERTEX
  5
D29
  8
DATA
  6
CONTINUOUS
 62
     7
 10
385.55584691782298
 20
966.54169234772803
 30
0.0
  0
VERTEX
  5
D2A
  8
DATA
  6
CONTINUOUS
 62
     7
 10
385.55216719563691
 20
966.55326652611575
 30
0.0
  0
VERTEX
  5
D2B
  8
DATA
  6
CONTINUOUS
 62
     7
 10
385.54858559937583
 20
966.56486699735353
 30
0.0
  0
VERTEX
  5
D2C
  8
DATA
  6
CONTINUOUS
 62
     7
 10
385.54510212903961
 20
966.57649376144059
 30
0.0
  0
VERTEX
  5
D2D
  8
DATA
  6
CONTINUOUS
 62
     7
 10
385.54171678462831
 20
966.5881468183785
 30
0.0
  0
VERTEX
  5
D2E
  8
DATA
  6
CONTINUOUS
 62
     7
 10
385.5384295661421
 20
966.59982616816615
 30
0.0
  0
VERTEX
  5
D2F
  8
DATA
  6
CONTINUOUS
 62
     7
 10
385.53524047358093
 20
966.61153181080329
 30
0.0
  0
VERTEX
  5
D30
  8
DATA
  6
CONTINUOUS
 62
     7
 10
385.53214950694451
 20
966.62326374629095
 30
0.0
  0
VERTEX
  5
D31
  8
DATA
  6
CONTINUOUS
 62
     7
 10
385.52915666623312
 20
966.63502197462844
 30
0.0
  0
VERTEX
  5
D32
  8
DATA
  6
CONTINUOUS
 62
     7
 10
385.52626195144683
 20
966.64680649581589
 30
0.0
  0
VERTEX
  5
D33
  8
DATA
  6
CONTINUOUS
 62
     7
 10
385.52346536258523
 20
966.65861730985353
 30
0.0
  0
VERTEX
  5
D34
  8
DATA
  6
CONTINUOUS
 62
     7
 10
385.52076689964889
 20
966.67045441674065
 30
0.0
  0
VERTEX
  5
D35
  8
DATA
  6
CONTINUOUS
 62
     7
 10
385.51816656263742
 20
966.68231781647853
 30
0.0
  0
VERTEX
  5
D36
  8
DATA
  6
CONTINUOUS
 62
     7
 10
385.51566435155081
 20
966.69420750906568
 30
0.0
  0
VERTEX
  5
D37
  8
DATA
  6
CONTINUOUS
 62
     7
 10
385.51326026638918
 20
966.706123494503
 30
0.0
  0
VERTEX
  5
D38
  8
DATA
  6
CONTINUOUS
 62
     7
 10
385.51095430715259
 20
966.71806577279062
 30
0.0
  0
VERTEX
  5
D39
  8
DATA
  6
CONTINUOUS
 62
     7
 10
385.50874647384092
 20
966.73003434392808
 30
0.0
  0
VERTEX
  5
D3A
  8
DATA
  6
CONTINUOUS
 62
     7
 10
385.50663676645439
 20
966.74202920791549
 30
0.0
  0
VERTEX
  5
D3B
  8
DATA
  6
CONTINUOUS
 62
     7
 10
385.50462518499262
 20
966.75405036475274
 30
0.0
  0
VERTEX
  5
D3C
  8
DATA
  6
CONTINUOUS
 62
     7
 10
385.50271172945571
 20
966.76609781444017
 30
0.0
  0
VERTEX
  5
D3D
  8
DATA
  6
CONTINUOUS
 62
     7
 10
385.5008963998439
 20
966.77817155697767
 30
0.0
  0
VERTEX
  5
D3E
  8
DATA
  6
CONTINUOUS
 62
     7
 10
385.49917919615717
 20
966.790271592365
 30
0.0
  0
VERTEX
  5
D3F
  8
DATA
  6
CONTINUOUS
 62
     7
 10
385.49756011839509
 20
966.8023979206024
 30
0.0
  0
VERTEX
  5
D40
  8
DATA
  6
CONTINUOUS
 62
     7
 10
385.49603916655832
 20
966.81455054168975
 30
0.0
  0
VERTEX
  5
D41
  8
DATA
  6
CONTINUOUS
 62
     7
 10
385.49461634064642
 20
966.8267294556274
 30
0.0
  0
VERTEX
  5
D42
  8
DATA
  6
CONTINUOUS
 62
     7
 10
385.49329164065932
 20
966.83893466241454
 30
0.0
  0
VERTEX
  5
D43
  8
DATA
  6
CONTINUOUS
 62
     7
 10
385.49206506659721
 20
966.85116616205221
 30
0.0
  0
VERTEX
  5
D44
  8
DATA
  6
CONTINUOUS
 62
     7
 10
385.49093661846018
 20
966.86342395453914
 30
0.0
  0
VERTEX
  5
D45
  8
DATA
  6
CONTINUOUS
 62
     7
 10
385.48990629624819
 20
966.87570803987671
 30
0.0
  0
VERTEX
  5
D46
  8
DATA
  6
CONTINUOUS
 62
     7
 10
385.48897409996101
 20
966.88801841806401
 30
0.0
  0
VERTEX
  5
D47
  8
DATA
  6
CONTINUOUS
 62
     7
 10
385.48814002959892
 20
966.90035508910114
 30
0.0
  0
VERTEX
  5
D48
  8
DATA
  6
CONTINUOUS
 62
     7
 10
385.48740408516159
 20
966.91271805298868
 30
0.0
  0
VERTEX
  5
D49
  8
DATA
  6
CONTINUOUS
 62
     7
 10
385.48676626664923
 20
966.92510730972595
 30
0.0
  0
VERTEX
  5
D4A
  8
DATA
  6
CONTINUOUS
 62
     7
 10
385.48622657406202
 20
966.93752285931316
 30
0.0
  0
VERTEX
  5
D4B
  8
DATA
  6
CONTINUOUS
 62
     7
 10
385.48578500739973
 20
966.94996470175022
 30
0.0
  0
VERTEX
  5
D4C
  8
DATA
  6
CONTINUOUS
 62
     7
 10
385.48544156666242
 20
966.96243283703825
 30
0.0
  0
VERTEX
  5
D4D
  8
DATA
  6
CONTINUOUS
 62
     7
 10
385.48519625185003
 20
966.97492726517532
 30
0.0
  0
VERTEX
  5
D4E
  8
DATA
  6
CONTINUOUS
 62
     7
 10
385.4850490629625
 20
966.98744798616235
 30
0.0
  0
VERTEX
  5
D4F
  8
DATA
  6
CONTINUOUS
 62
     7
 10
385.48500000000001
 20
966.9999949999999
 30
0.0
  0
VERTEX
  5
D50
  8
DATA
  6
CONTINUOUS
 62
     7
 10
385.4850490629625
 20
967.01254201383699
 30
0.0
  0
VERTEX
  5
D51
  8
DATA
  6
CONTINUOUS
 62
     7
 10
385.48519625185003
 20
967.02506273482425
 30
0.0
  0
VERTEX
  5
D52
  8
DATA
  6
CONTINUOUS
 62
     7
 10
385.48544156666242
 20
967.03755716296155
 30
0.0
  0
VERTEX
  5
D53
  8
DATA
  6
CONTINUOUS
 62
     7
 10
385.48578500739973
 20
967.05002529824878
 30
0.0
  0
VERTEX
  5
D54
  8
DATA
  6
CONTINUOUS
 62
     7
 10
385.48622657406202
 20
967.06246714068618
 30
0.0
  0
VERTEX
  5
D55
  8
DATA
  6
CONTINUOUS
 62
     7
 10
385.48676626664923
 20
967.07488269027363
 30
0.0
  0
VERTEX
  5
D56
  8
DATA
  6
CONTINUOUS
 62
     7
 10
385.48740408516159
 20
967.08727194701066
 30
0.0
  0
VERTEX
  5
D57
  8
DATA
  6
CONTINUOUS
 62
     7
 10
385.48814002959892
 20
967.09963491089843
 30
0.0
  0
VERTEX
  5
D58
  8
DATA
  6
CONTINUOUS
 62
     7
 10
385.48897409996101
 20
967.11197158193545
 30
0.0
  0
VERTEX
  5
D59
  8
DATA
  6
CONTINUOUS
 62
     7
 10
385.48990629624819
 20
967.12428196012286
 30
0.0
  0
VERTEX
  5
D5A
  8
DATA
  6
CONTINUOUS
 62
     7
 10
385.49093661846018
 20
967.1365660454602
 30
0.0
  0
VERTEX
  5
D5B
  8
DATA
  6
CONTINUOUS
 62
     7
 10
385.49206506659721
 20
967.14882383794759
 30
0.0
  0
VERTEX
  5
D5C
  8
DATA
  6
CONTINUOUS
 62
     7
 10
385.49329164065932
 20
967.16105533758468
 30
0.0
  0
VERTEX
  5
D5D
  8
DATA
  6
CONTINUOUS
 62
     7
 10
385.49461634064642
 20
967.17326054437206
 30
0.0
  0
VERTEX
  5
D5E
  8
DATA
  6
CONTINUOUS
 62
     7
 10
385.49603916655832
 20
967.18543945830982
 30
0.0
  0
VERTEX
  5
D5F
  8
DATA
  6
CONTINUOUS
 62
     7
 10
385.49756011839509
 20
967.19759207939683
 30
0.0
  0
VERTEX
  5
D60
  8
DATA
  6
CONTINUOUS
 62
     7
 10
385.49917919615717
 20
967.20971840763445
 30
0.0
  0
VERTEX
  5
D61
  8
DATA
  6
CONTINUOUS
 62
     7
 10
385.5008963998439
 20
967.22181844302168
 30
0.0
  0
VERTEX
  5
D62
  8
DATA
  6
CONTINUOUS
 62
     7
 10
385.50271172945571
 20
967.23389218555917
 30
0.0
  0
VERTEX
  5
D63
  8
DATA
  6
CONTINUOUS
 62
     7
 10
385.50462518499262
 20
967.24593963524649
 30
0.0
  0
VERTEX
  5
D64
  8
DATA
  6
CONTINUOUS
 62
     7
 10
385.50663676645439
 20
967.25796079208408
 30
0.0
  0
VERTEX
  5
D65
  8
DATA
  6
CONTINUOUS
 62
     7
 10
385.50874647384092
 20
967.26995565607149
 30
0.0
  0
VERTEX
  5
D66
  8
DATA
  6
CONTINUOUS
 62
     7
 10
385.51095430715259
 20
967.28192422720872
 30
0.0
  0
VERTEX
  5
D67
  8
DATA
  6
CONTINUOUS
 62
     7
 10
385.51326026638918
 20
967.29386650549645
 30
0.0
  0
VERTEX
  5
D68
  8
DATA
  6
CONTINUOUS
 62
     7
 10
385.51566435155081
 20
967.30578249093367
 30
0.0
  0
VERTEX
  5
D69
  8
DATA
  6
CONTINUOUS
 62
     7
 10
385.51816656263742
 20
967.31767218352127
 30
0.0
  0
VERTEX
  5
D6A
  8
DATA
  6
CONTINUOUS
 62
     7
 10
385.52076689964889
 20
967.32953558325869
 30
0.0
  0
VERTEX
  5
D6B
  8
DATA
  6
CONTINUOUS
 62
     7
 10
385.52346536258523
 20
967.34137269014582
 30
0.0
  0
VERTEX
  5
D6C
  8
DATA
  6
CONTINUOUS
 62
     7
 10
385.52626195144683
 20
967.35318350418368
 30
0.0
  0
VERTEX
  5
D6D
  8
DATA
  6
CONTINUOUS
 62
     7
 10
385.52915666623312
 20
967.36496802537124
 30
0.0
  0
VERTEX
  5
D6E
  8
DATA
  6
CONTINUOUS
 62
     7
 10
385.53214950694451
 20
967.37672625370863
 30
0.0
  0
VERTEX
  5
D6F
  8
DATA
  6
CONTINUOUS
 62
     7
 10
385.53524047358093
 20
967.38845818919606
 30
0.0
  0
VERTEX
  5
D70
  8
DATA
  6
CONTINUOUS
 62
     7
 10
385.5384295661421
 20
967.40016383183365
 30
0.0
  0
VERTEX
  5
D71
  8
DATA
  6
CONTINUOUS
 62
     7
 10
385.54171678462831
 20
967.41184318162095
 30
0.0
  0
VERTEX
  5
D72
  8
DATA
  6
CONTINUOUS
 62
     7
 10
385.54510212903961
 20
967.42349623855841
 30
0.0
  0
VERTEX
  5
D73
  8
DATA
  6
CONTINUOUS
 62
     7
 10
385.54858559937583
 20
967.43512300264615
 30
0.0
  0
VERTEX
  5
D74
  8
DATA
  6
CONTINUOUS
 62
     7
 10
385.55216719563691
 20
967.44672347388337
 30
0.0
  0
VERTEX
  5
D75
  8
DATA
  6
CONTINUOUS
 62
     7
 10
385.55584691782298
 20
967.4582976522712
 30
0.0
  0
VERTEX
  5
D76
  8
DATA
  6
CONTINUOUS
 62
     7
 10
385.55962476593402
 20
967.46984553780885
 30
0.0
  0
VERTEX
  5
D77
  8
DATA
  6
CONTINUOUS
 62
     7
 10
385.5635007399701
 20
967.48136713049632
 30
0.0
  0
VERTEX
  5
D78
  8
DATA
  6
CONTINUOUS
 62
     7
 10
385.56747483993109
 20
967.49286243033373
 30
0.0
  0
VERTEX
  5
D79
  8
DATA
  6
CONTINUOUS
 62
     7
 10
385.57154706581701
 20
967.50433143732153
 30
0.0
  0
VERTEX
  5
D7A
  8
DATA
  6
CONTINUOUS
 62
     7
 10
385.57571741762803
 20
967.51577415145903
 30
0.0
  0
VERTEX
  5
D7B
  8
DATA
  6
CONTINUOUS
 62
     7
 10
385.57998589536368
 20
967.52719057274635
 30
0.0
  0
VERTEX
  5
D7C
  8
DATA
  6
CONTINUOUS
 62
     7
 10
385.58435249902459
 20
967.53858070118395
 30
0.0
  0
VERTEX
  5
D7D
  8
DATA
  6
CONTINUOUS
 62
     7
 10
385.58881722861042
 20
967.54994453677182
 30
0.0
  0
VERTEX
  5
D7E
  8
DATA
  6
CONTINUOUS
 62
     7
 10
385.59338008412112
 20
967.56128207950928
 30
0.0
  0
VERTEX
  5
D7F
  8
DATA
  6
CONTINUOUS
 62
     7
 10
385.59804106555691
 20
967.57259332939702
 30
0.0
  0
VERTEX
  5
D80
  8
DATA
  6
CONTINUOUS
 62
     7
 10
385.60280017291763
 20
967.58387828643436
 30
0.0
  0
VERTEX
  5
D81
  8
DATA
  6
CONTINUOUS
 62
     7
 10
385.60765740620309
 20
967.59513695062242
 30
0.0
  0
VERTEX
  5
D82
  8
DATA
  6
CONTINUOUS
 62
     7
 10
385.61261276541381
 20
967.60636932195985
 30
0.0
  0
VERTEX
  5
D83
  8
DATA
  6
CONTINUOUS
 62
     7
 10
385.61766625054952
 20
967.61757540044766
 30
0.0
  0
VERTEX
  5
D84
  8
DATA
  6
CONTINUOUS
 62
     7
 10
385.62281786160997
 20
967.62875518608519
 30
0.0
  0
VERTEX
  5
D85
  8
DATA
  6
CONTINUOUS
 62
     7
 10
385.62806759859541
 20
967.63990867887264
 30
0.0
  0
VERTEX
  5
D86
  8
DATA
  6
CONTINUOUS
 62
     7
 10
385.63341546150599
 20
967.65103587881026
 30
0.0
  0
VERTEX
  5
D87
  8
DATA
  6
CONTINUOUS
 62
     7
 10
385.63886145034132
 20
967.6621367858977
 30
0.0
  0
VERTEX
  5
D88
  8
DATA
  6
CONTINUOUS
 62
     7
 10
385.64440556510169
 20
967.67321140013576
 30
0.0
  0
VERTEX
  5
D89
  8
DATA
  6
CONTINUOUS
 62
     7
 10
385.6500478057871
 20
967.6842597215234
 30
0.0
  0
VERTEX
  5
D8A
  8
DATA
  6
CONTINUOUS
 62
     7
 10
385.65578817239742
 20
967.69528175006121
 30
0.0
  0
VERTEX
  5
D8B
  8
DATA
  6
CONTINUOUS
 62
     7
 10
385.66162666493278
 20
967.70627748574873
 30
0.0
  0
VERTEX
  5
D8C
  8
DATA
  6
CONTINUOUS
 62
     7
 10
385.66756328339278
 20
967.71724692858641
 30
0.0
  0
VERTEX
  5
D8D
  8
DATA
  6
CONTINUOUS
 62
     7
 10
385.6735980277781
 20
967.72819007857424
 30
0.0
  0
VERTEX
  5
D8E
  8
DATA
  6
CONTINUOUS
 62
     7
 10
385.67973089808822
 20
967.73910693571213
 30
0.0
  0
VERTEX
  5
D8F
  8
DATA
  6
CONTINUOUS
 62
     7
 10
385.68596189432333
 20
967.74999749999984
 30
0.0
  0
VERTEX
  5
D90
  8
DATA
  6
CONTINUOUS
 62
     7
 10
385.69227787010232
 20
967.76083900116146
 30
0.0
  0
VERTEX
  5
D91
  8
DATA
  6
CONTINUOUS
 62
     7
 10
385.69866567904381
 20
967.77160866892098
 30
0.0
  0
VERTEX
  5
D92
  8
DATA
  6
CONTINUOUS
 62
     7
 10
385.70512532114799
 20
967.78230650327885
 30
0.0
  0
VERTEX
  5
D93
  8
DATA
  6
CONTINUOUS
 62
     7
 10
385.71165679641462
 20
967.79293250423382
 30
0.0
  0
VERTEX
  5
D94
  8
DATA
  6
CONTINUOUS
 62
     7
 10
385.71826010484398
 20
967.8034866717876
 30
0.0
  0
VERTEX
  5
D95
  8
DATA
  6
CONTINUOUS
 62
     7
 10
385.72493524643602
 20
967.81396900593916
 30
0.0
  0
VERTEX
  5
D96
  8
DATA
  6
CONTINUOUS
 62
     7
 10
385.73168222119062
 20
967.82437950668827
 30
0.0
  0
VERTEX
  5
D97
  8
DATA
  6
CONTINUOUS
 62
     7
 10
385.73850102910768
 20
967.8347181740354
 30
0.0
  0
VERTEX
  5
D98
  8
DATA
  6
CONTINUOUS
 62
     7
 10
385.74539167018759
 20
967.84498500798088
 30
0.0
  0
VERTEX
  5
D99
  8
DATA
  6
CONTINUOUS
 62
     7
 10
385.75235414443
 20
967.85518000852414
 30
0.0
  0
VERTEX
  5
D9A
  8
DATA
  6
CONTINUOUS
 62
     7
 10
385.75938845183492
 20
967.86530317566542
 30
0.0
  0
VERTEX
  5
D9B
  8
DATA
  6
CONTINUOUS
 62
     7
 10
385.76649459240258
 20
967.87535450940436
 30
0.0
  0
VERTEX
  5
D9C
  8
DATA
  6
CONTINUOUS
 62
     7
 10
385.77367256613297
 20
967.88533400974154
 30
0.0
  0
VERTEX
  5
D9D
  8
DATA
  6
CONTINUOUS
 62
     7
 10
385.7809223730257
 20
967.89524167667651
 30
0.0
  0
VERTEX
  5
D9E
  8
DATA
  6
CONTINUOUS
 62
     7
 10
385.78824401308128
 20
967.90507751020925
 30
0.0
  0
VERTEX
  5
D9F
  8
DATA
  6
CONTINUOUS
 62
     7
 10
385.79563748629943
 20
967.91484151034012
 30
0.0
  0
VERTEX
  5
DA0
  8
DATA
  6
CONTINUOUS
 62
     7
 10
385.80310279268008
 20
967.92453367706889
 30
0.0
  0
VERTEX
  5
DA1
  8
DATA
  6
CONTINUOUS
 62
     7
 10
385.81063993222341
 20
967.93415401039567
 30
0.0
  0
VERTEX
  5
DA2
  8
DATA
  6
CONTINUOUS
 62
     7
 10
385.81824890492942
 20
967.94370251032035
 30
0.0
  0
VERTEX
  5
DA3
  8
DATA
  6
CONTINUOUS
 62
     7
 10
385.82592971079788
 20
967.95317917684315
 30
0.0
  0
VERTEX
  5
DA4
  8
DATA
  6
CONTINUOUS
 62
     7
 10
385.83368234982902
 20
967.96258400996351
 30
0.0
  0
VERTEX
  5
DA5
  8
DATA
  6
CONTINUOUS
 62
     7
 10
385.84150682202278
 20
967.97191700968244
 30
0.0
  0
VERTEX
  5
DA6
  8
DATA
  6
CONTINUOUS
 62
     7
 10
385.84940312737922
 20
967.98117817599871
 30
0.0
  0
VERTEX
  5
DA7
  8
DATA
  6
CONTINUOUS
 62
     7
 10
385.85737126589828
 20
967.99036750891344
 30
0.0
  0
VERTEX
  5
DA8
  8
DATA
  6
CONTINUOUS
 62
     7
 10
385.86541123757979
 20
967.99948500842561
 30
0.0
  0
VERTEX
  5
DA9
  8
DATA
  6
CONTINUOUS
 62
     7
 10
385.87352304242398
 20
968.00853067453579
 30
0.0
  0
VERTEX
  5
DAA
  8
DATA
  6
CONTINUOUS
 62
     7
 10
385.88170668043091
 20
968.0175045072441
 30
0.0
  0
VERTEX
  5
DAB
  8
DATA
  6
CONTINUOUS
 62
     7
 10
385.88996215160029
 20
968.02640650655019
 30
0.0
  0
VERTEX
  5
DAC
  8
DATA
  6
CONTINUOUS
 62
     7
 10
385.89828945593229
 20
968.03523667245452
 30
0.0
  0
VERTEX
  5
DAD
  8
DATA
  6
CONTINUOUS
 62
     7
 10
385.90668859342702
 20
968.0439950049564
 30
0.0
  0
VERTEX
  5
DAE
  8
DATA
  6
CONTINUOUS
 62
     7
 10
385.91515956408432
 20
968.0526815040563
 30
0.0
  0
VERTEX
  5
DAF
  8
DATA
  6
CONTINUOUS
 62
     7
 10
385.92370236790418
 20
968.0612961697542
 30
0.0
  0
VERTEX
  5
DB0
  8
DATA
  6
CONTINUOUS
 62
     7
 10
385.93231700488661
 20
968.06983900205034
 30
0.0
  0
VERTEX
  5
DB1
  8
DATA
  6
CONTINUOUS
 62
     7
 10
385.94100347503178
 20
968.07831000094404
 30
0.0
  0
VERTEX
  5
DB2
  8
DATA
  6
CONTINUOUS
 62
     7
 10
385.94976177833939
 20
968.08670916643575
 30
0.0
  0
VERTEX
  5
DB3
  8
DATA
  6
CONTINUOUS
 62
     7
 10
385.9585919148098
 20
968.0950364985257
 30
0.0
  0
VERTEX
  5
DB4
  8
DATA
  6
CONTINUOUS
 62
     7
 10
385.96749388444289
 20
968.10329199721298
 30
0.0
  0
VERTEX
  5
DB5
  8
DATA
  6
CONTINUOUS
 62
     7
 10
385.97646768723843
 20
968.11147566249895
 30
0.0
  0
VERTEX
  5
DB6
  8
DATA
  6
CONTINUOUS
 62
     7
 10
385.98551332319659
 20
968.11958749438224
 30
0.0
  0
VERTEX
  5
DB7
  8
DATA
  6
CONTINUOUS
 62
     7
 10
385.99463079231742
 20
968.12762749286424
 30
0.0
  0
VERTEX
  5
DB8
  8
DATA
  6
CONTINUOUS
 62
     7
 10
386.00382009460083
 20
968.13559565794344
 30
0.0
  0
VERTEX
  5
DB9
  8
DATA
  6
CONTINUOUS
 62
     7
 10
386.01308123004679
 20
968.14349198962077
 30
0.0
  0
VERTEX
  5
DBA
  8
DATA
  6
CONTINUOUS
 62
     7
 10
386.02241419865538
 20
968.151316487896
 30
0.0
  0
VERTEX
  5
DBB
  8
DATA
  6
CONTINUOUS
 62
     7
 10
386.03181900042659
 20
968.15906915276946
 30
0.0
  0
VERTEX
  5
DBC
  8
DATA
  6
CONTINUOUS
 62
     7
 10
386.04129563536048
 20
968.1667499842406
 30
0.0
  0
VERTEX
  5
DBD
  8
DATA
  6
CONTINUOUS
 62
     7
 10
386.050844103457
 20
968.17435898231008
 30
0.0
  0
VERTEX
  5
DBE
  8
DATA
  6
CONTINUOUS
 62
     7
 10
386.06046440471601
 20
968.1818961469769
 30
0.0
  0
VERTEX
  5
DBF
  8
DATA
  6
CONTINUOUS
 62
     7
 10
386.0701565391376
 20
968.18936147824195
 30
0.0
  0
VERTEX
  5
DC0
  8
DATA
  6
CONTINUOUS
 62
     7
 10
386.07992050672209
 20
968.19675497610524
 30
0.0
  0
VERTEX
  5
DC1
  8
DATA
  6
CONTINUOUS
 62
     7
 10
386.08975630746892
 20
968.20407664056609
 30
0.0
  0
VERTEX
  5
DC2
  8
DATA
  6
CONTINUOUS
 62
     7
 10
386.09966394137848
 20
968.21132647162483
 30
0.0
  0
VERTEX
  5
DC3
  8
DATA
  6
CONTINUOUS
 62
     7
 10
386.10964340845049
 20
968.21850446928181
 30
0.0
  0
VERTEX
  5
DC4
  8
DATA
  6
CONTINUOUS
 62
     7
 10
386.1196947086853
 20
968.22561063353635
 30
0.0
  0
VERTEX
  5
DC5
  8
DATA
  6
CONTINUOUS
 62
     7
 10
386.12981784208279
 20
968.23264496438935
 30
0.0
  0
VERTEX
  5
DC6
  8
DATA
  6
CONTINUOUS
 62
     7
 10
386.14001280864272
 20
968.23960746184014
 30
0.0
  0
VERTEX
  5
DC7
  8
DATA
  6
CONTINUOUS
 62
     7
 10
386.15027960836522
 20
968.24649812588848
 30
0.0
  0
VERTEX
  5
DC8
  8
DATA
  6
CONTINUOUS
 62
     7
 10
386.16061824125052
 20
968.25331695653506
 30
0.0
  0
VERTEX
  5
DC9
  8
DATA
  6
CONTINUOUS
 62
     7
 10
386.17102870729832
 20
968.26006395377942
 30
0.0
  0
VERTEX
  5
DCA
  8
DATA
  6
CONTINUOUS
 62
     7
 10
386.18151100650869
 20
968.26673911762202
 30
0.0
  0
VERTEX
  5
DCB
  8
DATA
  6
CONTINUOUS
 62
     7
 10
386.19206513888167
 20
968.27334244806229
 30
0.0
  0
VERTEX
  5
DCC
  8
DATA
  6
CONTINUOUS
 62
     7
 10
386.20269110441751
 20
968.27987394510069
 30
0.0
  0
VERTEX
  5
DCD
  8
DATA
  6
CONTINUOUS
 62
     7
 10
386.21338890311569
 20
968.28633360873721
 30
0.0
  0
VERTEX
  5
DCE
  8
DATA
  6
CONTINUOUS
 62
     7
 10
386.22415853497648
 20
968.29272143897117
 30
0.0
  0
VERTEX
  5
DCF
  8
DATA
  6
CONTINUOUS
 62
     7
 10
386.23500000000001
 20
968.29903743580337
 30
0.0
  0
VERTEX
  5
DD0
  8
DATA
  6
CONTINUOUS
 62
     7
 10
386.23500000000001
 20
968.29903743580337
 30
0.0
  0
SEQEND
  5
DD1
  8
DATA
  6
CONTINUOUS
 62
     7
  0
POLYLINE
  5
4F5
  8
DATA
  6
CONTINUOUS
 62
     7
 66
     1
 10
0.0
 20
0.0
 30
0.0
 70
   129
  0
VERTEX
  5
DD2
  8
DATA
  6
CONTINUOUS
 62
     7
 10
394.81500999999997
 20
965.57998999999984
 30
0.0
 42
-0.4142135623730951
  0
VERTEX
  5
DD3
  8
DATA
  6
CONTINUOUS
 62
     7
 10
395.31500999999997
 20
966.07998999999973
 30
0.0
 42
-0.4142135623730951
  0
VERTEX
  5
DD4
  8
DATA
  6
CONTINUOUS
 62
     7
 10
395.81500999999997
 20
965.57998999999984
 30
0.0
 42
-0.4142135623730951
  0
VERTEX
  5
DD5
  8
DATA
  6
CONTINUOUS
 62
     7
 10
395.31500999999997
 20
965.07998999999973
 30
0.0
 42
-0.4142135623730951
  0
VERTEX
  5
DD6
  8
DATA
  6
CONTINUOUS
 62
     7
 10
394.81500999999997
 20
965.57998999999984
 30
0.0
  0
SEQEND
  5
DD7
  8
DATA
  6
CONTINUOUS
 62
     7
  0
POLYLINE
  5
4FC
  8
DATA
  6
CONTINUOUS
 62
     7
 66
     1
 10
0.0
 20
0.0
 30
0.0
 70
   129
  0
VERTEX
  5
DD8
  8
DATA
  6
CONTINUOUS
 62
     7
 10
393.44501000000002
 20
968.41998999999953
 30
0.0
 42
-0.4142135623730951
  0
VERTEX
  5
DD9
  8
DATA
  6
CONTINUOUS
 62
     7
 10
393.94501000000002
 20
968.91998999999964
 30
0.0
 42
-0.4142135623730951
  0
VERTEX
  5
DDA
  8
DATA
  6
CONTINUOUS
 62
     7
 10
394.44501000000002
 20
968.41998999999953
 30
0.0
 42
-0.4142135623730951
  0
VERTEX
  5
DDB
  8
DATA
  6
CONTINUOUS
 62
     7
 10
393.94501000000002
 20
967.91998999999964
 30
0.0
 42
-0.4142135623730951
  0
VERTEX
  5
DDC
  8
DATA
  6
CONTINUOUS
 62
     7
 10
393.44501000000002
 20
968.41998999999953
 30
0.0
  0
SEQEND
  5
DDD
  8
DATA
  6
CONTINUOUS
 62
     7
  0
POLYLINE
  5
503
  8
DATA
  6
CONTINUOUS
 62
     7
 66
     1
 10
0.0
 20
0.0
 30
0.0
 70
   129
  0
VERTEX
  5
DDE
  8
DATA
  6
CONTINUOUS
 62
     7
 10
396.18500999999998
 20
968.41998999999953
 30
0.0
 42
-0.4142135623730951
  0
VERTEX
  5
DDF
  8
DATA
  6
CONTINUOUS
 62
     7
 10
396.68500999999998
 20
968.91998999999964
 30
0.0
 42
-0.4142135623731117
  0
VERTEX
  5
DE0
  8
DATA
  6
CONTINUOUS
 62
     7
 10
397.18500999999998
 20
968.41998999999953
 30
0.0
 42
-0.4142135623730951
  0
VERTEX
  5
DE1
  8
DATA
  6
CONTINUOUS
 62
     7
 10
396.68500999999998
 20
967.91998999999964
 30
0.0
 42
-0.4142135623730784
  0
VERTEX
  5
DE2
  8
DATA
  6
CONTINUOUS
 62
     7
 10
396.18500999999998
 20
968.41998999999953
 30
0.0
  0
SEQEND
  5
DE3
  8
DATA
  6
CONTINUOUS
 62
     7
  0
POLYLINE
  5
50A
  8
DATA
  6
CONTINUOUS
 62
     7
 66
     1
 10
0.0
 20
0.0
 30
0.0
 70
   129
  0
VERTEX
  5
DE4
  8
DATA
  6
CONTINUOUS
 62
     7
 10
408.60500000000002
 20
965.57998999999984
 30
0.0
 42
-0.4142135623730951
  0
VERTEX
  5
DE5
  8
DATA
  6
CONTINUOUS
 62
     7
 10
409.10500000000002
 20
966.07998999999973
 30
0.0
 42
-0.4142135623730951
  0
VERTEX
  5
DE6
  8
DATA
  6
CONTINUOUS
 62
     7
 10
409.6049999999999
 20
965.57998999999984
 30
0.0
 42
-0.4142135623730951
  0
VERTEX
  5
DE7
  8
DATA
  6
CONTINUOUS
 62
     7
 10
409.10500000000002
 20
965.07998999999973
 30
0.0
 42
-0.4142135623730951
  0
VERTEX
  5
DE8
  8
DATA
  6
CONTINUOUS
 62
     7
 10
408.60500000000002
 20
965.57998999999984
 30
0.0
  0
SEQEND
  5
DE9
  8
DATA
  6
CONTINUOUS
 62
     7
  0
POLYLINE
  5
511
  8
DATA
  6
CONTINUOUS
 62
     7
 66
     1
 10
0.0
 20
0.0
 30
0.0
 70
   129
  0
VERTEX
  5
DEA
  8
DATA
  6
CONTINUOUS
 62
     7
 10
405.86500000000001
 20
965.57998999999984
 30
0.0
 42
-0.4142135623730951
  0
VERTEX
  5
DEB
  8
DATA
  6
CONTINUOUS
 62
     7
 10
406.3649999999999
 20
966.07998999999973
 30
0.0
 42
-0.4142135623730951
  0
VERTEX
  5
DEC
  8
DATA
  6
CONTINUOUS
 62
     7
 10
406.8649999999999
 20
965.57998999999984
 30
0.0
 42
-0.4142135623730951
  0
VERTEX
  5
DED
  8
DATA
  6
CONTINUOUS
 62
     7
 10
406.3649999999999
 20
965.07998999999973
 30
0.0
 42
-0.4142135623730951
  0
VERTEX
  5
DEE
  8
DATA
  6
CONTINUOUS
 62
     7
 10
405.86500000000001
 20
965.57998999999984
 30
0.0
  0
SEQEND
  5
DEF
  8
DATA
  6
CONTINUOUS
 62
     7
  0
POLYLINE
  5
518
  8
DATA
  6
CONTINUOUS
 62
     7
 66
     1
 10
0.0
 20
0.0
 30
0.0
 70
   129
  0
VERTEX
  5
DF0
  8
DATA
  6
CONTINUOUS
 62
     7
 10
400.3250000000001
 20
965.57998999999984
 30
0.0
 42
-0.4142135623730951
  0
VERTEX
  5
DF1
  8
DATA
  6
CONTINUOUS
 62
     7
 10
400.8250000000001
 20
966.07998999999973
 30
0.0
 42
-0.4142135623731117
  0
VERTEX
  5
DF2
  8
DATA
  6
CONTINUOUS
 62
     7
 10
401.3250000000001
 20
965.57998999999984
 30
0.0
 42
-0.4142135623730951
  0
VERTEX
  5
DF3
  8
DATA
  6
CONTINUOUS
 62
     7
 10
400.8250000000001
 20
965.07998999999973
 30
0.0
 42
-0.4142135623730784
  0
VERTEX
  5
DF4
  8
DATA
  6
CONTINUOUS
 62
     7
 10
400.3250000000001
 20
965.57998999999984
 30
0.0
  0
SEQEND
  5
DF5
  8
DATA
  6
CONTINUOUS
 62
     7
  0
POLYLINE
  5
51F
  8
DATA
  6
CONTINUOUS
 62
     7
 66
     1
 10
0.0
 20
0.0
 30
0.0
 70
   129
  0
VERTEX
  5
DF6
  8
DATA
  6
CONTINUOUS
 62
     7
 10
403.09501
 20
965.57998999999984
 30
0.0
 42
-0.4142135623730951
  0
VERTEX
  5
DF7
  8
DATA
  6
CONTINUOUS
 62
     7
 10
403.59500999999989
 20
966.07998999999973
 30
0.0
 42
-0.4142135623731117
  0
VERTEX
  5
DF8
  8
DATA
  6
CONTINUOUS
 62
     7
 10
404.09500999999989
 20
965.57998999999984
 30
0.0
 42
-0.4142135623730951
  0
VERTEX
  5
DF9
  8
DATA
  6
CONTINUOUS
 62
     7
 10
403.59500999999989
 20
965.07998999999973
 30
0.0
 42
-0.4142135623730784
  0
VERTEX
  5
DFA
  8
DATA
  6
CONTINUOUS
 62
     7
 10
403.09501
 20
965.57998999999984
 30
0.0
  0
SEQEND
  5
DFB
  8
DATA
  6
CONTINUOUS
 62
     7
  0
POLYLINE
  5
526
  8
DATA
  6
CONTINUOUS
 62
     7
 66
     1
 10
0.0
 20
0.0
 30
0.0
 70
   129
  0
VERTEX
  5
DFC
  8
DATA
  6
CONTINUOUS
 62
     7
 10
410.00501000000003
 20
968.41998999999953
 30
0.0
 42
-0.4142135623730951
  0
VERTEX
  5
DFD
  8
DATA
  6
CONTINUOUS
 62
     7
 10
410.50501000000003
 20
968.91998999999964
 30
0.0
 42
-0.4142135623730951
  0
VERTEX
  5
DFE
  8
DATA
  6
CONTINUOUS
 62
     7
 10
411.00501000000003
 20
968.41998999999953
 30
0.0
 42
-0.4142135623730951
  0
VERTEX
  5
DFF
  8
DATA
  6
CONTINUOUS
 62
     7
 10
410.50501000000003
 20
967.91998999999964
 30
0.0
 42
-0.4142135623730951
  0
VERTEX
  5
E00
  8
DATA
  6
CONTINUOUS
 62
     7
 10
410.00501000000003
 20
968.41998999999953
 30
0.0
  0
SEQEND
  5
E01
  8
DATA
  6
CONTINUOUS
 62
     7
  0
POLYLINE
  5
52D
  8
DATA
  6
CONTINUOUS
 62
     7
 66
     1
 10
0.0
 20
0.0
 30
0.0
 70
   129
  0
VERTEX
  5
E02
  8
DATA
  6
CONTINUOUS
 62
     7
 10
407.23500000000001
 20
968.41998999999953
 30
0.0
 42
-0.4142135623730951
  0
VERTEX
  5
E03
  8
DATA
  6
CONTINUOUS
 62
     7
 10
407.73500000000001
 20
968.91998999999964
 30
0.0
 42
-0.4142135623730951
  0
VERTEX
  5
E04
  8
DATA
  6
CONTINUOUS
 62
     7
 10
408.2349999999999
 20
968.41998999999953
 30
0.0
 42
-0.4142135623730951
  0
VERTEX
  5
E05
  8
DATA
  6
CONTINUOUS
 62
     7
 10
407.73500000000001
 20
967.91998999999964
 30
0.0
 42
-0.4142135623730951
  0
VERTEX
  5
E06
  8
DATA
  6
CONTINUOUS
 62
     7
 10
407.23500000000001
 20
968.41998999999953
 30
0.0
  0
SEQEND
  5
E07
  8
DATA
  6
CONTINUOUS
 62
     7
  0
POLYLINE
  5
534
  8
DATA
  6
CONTINUOUS
 62
     7
 66
     1
 10
0.0
 20
0.0
 30
0.0
 70
   129
  0
VERTEX
  5
E08
  8
DATA
  6
CONTINUOUS
 62
     7
 10
404.46499999999992
 20
968.41998999999953
 30
0.0
 42
-0.4142135623730951
  0
VERTEX
  5
E09
  8
DATA
  6
CONTINUOUS
 62
     7
 10
404.96499999999992
 20
968.91998999999964
 30
0.0
 42
-0.4142135623731117
  0
VERTEX
  5
E0A
  8
DATA
  6
CONTINUOUS
 62
     7
 10
405.46499999999992
 20
968.41998999999953
 30
0.0
 42
-0.4142135623730951
  0
VERTEX
  5
E0B
  8
DATA
  6
CONTINUOUS
 62
     7
 10
404.96499999999992
 20
967.91998999999964
 30
0.0
 42
-0.4142135623730784
  0
VERTEX
  5
E0C
  8
DATA
  6
CONTINUOUS
 62
     7
 10
404.46499999999992
 20
968.41998999999953
 30
0.0
  0
SEQEND
  5
E0D
  8
DATA
  6
CONTINUOUS
 62
     7
  0
POLYLINE
  5
53B
  8
DATA
  6
CONTINUOUS
 62
     7
 66
     1
 10
0.0
 20
0.0
 30
0.0
 70
   129
  0
VERTEX
  5
E0E
  8
DATA
  6
CONTINUOUS
 62
     7
 10
401.72501
 20
968.41998999999953
 30
0.0
 42
-0.4142135623730951
  0
VERTEX
  5
E0F
  8
DATA
  6
CONTINUOUS
 62
     7
 10
402.22500999999988
 20
968.91998999999964
 30
0.0
 42
-0.4142135623730784
  0
VERTEX
  5
E10
  8
DATA
  6
CONTINUOUS
 62
     7
 10
402.72500999999988
 20
968.41998999999953
 30
0.0
 42
-0.4142135623730951
  0
VERTEX
  5
E11
  8
DATA
  6
CONTINUOUS
 62
     7
 10
402.22500999999988
 20
967.91998999999964
 30
0.0
 42
-0.4142135623731117
  0
VERTEX
  5
E12
  8
DATA
  6
CONTINUOUS
 62
     7
 10
401.72501
 20
968.41998999999953
 30
0.0
  0
SEQEND
  5
E13
  8
DATA
  6
CONTINUOUS
 62
     7
  0
POLYLINE
  5
542
  8
DATA
  6
CONTINUOUS
 62
     7
 66
     1
 10
0.0
 20
0.0
 30
0.0
 70
   129
  0
VERTEX
  5
E14
  8
DATA
  6
CONTINUOUS
 62
     7
 10
398.95499999999998
 20
968.41998999999953
 30
0.0
 42
-0.4142135623730951
  0
VERTEX
  5
E15
  8
DATA
  6
CONTINUOUS
 62
     7
 10
399.45499999999998
 20
968.91998999999964
 30
0.0
 42
-0.4142135623731117
  0
VERTEX
  5
E16
  8
DATA
  6
CONTINUOUS
 62
     7
 10
399.95499999999998
 20
968.41998999999953
 30
0.0
 42
-0.4142135623730951
  0
VERTEX
  5
E17
  8
DATA
  6
CONTINUOUS
 62
     7
 10
399.45499999999998
 20
967.91998999999964
 30
0.0
 42
-0.4142135623730784
  0
VERTEX
  5
E18
  8
DATA
  6
CONTINUOUS
 62
     7
 10
398.95499999999998
 20
968.41998999999953
 30
0.0
  0
SEQEND
  5
E19
  8
DATA
  6
CONTINUOUS
 62
     7
  0
ARC
  5
549
  8
DATA
  6
CONTINUOUS
 62
     7
 10
393.00000999999997
 20
969.19998999999973
 30
0.0
 40
2.0
 50
90.0
 51
180.0
  0
LINE
  5
54A
  8
DATA
  6
CONTINUOUS
 62
     7
 10
391.00000999999997
 20
969.19998999999973
 30
0.0
 11
391.90994000000001
 21
964.03951999999981
 31
0.0
  0
ARC
  5
54B
  8
DATA
  6
CONTINUOUS
 62
     7
 10
393.38715999999999
 20
964.29998999999953
 30
0.0
 40
1.5000078497461431
 50
189.99985922171919
 51
270.0
  0
POLYLINE
  5
54C
  8
DATA
  6
CONTINUOUS
 62
     7
 66
     1
 10
0.0
 20
0.0
 30
0.0
 70
   129
  0
VERTEX
  5
E1A
  8
DATA
  6
CONTINUOUS
 62
     7
 10
433.27499999999992
 20
968.29903743580337
 30
0.0
  0
VERTEX
  5
E1B
  8
DATA
  6
CONTINUOUS
 62
     7
 10
433.28589052798588
 20
968.30526845280872
 30
0.0
  0
VERTEX
  5
E1C
  8
DATA
  6
CONTINUOUS
 62
     7
 10
433.29680734873421
 20
968.31140134356156
 30
0.0
  0
VERTEX
  5
E1D
  8
DATA
  6
CONTINUOUS
 62
     7
 10
433.30775046224488
 20
968.31743610806245
 30
0.0
  0
VERTEX
  5
E1E
  8
DATA
  6
CONTINUOUS
 62
     7
 10
433.31871986851792
 20
968.32337274631163
 30
0.0
  0
VERTEX
  5
E1F
  8
DATA
  6
CONTINUOUS
 62
     7
 10
433.32971556755319
 20
968.32921125830853
 30
0.0
  0
VERTEX
  5
E20
  8
DATA
  6
CONTINUOUS
 62
     7
 10
433.34073755935111
 20
968.33495164405304
 30
0.0
  0
VERTEX
  5
E21
  8
DATA
  6
CONTINUOUS
 62
     7
 10
433.3517858439111
 20
968.34059390354571
 30
0.0
  0
VERTEX
  5
E22
  8
DATA
  6
CONTINUOUS
 62
     7
 10
433.36286042123362
 20
968.34613803678678
 30
0.0
  0
VERTEX
  5
E23
  8
DATA
  6
CONTINUOUS
 62
     7
 10
433.37396129131821
 20
968.35158404377603
 30
0.0
  0
VERTEX
  5
E24
  8
DATA
  6
CONTINUOUS
 62
     7
 10
433.38508845416533
 20
968.35693192451231
 30
0.0
  0
VERTEX
  5
E25
  8
DATA
  6
CONTINUOUS
 62
     7
 10
433.39624190977491
 20
968.36218167899665
 30
0.0
  0
VERTEX
  5
E26
  8
DATA
  6
CONTINUOUS
 62
     7
 10
433.4074216581468
 20
968.3673333072295
 30
0.0
  0
VERTEX
  5
E27
  8
DATA
  6
CONTINUOUS
 62
     7
 10
433.41862769928088
 20
968.37238680920996
 30
0.0
  0
VERTEX
  5
E28
  8
DATA
  6
CONTINUOUS
 62
     7
 10
433.42986003317742
 20
968.37734218493836
 30
0.0
  0
VERTEX
  5
E29
  8
DATA
  6
CONTINUOUS
 62
     7
 10
433.44111865983632
 20
968.38219943441482
 30
0.0
  0
VERTEX
  5
E2A
  8
DATA
  6
CONTINUOUS
 62
     7
 10
433.45240357925752
 20
968.38695855763945
 30
0.0
  0
VERTEX
  5
E2B
  8
DATA
  6
CONTINUOUS
 62
     7
 10
433.46371479144091
 20
968.39161955461157
 30
0.0
  0
VERTEX
  5
E2C
  8
DATA
  6
CONTINUOUS
 62
     7
 10
433.47505229638688
 20
968.39618242533209
 30
0.0
  0
VERTEX
  5
E2D
  8
DATA
  6
CONTINUOUS
 62
     7
 10
433.48641609409509
 20
968.40064716979987
 30
0.0
  0
VERTEX
  5
E2E
  8
DATA
  6
CONTINUOUS
 62
     7
 10
433.49780618456577
 20
968.40501378801628
 30
0.0
  0
VERTEX
  5
E2F
  8
DATA
  6
CONTINUOUS
 62
     7
 10
433.50922256779882
 20
968.4092822799804
 30
0.0
  0
VERTEX
  5
E30
  8
DATA
  6
CONTINUOUS
 62
     7
 10
433.52066524379433
 20
968.41345264569259
 30
0.0
  0
VERTEX
  5
E31
  8
DATA
  6
CONTINUOUS
 62
     7
 10
433.53213421255191
 20
968.41752488515249
 30
0.0
  0
VERTEX
  5
E32
  8
DATA
  6
CONTINUOUS
 62
     7
 10
433.54362947407191
 20
968.42149899836045
 30
0.0
  0
VERTEX
  5
E33
  8
DATA
  6
CONTINUOUS
 62
     7
 10
433.55515102835432
 20
968.42537498531635
 30
0.0
  0
VERTEX
  5
E34
  8
DATA
  6
CONTINUOUS
 62
     7
 10
433.56669887539891
 20
968.42915284602054
 30
0.0
  0
VERTEX
  5
E35
  8
DATA
  6
CONTINUOUS
 62
     7
 10
433.57827301520598
 20
968.432832580472
 30
0.0
  0
VERTEX
  5
E36
  8
DATA
  6
CONTINUOUS
 62
     7
 10
433.5898734477754
 20
968.43641418867207
 30
0.0
  0
VERTEX
  5
E37
  8
DATA
  6
CONTINUOUS
 62
     7
 10
433.60150017310718
 20
968.43989767061942
 30
0.0
  0
VERTEX
  5
E38
  8
DATA
  6
CONTINUOUS
 62
     7
 10
433.61315319120132
 20
968.44328302631527
 30
0.0
  0
VERTEX
  5
E39
  8
DATA
  6
CONTINUOUS
 62
     7
 10
433.6248325020577
 20
968.44657025575896
 30
0.0
  0
VERTEX
  5
E3A
  8
DATA
  6
CONTINUOUS
 62
     7
 10
433.63653810567672
 20
968.44975935895081
 30
0.0
  0
VERTEX
  5
E3B
  8
DATA
  6
CONTINUOUS
 62
     7
 10
433.64827000205781
 20
968.45285033589005
 30
0.0
  0
VERTEX
  5
E3C
  8
DATA
  6
CONTINUOUS
 62
     7
 10
433.66002819120132
 20
968.45584318657768
 30
0.0
  0
VERTEX
  5
E3D
  8
DATA
  6
CONTINUOUS
 62
     7
 10
433.67181267310718
 20
968.45873791101315
 30
0.0
  0
VERTEX
  5
E3E
  8
DATA
  6
CONTINUOUS
 62
     7
 10
433.6836234477754
 20
968.46153450919644
 30
0.0
  0
VERTEX
  5
E3F
  8
DATA
  6
CONTINUOUS
 62
     7
 10
433.69546051520609
 20
968.46423298112779
 30
0.0
  0
VERTEX
  5
E40
  8
DATA
  6
CONTINUOUS
 62
     7
 10
433.70732387539891
 20
968.4668333268072
 30
0.0
  0
VERTEX
  5
E41
  8
DATA
  6
CONTINUOUS
 62
     7
 10
433.71921352835432
 20
968.46933554623445
 30
0.0
  0
VERTEX
  5
E42
  8
DATA
  6
CONTINUOUS
 62
     7
 10
433.73112947407191
 20
968.47173963940975
 30
0.0
  0
VERTEX
  5
E43
  8
DATA
  6
CONTINUOUS
 62
     7
 10
433.74307171255202
 20
968.47404560633265
 30
0.0
  0
VERTEX
  5
E44
  8
DATA
  6
CONTINUOUS
 62
     7
 10
433.75504024379421
 20
968.47625344700384
 30
0.0
  0
VERTEX
  5
E45
  8
DATA
  6
CONTINUOUS
 62
     7
 10
433.76703506779882
 20
968.47836316142275
 30
0.0
  0
VERTEX
  5
E46
  8
DATA
  6
CONTINUOUS
 62
     7
 10
433.77905618456577
 20
968.48037474959017
 30
0.0
  0
VERTEX
  5
E47
  8
DATA
  6
CONTINUOUS
 62
     7
 10
433.7911035940952
 20
968.48228821150485
 30
0.0
  0
VERTEX
  5
E48
  8
DATA
  6
CONTINUOUS
 62
     7
 10
433.80317729638688
 20
968.48410354716771
 30
0.0
  0
VERTEX
  5
E49
  8
DATA
  6
CONTINUOUS
 62
     7
 10
433.81527729144091
 20
968.48582075657885
 30
0.0
  0
VERTEX
  5
E4A
  8
DATA
  6
CONTINUOUS
 62
     7
 10
433.82740357925752
 20
968.48743983973759
 30
0.0
  0
VERTEX
  5
E4B
  8
DATA
  6
CONTINUOUS
 62
     7
 10
433.83955615983632
 20
968.48896079664405
 30
0.0
  0
VERTEX
  5
E4C
  8
DATA
  6
CONTINUOUS
 62
     7
 10
433.85173503317742
 20
968.49038362729902
 30
0.0
  0
VERTEX
  5
E4D
  8
DATA
  6
CONTINUOUS
 62
     7
 10
433.86394019928082
 20
968.49170833170172
 30
0.0
  0
VERTEX
  5
E4E
  8
DATA
  6
CONTINUOUS
 62
     7
 10
433.87617165814669
 20
968.49293490985212
 30
0.0
  0
VERTEX
  5
E4F
  8
DATA
  6
CONTINUOUS
 62
     7
 10
433.88842940977491
 20
968.4940633617507
 30
0.0
  0
VERTEX
  5
E50
  8
DATA
  6
CONTINUOUS
 62
     7
 10
433.90071345416521
 20
968.49509368739712
 30
0.0
  0
VERTEX
  5
E51
  8
DATA
  6
CONTINUOUS
 62
     7
 10
433.91302379131821
 20
968.4960258867917
 30
0.0
  0
VERTEX
  5
E52
  8
DATA
  6
CONTINUOUS
 62
     7
 10
433.92536042123362
 20
968.49685995993423
 30
0.0
  0
VERTEX
  5
E53
  8
DATA
  6
CONTINUOUS
 62
     7
 10
433.9377233439111
 20
968.49759590682436
 30
0.0
  0
VERTEX
  5
E54
  8
DATA
  6
CONTINUOUS
 62
     7
 10
433.950112559351
 20
968.49823372746289
 30
0.0
  0
VERTEX
  5
E55
  8
DATA
  6
CONTINUOUS
 62
     7
 10
433.96252806755319
 20
968.49877342184925
 30
0.0
  0
VERTEX
  5
E56
  8
DATA
  6
CONTINUOUS
 62
     7
 10
433.97496986851797
 20
968.49921498998322
 30
0.0
  0
VERTEX
  5
E57
  8
DATA
  6
CONTINUOUS
 62
     7
 10
433.98743796224488
 20
968.49955843186558
 30
0.0
  0
VERTEX
  5
E58
  8
DATA
  6
CONTINUOUS
 62
     7
 10
433.99993234873421
 20
968.49980374749543
 30
0.0
  0
VERTEX
  5
E59
  8
DATA
  6
CONTINUOUS
 62
     7
 10
434.012453027986
 20
968.4999509368738
 30
0.0
  0
VERTEX
  5
E5A
  8
DATA
  6
CONTINUOUS
 62
     7
 10
434.02499999999998
 20
968.49999999999955
 30
0.0
  0
VERTEX
  5
E5B
  8
DATA
  6
CONTINUOUS
 62
     7
 10
434.03754697201401
 20
968.4999509368738
 30
0.0
  0
VERTEX
  5
E5C
  8
DATA
  6
CONTINUOUS
 62
     7
 10
434.05006765126569
 20
968.49980374749543
 30
0.0
  0
VERTEX
  5
E5D
  8
DATA
  6
CONTINUOUS
 62
     7
 10
434.06256203775507
 20
968.49955843186558
 30
0.0
  0
VERTEX
  5
E5E
  8
DATA
  6
CONTINUOUS
 62
     7
 10
434.07503013148198
 20
968.49921498998322
 30
0.0
  0
VERTEX
  5
E5F
  8
DATA
  6
CONTINUOUS
 62
     7
 10
434.08747193244659
 20
968.49877342184925
 30
0.0
  0
VERTEX
  5
E60
  8
DATA
  6
CONTINUOUS
 62
     7
 10
434.0998874406489
 20
968.49823372746289
 30
0.0
  0
VERTEX
  5
E61
  8
DATA
  6
CONTINUOUS
 62
     7
 10
434.1122766560888
 20
968.49759590682436
 30
0.0
  0
VERTEX
  5
E62
  8
DATA
  6
CONTINUOUS
 62
     7
 10
434.12463957876639
 20
968.49685995993423
 30
0.0
  0
VERTEX
  5
E63
  8
DATA
  6
CONTINUOUS
 62
     7
 10
434.13697620868169
 20
968.4960258867917
 30
0.0
  0
VERTEX
  5
E64
  8
DATA
  6
CONTINUOUS
 62
     7
 10
434.14928654583451
 20
968.49509368739712
 30
0.0
  0
VERTEX
  5
E65
  8
DATA
  6
CONTINUOUS
 62
     7
 10
434.1615705902251
 20
968.4940633617507
 30
0.0
  0
VERTEX
  5
E66
  8
DATA
  6
CONTINUOUS
 62
     7
 10
434.17382834185321
 20
968.49293490985212
 30
0.0
  0
VERTEX
  5
E67
  8
DATA
  6
CONTINUOUS
 62
     7
 10
434.18605980071919
 20
968.49170833170172
 30
0.0
  0
VERTEX
  5
E68
  8
DATA
  6
CONTINUOUS
 62
     7
 10
434.19826496682248
 20
968.49038362729902
 30
0.0
  0
VERTEX
  5
E69
  8
DATA
  6
CONTINUOUS
 62
     7
 10
434.21044384016369
 20
968.48896079664405
 30
0.0
  0
VERTEX
  5
E6A
  8
DATA
  6
CONTINUOUS
 62
     7
 10
434.22259642074249
 20
968.48743983973759
 30
0.0
  0
VERTEX
  5
E6B
  8
DATA
  6
CONTINUOUS
 62
     7
 10
434.23472270855882
 20
968.48582075657885
 30
0.0
  0
VERTEX
  5
E6C
  8
DATA
  6
CONTINUOUS
 62
     7
 10
434.24682270361279
 20
968.48410354716771
 30
0.0
  0
VERTEX
  5
E6D
  8
DATA
  6
CONTINUOUS
 62
     7
 10
434.25889640590481
 20
968.48228821150485
 30
0.0
  0
VERTEX
  5
E6E
  8
DATA
  6
CONTINUOUS
 62
     7
 10
434.27094381543401
 20
968.48037474959017
 30
0.0
  0
VERTEX
  5
E6F
  8
DATA
  6
CONTINUOUS
 62
     7
 10
434.28296493220108
 20
968.47836316142275
 30
0.0
  0
VERTEX
  5
E70
  8
DATA
  6
CONTINUOUS
 62
     7
 10
434.2949597562058
 20
968.47625344700384
 30
0.0
  0
VERTEX
  5
E71
  8
DATA
  6
CONTINUOUS
 62
     7
 10
434.3069282874481
 20
968.47404560633265
 30
0.0
  0
VERTEX
  5
E72
  8
DATA
  6
CONTINUOUS
 62
     7
 10
434.31887052592799
 20
968.47173963940975
 30
0.0
  0
VERTEX
  5
E73
  8
DATA
  6
CONTINUOUS
 62
     7
 10
434.33078647164569
 20
968.46933554623445
 30
0.0
  0
VERTEX
  5
E74
  8
DATA
  6
CONTINUOUS
 62
     7
 10
434.34267612460093
 20
968.4668333268072
 30
0.0
  0
VERTEX
  5
E75
  8
DATA
  6
CONTINUOUS
 62
     7
 10
434.35453948479397
 20
968.46423298112779
 30
0.0
  0
VERTEX
  5
E76
  8
DATA
  6
CONTINUOUS
 62
     7
 10
434.36637655222449
 20
968.46153450919644
 30
0.0
  0
VERTEX
  5
E77
  8
DATA
  6
CONTINUOUS
 62
     7
 10
434.37818732689283
 20
968.45873791101315
 30
0.0
  0
VERTEX
  5
E78
  8
DATA
  6
CONTINUOUS
 62
     7
 10
434.38997180879852
 20
968.45584318657768
 30
0.0
  0
VERTEX
  5
E79
  8
DATA
  6
CONTINUOUS
 62
     7
 10
434.40172999794208
 20
968.45285033589005
 30
0.0
  0
VERTEX
  5
E7A
  8
DATA
  6
CONTINUOUS
 62
     7
 10
434.41346189432329
 20
968.44975935895081
 30
0.0
  0
VERTEX
  5
E7B
  8
DATA
  6
CONTINUOUS
 62
     7
 10
434.4251674979422
 20
968.44657025575896
 30
0.0
  0
VERTEX
  5
E7C
  8
DATA
  6
CONTINUOUS
 62
     7
 10
434.43684680879852
 20
968.44328302631527
 30
0.0
  0
VERTEX
  5
E7D
  8
DATA
  6
CONTINUOUS
 62
     7
 10
434.44849982689271
 20
968.43989767061942
 30
0.0
  0
VERTEX
  5
E7E
  8
DATA
  6
CONTINUOUS
 62
     7
 10
434.46012655222449
 20
968.43641418867207
 30
0.0
  0
VERTEX
  5
E7F
  8
DATA
  6
CONTINUOUS
 62
     7
 10
434.47172698479397
 20
968.432832580472
 30
0.0
  0
VERTEX
  5
E80
  8
DATA
  6
CONTINUOUS
 62
     7
 10
434.48330112460081
 20
968.42915284602054
 30
0.0
  0
VERTEX
  5
E81
  8
DATA
  6
CONTINUOUS
 62
     7
 10
434.49484897164569
 20
968.42537498531635
 30
0.0
  0
VERTEX
  5
E82
  8
DATA
  6
CONTINUOUS
 62
     7
 10
434.50637052592799
 20
968.42149899836045
 30
0.0
  0
VERTEX
  5
E83
  8
DATA
  6
CONTINUOUS
 62
     7
 10
434.51786578744822
 20
968.41752488515249
 30
0.0
  0
VERTEX
  5
E84
  8
DATA
  6
CONTINUOUS
 62
     7
 10
434.5293347562058
 20
968.41345264569259
 30
0.0
  0
VERTEX
  5
E85
  8
DATA
  6
CONTINUOUS
 62
     7
 10
434.54077743220108
 20
968.4092822799804
 30
0.0
  0
VERTEX
  5
E86
  8
DATA
  6
CONTINUOUS
 62
     7
 10
434.55219381543401
 20
968.40501378801628
 30
0.0
  0
VERTEX
  5
E87
  8
DATA
  6
CONTINUOUS
 62
     7
 10
434.56358390590481
 20
968.40064716979987
 30
0.0
  0
VERTEX
  5
E88
  8
DATA
  6
CONTINUOUS
 62
     7
 10
434.57494770361291
 20
968.39618242533209
 30
0.0
  0
VERTEX
  5
E89
  8
DATA
  6
CONTINUOUS
 62
     7
 10
434.58628520855888
 20
968.39161955461157
 30
0.0
  0
VERTEX
  5
E8A
  8
DATA
  6
CONTINUOUS
 62
     7
 10
434.59759642074249
 20
968.38695855763945
 30
0.0
  0
VERTEX
  5
E8B
  8
DATA
  6
CONTINUOUS
 62
     7
 10
434.60888134016369
 20
968.38219943441482
 30
0.0
  0
VERTEX
  5
E8C
  8
DATA
  6
CONTINUOUS
 62
     7
 10
434.62013996682259
 20
968.37734218493836
 30
0.0
  0
VERTEX
  5
E8D
  8
DATA
  6
CONTINUOUS
 62
     7
 10
434.63137230071919
 20
968.37238680920996
 30
0.0
  0
VERTEX
  5
E8E
  8
DATA
  6
CONTINUOUS
 62
     7
 10
434.64257834185321
 20
968.3673333072295
 30
0.0
  0
VERTEX
  5
E8F
  8
DATA
  6
CONTINUOUS
 62
     7
 10
434.6537580902251
 20
968.36218167899665
 30
0.0
  0
VERTEX
  5
E90
  8
DATA
  6
CONTINUOUS
 62
     7
 10
434.66491154583463
 20
968.35693192451231
 30
0.0
  0
VERTEX
  5
E91
  8
DATA
  6
CONTINUOUS
 62
     7
 10
434.67603870868169
 20
968.35158404377603
 30
0.0
  0
VERTEX
  5
E92
  8
DATA
  6
CONTINUOUS
 62
     7
 10
434.68713957876651
 20
968.34613803678678
 30
0.0
  0
VERTEX
  5
E93
  8
DATA
  6
CONTINUOUS
 62
     7
 10
434.6982141560888
 20
968.34059390354571
 30
0.0
  0
VERTEX
  5
E94
  8
DATA
  6
CONTINUOUS
 62
     7
 10
434.70926244064901
 20
968.33495164405304
 30
0.0
  0
VERTEX
  5
E95
  8
DATA
  6
CONTINUOUS
 62
     7
 10
434.72028443244648
 20
968.32921125830853
 30
0.0
  0
VERTEX
  5
E96
  8
DATA
  6
CONTINUOUS
 62
     7
 10
434.73128013148209
 20
968.32337274631163
 30
0.0
  0
VERTEX
  5
E97
  8
DATA
  6
CONTINUOUS
 62
     7
 10
434.74224953775507
 20
968.31743610806245
 30
0.0
  0
VERTEX
  5
E98
  8
DATA
  6
CONTINUOUS
 62
     7
 10
434.75319265126558
 20
968.31140134356156
 30
0.0
  0
VERTEX
  5
E99
  8
DATA
  6
CONTINUOUS
 62
     7
 10
434.76410947201401
 20
968.30526845280872
 30
0.0
  0
VERTEX
  5
E9A
  8
DATA
  6
CONTINUOUS
 62
     7
 10
434.77499999999992
 20
968.29903743580337
 30
0.0
  0
VERTEX
  5
E9B
  8
DATA
  6
CONTINUOUS
 62
     7
 10
434.78584146502351
 20
968.29272143897117
 30
0.0
  0
VERTEX
  5
E9C
  8
DATA
  6
CONTINUOUS
 62
     7
 10
434.79661109688431
 20
968.28633360873721
 30
0.0
  0
VERTEX
  5
E9D
  8
DATA
  6
CONTINUOUS
 62
     7
 10
434.80730889558271
 20
968.27987394510069
 30
0.0
  0
VERTEX
  5
E9E
  8
DATA
  6
CONTINUOUS
 62
     7
 10
434.81793486111832
 20
968.27334244806229
 30
0.0
  0
VERTEX
  5
E9F
  8
DATA
  6
CONTINUOUS
 62
     7
 10
434.82848899349119
 20
968.26673911762202
 30
0.0
  0
VERTEX
  5
EA0
  8
DATA
  6
CONTINUOUS
 62
     7
 10
434.83897129270167
 20
968.26006395377942
 30
0.0
  0
VERTEX
  5
EA1
  8
DATA
  6
CONTINUOUS
 62
     7
 10
434.84938175874959
 20
968.25331695653506
 30
0.0
  0
VERTEX
  5
EA2
  8
DATA
  6
CONTINUOUS
 62
     7
 10
434.85972039163471
 20
968.24649812588848
 30
0.0
  0
VERTEX
  5
EA3
  8
DATA
  6
CONTINUOUS
 62
     7
 10
434.86998719135732
 20
968.23960746184014
 30
0.0
  0
VERTEX
  5
EA4
  8
DATA
  6
CONTINUOUS
 62
     7
 10
434.8801821579172
 20
968.23264496438935
 30
0.0
  0
VERTEX
  5
EA5
  8
DATA
  6
CONTINUOUS
 62
     7
 10
434.89030529131441
 20
968.22561063353635
 30
0.0
  0
VERTEX
  5
EA6
  8
DATA
  6
CONTINUOUS
 62
     7
 10
434.90035659154933
 20
968.21850446928181
 30
0.0
  0
VERTEX
  5
EA7
  8
DATA
  6
CONTINUOUS
 62
     7
 10
434.91033605862151
 20
968.21132647162483
 30
0.0
  0
VERTEX
  5
EA8
  8
DATA
  6
CONTINUOUS
 62
     7
 10
434.92024369253107
 20
968.20407664056609
 30
0.0
  0
VERTEX
  5
EA9
  8
DATA
  6
CONTINUOUS
 62
     7
 10
434.9300794932779
 20
968.19675497610524
 30
0.0
  0
VERTEX
  5
EAA
  8
DATA
  6
CONTINUOUS
 62
     7
 10
434.93984346086228
 20
968.18936147824195
 30
0.0
  0
VERTEX
  5
EAB
  8
DATA
  6
CONTINUOUS
 62
     7
 10
434.94953559528392
 20
968.1818961469769
 30
0.0
  0
VERTEX
  5
EAC
  8
DATA
  6
CONTINUOUS
 62
     7
 10
434.95915589654311
 20
968.17435898231008
 30
0.0
  0
VERTEX
  5
EAD
  8
DATA
  6
CONTINUOUS
 62
     7
 10
434.96870436463951
 20
968.1667499842406
 30
0.0
  0
VERTEX
  5
EAE
  8
DATA
  6
CONTINUOUS
 62
     7
 10
434.97818099957323
 20
968.15906915276946
 30
0.0
  0
VERTEX
  5
EAF
  8
DATA
  6
CONTINUOUS
 62
     7
 10
434.98758580134461
 20
968.151316487896
 30
0.0
  0
VERTEX
  5
EB0
  8
DATA
  6
CONTINUOUS
 62
     7
 10
434.99691876995331
 20
968.14349198962077
 30
0.0
  0
VERTEX
  5
EB1
  8
DATA
  6
CONTINUOUS
 62
     7
 10
435.00617990539922
 20
968.13559565794344
 30
0.0
  0
VERTEX
  5
EB2
  8
DATA
  6
CONTINUOUS
 62
     7
 10
435.01536920768251
 20
968.12762749286424
 30
0.0
  0
VERTEX
  5
EB3
  8
DATA
  6
CONTINUOUS
 62
     7
 10
435.02448667680352
 20
968.11958749438224
 30
0.0
  0
VERTEX
  5
EB4
  8
DATA
  6
CONTINUOUS
 62
     7
 10
435.03353231276162
 20
968.11147566249895
 30
0.0
  0
VERTEX
  5
EB5
  8
DATA
  6
CONTINUOUS
 62
     7
 10
435.0425061155571
 20
968.10329199721298
 30
0.0
  0
VERTEX
  5
EB6
  8
DATA
  6
CONTINUOUS
 62
     7
 10
435.05140808519002
 20
968.0950364985257
 30
0.0
  0
VERTEX
  5
EB7
  8
DATA
  6
CONTINUOUS
 62
     7
 10
435.06023822166048
 20
968.08670916643575
 30
0.0
  0
VERTEX
  5
EB8
  8
DATA
  6
CONTINUOUS
 62
     7
 10
435.06899652496821
 20
968.07831000094404
 30
0.0
  0
VERTEX
  5
EB9
  8
DATA
  6
CONTINUOUS
 62
     7
 10
435.07768299511338
 20
968.06983900205034
 30
0.0
  0
VERTEX
  5
EBA
  8
DATA
  6
CONTINUOUS
 62
     7
 10
435.08629763209581
 20
968.0612961697542
 30
0.0
  0
VERTEX
  5
EBB
  8
DATA
  6
CONTINUOUS
 62
     7
 10
435.09484043591561
 20
968.0526815040563
 30
0.0
  0
VERTEX
  5
EBC
  8
DATA
  6
CONTINUOUS
 62
     7
 10
435.10331140657291
 20
968.0439950049564
 30
0.0
  0
VERTEX
  5
EBD
  8
DATA
  6
CONTINUOUS
 62
     7
 10
435.11171054406759
 20
968.03523667245452
 30
0.0
  0
VERTEX
  5
EBE
  8
DATA
  6
CONTINUOUS
 62
     7
 10
435.12003784839959
 20
968.02640650655019
 30
0.0
  0
VERTEX
  5
EBF
  8
DATA
  6
CONTINUOUS
 62
     7
 10
435.12829331956902
 20
968.0175045072441
 30
0.0
  0
VERTEX
  5
EC0
  8
DATA
  6
CONTINUOUS
 62
     7
 10
435.13647695757589
 20
968.00853067453579
 30
0.0
  0
VERTEX
  5
EC1
  8
DATA
  6
CONTINUOUS
 62
     7
 10
435.14458876242009
 20
967.99948500842561
 30
0.0
  0
VERTEX
  5
EC2
  8
DATA
  6
CONTINUOUS
 62
     7
 10
435.15262873410171
 20
967.99036750891344
 30
0.0
  0
VERTEX
  5
EC3
  8
DATA
  6
CONTINUOUS
 62
     7
 10
435.16059687262077
 20
967.98117817599871
 30
0.0
  0
VERTEX
  5
EC4
  8
DATA
  6
CONTINUOUS
 62
     7
 10
435.16849317797721
 20
967.97191700968244
 30
0.0
  0
VERTEX
  5
EC5
  8
DATA
  6
CONTINUOUS
 62
     7
 10
435.17631765017097
 20
967.96258400996351
 30
0.0
  0
VERTEX
  5
EC6
  8
DATA
  6
CONTINUOUS
 62
     7
 10
435.184070289202
 20
967.95317917684315
 30
0.0
  0
VERTEX
  5
EC7
  8
DATA
  6
CONTINUOUS
 62
     7
 10
435.19175109507057
 20
967.94370251032035
 30
0.0
  0
VERTEX
  5
EC8
  8
DATA
  6
CONTINUOUS
 62
     7
 10
435.19936006777652
 20
967.93415401039567
 30
0.0
  0
VERTEX
  5
EC9
  8
DATA
  6
CONTINUOUS
 62
     7
 10
435.20689720731991
 20
967.92453367706889
 30
0.0
  0
VERTEX
  5
ECA
  8
DATA
  6
CONTINUOUS
 62
     7
 10
435.21436251370062
 20
967.91484151034012
 30
0.0
  0
VERTEX
  5
ECB
  8
DATA
  6
CONTINUOUS
 62
     7
 10
435.22175598691871
 20
967.90507751020925
 30
0.0
  0
VERTEX
  5
ECC
  8
DATA
  6
CONTINUOUS
 62
     7
 10
435.22907762697412
 20
967.89524167667651
 30
0.0
  0
VERTEX
  5
ECD
  8
DATA
  6
CONTINUOUS
 62
     7
 10
435.23632743386702
 20
967.88533400974154
 30
0.0
  0
VERTEX
  5
ECE
  8
DATA
  6
CONTINUOUS
 62
     7
 10
435.2435054075973
 20
967.87535450940436
 30
0.0
  0
VERTEX
  5
ECF
  8
DATA
  6
CONTINUOUS
 62
     7
 10
435.2506115481649
 20
967.86530317566542
 30
0.0
  0
VERTEX
  5
ED0
  8
DATA
  6
CONTINUOUS
 62
     7
 10
435.25764585556999
 20
967.85518000852414
 30
0.0
  0
VERTEX
  5
ED1
  8
DATA
  6
CONTINUOUS
 62
     7
 10
435.26460832981229
 20
967.84498500798088
 30
0.0
  0
VERTEX
  5
ED2
  8
DATA
  6
CONTINUOUS
 62
     7
 10
435.2714989708922
 20
967.8347181740354
 30
0.0
  0
VERTEX
  5
ED3
  8
DATA
  6
CONTINUOUS
 62
     7
 10
435.27831777880942
 20
967.82437950668827
 30
0.0
  0
VERTEX
  5
ED4
  8
DATA
  6
CONTINUOUS
 62
     7
 10
435.28506475356392
 20
967.81396900593916
 30
0.0
  0
VERTEX
  5
ED5
  8
DATA
  6
CONTINUOUS
 62
     7
 10
435.29173989515601
 20
967.8034866717876
 30
0.0
  0
VERTEX
  5
ED6
  8
DATA
  6
CONTINUOUS
 62
     7
 10
435.2983432035852
 20
967.79293250423382
 30
0.0
  0
VERTEX
  5
ED7
  8
DATA
  6
CONTINUOUS
 62
     7
 10
435.30487467885212
 20
967.78230650327885
 30
0.0
  0
VERTEX
  5
ED8
  8
DATA
  6
CONTINUOUS
 62
     7
 10
435.31133432095612
 20
967.77160866892098
 30
0.0
  0
VERTEX
  5
ED9
  8
DATA
  6
CONTINUOUS
 62
     7
 10
435.31772212989767
 20
967.76083900116146
 30
0.0
  0
VERTEX
  5
EDA
  8
DATA
  6
CONTINUOUS
 62
     7
 10
435.32403810567672
 20
967.74999749999984
 30
0.0
  0
VERTEX
  5
EDB
  8
DATA
  6
CONTINUOUS
 62
     7
 10
435.33026910191171
 20
967.73910693571213
 30
0.0
  0
VERTEX
  5
EDC
  8
DATA
  6
CONTINUOUS
 62
     7
 10
435.33640197222201
 20
967.72819007857424
 30
0.0
  0
VERTEX
  5
EDD
  8
DATA
  6
CONTINUOUS
 62
     7
 10
435.34243671660721
 20
967.71724692858641
 30
0.0
  0
VERTEX
  5
EDE
  8
DATA
  6
CONTINUOUS
 62
     7
 10
435.34837333506738
 20
967.70627748574873
 30
0.0
  0
VERTEX
  5
EDF
  8
DATA
  6
CONTINUOUS
 62
     7
 10
435.35421182760251
 20
967.69528175006121
 30
0.0
  0
VERTEX
  5
EE0
  8
DATA
  6
CONTINUOUS
 62
     7
 10
435.35995219421289
 20
967.6842597215234
 30
0.0
  0
VERTEX
  5
EE1
  8
DATA
  6
CONTINUOUS
 62
     7
 10
435.36559443489818
 20
967.67321140013576
 30
0.0
  0
VERTEX
  5
EE2
  8
DATA
  6
CONTINUOUS
 62
     7
 10
435.37113854965872
 20
967.6621367858977
 30
0.0
  0
VERTEX
  5
EE3
  8
DATA
  6
CONTINUOUS
 62
     7
 10
435.376584538494
 20
967.65103587881026
 30
0.0
  0
VERTEX
  5
EE4
  8
DATA
  6
CONTINUOUS
 62
     7
 10
435.38193240140458
 20
967.63990867887264
 30
0.0
  0
VERTEX
  5
EE5
  8
DATA
  6
CONTINUOUS
 62
     7
 10
435.3871821383899
 20
967.62875518608519
 30
0.0
  0
VERTEX
  5
EE6
  8
DATA
  6
CONTINUOUS
 62
     7
 10
435.39233374945047
 20
967.61757540044766
 30
0.0
  0
VERTEX
  5
EE7
  8
DATA
  6
CONTINUOUS
 62
     7
 10
435.39738723458618
 20
967.60636932195985
 30
0.0
  0
VERTEX
  5
EE8
  8
DATA
  6
CONTINUOUS
 62
     7
 10
435.40234259379679
 20
967.59513695062242
 30
0.0
  0
VERTEX
  5
EE9
  8
DATA
  6
CONTINUOUS
 62
     7
 10
435.40719982708231
 20
967.58387828643436
 30
0.0
  0
VERTEX
  5
EEA
  8
DATA
  6
CONTINUOUS
 62
     7
 10
435.41195893444308
 20
967.57259332939702
 30
0.0
  0
VERTEX
  5
EEB
  8
DATA
  6
CONTINUOUS
 62
     7
 10
435.41661991587893
 20
967.56128207950928
 30
0.0
  0
VERTEX
  5
EEC
  8
DATA
  6
CONTINUOUS
 62
     7
 10
435.42118277138951
 20
967.54994453677182
 30
0.0
  0
VERTEX
  5
EED
  8
DATA
  6
CONTINUOUS
 62
     7
 10
435.42564750097529
 20
967.53858070118395
 30
0.0
  0
VERTEX
  5
EEE
  8
DATA
  6
CONTINUOUS
 62
     7
 10
435.4300141046362
 20
967.52719057274635
 30
0.0
  0
VERTEX
  5
EEF
  8
DATA
  6
CONTINUOUS
 62
     7
 10
435.43428258237202
 20
967.51577415145903
 30
0.0
  0
VERTEX
  5
EF0
  8
DATA
  6
CONTINUOUS
 62
     7
 10
435.43845293418298
 20
967.50433143732153
 30
0.0
  0
VERTEX
  5
EF1
  8
DATA
  6
CONTINUOUS
 62
     7
 10
435.4425251600689
 20
967.49286243033373
 30
0.0
  0
VERTEX
  5
EF2
  8
DATA
  6
CONTINUOUS
 62
     7
 10
435.4464992600299
 20
967.48136713049632
 30
0.0
  0
VERTEX
  5
EF3
  8
DATA
  6
CONTINUOUS
 62
     7
 10
435.45037523406597
 20
967.46984553780885
 30
0.0
  0
VERTEX
  5
EF4
  8
DATA
  6
CONTINUOUS
 62
     7
 10
435.45415308217702
 20
967.4582976522712
 30
0.0
  0
VERTEX
  5
EF5
  8
DATA
  6
CONTINUOUS
 62
     7
 10
435.45783280436319
 20
967.44672347388337
 30
0.0
  0
VERTEX
  5
EF6
  8
DATA
  6
CONTINUOUS
 62
     7
 10
435.46141440062422
 20
967.43512300264615
 30
0.0
  0
VERTEX
  5
EF7
  8
DATA
  6
CONTINUOUS
 62
     7
 10
435.46489787096039
 20
967.42349623855841
 30
0.0
  0
VERTEX
  5
EF8
  8
DATA
  6
CONTINUOUS
 62
     7
 10
435.46828321537163
 20
967.41184318162095
 30
0.0
  0
VERTEX
  5
EF9
  8
DATA
  6
CONTINUOUS
 62
     7
 10
435.47157043385778
 20
967.40016383183365
 30
0.0
  0
VERTEX
  5
EFA
  8
DATA
  6
CONTINUOUS
 62
     7
 10
435.47475952641918
 20
967.38845818919606
 30
0.0
  0
VERTEX
  5
EFB
  8
DATA
  6
CONTINUOUS
 62
     7
 10
435.47785049305543
 20
967.37672625370863
 30
0.0
  0
VERTEX
  5
EFC
  8
DATA
  6
CONTINUOUS
 62
     7
 10
435.48084333376693
 20
967.36496802537124
 30
0.0
  0
VERTEX
  5
EFD
  8
DATA
  6
CONTINUOUS
 62
     7
 10
435.48373804855311
 20
967.35318350418368
 30
0.0
  0
VERTEX
  5
EFE
  8
DATA
  6
CONTINUOUS
 62
     7
 10
435.48653463741471
 20
967.34137269014582
 30
0.0
  0
VERTEX
  5
EFF
  8
DATA
  6
CONTINUOUS
 62
     7
 10
435.4892331003511
 20
967.32953558325869
 30
0.0
  0
VERTEX
  5
F00
  8
DATA
  6
CONTINUOUS
 62
     7
 10
435.49183343736257
 20
967.31767218352127
 30
0.0
  0
VERTEX
  5
F01
  8
DATA
  6
CONTINUOUS
 62
     7
 10
435.49433564844918
 20
967.30578249093367
 30
0.0
  0
VERTEX
  5
F02
  8
DATA
  6
CONTINUOUS
 62
     7
 10
435.49673973361092
 20
967.29386650549645
 30
0.0
  0
VERTEX
  5
F03
  8
DATA
  6
CONTINUOUS
 62
     7
 10
435.49904569284729
 20
967.28192422720872
 30
0.0
  0
VERTEX
  5
F04
  8
DATA
  6
CONTINUOUS
 62
     7
 10
435.50125352615908
 20
967.26995565607149
 30
0.0
  0
VERTEX
  5
F05
  8
DATA
  6
CONTINUOUS
 62
     7
 10
435.50336323354571
 20
967.25796079208408
 30
0.0
  0
VERTEX
  5
F06
  8
DATA
  6
CONTINUOUS
 62
     7
 10
435.50537481500737
 20
967.24593963524649
 30
0.0
  0
VERTEX
  5
F07
  8
DATA
  6
CONTINUOUS
 62
     7
 10
435.50728827054411
 20
967.23389218555917
 30
0.0
  0
VERTEX
  5
F08
  8
DATA
  6
CONTINUOUS
 62
     7
 10
435.50910360015598
 20
967.22181844302168
 30
0.0
  0
VERTEX
  5
F09
  8
DATA
  6
CONTINUOUS
 62
     7
 10
435.51082080384282
 20
967.20971840763445
 30
0.0
  0
VERTEX
  5
F0A
  8
DATA
  6
CONTINUOUS
 62
     7
 10
435.51243988160479
 20
967.19759207939683
 30
0.0
  0
VERTEX
  5
F0B
  8
DATA
  6
CONTINUOUS
 62
     7
 10
435.51396083344162
 20
967.18543945830982
 30
0.0
  0
VERTEX
  5
F0C
  8
DATA
  6
CONTINUOUS
 62
     7
 10
435.51538365935369
 20
967.17326054437206
 30
0.0
  0
VERTEX
  5
F0D
  8
DATA
  6
CONTINUOUS
 62
     7
 10
435.51670835934073
 20
967.16105533758468
 30
0.0
  0
VERTEX
  5
F0E
  8
DATA
  6
CONTINUOUS
 62
     7
 10
435.51793493340261
 20
967.14882383794759
 30
0.0
  0
VERTEX
  5
F0F
  8
DATA
  6
CONTINUOUS
 62
     7
 10
435.5190633815397
 20
967.1365660454602
 30
0.0
  0
VERTEX
  5
F10
  8
DATA
  6
CONTINUOUS
 62
     7
 10
435.52009370375191
 20
967.12428196012286
 30
0.0
  0
VERTEX
  5
F11
  8
DATA
  6
CONTINUOUS
 62
     7
 10
435.52102590003892
 20
967.11197158193545
 30
0.0
  0
VERTEX
  5
F12
  8
DATA
  6
CONTINUOUS
 62
     7
 10
435.52185997040112
 20
967.09963491089843
 30
0.0
  0
VERTEX
  5
F13
  8
DATA
  6
CONTINUOUS
 62
     7
 10
435.52259591483829
 20
967.08727194701066
 30
0.0
  0
VERTEX
  5
F14
  8
DATA
  6
CONTINUOUS
 62
     7
 10
435.52323373335071
 20
967.07488269027363
 30
0.0
  0
VERTEX
  5
F15
  8
DATA
  6
CONTINUOUS
 62
     7
 10
435.52377342593797
 20
967.06246714068618
 30
0.0
  0
VERTEX
  5
F16
  8
DATA
  6
CONTINUOUS
 62
     7
 10
435.52421499260032
 20
967.05002529824878
 30
0.0
  0
VERTEX
  5
F17
  8
DATA
  6
CONTINUOUS
 62
     7
 10
435.52455843333769
 20
967.03755716296155
 30
0.0
  0
VERTEX
  5
F18
  8
DATA
  6
CONTINUOUS
 62
     7
 10
435.52480374815002
 20
967.02506273482425
 30
0.0
  0
VERTEX
  5
F19
  8
DATA
  6
CONTINUOUS
 62
     7
 10
435.5249509370376
 20
967.01254201383699
 30
0.0
  0
VERTEX
  5
F1A
  8
DATA
  6
CONTINUOUS
 62
     7
 10
435.52499999999992
 20
966.9999949999999
 30
0.0
  0
VERTEX
  5
F1B
  8
DATA
  6
CONTINUOUS
 62
     7
 10
435.5249509370376
 20
966.98744798616235
 30
0.0
  0
VERTEX
  5
F1C
  8
DATA
  6
CONTINUOUS
 62
     7
 10
435.52480374815002
 20
966.97492726517532
 30
0.0
  0
VERTEX
  5
F1D
  8
DATA
  6
CONTINUOUS
 62
     7
 10
435.52455843333769
 20
966.96243283703825
 30
0.0
  0
VERTEX
  5
F1E
  8
DATA
  6
CONTINUOUS
 62
     7
 10
435.52421499260032
 20
966.94996470175022
 30
0.0
  0
VERTEX
  5
F1F
  8
DATA
  6
CONTINUOUS
 62
     7
 10
435.52377342593797
 20
966.93752285931316
 30
0.0
  0
VERTEX
  5
F20
  8
DATA
  6
CONTINUOUS
 62
     7
 10
435.52323373335071
 20
966.92510730972595
 30
0.0
  0
VERTEX
  5
F21
  8
DATA
  6
CONTINUOUS
 62
     7
 10
435.52259591483829
 20
966.91271805298868
 30
0.0
  0
VERTEX
  5
F22
  8
DATA
  6
CONTINUOUS
 62
     7
 10
435.52185997040112
 20
966.90035508910114
 30
0.0
  0
VERTEX
  5
F23
  8
DATA
  6
CONTINUOUS
 62
     7
 10
435.52102590003892
 20
966.88801841806401
 30
0.0
  0
VERTEX
  5
F24
  8
DATA
  6
CONTINUOUS
 62
     7
 10
435.52009370375191
 20
966.87570803987671
 30
0.0
  0
VERTEX
  5
F25
  8
DATA
  6
CONTINUOUS
 62
     7
 10
435.5190633815397
 20
966.86342395453914
 30
0.0
  0
VERTEX
  5
F26
  8
DATA
  6
CONTINUOUS
 62
     7
 10
435.51793493340261
 20
966.85116616205221
 30
0.0
  0
VERTEX
  5
F27
  8
DATA
  6
CONTINUOUS
 62
     7
 10
435.51670835934073
 20
966.83893466241454
 30
0.0
  0
VERTEX
  5
F28
  8
DATA
  6
CONTINUOUS
 62
     7
 10
435.51538365935369
 20
966.8267294556274
 30
0.0
  0
VERTEX
  5
F29
  8
DATA
  6
CONTINUOUS
 62
     7
 10
435.51396083344162
 20
966.81455054168975
 30
0.0
  0
VERTEX
  5
F2A
  8
DATA
  6
CONTINUOUS
 62
     7
 10
435.51243988160479
 20
966.8023979206024
 30
0.0
  0
VERTEX
  5
F2B
  8
DATA
  6
CONTINUOUS
 62
     7
 10
435.51082080384282
 20
966.790271592365
 30
0.0
  0
VERTEX
  5
F2C
  8
DATA
  6
CONTINUOUS
 62
     7
 10
435.50910360015598
 20
966.77817155697767
 30
0.0
  0
VERTEX
  5
F2D
  8
DATA
  6
CONTINUOUS
 62
     7
 10
435.50728827054411
 20
966.76609781444017
 30
0.0
  0
VERTEX
  5
F2E
  8
DATA
  6
CONTINUOUS
 62
     7
 10
435.50537481500737
 20
966.75405036475274
 30
0.0
  0
VERTEX
  5
F2F
  8
DATA
  6
CONTINUOUS
 62
     7
 10
435.50336323354571
 20
966.74202920791549
 30
0.0
  0
VERTEX
  5
F30
  8
DATA
  6
CONTINUOUS
 62
     7
 10
435.50125352615908
 20
966.73003434392808
 30
0.0
  0
VERTEX
  5
F31
  8
DATA
  6
CONTINUOUS
 62
     7
 10
435.49904569284729
 20
966.71806577279062
 30
0.0
  0
VERTEX
  5
F32
  8
DATA
  6
CONTINUOUS
 62
     7
 10
435.49673973361092
 20
966.706123494503
 30
0.0
  0
VERTEX
  5
F33
  8
DATA
  6
CONTINUOUS
 62
     7
 10
435.49433564844918
 20
966.69420750906568
 30
0.0
  0
VERTEX
  5
F34
  8
DATA
  6
CONTINUOUS
 62
     7
 10
435.49183343736257
 20
966.68231781647853
 30
0.0
  0
VERTEX
  5
F35
  8
DATA
  6
CONTINUOUS
 62
     7
 10
435.4892331003511
 20
966.67045441674065
 30
0.0
  0
VERTEX
  5
F36
  8
DATA
  6
CONTINUOUS
 62
     7
 10
435.48653463741471
 20
966.65861730985353
 30
0.0
  0
VERTEX
  5
F37
  8
DATA
  6
CONTINUOUS
 62
     7
 10
435.48373804855311
 20
966.64680649581589
 30
0.0
  0
VERTEX
  5
F38
  8
DATA
  6
CONTINUOUS
 62
     7
 10
435.48084333376693
 20
966.63502197462844
 30
0.0
  0
VERTEX
  5
F39
  8
DATA
  6
CONTINUOUS
 62
     7
 10
435.47785049305543
 20
966.62326374629095
 30
0.0
  0
VERTEX
  5
F3A
  8
DATA
  6
CONTINUOUS
 62
     7
 10
435.47475952641918
 20
966.61153181080329
 30
0.0
  0
VERTEX
  5
F3B
  8
DATA
  6
CONTINUOUS
 62
     7
 10
435.47157043385778
 20
966.59982616816615
 30
0.0
  0
VERTEX
  5
F3C
  8
DATA
  6
CONTINUOUS
 62
     7
 10
435.46828321537163
 20
966.5881468183785
 30
0.0
  0
VERTEX
  5
F3D
  8
DATA
  6
CONTINUOUS
 62
     7
 10
435.46489787096039
 20
966.57649376144059
 30
0.0
  0
VERTEX
  5
F3E
  8
DATA
  6
CONTINUOUS
 62
     7
 10
435.46141440062422
 20
966.56486699735353
 30
0.0
  0
VERTEX
  5
F3F
  8
DATA
  6
CONTINUOUS
 62
     7
 10
435.45783280436319
 20
966.55326652611575
 30
0.0
  0
VERTEX
  5
F40
  8
DATA
  6
CONTINUOUS
 62
     7
 10
435.45415308217702
 20
966.54169234772803
 30
0.0
  0
VERTEX
  5
F41
  8
DATA
  6
CONTINUOUS
 62
     7
 10
435.45037523406597
 20
966.53014446219061
 30
0.0
  0
VERTEX
  5
F42
  8
DATA
  6
CONTINUOUS
 62
     7
 10
435.4464992600299
 20
966.51862286950313
 30
0.0
  0
VERTEX
  5
F43
  8
DATA
  6
CONTINUOUS
 62
     7
 10
435.4425251600689
 20
966.50712756966573
 30
0.0
  0
VERTEX
  5
F44
  8
DATA
  6
CONTINUOUS
 62
     7
 10
435.43845293418298
 20
966.49565856267805
 30
0.0
  0
VERTEX
  5
F45
  8
DATA
  6
CONTINUOUS
 62
     7
 10
435.43428258237202
 20
966.48421584854054
 30
0.0
  0
VERTEX
  5
F46
  8
DATA
  6
CONTINUOUS
 62
     7
 10
435.4300141046362
 20
966.47279942725277
 30
0.0
  0
VERTEX
  5
F47
  8
DATA
  6
CONTINUOUS
 62
     7
 10
435.42564750097529
 20
966.46140929881517
 30
0.0
  0
VERTEX
  5
F48
  8
DATA
  6
CONTINUOUS
 62
     7
 10
435.42118277138951
 20
966.45004546322753
 30
0.0
  0
VERTEX
  5
F49
  8
DATA
  6
CONTINUOUS
 62
     7
 10
435.41661991587893
 20
966.43870792048983
 30
0.0
  0
VERTEX
  5
F4A
  8
DATA
  6
CONTINUOUS
 62
     7
 10
435.41195893444308
 20
966.42739667060255
 30
0.0
  0
VERTEX
  5
F4B
  8
DATA
  6
CONTINUOUS
 62
     7
 10
435.40719982708231
 20
966.41611171356465
 30
0.0
  0
VERTEX
  5
F4C
  8
DATA
  6
CONTINUOUS
 62
     7
 10
435.40234259379679
 20
966.40485304937715
 30
0.0
  0
VERTEX
  5
F4D
  8
DATA
  6
CONTINUOUS
 62
     7
 10
435.39738723458618
 20
966.3936206780395
 30
0.0
  0
VERTEX
  5
F4E
  8
DATA
  6
CONTINUOUS
 62
     7
 10
435.39233374945047
 20
966.38241459955191
 30
0.0
  0
VERTEX
  5
F4F
  8
DATA
  6
CONTINUOUS
 62
     7
 10
435.3871821383899
 20
966.37123481391438
 30
0.0
  0
VERTEX
  5
F50
  8
DATA
  6
CONTINUOUS
 62
     7
 10
435.38193240140458
 20
966.3600813211267
 30
0.0
  0
VERTEX
  5
F51
  8
DATA
  6
CONTINUOUS
 62
     7
 10
435.376584538494
 20
966.34895412118908
 30
0.0
  0
VERTEX
  5
F52
  8
DATA
  6
CONTINUOUS
 62
     7
 10
435.37113854965872
 20
966.33785321410153
 30
0.0
  0
VERTEX
  5
F53
  8
DATA
  6
CONTINUOUS
 62
     7
 10
435.36559443489818
 20
966.32677859986359
 30
0.0
  0
VERTEX
  5
F54
  8
DATA
  6
CONTINUOUS
 62
     7
 10
435.35995219421289
 20
966.31573027847594
 30
0.0
  0
VERTEX
  5
F55
  8
DATA
  6
CONTINUOUS
 62
     7
 10
435.35421182760251
 20
966.30470824993824
 30
0.0
  0
VERTEX
  5
F56
  8
DATA
  6
CONTINUOUS
 62
     7
 10
435.34837333506738
 20
966.2937125142505
 30
0.0
  0
VERTEX
  5
F57
  8
DATA
  6
CONTINUOUS
 62
     7
 10
435.34243671660721
 20
966.28274307141294
 30
0.0
  0
VERTEX
  5
F58
  8
DATA
  6
CONTINUOUS
 62
     7
 10
435.33640197222201
 20
966.27179992142533
 30
0.0
  0
VERTEX
  5
F59
  8
DATA
  6
CONTINUOUS
 62
     7
 10
435.33026910191171
 20
966.26088306428755
 30
0.0
  0
VERTEX
  5
F5A
  8
DATA
  6
CONTINUOUS
 62
     7
 10
435.32403810567672
 20
966.24999249999962
 30
0.0
  0
VERTEX
  5
F5B
  8
DATA
  6
CONTINUOUS
 62
     7
 10
435.31772212989767
 20
966.23915099883811
 30
0.0
  0
VERTEX
  5
F5C
  8
DATA
  6
CONTINUOUS
 62
     7
 10
435.31133432095612
 20
966.22838133107837
 30
0.0
  0
VERTEX
  5
F5D
  8
DATA
  6
CONTINUOUS
 62
     7
 10
435.30487467885212
 20
966.21768349672072
 30
0.0
  0
VERTEX
  5
F5E
  8
DATA
  6
CONTINUOUS
 62
     7
 10
435.2983432035852
 20
966.20705749576507
 30
0.0
  0
VERTEX
  5
F5F
  8
DATA
  6
CONTINUOUS
 62
     7
 10
435.29173989515601
 20
966.19650332821152
 30
0.0
  0
VERTEX
  5
F60
  8
DATA
  6
CONTINUOUS
 62
     7
 10
435.28506475356392
 20
966.18602099406064
 30
0.0
  0
VERTEX
  5
F61
  8
DATA
  6
CONTINUOUS
 62
     7
 10
435.27831777880942
 20
966.17561049331096
 30
0.0
  0
VERTEX
  5
F62
  8
DATA
  6
CONTINUOUS
 62
     7
 10
435.2714989708922
 20
966.16527182596349
 30
0.0
  0
VERTEX
  5
F63
  8
DATA
  6
CONTINUOUS
 62
     7
 10
435.26460832981229
 20
966.15500499201846
 30
0.0
  0
VERTEX
  5
F64
  8
DATA
  6
CONTINUOUS
 62
     7
 10
435.25764585556999
 20
966.1448099914752
 30
0.0
  0
VERTEX
  5
F65
  8
DATA
  6
CONTINUOUS
 62
     7
 10
435.2506115481649
 20
966.13468682433415
 30
0.0
  0
VERTEX
  5
F66
  8
DATA
  6
CONTINUOUS
 62
     7
 10
435.2435054075973
 20
966.1246354905951
 30
0.0
  0
VERTEX
  5
F67
  8
DATA
  6
CONTINUOUS
 62
     7
 10
435.23632743386702
 20
966.11465599025792
 30
0.0
  0
VERTEX
  5
F68
  8
DATA
  6
CONTINUOUS
 62
     7
 10
435.22907762697412
 20
966.10474832332307
 30
0.0
  0
VERTEX
  5
F69
  8
DATA
  6
CONTINUOUS
 62
     7
 10
435.22175598691871
 20
966.0949124897902
 30
0.0
  0
VERTEX
  5
F6A
  8
DATA
  6
CONTINUOUS
 62
     7
 10
435.21436251370062
 20
966.08514848965933
 30
0.0
  0
VERTEX
  5
F6B
  8
DATA
  6
CONTINUOUS
 62
     7
 10
435.20689720731991
 20
966.07545632293034
 30
0.0
  0
VERTEX
  5
F6C
  8
DATA
  6
CONTINUOUS
 62
     7
 10
435.19936006777652
 20
966.06583598960344
 30
0.0
  0
VERTEX
  5
F6D
  8
DATA
  6
CONTINUOUS
 62
     7
 10
435.19175109507057
 20
966.05628748967877
 30
0.0
  0
VERTEX
  5
F6E
  8
DATA
  6
CONTINUOUS
 62
     7
 10
435.184070289202
 20
966.04681082315631
 30
0.0
  0
VERTEX
  5
F6F
  8
DATA
  6
CONTINUOUS
 62
     7
 10
435.17631765017097
 20
966.03740599003595
 30
0.0
  0
VERTEX
  5
F70
  8
DATA
  6
CONTINUOUS
 62
     7
 10
435.16849317797721
 20
966.02807299031701
 30
0.0
  0
VERTEX
  5
F71
  8
DATA
  6
CONTINUOUS
 62
     7
 10
435.16059687262077
 20
966.01881182400075
 30
0.0
  0
VERTEX
  5
F72
  8
DATA
  6
CONTINUOUS
 62
     7
 10
435.15262873410171
 20
966.00962249108636
 30
0.0
  0
VERTEX
  5
F73
  8
DATA
  6
CONTINUOUS
 62
     7
 10
435.14458876242009
 20
966.00050499157396
 30
0.0
  0
VERTEX
  5
F74
  8
DATA
  6
CONTINUOUS
 62
     7
 10
435.13647695757589
 20
965.99145932546355
 30
0.0
  0
VERTEX
  5
F75
  8
DATA
  6
CONTINUOUS
 62
     7
 10
435.12829331956902
 20
965.98248549275559
 30
0.0
  0
VERTEX
  5
F76
  8
DATA
  6
CONTINUOUS
 62
     7
 10
435.12003784839959
 20
965.97358349344915
 30
0.0
  0
VERTEX
  5
F77
  8
DATA
  6
CONTINUOUS
 62
     7
 10
435.11171054406759
 20
965.96475332754528
 30
0.0
  0
VERTEX
  5
F78
  8
DATA
  6
CONTINUOUS
 62
     7
 10
435.10331140657291
 20
965.95599499504317
 30
0.0
  0
VERTEX
  5
F79
  8
DATA
  6
CONTINUOUS
 62
     7
 10
435.09484043591561
 20
965.94730849594328
 30
0.0
  0
VERTEX
  5
F7A
  8
DATA
  6
CONTINUOUS
 62
     7
 10
435.08629763209581
 20
965.93869383024503
 30
0.0
  0
VERTEX
  5
F7B
  8
DATA
  6
CONTINUOUS
 62
     7
 10
435.07768299511338
 20
965.930150997949
 30
0.0
  0
VERTEX
  5
F7C
  8
DATA
  6
CONTINUOUS
 62
     7
 10
435.06899652496821
 20
965.92167999905519
 30
0.0
  0
VERTEX
  5
F7D
  8
DATA
  6
CONTINUOUS
 62
     7
 10
435.06023822166048
 20
965.91328083356382
 30
0.0
  0
VERTEX
  5
F7E
  8
DATA
  6
CONTINUOUS
 62
     7
 10
435.05140808519002
 20
965.90495350147364
 30
0.0
  0
VERTEX
  5
F7F
  8
DATA
  6
CONTINUOUS
 62
     7
 10
435.0425061155571
 20
965.89669800278625
 30
0.0
  0
VERTEX
  5
F80
  8
DATA
  6
CONTINUOUS
 62
     7
 10
435.03353231276162
 20
965.88851433750051
 30
0.0
  0
VERTEX
  5
F81
  8
DATA
  6
CONTINUOUS
 62
     7
 10
435.02448667680352
 20
965.88040250561698
 30
0.0
  0
VERTEX
  5
F82
  8
DATA
  6
CONTINUOUS
 62
     7
 10
435.01536920768251
 20
965.87236250713534
 30
0.0
  0
VERTEX
  5
F83
  8
DATA
  6
CONTINUOUS
 62
     7
 10
435.00617990539922
 20
965.86439434205602
 30
0.0
  0
VERTEX
  5
F84
  8
DATA
  6
CONTINUOUS
 62
     7
 10
434.99691876995331
 20
965.85649801037857
 30
0.0
  0
VERTEX
  5
F85
  8
DATA
  6
CONTINUOUS
 62
     7
 10
434.98758580134461
 20
965.84867351210323
 30
0.0
  0
VERTEX
  5
F86
  8
DATA
  6
CONTINUOUS
 62
     7
 10
434.97818099957323
 20
965.84092084723011
 30
0.0
  0
VERTEX
  5
F87
  8
DATA
  6
CONTINUOUS
 62
     7
 10
434.96870436463951
 20
965.83324001575875
 30
0.0
  0
VERTEX
  5
F88
  8
DATA
  6
CONTINUOUS
 62
     7
 10
434.95915589654311
 20
965.82563101768972
 30
0.0
  0
VERTEX
  5
F89
  8
DATA
  6
CONTINUOUS
 62
     7
 10
434.94953559528392
 20
965.81809385302233
 30
0.0
  0
VERTEX
  5
F8A
  8
DATA
  6
CONTINUOUS
 62
     7
 10
434.93984346086228
 20
965.81062852175717
 30
0.0
  0
VERTEX
  5
F8B
  8
DATA
  6
CONTINUOUS
 62
     7
 10
434.9300794932779
 20
965.80323502389444
 30
0.0
  0
VERTEX
  5
F8C
  8
DATA
  6
CONTINUOUS
 62
     7
 10
434.92024369253107
 20
965.79591335943348
 30
0.0
  0
VERTEX
  5
F8D
  8
DATA
  6
CONTINUOUS
 62
     7
 10
434.91033605862151
 20
965.78866352837451
 30
0.0
  0
VERTEX
  5
F8E
  8
DATA
  6
CONTINUOUS
 62
     7
 10
434.90035659154933
 20
965.78148553071765
 30
0.0
  0
VERTEX
  5
F8F
  8
DATA
  6
CONTINUOUS
 62
     7
 10
434.89030529131441
 20
965.77437936646288
 30
0.0
  0
VERTEX
  5
F90
  8
DATA
  6
CONTINUOUS
 62
     7
 10
434.8801821579172
 20
965.76734503561011
 30
0.0
  0
VERTEX
  5
F91
  8
DATA
  6
CONTINUOUS
 62
     7
 10
434.86998719135732
 20
965.76038253815966
 30
0.0
  0
VERTEX
  5
F92
  8
DATA
  6
CONTINUOUS
 62
     7
 10
434.85972039163471
 20
965.75349187411075
 30
0.0
  0
VERTEX
  5
F93
  8
DATA
  6
CONTINUOUS
 62
     7
 10
434.84938175874959
 20
965.74667304346428
 30
0.0
  0
VERTEX
  5
F94
  8
DATA
  6
CONTINUOUS
 62
     7
 10
434.83897129270167
 20
965.73992604621992
 30
0.0
  0
VERTEX
  5
F95
  8
DATA
  6
CONTINUOUS
 62
     7
 10
434.82848899349119
 20
965.73325088237743
 30
0.0
  0
VERTEX
  5
F96
  8
DATA
  6
CONTINUOUS
 62
     7
 10
434.81793486111832
 20
965.72664755193694
 30
0.0
  0
VERTEX
  5
F97
  8
DATA
  6
CONTINUOUS
 62
     7
 10
434.80730889558271
 20
965.72011605489888
 30
0.0
  0
VERTEX
  5
F98
  8
DATA
  6
CONTINUOUS
 62
     7
 10
434.79661109688431
 20
965.71365639126236
 30
0.0
  0
VERTEX
  5
F99
  8
DATA
  6
CONTINUOUS
 62
     7
 10
434.78584146502351
 20
965.7072685610284
 30
0.0
  0
VERTEX
  5
F9A
  8
DATA
  6
CONTINUOUS
 62
     7
 10
434.77499999999992
 20
965.7009525641962
 30
0.0
  0
VERTEX
  5
F9B
  8
DATA
  6
CONTINUOUS
 62
     7
 10
434.76410947201401
 20
965.69472154719074
 30
0.0
  0
VERTEX
  5
F9C
  8
DATA
  6
CONTINUOUS
 62
     7
 10
434.75319265126558
 20
965.68858865643801
 30
0.0
  0
VERTEX
  5
F9D
  8
DATA
  6
CONTINUOUS
 62
     7
 10
434.74224953775507
 20
965.682553891937
 30
0.0
  0
VERTEX
  5
F9E
  8
DATA
  6
CONTINUOUS
 62
     7
 10
434.73128013148209
 20
965.67661725368805
 30
0.0
  0
VERTEX
  5
F9F
  8
DATA
  6
CONTINUOUS
 62
     7
 10
434.72028443244648
 20
965.67077874169092
 30
0.0
  0
VERTEX
  5
FA0
  8
DATA
  6
CONTINUOUS
 62
     7
 10
434.70926244064901
 20
965.66503835594619
 30
0.0
  0
VERTEX
  5
FA1
  8
DATA
  6
CONTINUOUS
 62
     7
 10
434.6982141560888
 20
965.65939609645329
 30
0.0
  0
VERTEX
  5
FA2
  8
DATA
  6
CONTINUOUS
 62
     7
 10
434.68713957876651
 20
965.65385196321245
 30
0.0
  0
VERTEX
  5
FA3
  8
DATA
  6
CONTINUOUS
 62
     7
 10
434.67603870868169
 20
965.64840595622422
 30
0.0
  0
VERTEX
  5
FA4
  8
DATA
  6
CONTINUOUS
 62
     7
 10
434.66491154583463
 20
965.64305807548715
 30
0.0
  0
VERTEX
  5
FA5
  8
DATA
  6
CONTINUOUS
 62
     7
 10
434.6537580902251
 20
965.63780832100247
 30
0.0
  0
VERTEX
  5
FA6
  8
DATA
  6
CONTINUOUS
 62
     7
 10
434.64257834185321
 20
965.63265669276996
 30
0.0
  0
VERTEX
  5
FA7
  8
DATA
  6
CONTINUOUS
 62
     7
 10
434.63137230071919
 20
965.62760319078961
 30
0.0
  0
VERTEX
  5
FA8
  8
DATA
  6
CONTINUOUS
 62
     7
 10
434.62013996682259
 20
965.62264781506099
 30
0.0
  0
VERTEX
  5
FA9
  8
DATA
  6
CONTINUOUS
 62
     7
 10
434.60888134016369
 20
965.61779056558441
 30
0.0
  0
VERTEX
  5
FAA
  8
DATA
  6
CONTINUOUS
 62
     7
 10
434.59759642074249
 20
965.6130314423599
 30
0.0
  0
VERTEX
  5
FAB
  8
DATA
  6
CONTINUOUS
 62
     7
 10
434.58628520855888
 20
965.608370445388
 30
0.0
  0
VERTEX
  5
FAC
  8
DATA
  6
CONTINUOUS
 62
     7
 10
434.57494770361291
 20
965.60380757466771
 30
0.0
  0
VERTEX
  5
FAD
  8
DATA
  6
CONTINUOUS
 62
     7
 10
434.56358390590481
 20
965.59934283019925
 30
0.0
  0
VERTEX
  5
FAE
  8
DATA
  6
CONTINUOUS
 62
     7
 10
434.55219381543401
 20
965.59497621198329
 30
0.0
  0
VERTEX
  5
FAF
  8
DATA
  6
CONTINUOUS
 62
     7
 10
434.54077743220108
 20
965.59070772001905
 30
0.0
  0
VERTEX
  5
FB0
  8
DATA
  6
CONTINUOUS
 62
     7
 10
434.5293347562058
 20
965.58653735430698
 30
0.0
  0
VERTEX
  5
FB1
  8
DATA
  6
CONTINUOUS
 62
     7
 10
434.51786578744822
 20
965.58246511484685
 30
0.0
  0
VERTEX
  5
FB2
  8
DATA
  6
CONTINUOUS
 62
     7
 10
434.50637052592799
 20
965.57849100163889
 30
0.0
  0
VERTEX
  5
FB3
  8
DATA
  6
CONTINUOUS
 62
     7
 10
434.49484897164569
 20
965.57461501468299
 30
0.0
  0
VERTEX
  5
FB4
  8
DATA
  6
CONTINUOUS
 62
     7
 10
434.48330112460081
 20
965.57083715397914
 30
0.0
  0
VERTEX
  5
FB5
  8
DATA
  6
CONTINUOUS
 62
     7
 10
434.47172698479397
 20
965.56715741952723
 30
0.0
  0
VERTEX
  5
FB6
  8
DATA
  6
CONTINUOUS
 62
     7
 10
434.46012655222449
 20
965.56357581132772
 30
0.0
  0
VERTEX
  5
FB7
  8
DATA
  6
CONTINUOUS
 62
     7
 10
434.44849982689271
 20
965.56009232938004
 30
0.0
  0
VERTEX
  5
FB8
  8
DATA
  6
CONTINUOUS
 62
     7
 10
434.43684680879852
 20
965.55670697368384
 30
0.0
  0
VERTEX
  5
FB9
  8
DATA
  6
CONTINUOUS
 62
     7
 10
434.4251674979422
 20
965.55341974424039
 30
0.0
  0
VERTEX
  5
FBA
  8
DATA
  6
CONTINUOUS
 62
     7
 10
434.41346189432329
 20
965.55023064104876
 30
0.0
  0
VERTEX
  5
FBB
  8
DATA
  6
CONTINUOUS
 62
     7
 10
434.40172999794208
 20
965.54713966410907
 30
0.0
  0
VERTEX
  5
FBC
  8
DATA
  6
CONTINUOUS
 62
     7
 10
434.38997180879852
 20
965.54414681342166
 30
0.0
  0
VERTEX
  5
FBD
  8
DATA
  6
CONTINUOUS
 62
     7
 10
434.37818732689283
 20
965.5412520889862
 30
0.0
  0
VERTEX
  5
FBE
  8
DATA
  6
CONTINUOUS
 62
     7
 10
434.36637655222449
 20
965.53845549080302
 30
0.0
  0
VERTEX
  5
FBF
  8
DATA
  6
CONTINUOUS
 62
     7
 10
434.35453948479397
 20
965.53575701887155
 30
0.0
  0
VERTEX
  5
FC0
  8
DATA
  6
CONTINUOUS
 62
     7
 10
434.34267612460093
 20
965.53315667319248
 30
0.0
  0
VERTEX
  5
FC1
  8
DATA
  6
CONTINUOUS
 62
     7
 10
434.33078647164569
 20
965.53065445376501
 30
0.0
  0
VERTEX
  5
FC2
  8
DATA
  6
CONTINUOUS
 62
     7
 10
434.31887052592799
 20
965.52825036059005
 30
0.0
  0
VERTEX
  5
FC3
  8
DATA
  6
CONTINUOUS
 62
     7
 10
434.3069282874481
 20
965.52594439366669
 30
0.0
  0
VERTEX
  5
FC4
  8
DATA
  6
CONTINUOUS
 62
     7
 10
434.2949597562058
 20
965.52373655299539
 30
0.0
  0
VERTEX
  5
FC5
  8
DATA
  6
CONTINUOUS
 62
     7
 10
434.28296493220108
 20
965.52162683857637
 30
0.0
  0
VERTEX
  5
FC6
  8
DATA
  6
CONTINUOUS
 62
     7
 10
434.27094381543401
 20
965.51961525040986
 30
0.0
  0
VERTEX
  5
FC7
  8
DATA
  6
CONTINUOUS
 62
     7
 10
434.25889640590481
 20
965.51770178849461
 30
0.0
  0
VERTEX
  5
FC8
  8
DATA
  6
CONTINUOUS
 62
     7
 10
434.24682270361279
 20
965.51588645283152
 30
0.0
  0
VERTEX
  5
FC9
  8
DATA
  6
CONTINUOUS
 62
     7
 10
434.23472270855882
 20
965.51416924342084
 30
0.0
  0
VERTEX
  5
FCA
  8
DATA
  6
CONTINUOUS
 62
     7
 10
434.22259642074249
 20
965.51255016026198
 30
0.0
  0
VERTEX
  5
FCB
  8
DATA
  6
CONTINUOUS
 62
     7
 10
434.21044384016369
 20
965.51102920335529
 30
0.0
  0
VERTEX
  5
FCC
  8
DATA
  6
CONTINUOUS
 62
     7
 10
434.19826496682248
 20
965.50960637270055
 30
0.0
  0
VERTEX
  5
FCD
  8
DATA
  6
CONTINUOUS
 62
     7
 10
434.18605980071919
 20
965.50828166829774
 30
0.0
  0
VERTEX
  5
FCE
  8
DATA
  6
CONTINUOUS
 62
     7
 10
434.17382834185321
 20
965.50705509014722
 30
0.0
  0
VERTEX
  5
FCF
  8
DATA
  6
CONTINUOUS
 62
     7
 10
434.1615705902251
 20
965.50592663824875
 30
0.0
  0
VERTEX
  5
FD0
  8
DATA
  6
CONTINUOUS
 62
     7
 10
434.14928654583451
 20
965.50489631260223
 30
0.0
  0
VERTEX
  5
FD1
  8
DATA
  6
CONTINUOUS
 62
     7
 10
434.13697620868169
 20
965.50396411320753
 30
0.0
  0
VERTEX
  5
FD2
  8
DATA
  6
CONTINUOUS
 62
     7
 10
434.12463957876639
 20
965.50313004006523
 30
0.0
  0
VERTEX
  5
FD3
  8
DATA
  6
CONTINUOUS
 62
     7
 10
434.1122766560888
 20
965.50239409317476
 30
0.0
  0
VERTEX
  5
FD4
  8
DATA
  6
CONTINUOUS
 62
     7
 10
434.0998874406489
 20
965.50175627253645
 30
0.0
  0
VERTEX
  5
FD5
  8
DATA
  6
CONTINUOUS
 62
     7
 10
434.08747193244659
 20
965.50121657815032
 30
0.0
  0
VERTEX
  5
FD6
  8
DATA
  6
CONTINUOUS
 62
     7
 10
434.07503013148198
 20
965.50077501001601
 30
0.0
  0
VERTEX
  5
FD7
  8
DATA
  6
CONTINUOUS
 62
     7
 10
434.06256203775507
 20
965.50043156813445
 30
0.0
  0
VERTEX
  5
FD8
  8
DATA
  6
CONTINUOUS
 62
     7
 10
434.05006765126569
 20
965.50018625250402
 30
0.0
  0
VERTEX
  5
FD9
  8
DATA
  6
CONTINUOUS
 62
     7
 10
434.03754697201401
 20
965.50003906312566
 30
0.0
  0
VERTEX
  5
FDA
  8
DATA
  6
CONTINUOUS
 62
     7
 10
434.02499999999998
 20
965.49998999999957
 30
0.0
  0
VERTEX
  5
FDB
  8
DATA
  6
CONTINUOUS
 62
     7
 10
434.012453027986
 20
965.50003906312566
 30
0.0
  0
VERTEX
  5
FDC
  8
DATA
  6
CONTINUOUS
 62
     7
 10
433.99993234873421
 20
965.50018625250402
 30
0.0
  0
VERTEX
  5
FDD
  8
DATA
  6
CONTINUOUS
 62
     7
 10
433.98743796224488
 20
965.50043156813445
 30
0.0
  0
VERTEX
  5
FDE
  8
DATA
  6
CONTINUOUS
 62
     7
 10
433.97496986851797
 20
965.50077501001601
 30
0.0
  0
VERTEX
  5
FDF
  8
DATA
  6
CONTINUOUS
 62
     7
 10
433.96252806755319
 20
965.50121657815032
 30
0.0
  0
VERTEX
  5
FE0
  8
DATA
  6
CONTINUOUS
 62
     7
 10
433.950112559351
 20
965.50175627253645
 30
0.0
  0
VERTEX
  5
FE1
  8
DATA
  6
CONTINUOUS
 62
     7
 10
433.9377233439111
 20
965.50239409317476
 30
0.0
  0
VERTEX
  5
FE2
  8
DATA
  6
CONTINUOUS
 62
     7
 10
433.92536042123362
 20
965.50313004006523
 30
0.0
  0
VERTEX
  5
FE3
  8
DATA
  6
CONTINUOUS
 62
     7
 10
433.91302379131821
 20
965.50396411320753
 30
0.0
  0
VERTEX
  5
FE4
  8
DATA
  6
CONTINUOUS
 62
     7
 10
433.90071345416521
 20
965.50489631260223
 30
0.0
  0
VERTEX
  5
FE5
  8
DATA
  6
CONTINUOUS
 62
     7
 10
433.88842940977491
 20
965.50592663824875
 30
0.0
  0
VERTEX
  5
FE6
  8
DATA
  6
CONTINUOUS
 62
     7
 10
433.87617165814669
 20
965.50705509014722
 30
0.0
  0
VERTEX
  5
FE7
  8
DATA
  6
CONTINUOUS
 62
     7
 10
433.86394019928082
 20
965.50828166829774
 30
0.0
  0
VERTEX
  5
FE8
  8
DATA
  6
CONTINUOUS
 62
     7
 10
433.85173503317742
 20
965.50960637270055
 30
0.0
  0
VERTEX
  5
FE9
  8
DATA
  6
CONTINUOUS
 62
     7
 10
433.83955615983632
 20
965.51102920335529
 30
0.0
  0
VERTEX
  5
FEA
  8
DATA
  6
CONTINUOUS
 62
     7
 10
433.82740357925752
 20
965.51255016026198
 30
0.0
  0
VERTEX
  5
FEB
  8
DATA
  6
CONTINUOUS
 62
     7
 10
433.81527729144091
 20
965.51416924342084
 30
0.0
  0
VERTEX
  5
FEC
  8
DATA
  6
CONTINUOUS
 62
     7
 10
433.80317729638688
 20
965.51588645283152
 30
0.0
  0
VERTEX
  5
FED
  8
DATA
  6
CONTINUOUS
 62
     7
 10
433.7911035940952
 20
965.51770178849461
 30
0.0
  0
VERTEX
  5
FEE
  8
DATA
  6
CONTINUOUS
 62
     7
 10
433.77905618456577
 20
965.51961525040986
 30
0.0
  0
VERTEX
  5
FEF
  8
DATA
  6
CONTINUOUS
 62
     7
 10
433.76703506779882
 20
965.52162683857637
 30
0.0
  0
VERTEX
  5
FF0
  8
DATA
  6
CONTINUOUS
 62
     7
 10
433.75504024379421
 20
965.52373655299539
 30
0.0
  0
VERTEX
  5
FF1
  8
DATA
  6
CONTINUOUS
 62
     7
 10
433.74307171255202
 20
965.52594439366669
 30
0.0
  0
VERTEX
  5
FF2
  8
DATA
  6
CONTINUOUS
 62
     7
 10
433.73112947407191
 20
965.52825036059005
 30
0.0
  0
VERTEX
  5
FF3
  8
DATA
  6
CONTINUOUS
 62
     7
 10
433.71921352835432
 20
965.53065445376501
 30
0.0
  0
VERTEX
  5
FF4
  8
DATA
  6
CONTINUOUS
 62
     7
 10
433.70732387539891
 20
965.53315667319248
 30
0.0
  0
VERTEX
  5
FF5
  8
DATA
  6
CONTINUOUS
 62
     7
 10
433.69546051520609
 20
965.53575701887155
 30
0.0
  0
VERTEX
  5
FF6
  8
DATA
  6
CONTINUOUS
 62
     7
 10
433.6836234477754
 20
965.53845549080302
 30
0.0
  0
VERTEX
  5
FF7
  8
DATA
  6
CONTINUOUS
 62
     7
 10
433.67181267310718
 20
965.5412520889862
 30
0.0
  0
VERTEX
  5
FF8
  8
DATA
  6
CONTINUOUS
 62
     7
 10
433.66002819120132
 20
965.54414681342166
 30
0.0
  0
VERTEX
  5
FF9
  8
DATA
  6
CONTINUOUS
 62
     7
 10
433.64827000205781
 20
965.54713966410907
 30
0.0
  0
VERTEX
  5
FFA
  8
DATA
  6
CONTINUOUS
 62
     7
 10
433.63653810567672
 20
965.55023064104876
 30
0.0
  0
VERTEX
  5
FFB
  8
DATA
  6
CONTINUOUS
 62
     7
 10
433.6248325020577
 20
965.55341974424039
 30
0.0
  0
VERTEX
  5
FFC
  8
DATA
  6
CONTINUOUS
 62
     7
 10
433.61315319120132
 20
965.55670697368384
 30
0.0
  0
VERTEX
  5
FFD
  8
DATA
  6
CONTINUOUS
 62
     7
 10
433.60150017310718
 20
965.56009232938004
 30
0.0
  0
VERTEX
  5
FFE
  8
DATA
  6
CONTINUOUS
 62
     7
 10
433.5898734477754
 20
965.56357581132772
 30
0.0
  0
VERTEX
  5
FFF
  8
DATA
  6
CONTINUOUS
 62
     7
 10
433.57827301520598
 20
965.56715741952723
 30
0.0
  0
VERTEX
  5
1000
  8
DATA
  6
CONTINUOUS
 62
     7
 10
433.56669887539891
 20
965.57083715397914
 30
0.0
  0
VERTEX
  5
1001
  8
DATA
  6
CONTINUOUS
 62
     7
 10
433.55515102835432
 20
965.57461501468299
 30
0.0
  0
VERTEX
  5
1002
  8
DATA
  6
CONTINUOUS
 62
     7
 10
433.54362947407191
 20
965.57849100163889
 30
0.0
  0
VERTEX
  5
1003
  8
DATA
  6
CONTINUOUS
 62
     7
 10
433.53213421255191
 20
965.58246511484685
 30
0.0
  0
VERTEX
  5
1004
  8
DATA
  6
CONTINUOUS
 62
     7
 10
433.52066524379433
 20
965.58653735430698
 30
0.0
  0
VERTEX
  5
1005
  8
DATA
  6
CONTINUOUS
 62
     7
 10
433.50922256779882
 20
965.59070772001905
 30
0.0
  0
VERTEX
  5
1006
  8
DATA
  6
CONTINUOUS
 62
     7
 10
433.49780618456577
 20
965.59497621198329
 30
0.0
  0
VERTEX
  5
1007
  8
DATA
  6
CONTINUOUS
 62
     7
 10
433.48641609409509
 20
965.59934283019925
 30
0.0
  0
VERTEX
  5
1008
  8
DATA
  6
CONTINUOUS
 62
     7
 10
433.47505229638688
 20
965.60380757466771
 30
0.0
  0
VERTEX
  5
1009
  8
DATA
  6
CONTINUOUS
 62
     7
 10
433.46371479144091
 20
965.608370445388
 30
0.0
  0
VERTEX
  5
100A
  8
DATA
  6
CONTINUOUS
 62
     7
 10
433.45240357925752
 20
965.6130314423599
 30
0.0
  0
VERTEX
  5
100B
  8
DATA
  6
CONTINUOUS
 62
     7
 10
433.44111865983632
 20
965.61779056558441
 30
0.0
  0
VERTEX
  5
100C
  8
DATA
  6
CONTINUOUS
 62
     7
 10
433.42986003317742
 20
965.62264781506099
 30
0.0
  0
VERTEX
  5
100D
  8
DATA
  6
CONTINUOUS
 62
     7
 10
433.41862769928088
 20
965.62760319078961
 30
0.0
  0
VERTEX
  5
100E
  8
DATA
  6
CONTINUOUS
 62
     7
 10
433.4074216581468
 20
965.63265669276996
 30
0.0
  0
VERTEX
  5
100F
  8
DATA
  6
CONTINUOUS
 62
     7
 10
433.39624190977491
 20
965.63780832100247
 30
0.0
  0
VERTEX
  5
1010
  8
DATA
  6
CONTINUOUS
 62
     7
 10
433.38508845416533
 20
965.64305807548715
 30
0.0
  0
VERTEX
  5
1011
  8
DATA
  6
CONTINUOUS
 62
     7
 10
433.37396129131821
 20
965.64840595622422
 30
0.0
  0
VERTEX
  5
1012
  8
DATA
  6
CONTINUOUS
 62
     7
 10
433.36286042123362
 20
965.65385196321245
 30
0.0
  0
VERTEX
  5
1013
  8
DATA
  6
CONTINUOUS
 62
     7
 10
433.3517858439111
 20
965.65939609645329
 30
0.0
  0
VERTEX
  5
1014
  8
DATA
  6
CONTINUOUS
 62
     7
 10
433.34073755935111
 20
965.66503835594619
 30
0.0
  0
VERTEX
  5
1015
  8
DATA
  6
CONTINUOUS
 62
     7
 10
433.32971556755319
 20
965.67077874169092
 30
0.0
  0
VERTEX
  5
1016
  8
DATA
  6
CONTINUOUS
 62
     7
 10
433.31871986851792
 20
965.67661725368805
 30
0.0
  0
VERTEX
  5
1017
  8
DATA
  6
CONTINUOUS
 62
     7
 10
433.30775046224488
 20
965.682553891937
 30
0.0
  0
VERTEX
  5
1018
  8
DATA
  6
CONTINUOUS
 62
     7
 10
433.29680734873421
 20
965.68858865643801
 30
0.0
  0
VERTEX
  5
1019
  8
DATA
  6
CONTINUOUS
 62
     7
 10
433.28589052798588
 20
965.69472154719074
 30
0.0
  0
VERTEX
  5
101A
  8
DATA
  6
CONTINUOUS
 62
     7
 10
433.27499999999992
 20
965.7009525641962
 30
0.0
  0
VERTEX
  5
101B
  8
DATA
  6
CONTINUOUS
 62
     7
 10
433.2641585349765
 20
965.7072685610284
 30
0.0
  0
VERTEX
  5
101C
  8
DATA
  6
CONTINUOUS
 62
     7
 10
433.25338890311559
 20
965.71365639126236
 30
0.0
  0
VERTEX
  5
101D
  8
DATA
  6
CONTINUOUS
 62
     7
 10
433.24269110441742
 20
965.72011605489888
 30
0.0
  0
VERTEX
  5
101E
  8
DATA
  6
CONTINUOUS
 62
     7
 10
433.23206513888158
 20
965.72664755193694
 30
0.0
  0
VERTEX
  5
101F
  8
DATA
  6
CONTINUOUS
 62
     7
 10
433.22151100650871
 20
965.73325088237743
 30
0.0
  0
VERTEX
  5
1020
  8
DATA
  6
CONTINUOUS
 62
     7
 10
433.21102870729828
 20
965.73992604621992
 30
0.0
  0
VERTEX
  5
1021
  8
DATA
  6
CONTINUOUS
 62
     7
 10
433.20061824125048
 20
965.74667304346428
 30
0.0
  0
VERTEX
  5
1022
  8
DATA
  6
CONTINUOUS
 62
     7
 10
433.19027960836519
 20
965.75349187411075
 30
0.0
  0
VERTEX
  5
1023
  8
DATA
  6
CONTINUOUS
 62
     7
 10
433.18001280864257
 20
965.76038253815966
 30
0.0
  0
VERTEX
  5
1024
  8
DATA
  6
CONTINUOUS
 62
     7
 10
433.16981784208281
 20
965.76734503561011
 30
0.0
  0
VERTEX
  5
1025
  8
DATA
  6
CONTINUOUS
 62
     7
 10
433.15969470868532
 20
965.77437936646288
 30
0.0
  0
VERTEX
  5
1026
  8
DATA
  6
CONTINUOUS
 62
     7
 10
433.14964340845052
 20
965.78148553071765
 30
0.0
  0
VERTEX
  5
1027
  8
DATA
  6
CONTINUOUS
 62
     7
 10
433.13966394137827
 20
965.78866352837451
 30
0.0
  0
VERTEX
  5
1028
  8
DATA
  6
CONTINUOUS
 62
     7
 10
433.12975630746888
 20
965.79591335943348
 30
0.0
  0
VERTEX
  5
1029
  8
DATA
  6
CONTINUOUS
 62
     7
 10
433.119920506722
 20
965.80323502389444
 30
0.0
  0
VERTEX
  5
102A
  8
DATA
  6
CONTINUOUS
 62
     7
 10
433.11015653913762
 20
965.81062852175717
 30
0.0
  0
VERTEX
  5
102B
  8
DATA
  6
CONTINUOUS
 62
     7
 10
433.10046440471598
 20
965.81809385302233
 30
0.0
  0
VERTEX
  5
102C
  8
DATA
  6
CONTINUOUS
 62
     7
 10
433.0908441034569
 20
965.82563101768972
 30
0.0
  0
VERTEX
  5
102D
  8
DATA
  6
CONTINUOUS
 62
     7
 10
433.0812956353605
 20
965.83324001575875
 30
0.0
  0
VERTEX
  5
102E
  8
DATA
  6
CONTINUOUS
 62
     7
 10
433.07181900042661
 20
965.84092084723011
 30
0.0
  0
VERTEX
  5
102F
  8
DATA
  6
CONTINUOUS
 62
     7
 10
433.0624141986554
 20
965.84867351210323
 30
0.0
  0
VERTEX
  5
1030
  8
DATA
  6
CONTINUOUS
 62
     7
 10
433.05308123004693
 20
965.85649801037857
 30
0.0
  0
VERTEX
  5
1031
  8
DATA
  6
CONTINUOUS
 62
     7
 10
433.04382009460068
 20
965.86439434205602
 30
0.0
  0
VERTEX
  5
1032
  8
DATA
  6
CONTINUOUS
 62
     7
 10
433.03463079231722
 20
965.87236250713534
 30
0.0
  0
VERTEX
  5
1033
  8
DATA
  6
CONTINUOUS
 62
     7
 10
433.02551332319661
 20
965.88040250561698
 30
0.0
  0
VERTEX
  5
1034
  8
DATA
  6
CONTINUOUS
 62
     7
 10
433.01646768723828
 20
965.88851433750051
 30
0.0
  0
VERTEX
  5
1035
  8
DATA
  6
CONTINUOUS
 62
     7
 10
433.00749388444291
 20
965.89669800278625
 30
0.0
  0
VERTEX
  5
1036
  8
DATA
  6
CONTINUOUS
 62
     7
 10
432.99859191480959
 20
965.90495350147364
 30
0.0
  0
VERTEX
  5
1037
  8
DATA
  6
CONTINUOUS
 62
     7
 10
432.98976177833941
 20
965.91328083356382
 30
0.0
  0
VERTEX
  5
1038
  8
DATA
  6
CONTINUOUS
 62
     7
 10
432.9810034750318
 20
965.92167999905519
 30
0.0
  0
VERTEX
  5
1039
  8
DATA
  6
CONTINUOUS
 62
     7
 10
432.97231700488658
 20
965.930150997949
 30
0.0
  0
VERTEX
  5
103A
  8
DATA
  6
CONTINUOUS
 62
     7
 10
432.96370236790409
 20
965.93869383024503
 30
0.0
  0
VERTEX
  5
103B
  8
DATA
  6
CONTINUOUS
 62
     7
 10
432.95515956408423
 20
965.94730849594328
 30
0.0
  0
VERTEX
  5
103C
  8
DATA
  6
CONTINUOUS
 62
     7
 10
432.94668859342698
 20
965.95599499504317
 30
0.0
  0
VERTEX
  5
103D
  8
DATA
  6
CONTINUOUS
 62
     7
 10
432.93828945593231
 20
965.96475332754528
 30
0.0
  0
VERTEX
  5
103E
  8
DATA
  6
CONTINUOUS
 62
     7
 10
432.92996215160031
 20
965.97358349344915
 30
0.0
  0
VERTEX
  5
103F
  8
DATA
  6
CONTINUOUS
 62
     7
 10
432.92170668043082
 20
965.98248549275559
 30
0.0
  0
VERTEX
  5
1040
  8
DATA
  6
CONTINUOUS
 62
     7
 10
432.913523042424
 20
965.99145932546355
 30
0.0
  0
VERTEX
  5
1041
  8
DATA
  6
CONTINUOUS
 62
     7
 10
432.90541123757959
 20
966.00050499157396
 30
0.0
  0
VERTEX
  5
1042
  8
DATA
  6
CONTINUOUS
 62
     7
 10
432.89737126589819
 20
966.00962249108636
 30
0.0
  0
VERTEX
  5
1043
  8
DATA
  6
CONTINUOUS
 62
     7
 10
432.88940312737913
 20
966.01881182400075
 30
0.0
  0
VERTEX
  5
1044
  8
DATA
  6
CONTINUOUS
 62
     7
 10
432.88150682202291
 20
966.02807299031701
 30
0.0
  0
VERTEX
  5
1045
  8
DATA
  6
CONTINUOUS
 62
     7
 10
432.87368234982893
 20
966.03740599003595
 30
0.0
  0
VERTEX
  5
1046
  8
DATA
  6
CONTINUOUS
 62
     7
 10
432.8659297107979
 20
966.04681082315631
 30
0.0
  0
VERTEX
  5
1047
  8
DATA
  6
CONTINUOUS
 62
     7
 10
432.85824890492933
 20
966.05628748967877
 30
0.0
  0
VERTEX
  5
1048
  8
DATA
  6
CONTINUOUS
 62
     7
 10
432.85063993222332
 20
966.06583598960344
 30
0.0
  0
VERTEX
  5
1049
  8
DATA
  6
CONTINUOUS
 62
     7
 10
432.8431027926801
 20
966.07545632293034
 30
0.0
  0
VERTEX
  5
104A
  8
DATA
  6
CONTINUOUS
 62
     7
 10
432.83563748629939
 20
966.08514848965933
 30
0.0
  0
VERTEX
  5
104B
  8
DATA
  6
CONTINUOUS
 62
     7
 10
432.8282440130813
 20
966.0949124897902
 30
0.0
  0
VERTEX
  5
104C
  8
DATA
  6
CONTINUOUS
 62
     7
 10
432.82092237302572
 20
966.10474832332307
 30
0.0
  0
VERTEX
  5
104D
  8
DATA
  6
CONTINUOUS
 62
     7
 10
432.81367256613288
 20
966.11465599025792
 30
0.0
  0
VERTEX
  5
104E
  8
DATA
  6
CONTINUOUS
 62
     7
 10
432.80649459240271
 20
966.1246354905951
 30
0.0
  0
VERTEX
  5
104F
  8
DATA
  6
CONTINUOUS
 62
     7
 10
432.79938845183511
 20
966.13468682433415
 30
0.0
  0
VERTEX
  5
1050
  8
DATA
  6
CONTINUOUS
 62
     7
 10
432.79235414443002
 20
966.1448099914752
 30
0.0
  0
VERTEX
  5
1051
  8
DATA
  6
CONTINUOUS
 62
     7
 10
432.78539167018761
 20
966.15500499201846
 30
0.0
  0
VERTEX
  5
1052
  8
DATA
  6
CONTINUOUS
 62
     7
 10
432.77850102910782
 20
966.16527182596349
 30
0.0
  0
VERTEX
  5
1053
  8
DATA
  6
CONTINUOUS
 62
     7
 10
432.77168222119059
 20
966.17561049331096
 30
0.0
  0
VERTEX
  5
1054
  8
DATA
  6
CONTINUOUS
 62
     7
 10
432.76493524643593
 20
966.18602099406064
 30
0.0
  0
VERTEX
  5
1055
  8
DATA
  6
CONTINUOUS
 62
     7
 10
432.758260104844
 20
966.19650332821152
 30
0.0
  0
VERTEX
  5
1056
  8
DATA
  6
CONTINUOUS
 62
     7
 10
432.75165679641458
 20
966.20705749576507
 30
0.0
  0
VERTEX
  5
1057
  8
DATA
  6
CONTINUOUS
 62
     7
 10
432.74512532114801
 20
966.21768349672072
 30
0.0
  0
VERTEX
  5
1058
  8
DATA
  6
CONTINUOUS
 62
     7
 10
432.73866567904361
 20
966.22838133107837
 30
0.0
  0
VERTEX
  5
1059
  8
DATA
  6
CONTINUOUS
 62
     7
 10
432.73227787010228
 20
966.23915099883811
 30
0.0
  0
VERTEX
  5
105A
  8
DATA
  6
CONTINUOUS
 62
     7
 10
432.72596189432329
 20
966.24999249999962
 30
0.0
  0
VERTEX
  5
105B
  8
DATA
  6
CONTINUOUS
 62
     7
 10
432.71973089808807
 20
966.26088306428755
 30
0.0
  0
VERTEX
  5
105C
  8
DATA
  6
CONTINUOUS
 62
     7
 10
432.713598027778
 20
966.27179992142533
 30
0.0
  0
VERTEX
  5
105D
  8
DATA
  6
CONTINUOUS
 62
     7
 10
432.70756328339291
 20
966.28274307141294
 30
0.0
  0
VERTEX
  5
105E
  8
DATA
  6
CONTINUOUS
 62
     7
 10
432.70162666493258
 20
966.2937125142505
 30
0.0
  0
VERTEX
  5
105F
  8
DATA
  6
CONTINUOUS
 62
     7
 10
432.69578817239722
 20
966.30470824993824
 30
0.0
  0
VERTEX
  5
1060
  8
DATA
  6
CONTINUOUS
 62
     7
 10
432.69004780578712
 20
966.31573027847594
 30
0.0
  0
VERTEX
  5
1061
  8
DATA
  6
CONTINUOUS
 62
     7
 10
432.68440556510171
 20
966.32677859986359
 30
0.0
  0
VERTEX
  5
1062
  8
DATA
  6
CONTINUOUS
 62
     7
 10
432.67886145034129
 20
966.33785321410153
 30
0.0
  0
VERTEX
  5
1063
  8
DATA
  6
CONTINUOUS
 62
     7
 10
432.6734154615059
 20
966.34895412118908
 30
0.0
  0
VERTEX
  5
1064
  8
DATA
  6
CONTINUOUS
 62
     7
 10
432.66806759859531
 20
966.3600813211267
 30
0.0
  0
VERTEX
  5
1065
  8
DATA
  6
CONTINUOUS
 62
     7
 10
432.66281786160988
 20
966.37123481391438
 30
0.0
  0
VERTEX
  5
1066
  8
DATA
  6
CONTINUOUS
 62
     7
 10
432.65766625054948
 20
966.38241459955191
 30
0.0
  0
VERTEX
  5
1067
  8
DATA
  6
CONTINUOUS
 62
     7
 10
432.65261276541372
 20
966.3936206780395
 30
0.0
  0
VERTEX
  5
1068
  8
DATA
  6
CONTINUOUS
 62
     7
 10
432.64765740620322
 20
966.40485304937715
 30
0.0
  0
VERTEX
  5
1069
  8
DATA
  6
CONTINUOUS
 62
     7
 10
432.64280017291759
 20
966.41611171356465
 30
0.0
  0
VERTEX
  5
106A
  8
DATA
  6
CONTINUOUS
 62
     7
 10
432.63804106555682
 20
966.42739667060255
 30
0.0
  0
VERTEX
  5
106B
  8
DATA
  6
CONTINUOUS
 62
     7
 10
432.63338008412109
 20
966.43870792048983
 30
0.0
  0
VERTEX
  5
106C
  8
DATA
  6
CONTINUOUS
 62
     7
 10
432.62881722861039
 20
966.45004546322753
 30
0.0
  0
VERTEX
  5
106D
  8
DATA
  6
CONTINUOUS
 62
     7
 10
432.62435249902461
 20
966.46140929881517
 30
0.0
  0
VERTEX
  5
106E
  8
DATA
  6
CONTINUOUS
 62
     7
 10
432.61998589536381
 20
966.47279942725277
 30
0.0
  0
VERTEX
  5
106F
  8
DATA
  6
CONTINUOUS
 62
     7
 10
432.61571741762788
 20
966.48421584854054
 30
0.0
  0
VERTEX
  5
1070
  8
DATA
  6
CONTINUOUS
 62
     7
 10
432.61154706581692
 20
966.49565856267805
 30
0.0
  0
VERTEX
  5
1071
  8
DATA
  6
CONTINUOUS
 62
     7
 10
432.60747483993111
 20
966.50712756966573
 30
0.0
  0
VERTEX
  5
1072
  8
DATA
  6
CONTINUOUS
 62
     7
 10
432.60350073997012
 20
966.51862286950313
 30
0.0
  0
VERTEX
  5
1073
  8
DATA
  6
CONTINUOUS
 62
     7
 10
432.59962476593398
 20
966.53014446219061
 30
0.0
  0
VERTEX
  5
1074
  8
DATA
  6
CONTINUOUS
 62
     7
 10
432.595846917823
 20
966.54169234772803
 30
0.0
  0
VERTEX
  5
1075
  8
DATA
  6
CONTINUOUS
 62
     7
 10
432.59216719563682
 20
966.55326652611575
 30
0.0
  0
VERTEX
  5
1076
  8
DATA
  6
CONTINUOUS
 62
     7
 10
432.58858559937568
 20
966.56486699735353
 30
0.0
  0
VERTEX
  5
1077
  8
DATA
  6
CONTINUOUS
 62
     7
 10
432.58510212903963
 20
966.57649376144059
 30
0.0
  0
VERTEX
  5
1078
  8
DATA
  6
CONTINUOUS
 62
     7
 10
432.58171678462838
 20
966.5881468183785
 30
0.0
  0
VERTEX
  5
1079
  8
DATA
  6
CONTINUOUS
 62
     7
 10
432.57842956614201
 20
966.59982616816615
 30
0.0
  0
VERTEX
  5
107A
  8
DATA
  6
CONTINUOUS
 62
     7
 10
432.57524047358078
 20
966.61153181080329
 30
0.0
  0
VERTEX
  5
107B
  8
DATA
  6
CONTINUOUS
 62
     7
 10
432.57214950694453
 20
966.62326374629095
 30
0.0
  0
VERTEX
  5
107C
  8
DATA
  6
CONTINUOUS
 62
     7
 10
432.5691566662332
 20
966.63502197462844
 30
0.0
  0
VERTEX
  5
107D
  8
DATA
  6
CONTINUOUS
 62
     7
 10
432.56626195144679
 20
966.64680649581589
 30
0.0
  0
VERTEX
  5
107E
  8
DATA
  6
CONTINUOUS
 62
     7
 10
432.5634653625853
 20
966.65861730985353
 30
0.0
  0
VERTEX
  5
107F
  8
DATA
  6
CONTINUOUS
 62
     7
 10
432.56076689964891
 20
966.67045441674065
 30
0.0
  0
VERTEX
  5
1080
  8
DATA
  6
CONTINUOUS
 62
     7
 10
432.55816656263721
 20
966.68231781647853
 30
0.0
  0
VERTEX
  5
1081
  8
DATA
  6
CONTINUOUS
 62
     7
 10
432.55566435155077
 20
966.69420750906568
 30
0.0
  0
VERTEX
  5
1082
  8
DATA
  6
CONTINUOUS
 62
     7
 10
432.55326026638909
 20
966.706123494503
 30
0.0
  0
VERTEX
  5
1083
  8
DATA
  6
CONTINUOUS
 62
     7
 10
432.55095430715249
 20
966.71806577279062
 30
0.0
  0
VERTEX
  5
1084
  8
DATA
  6
CONTINUOUS
 62
     7
 10
432.54874647384088
 20
966.73003434392808
 30
0.0
  0
VERTEX
  5
1085
  8
DATA
  6
CONTINUOUS
 62
     7
 10
432.54663676645418
 20
966.74202920791549
 30
0.0
  0
VERTEX
  5
1086
  8
DATA
  6
CONTINUOUS
 62
     7
 10
432.54462518499253
 20
966.75405036475274
 30
0.0
  0
VERTEX
  5
1087
  8
DATA
  6
CONTINUOUS
 62
     7
 10
432.54271172945568
 20
966.76609781444017
 30
0.0
  0
VERTEX
  5
1088
  8
DATA
  6
CONTINUOUS
 62
     7
 10
432.54089639984392
 20
966.77817155697767
 30
0.0
  0
VERTEX
  5
1089
  8
DATA
  6
CONTINUOUS
 62
     7
 10
432.53917919615702
 20
966.790271592365
 30
0.0
  0
VERTEX
  5
108A
  8
DATA
  6
CONTINUOUS
 62
     7
 10
432.53756011839511
 20
966.8023979206024
 30
0.0
  0
VERTEX
  5
108B
  8
DATA
  6
CONTINUOUS
 62
     7
 10
432.53603916655823
 20
966.81455054168975
 30
0.0
  0
VERTEX
  5
108C
  8
DATA
  6
CONTINUOUS
 62
     7
 10
432.53461634064638
 20
966.8267294556274
 30
0.0
  0
VERTEX
  5
108D
  8
DATA
  6
CONTINUOUS
 62
     7
 10
432.53329164065929
 20
966.83893466241454
 30
0.0
  0
VERTEX
  5
108E
  8
DATA
  6
CONTINUOUS
 62
     7
 10
432.53206506659723
 20
966.85116616205221
 30
0.0
  0
VERTEX
  5
108F
  8
DATA
  6
CONTINUOUS
 62
     7
 10
432.5309366184602
 20
966.86342395453914
 30
0.0
  0
VERTEX
  5
1090
  8
DATA
  6
CONTINUOUS
 62
     7
 10
432.5299062962481
 20
966.87570803987671
 30
0.0
  0
VERTEX
  5
1091
  8
DATA
  6
CONTINUOUS
 62
     7
 10
432.52897409996081
 20
966.88801841806401
 30
0.0
  0
VERTEX
  5
1092
  8
DATA
  6
CONTINUOUS
 62
     7
 10
432.52814002959877
 20
966.90035508910114
 30
0.0
  0
VERTEX
  5
1093
  8
DATA
  6
CONTINUOUS
 62
     7
 10
432.52740408516161
 20
966.91271805298868
 30
0.0
  0
VERTEX
  5
1094
  8
DATA
  6
CONTINUOUS
 62
     7
 10
432.52676626664942
 20
966.92510730972595
 30
0.0
  0
VERTEX
  5
1095
  8
DATA
  6
CONTINUOUS
 62
     7
 10
432.52622657406198
 20
966.93752285931316
 30
0.0
  0
VERTEX
  5
1096
  8
DATA
  6
CONTINUOUS
 62
     7
 10
432.52578500739958
 20
966.94996470175022
 30
0.0
  0
VERTEX
  5
1097
  8
DATA
  6
CONTINUOUS
 62
     7
 10
432.52544156666232
 20
966.96243283703825
 30
0.0
  0
VERTEX
  5
1098
  8
DATA
  6
CONTINUOUS
 62
     7
 10
432.52519625184999
 20
966.97492726517532
 30
0.0
  0
VERTEX
  5
1099
  8
DATA
  6
CONTINUOUS
 62
     7
 10
432.52504906296241
 20
966.98744798616235
 30
0.0
  0
VERTEX
  5
109A
  8
DATA
  6
CONTINUOUS
 62
     7
 10
432.52499999999992
 20
966.9999949999999
 30
0.0
  0
VERTEX
  5
109B
  8
DATA
  6
CONTINUOUS
 62
     7
 10
432.52504906296241
 20
967.01254201383699
 30
0.0
  0
VERTEX
  5
109C
  8
DATA
  6
CONTINUOUS
 62
     7
 10
432.52519625184999
 20
967.02506273482425
 30
0.0
  0
VERTEX
  5
109D
  8
DATA
  6
CONTINUOUS
 62
     7
 10
432.52544156666232
 20
967.03755716296155
 30
0.0
  0
VERTEX
  5
109E
  8
DATA
  6
CONTINUOUS
 62
     7
 10
432.52578500739958
 20
967.05002529824878
 30
0.0
  0
VERTEX
  5
109F
  8
DATA
  6
CONTINUOUS
 62
     7
 10
432.52622657406198
 20
967.06246714068618
 30
0.0
  0
VERTEX
  5
10A0
  8
DATA
  6
CONTINUOUS
 62
     7
 10
432.52676626664942
 20
967.07488269027363
 30
0.0
  0
VERTEX
  5
10A1
  8
DATA
  6
CONTINUOUS
 62
     7
 10
432.52740408516161
 20
967.08727194701066
 30
0.0
  0
VERTEX
  5
10A2
  8
DATA
  6
CONTINUOUS
 62
     7
 10
432.52814002959877
 20
967.09963491089843
 30
0.0
  0
VERTEX
  5
10A3
  8
DATA
  6
CONTINUOUS
 62
     7
 10
432.52897409996081
 20
967.11197158193545
 30
0.0
  0
VERTEX
  5
10A4
  8
DATA
  6
CONTINUOUS
 62
     7
 10
432.5299062962481
 20
967.12428196012286
 30
0.0
  0
VERTEX
  5
10A5
  8
DATA
  6
CONTINUOUS
 62
     7
 10
432.5309366184602
 20
967.1365660454602
 30
0.0
  0
VERTEX
  5
10A6
  8
DATA
  6
CONTINUOUS
 62
     7
 10
432.53206506659723
 20
967.14882383794759
 30
0.0
  0
VERTEX
  5
10A7
  8
DATA
  6
CONTINUOUS
 62
     7
 10
432.53329164065929
 20
967.16105533758468
 30
0.0
  0
VERTEX
  5
10A8
  8
DATA
  6
CONTINUOUS
 62
     7
 10
432.53461634064638
 20
967.17326054437206
 30
0.0
  0
VERTEX
  5
10A9
  8
DATA
  6
CONTINUOUS
 62
     7
 10
432.53603916655823
 20
967.18543945830982
 30
0.0
  0
VERTEX
  5
10AA
  8
DATA
  6
CONTINUOUS
 62
     7
 10
432.53756011839511
 20
967.19759207939683
 30
0.0
  0
VERTEX
  5
10AB
  8
DATA
  6
CONTINUOUS
 62
     7
 10
432.53917919615702
 20
967.20971840763445
 30
0.0
  0
VERTEX
  5
10AC
  8
DATA
  6
CONTINUOUS
 62
     7
 10
432.54089639984392
 20
967.22181844302168
 30
0.0
  0
VERTEX
  5
10AD
  8
DATA
  6
CONTINUOUS
 62
     7
 10
432.54271172945568
 20
967.23389218555917
 30
0.0
  0
VERTEX
  5
10AE
  8
DATA
  6
CONTINUOUS
 62
     7
 10
432.54462518499253
 20
967.24593963524649
 30
0.0
  0
VERTEX
  5
10AF
  8
DATA
  6
CONTINUOUS
 62
     7
 10
432.54663676645418
 20
967.25796079208408
 30
0.0
  0
VERTEX
  5
10B0
  8
DATA
  6
CONTINUOUS
 62
     7
 10
432.54874647384088
 20
967.26995565607149
 30
0.0
  0
VERTEX
  5
10B1
  8
DATA
  6
CONTINUOUS
 62
     7
 10
432.55095430715249
 20
967.28192422720872
 30
0.0
  0
VERTEX
  5
10B2
  8
DATA
  6
CONTINUOUS
 62
     7
 10
432.55326026638909
 20
967.29386650549645
 30
0.0
  0
VERTEX
  5
10B3
  8
DATA
  6
CONTINUOUS
 62
     7
 10
432.55566435155077
 20
967.30578249093367
 30
0.0
  0
VERTEX
  5
10B4
  8
DATA
  6
CONTINUOUS
 62
     7
 10
432.55816656263721
 20
967.31767218352127
 30
0.0
  0
VERTEX
  5
10B5
  8
DATA
  6
CONTINUOUS
 62
     7
 10
432.56076689964891
 20
967.32953558325869
 30
0.0
  0
VERTEX
  5
10B6
  8
DATA
  6
CONTINUOUS
 62
     7
 10
432.5634653625853
 20
967.34137269014582
 30
0.0
  0
VERTEX
  5
10B7
  8
DATA
  6
CONTINUOUS
 62
     7
 10
432.56626195144679
 20
967.35318350418368
 30
0.0
  0
VERTEX
  5
10B8
  8
DATA
  6
CONTINUOUS
 62
     7
 10
432.5691566662332
 20
967.36496802537124
 30
0.0
  0
VERTEX
  5
10B9
  8
DATA
  6
CONTINUOUS
 62
     7
 10
432.57214950694453
 20
967.37672625370863
 30
0.0
  0
VERTEX
  5
10BA
  8
DATA
  6
CONTINUOUS
 62
     7
 10
432.57524047358078
 20
967.38845818919606
 30
0.0
  0
VERTEX
  5
10BB
  8
DATA
  6
CONTINUOUS
 62
     7
 10
432.57842956614201
 20
967.40016383183365
 30
0.0
  0
VERTEX
  5
10BC
  8
DATA
  6
CONTINUOUS
 62
     7
 10
432.58171678462838
 20
967.41184318162095
 30
0.0
  0
VERTEX
  5
10BD
  8
DATA
  6
CONTINUOUS
 62
     7
 10
432.58510212903963
 20
967.42349623855841
 30
0.0
  0
VERTEX
  5
10BE
  8
DATA
  6
CONTINUOUS
 62
     7
 10
432.58858559937568
 20
967.43512300264615
 30
0.0
  0
VERTEX
  5
10BF
  8
DATA
  6
CONTINUOUS
 62
     7
 10
432.59216719563682
 20
967.44672347388337
 30
0.0
  0
VERTEX
  5
10C0
  8
DATA
  6
CONTINUOUS
 62
     7
 10
432.595846917823
 20
967.4582976522712
 30
0.0
  0
VERTEX
  5
10C1
  8
DATA
  6
CONTINUOUS
 62
     7
 10
432.59962476593398
 20
967.46984553780885
 30
0.0
  0
VERTEX
  5
10C2
  8
DATA
  6
CONTINUOUS
 62
     7
 10
432.60350073997012
 20
967.48136713049632
 30
0.0
  0
VERTEX
  5
10C3
  8
DATA
  6
CONTINUOUS
 62
     7
 10
432.60747483993111
 20
967.49286243033373
 30
0.0
  0
VERTEX
  5
10C4
  8
DATA
  6
CONTINUOUS
 62
     7
 10
432.61154706581692
 20
967.50433143732153
 30
0.0
  0
VERTEX
  5
10C5
  8
DATA
  6
CONTINUOUS
 62
     7
 10
432.61571741762788
 20
967.51577415145903
 30
0.0
  0
VERTEX
  5
10C6
  8
DATA
  6
CONTINUOUS
 62
     7
 10
432.61998589536381
 20
967.52719057274635
 30
0.0
  0
VERTEX
  5
10C7
  8
DATA
  6
CONTINUOUS
 62
     7
 10
432.62435249902461
 20
967.53858070118395
 30
0.0
  0
VERTEX
  5
10C8
  8
DATA
  6
CONTINUOUS
 62
     7
 10
432.62881722861039
 20
967.54994453677182
 30
0.0
  0
VERTEX
  5
10C9
  8
DATA
  6
CONTINUOUS
 62
     7
 10
432.63338008412109
 20
967.56128207950928
 30
0.0
  0
VERTEX
  5
10CA
  8
DATA
  6
CONTINUOUS
 62
     7
 10
432.63804106555682
 20
967.57259332939702
 30
0.0
  0
VERTEX
  5
10CB
  8
DATA
  6
CONTINUOUS
 62
     7
 10
432.64280017291759
 20
967.58387828643436
 30
0.0
  0
VERTEX
  5
10CC
  8
DATA
  6
CONTINUOUS
 62
     7
 10
432.64765740620322
 20
967.59513695062242
 30
0.0
  0
VERTEX
  5
10CD
  8
DATA
  6
CONTINUOUS
 62
     7
 10
432.65261276541372
 20
967.60636932195985
 30
0.0
  0
VERTEX
  5
10CE
  8
DATA
  6
CONTINUOUS
 62
     7
 10
432.65766625054948
 20
967.61757540044766
 30
0.0
  0
VERTEX
  5
10CF
  8
DATA
  6
CONTINUOUS
 62
     7
 10
432.66281786160988
 20
967.62875518608519
 30
0.0
  0
VERTEX
  5
10D0
  8
DATA
  6
CONTINUOUS
 62
     7
 10
432.66806759859531
 20
967.63990867887264
 30
0.0
  0
VERTEX
  5
10D1
  8
DATA
  6
CONTINUOUS
 62
     7
 10
432.6734154615059
 20
967.65103587881026
 30
0.0
  0
VERTEX
  5
10D2
  8
DATA
  6
CONTINUOUS
 62
     7
 10
432.67886145034129
 20
967.6621367858977
 30
0.0
  0
VERTEX
  5
10D3
  8
DATA
  6
CONTINUOUS
 62
     7
 10
432.68440556510171
 20
967.67321140013576
 30
0.0
  0
VERTEX
  5
10D4
  8
DATA
  6
CONTINUOUS
 62
     7
 10
432.69004780578712
 20
967.6842597215234
 30
0.0
  0
VERTEX
  5
10D5
  8
DATA
  6
CONTINUOUS
 62
     7
 10
432.69578817239722
 20
967.69528175006121
 30
0.0
  0
VERTEX
  5
10D6
  8
DATA
  6
CONTINUOUS
 62
     7
 10
432.70162666493258
 20
967.70627748574873
 30
0.0
  0
VERTEX
  5
10D7
  8
DATA
  6
CONTINUOUS
 62
     7
 10
432.70756328339291
 20
967.71724692858641
 30
0.0
  0
VERTEX
  5
10D8
  8
DATA
  6
CONTINUOUS
 62
     7
 10
432.713598027778
 20
967.72819007857424
 30
0.0
  0
VERTEX
  5
10D9
  8
DATA
  6
CONTINUOUS
 62
     7
 10
432.71973089808807
 20
967.73910693571213
 30
0.0
  0
VERTEX
  5
10DA
  8
DATA
  6
CONTINUOUS
 62
     7
 10
432.72596189432329
 20
967.74999749999984
 30
0.0
  0
VERTEX
  5
10DB
  8
DATA
  6
CONTINUOUS
 62
     7
 10
432.73227787010228
 20
967.76083900116146
 30
0.0
  0
VERTEX
  5
10DC
  8
DATA
  6
CONTINUOUS
 62
     7
 10
432.73866567904361
 20
967.77160866892098
 30
0.0
  0
VERTEX
  5
10DD
  8
DATA
  6
CONTINUOUS
 62
     7
 10
432.74512532114801
 20
967.78230650327885
 30
0.0
  0
VERTEX
  5
10DE
  8
DATA
  6
CONTINUOUS
 62
     7
 10
432.75165679641458
 20
967.79293250423382
 30
0.0
  0
VERTEX
  5
10DF
  8
DATA
  6
CONTINUOUS
 62
     7
 10
432.758260104844
 20
967.8034866717876
 30
0.0
  0
VERTEX
  5
10E0
  8
DATA
  6
CONTINUOUS
 62
     7
 10
432.76493524643593
 20
967.81396900593916
 30
0.0
  0
VERTEX
  5
10E1
  8
DATA
  6
CONTINUOUS
 62
     7
 10
432.77168222119059
 20
967.82437950668827
 30
0.0
  0
VERTEX
  5
10E2
  8
DATA
  6
CONTINUOUS
 62
     7
 10
432.77850102910782
 20
967.8347181740354
 30
0.0
  0
VERTEX
  5
10E3
  8
DATA
  6
CONTINUOUS
 62
     7
 10
432.78539167018761
 20
967.84498500798088
 30
0.0
  0
VERTEX
  5
10E4
  8
DATA
  6
CONTINUOUS
 62
     7
 10
432.79235414443002
 20
967.85518000852414
 30
0.0
  0
VERTEX
  5
10E5
  8
DATA
  6
CONTINUOUS
 62
     7
 10
432.79938845183511
 20
967.86530317566542
 30
0.0
  0
VERTEX
  5
10E6
  8
DATA
  6
CONTINUOUS
 62
     7
 10
432.80649459240271
 20
967.87535450940436
 30
0.0
  0
VERTEX
  5
10E7
  8
DATA
  6
CONTINUOUS
 62
     7
 10
432.81367256613288
 20
967.88533400974154
 30
0.0
  0
VERTEX
  5
10E8
  8
DATA
  6
CONTINUOUS
 62
     7
 10
432.82092237302572
 20
967.89524167667651
 30
0.0
  0
VERTEX
  5
10E9
  8
DATA
  6
CONTINUOUS
 62
     7
 10
432.8282440130813
 20
967.90507751020925
 30
0.0
  0
VERTEX
  5
10EA
  8
DATA
  6
CONTINUOUS
 62
     7
 10
432.83563748629939
 20
967.91484151034012
 30
0.0
  0
VERTEX
  5
10EB
  8
DATA
  6
CONTINUOUS
 62
     7
 10
432.8431027926801
 20
967.92453367706889
 30
0.0
  0
VERTEX
  5
10EC
  8
DATA
  6
CONTINUOUS
 62
     7
 10
432.85063993222332
 20
967.93415401039567
 30
0.0
  0
VERTEX
  5
10ED
  8
DATA
  6
CONTINUOUS
 62
     7
 10
432.85824890492933
 20
967.94370251032035
 30
0.0
  0
VERTEX
  5
10EE
  8
DATA
  6
CONTINUOUS
 62
     7
 10
432.8659297107979
 20
967.95317917684315
 30
0.0
  0
VERTEX
  5
10EF
  8
DATA
  6
CONTINUOUS
 62
     7
 10
432.87368234982893
 20
967.96258400996351
 30
0.0
  0
VERTEX
  5
10F0
  8
DATA
  6
CONTINUOUS
 62
     7
 10
432.88150682202291
 20
967.97191700968244
 30
0.0
  0
VERTEX
  5
10F1
  8
DATA
  6
CONTINUOUS
 62
     7
 10
432.88940312737913
 20
967.98117817599871
 30
0.0
  0
VERTEX
  5
10F2
  8
DATA
  6
CONTINUOUS
 62
     7
 10
432.89737126589819
 20
967.99036750891344
 30
0.0
  0
VERTEX
  5
10F3
  8
DATA
  6
CONTINUOUS
 62
     7
 10
432.90541123757959
 20
967.99948500842561
 30
0.0
  0
VERTEX
  5
10F4
  8
DATA
  6
CONTINUOUS
 62
     7
 10
432.913523042424
 20
968.00853067453579
 30
0.0
  0
VERTEX
  5
10F5
  8
DATA
  6
CONTINUOUS
 62
     7
 10
432.92170668043082
 20
968.0175045072441
 30
0.0
  0
VERTEX
  5
10F6
  8
DATA
  6
CONTINUOUS
 62
     7
 10
432.92996215160031
 20
968.02640650655019
 30
0.0
  0
VERTEX
  5
10F7
  8
DATA
  6
CONTINUOUS
 62
     7
 10
432.93828945593231
 20
968.03523667245452
 30
0.0
  0
VERTEX
  5
10F8
  8
DATA
  6
CONTINUOUS
 62
     7
 10
432.94668859342698
 20
968.0439950049564
 30
0.0
  0
VERTEX
  5
10F9
  8
DATA
  6
CONTINUOUS
 62
     7
 10
432.95515956408423
 20
968.0526815040563
 30
0.0
  0
VERTEX
  5
10FA
  8
DATA
  6
CONTINUOUS
 62
     7
 10
432.96370236790409
 20
968.0612961697542
 30
0.0
  0
VERTEX
  5
10FB
  8
DATA
  6
CONTINUOUS
 62
     7
 10
432.97231700488658
 20
968.06983900205034
 30
0.0
  0
VERTEX
  5
10FC
  8
DATA
  6
CONTINUOUS
 62
     7
 10
432.9810034750318
 20
968.07831000094404
 30
0.0
  0
VERTEX
  5
10FD
  8
DATA
  6
CONTINUOUS
 62
     7
 10
432.98976177833941
 20
968.08670916643575
 30
0.0
  0
VERTEX
  5
10FE
  8
DATA
  6
CONTINUOUS
 62
     7
 10
432.99859191480959
 20
968.0950364985257
 30
0.0
  0
VERTEX
  5
10FF
  8
DATA
  6
CONTINUOUS
 62
     7
 10
433.00749388444291
 20
968.10329199721298
 30
0.0
  0
VERTEX
  5
1100
  8
DATA
  6
CONTINUOUS
 62
     7
 10
433.01646768723828
 20
968.11147566249895
 30
0.0
  0
VERTEX
  5
1101
  8
DATA
  6
CONTINUOUS
 62
     7
 10
433.02551332319661
 20
968.11958749438224
 30
0.0
  0
VERTEX
  5
1102
  8
DATA
  6
CONTINUOUS
 62
     7
 10
433.03463079231722
 20
968.12762749286424
 30
0.0
  0
VERTEX
  5
1103
  8
DATA
  6
CONTINUOUS
 62
     7
 10
433.04382009460068
 20
968.13559565794344
 30
0.0
  0
VERTEX
  5
1104
  8
DATA
  6
CONTINUOUS
 62
     7
 10
433.05308123004693
 20
968.14349198962077
 30
0.0
  0
VERTEX
  5
1105
  8
DATA
  6
CONTINUOUS
 62
     7
 10
433.0624141986554
 20
968.151316487896
 30
0.0
  0
VERTEX
  5
1106
  8
DATA
  6
CONTINUOUS
 62
     7
 10
433.07181900042661
 20
968.15906915276946
 30
0.0
  0
VERTEX
  5
1107
  8
DATA
  6
CONTINUOUS
 62
     7
 10
433.0812956353605
 20
968.1667499842406
 30
0.0
  0
VERTEX
  5
1108
  8
DATA
  6
CONTINUOUS
 62
     7
 10
433.0908441034569
 20
968.17435898231008
 30
0.0
  0
VERTEX
  5
1109
  8
DATA
  6
CONTINUOUS
 62
     7
 10
433.10046440471598
 20
968.1818961469769
 30
0.0
  0
VERTEX
  5
110A
  8
DATA
  6
CONTINUOUS
 62
     7
 10
433.11015653913762
 20
968.18936147824195
 30
0.0
  0
VERTEX
  5
110B
  8
DATA
  6
CONTINUOUS
 62
     7
 10
433.119920506722
 20
968.19675497610524
 30
0.0
  0
VERTEX
  5
110C
  8
DATA
  6
CONTINUOUS
 62
     7
 10
433.12975630746888
 20
968.20407664056609
 30
0.0
  0
VERTEX
  5
110D
  8
DATA
  6
CONTINUOUS
 62
     7
 10
433.13966394137827
 20
968.21132647162483
 30
0.0
  0
VERTEX
  5
110E
  8
DATA
  6
CONTINUOUS
 62
     7
 10
433.14964340845052
 20
968.21850446928181
 30
0.0
  0
VERTEX
  5
110F
  8
DATA
  6
CONTINUOUS
 62
     7
 10
433.15969470868532
 20
968.22561063353635
 30
0.0
  0
VERTEX
  5
1110
  8
DATA
  6
CONTINUOUS
 62
     7
 10
433.16981784208281
 20
968.23264496438935
 30
0.0
  0
VERTEX
  5
1111
  8
DATA
  6
CONTINUOUS
 62
     7
 10
433.18001280864257
 20
968.23960746184014
 30
0.0
  0
VERTEX
  5
1112
  8
DATA
  6
CONTINUOUS
 62
     7
 10
433.19027960836519
 20
968.24649812588848
 30
0.0
  0
VERTEX
  5
1113
  8
DATA
  6
CONTINUOUS
 62
     7
 10
433.20061824125048
 20
968.25331695653506
 30
0.0
  0
VERTEX
  5
1114
  8
DATA
  6
CONTINUOUS
 62
     7
 10
433.21102870729828
 20
968.26006395377942
 30
0.0
  0
VERTEX
  5
1115
  8
DATA
  6
CONTINUOUS
 62
     7
 10
433.22151100650871
 20
968.26673911762202
 30
0.0
  0
VERTEX
  5
1116
  8
DATA
  6
CONTINUOUS
 62
     7
 10
433.23206513888158
 20
968.27334244806229
 30
0.0
  0
VERTEX
  5
1117
  8
DATA
  6
CONTINUOUS
 62
     7
 10
433.24269110441742
 20
968.27987394510069
 30
0.0
  0
VERTEX
  5
1118
  8
DATA
  6
CONTINUOUS
 62
     7
 10
433.25338890311559
 20
968.28633360873721
 30
0.0
  0
VERTEX
  5
1119
  8
DATA
  6
CONTINUOUS
 62
     7
 10
433.2641585349765
 20
968.29272143897117
 30
0.0
  0
VERTEX
  5
111A
  8
DATA
  6
CONTINUOUS
 62
     7
 10
433.27499999999992
 20
968.29903743580337
 30
0.0
  0
VERTEX
  5
111B
  8
DATA
  6
CONTINUOUS
 62
     7
 10
433.27499999999992
 20
968.29903743580337
 30
0.0
  0
SEQEND
  5
111C
  8
DATA
  6
CONTINUOUS
 62
     7
  0
POLYLINE
  5
850
  8
DATA
  6
CONTINUOUS
 62
     7
 66
     1
 10
0.0
 20
0.0
 30
0.0
 70
   129
  0
VERTEX
  5
111D
  8
DATA
  6
CONTINUOUS
 62
     7
 10
422.42500000000001
 20
965.57998999999984
 30
0.0
 42
-0.4142135623730951
  0
VERTEX
  5
111E
  8
DATA
  6
CONTINUOUS
 62
     7
 10
422.92500000000001
 20
966.07998999999973
 30
0.0
 42
-0.4142135623730951
  0
VERTEX
  5
111F
  8
DATA
  6
CONTINUOUS
 62
     7
 10
423.42500000000001
 20
965.57998999999984
 30
0.0
 42
-0.4142135623730951
  0
VERTEX
  5
1120
  8
DATA
  6
CONTINUOUS
 62
     7
 10
422.92500000000001
 20
965.07998999999973
 30
0.0
 42
-0.4142135623730951
  0
VERTEX
  5
1121
  8
DATA
  6
CONTINUOUS
 62
     7
 10
422.42500000000001
 20
965.57998999999984
 30
0.0
  0
SEQEND
  5
1122
  8
DATA
  6
CONTINUOUS
 62
     7
  0
POLYLINE
  5
857
  8
DATA
  6
CONTINUOUS
 62
     7
 66
     1
 10
0.0
 20
0.0
 30
0.0
 70
   129
  0
VERTEX
  5
1123
  8
DATA
  6
CONTINUOUS
 62
     7
 10
411.40501
 20
965.57998999999984
 30
0.0
 42
-0.4142135623730951
  0
VERTEX
  5
1124
  8
DATA
  6
CONTINUOUS
 62
     7
 10
411.90500999999989
 20
966.07998999999973
 30
0.0
 42
-0.4142135623730951
  0
VERTEX
  5
1125
  8
DATA
  6
CONTINUOUS
 62
     7
 10
412.40500999999989
 20
965.57998999999984
 30
0.0
 42
-0.4142135623730951
  0
VERTEX
  5
1126
  8
DATA
  6
CONTINUOUS
 62
     7
 10
411.90500999999989
 20
965.07998999999973
 30
0.0
 42
-0.4142135623730951
  0
VERTEX
  5
1127
  8
DATA
  6
CONTINUOUS
 62
     7
 10
411.40501
 20
965.57998999999984
 30
0.0
  0
SEQEND
  5
1128
  8
DATA
  6
CONTINUOUS
 62
     7
  0
POLYLINE
  5
85E
  8
DATA
  6
CONTINUOUS
 62
     7
 66
     1
 10
0.0
 20
0.0
 30
0.0
 70
   129
  0
VERTEX
  5
1129
  8
DATA
  6
CONTINUOUS
 62
     7
 10
414.14499999999992
 20
965.57998999999984
 30
0.0
 42
-0.4142135623730951
  0
VERTEX
  5
112A
  8
DATA
  6
CONTINUOUS
 62
     7
 10
414.64499999999992
 20
966.07998999999973
 30
0.0
 42
-0.4142135623731117
  0
VERTEX
  5
112B
  8
DATA
  6
CONTINUOUS
 62
     7
 10
415.14499999999992
 20
965.57998999999984
 30
0.0
 42
-0.4142135623730951
  0
VERTEX
  5
112C
  8
DATA
  6
CONTINUOUS
 62
     7
 10
414.64499999999992
 20
965.07998999999973
 30
0.0
 42
-0.4142135623730784
  0
VERTEX
  5
112D
  8
DATA
  6
CONTINUOUS
 62
     7
 10
414.14499999999992
 20
965.57998999999984
 30
0.0
  0
SEQEND
  5
112E
  8
DATA
  6
CONTINUOUS
 62
     7
  0
POLYLINE
  5
865
  8
DATA
  6
CONTINUOUS
 62
     7
 66
     1
 10
0.0
 20
0.0
 30
0.0
 70
   129
  0
VERTEX
  5
112F
  8
DATA
  6
CONTINUOUS
 62
     7
 10
419.685
 20
965.57998999999984
 30
0.0
 42
-0.4142135623730951
  0
VERTEX
  5
1130
  8
DATA
  6
CONTINUOUS
 62
     7
 10
420.185
 20
966.07998999999973
 30
0.0
 42
-0.4142135623730951
  0
VERTEX
  5
1131
  8
DATA
  6
CONTINUOUS
 62
     7
 10
420.685
 20
965.57998999999984
 30
0.0
 42
-0.4142135623730951
  0
VERTEX
  5
1132
  8
DATA
  6
CONTINUOUS
 62
     7
 10
420.185
 20
965.07998999999973
 30
0.0
 42
-0.4142135623730951
  0
VERTEX
  5
1133
  8
DATA
  6
CONTINUOUS
 62
     7
 10
419.685
 20
965.57998999999984
 30
0.0
  0
SEQEND
  5
1134
  8
DATA
  6
CONTINUOUS
 62
     7
  0
POLYLINE
  5
86C
  8
DATA
  6
CONTINUOUS
 62
     7
 66
     1
 10
0.0
 20
0.0
 30
0.0
 70
   129
  0
VERTEX
  5
1135
  8
DATA
  6
CONTINUOUS
 62
     7
 10
416.91501
 20
965.57998999999984
 30
0.0
 42
-0.4142135623730951
  0
VERTEX
  5
1136
  8
DATA
  6
CONTINUOUS
 62
     7
 10
417.41501
 20
966.07998999999973
 30
0.0
 42
-0.4142135623731117
  0
VERTEX
  5
1137
  8
DATA
  6
CONTINUOUS
 62
     7
 10
417.91501
 20
965.57998999999984
 30
0.0
 42
-0.4142135623730951
  0
VERTEX
  5
1138
  8
DATA
  6
CONTINUOUS
 62
     7
 10
417.41501
 20
965.07998999999973
 30
0.0
 42
-0.4142135623730784
  0
VERTEX
  5
1139
  8
DATA
  6
CONTINUOUS
 62
     7
 10
416.91501
 20
965.57998999999984
 30
0.0
  0
SEQEND
  5
113A
  8
DATA
  6
CONTINUOUS
 62
     7
  0
POLYLINE
  5
873
  8
DATA
  6
CONTINUOUS
 62
     7
 66
     1
 10
0.0
 20
0.0
 30
0.0
 70
   129
  0
VERTEX
  5
113B
  8
DATA
  6
CONTINUOUS
 62
     7
 10
425.19501000000002
 20
965.57998999999984
 30
0.0
 42
-0.4142135623730951
  0
VERTEX
  5
113C
  8
DATA
  6
CONTINUOUS
 62
     7
 10
425.69501000000002
 20
966.07998999999973
 30
0.0
 42
-0.4142135623730951
  0
VERTEX
  5
113D
  8
DATA
  6
CONTINUOUS
 62
     7
 10
426.19500999999991
 20
965.57998999999984
 30
0.0
 42
-0.4142135623730951
  0
VERTEX
  5
113E
  8
DATA
  6
CONTINUOUS
 62
     7
 10
425.69501000000002
 20
965.07998999999973
 30
0.0
 42
-0.4142135623730951
  0
VERTEX
  5
113F
  8
DATA
  6
CONTINUOUS
 62
     7
 10
425.19501000000002
 20
965.57998999999984
 30
0.0
  0
SEQEND
  5
1140
  8
DATA
  6
CONTINUOUS
 62
     7
  0
POLYLINE
  5
87A
  8
DATA
  6
CONTINUOUS
 62
     7
 66
     1
 10
0.0
 20
0.0
 30
0.0
 70
   129
  0
VERTEX
  5
1141
  8
DATA
  6
CONTINUOUS
 62
     7
 10
412.77499999999992
 20
968.41998999999953
 30
0.0
 42
-0.4142135623730951
  0
VERTEX
  5
1142
  8
DATA
  6
CONTINUOUS
 62
     7
 10
413.27499999999992
 20
968.91998999999964
 30
0.0
 42
-0.4142135623730784
  0
VERTEX
  5
1143
  8
DATA
  6
CONTINUOUS
 62
     7
 10
413.77499999999992
 20
968.41998999999953
 30
0.0
 42
-0.4142135623730951
  0
VERTEX
  5
1144
  8
DATA
  6
CONTINUOUS
 62
     7
 10
413.27499999999992
 20
967.91998999999964
 30
0.0
 42
-0.4142135623731117
  0
VERTEX
  5
1145
  8
DATA
  6
CONTINUOUS
 62
     7
 10
412.77499999999992
 20
968.41998999999953
 30
0.0
  0
SEQEND
  5
1146
  8
DATA
  6
CONTINUOUS
 62
     7
  0
POLYLINE
  5
881
  8
DATA
  6
CONTINUOUS
 62
     7
 66
     1
 10
0.0
 20
0.0
 30
0.0
 70
   129
  0
VERTEX
  5
1147
  8
DATA
  6
CONTINUOUS
 62
     7
 10
415.54500000000002
 20
968.41998999999953
 30
0.0
 42
-0.4142135623730951
  0
VERTEX
  5
1148
  8
DATA
  6
CONTINUOUS
 62
     7
 10
416.0449999999999
 20
968.91998999999964
 30
0.0
 42
-0.4142135623730951
  0
VERTEX
  5
1149
  8
DATA
  6
CONTINUOUS
 62
     7
 10
416.5449999999999
 20
968.41998999999953
 30
0.0
 42
-0.4142135623730951
  0
VERTEX
  5
114A
  8
DATA
  6
CONTINUOUS
 62
     7
 10
416.0449999999999
 20
967.91998999999964
 30
0.0
 42
-0.4142135623730951
  0
VERTEX
  5
114B
  8
DATA
  6
CONTINUOUS
 62
     7
 10
415.54500000000002
 20
968.41998999999953
 30
0.0
  0
SEQEND
  5
114C
  8
DATA
  6
CONTINUOUS
 62
     7
  0
POLYLINE
  5
888
  8
DATA
  6
CONTINUOUS
 62
     7
 66
     1
 10
0.0
 20
0.0
 30
0.0
 70
   129
  0
VERTEX
  5
114D
  8
DATA
  6
CONTINUOUS
 62
     7
 10
418.28501
 20
968.41998999999953
 30
0.0
 42
-0.4142135623730951
  0
VERTEX
  5
114E
  8
DATA
  6
CONTINUOUS
 62
     7
 10
418.78501
 20
968.91998999999964
 30
0.0
 42
-0.4142135623731117
  0
VERTEX
  5
114F
  8
DATA
  6
CONTINUOUS
 62
     7
 10
419.28501
 20
968.41998999999953
 30
0.0
 42
-0.4142135623730951
  0
VERTEX
  5
1150
  8
DATA
  6
CONTINUOUS
 62
     7
 10
418.78501
 20
967.91998999999964
 30
0.0
 42
-0.4142135623730784
  0
VERTEX
  5
1151
  8
DATA
  6
CONTINUOUS
 62
     7
 10
418.28501
 20
968.41998999999953
 30
0.0
  0
SEQEND
  5
1152
  8
DATA
  6
CONTINUOUS
 62
     7
  0
POLYLINE
  5
88F
  8
DATA
  6
CONTINUOUS
 62
     7
 66
     1
 10
0.0
 20
0.0
 30
0.0
 70
   129
  0
VERTEX
  5
1153
  8
DATA
  6
CONTINUOUS
 62
     7
 10
421.05500000000001
 20
968.41998999999953
 30
0.0
 42
-0.4142135623730951
  0
VERTEX
  5
1154
  8
DATA
  6
CONTINUOUS
 62
     7
 10
421.55500000000001
 20
968.91998999999964
 30
0.0
 42
-0.4142135623730951
  0
VERTEX
  5
1155
  8
DATA
  6
CONTINUOUS
 62
     7
 10
422.05500000000001
 20
968.41998999999953
 30
0.0
 42
-0.4142135623730951
  0
VERTEX
  5
1156
  8
DATA
  6
CONTINUOUS
 62
     7
 10
421.55500000000001
 20
967.91998999999964
 30
0.0
 42
-0.4142135623730951
  0
VERTEX
  5
1157
  8
DATA
  6
CONTINUOUS
 62
     7
 10
421.05500000000001
 20
968.41998999999953
 30
0.0
  0
SEQEND
  5
1158
  8
DATA
  6
CONTINUOUS
 62
     7
  0
POLYLINE
  5
896
  8
DATA
  6
CONTINUOUS
 62
     7
 66
     1
 10
0.0
 20
0.0
 30
0.0
 70
   129
  0
VERTEX
  5
1159
  8
DATA
  6
CONTINUOUS
 62
     7
 10
423.82499999999999
 20
968.41998999999953
 30
0.0
 42
-0.4142135623730951
  0
VERTEX
  5
115A
  8
DATA
  6
CONTINUOUS
 62
     7
 10
424.3250000000001
 20
968.91998999999964
 30
0.0
 42
-0.4142135623731117
  0
VERTEX
  5
115B
  8
DATA
  6
CONTINUOUS
 62
     7
 10
424.8250000000001
 20
968.41998999999953
 30
0.0
 42
-0.4142135623730951
  0
VERTEX
  5
115C
  8
DATA
  6
CONTINUOUS
 62
     7
 10
424.3250000000001
 20
967.91998999999964
 30
0.0
 42
-0.4142135623730784
  0
VERTEX
  5
115D
  8
DATA
  6
CONTINUOUS
 62
     7
 10
423.82499999999999
 20
968.41998999999953
 30
0.0
  0
SEQEND
  5
115E
  8
DATA
  6
CONTINUOUS
 62
     7
  0
POLYLINE
  5
89D
  8
DATA
  6
CONTINUOUS
 62
     7
 66
     1
 10
0.0
 20
0.0
 30
0.0
 70
   129
  0
VERTEX
  5
115F
  8
DATA
  6
CONTINUOUS
 62
     7
 10
426.56500999999997
 20
968.41998999999953
 30
0.0
 42
-0.4142135623730951
  0
VERTEX
  5
1160
  8
DATA
  6
CONTINUOUS
 62
     7
 10
427.06500999999997
 20
968.91998999999964
 30
0.0
 42
-0.4142135623730617
  0
VERTEX
  5
1161
  8
DATA
  6
CONTINUOUS
 62
     7
 10
427.56500999999997
 20
968.41998999999953
 30
0.0
 42
-0.4142135623731117
  0
VERTEX
  5
1162
  8
DATA
  6
CONTINUOUS
 62
     7
 10
427.06500999999997
 20
967.91998999999964
 30
0.0
 42
-0.4142135623730951
  0
VERTEX
  5
1163
  8
DATA
  6
CONTINUOUS
 62
     7
 10
426.56500999999997
 20
968.41998999999953
 30
0.0
  0
SEQEND
  5
1164
  8
DATA
  6
CONTINUOUS
 62
     7
  0
ARC
  5
8A4
  8
DATA
  6
CONTINUOUS
 62
     7
 10
427.62285999999989
 20
964.29998999999953
 30
0.0
 40
1.5
 50
270.0
 51
350.00014077828041
  0
ARC
  5
8A5
  8
DATA
  6
CONTINUOUS
 62
     7
 10
428.01001000000002
 20
969.19998999999973
 30
0.0
 40
2.0
 50
0.0
 51
90.0
  0
LINE
  5
8A6
  8
DATA
  6
CONTINUOUS
 62
     7
 10
430.01001000000002
 20
969.19998999999973
 30
0.0
 11
429.10007000000002
 21
964.03951999999981
 31
0.0
  0
LINE
  5
8A7
  8
DATA
  6
CONTINUOUS
 62
     7
 10
581.40000999999995
 20
394.29999999999978
 30
0.0
 11
581.40000999999995
 21
350.0000099999998
 31
0.0
  0
LINE
  5
8A8
  8
DATA
  6
CONTINUOUS
 62
     7
 10
580.40000999999995
 20
394.29999999999978
 30
0.0
 11
580.40000999999995
 21
350.0000099999998
 31
0.0
  0
LINE
  5
8A9
  8
DATA
  6
CONTINUOUS
 62
     7
 10
414.39999999999998
 20
350.0000099999998
 30
0.0
 11
414.39999999999998
 21
394.29999999999978
 31
0.0
  0
LINE
  5
8AA
  8
DATA
  6
CONTINUOUS
 62
     7
 10
413.39999999999992
 20
350.0000099999998
 30
0.0
 11
413.39999999999992
 21
394.29999999999978
 31
0.0
  0
LINE
  5
8AB
  8
DATA
  6
CONTINUOUS
 62
     7
 10
555.40000999999995
 20
388.14999999999992
 30
0.0
 11
555.40000999999995
 21
356.14999999999992
 31
0.0
  0
LINE
  5
8AC
  8
DATA
  6
CONTINUOUS
 62
     7
 10
420.39999999999992
 20
388.14999999999992
 30
0.0
 11
420.39999999999992
 21
356.14999999999992
 31
0.0
  0
LINE
  5
8AD
  8
DATA
  6
CONTINUOUS
 62
     7
 10
421.89999999999992
 20
389.64999999999992
 30
0.0
 11
477.60000000000002
 21
389.64999999999992
 31
0.0
  0
LINE
  5
8AE
  8
DATA
  6
CONTINUOUS
 62
     7
 10
511.00000999999992
 20
389.64999999999992
 30
0.0
 11
553.90000999999995
 21
389.64999999999992
 31
0.0
  0
LINE
  5
8AF
  8
DATA
  6
CONTINUOUS
 62
     7
 10
421.89999999999992
 20
354.64999999999992
 30
0.0
 11
434.39999999999998
 21
354.64999999999992
 31
0.0
  0
LINE
  5
8B0
  8
DATA
  6
CONTINUOUS
 62
     7
 10
436.89999999999992
 20
354.64999999999992
 30
0.0
 11
440.12652000000003
 21
354.64999999999992
 31
0.0
  0
LINE
  5
8B1
  8
DATA
  6
CONTINUOUS
 62
     7
 10
466.20001000000002
 20
354.64999999999992
 30
0.0
 11
553.90000999999995
 21
354.64999999999992
 31
0.0
  0
LINE
  5
8B2
  8
DATA
  6
CONTINUOUS
 62
     7
 10
537.90000999999995
 20
384.64999999999992
 30
0.0
 11
537.90000999999995
 21
359.64999999999992
 31
0.0
  0
LINE
  5
8B3
  8
DATA
  6
CONTINUOUS
 62
     7
 10
436.89999999999992
 20
384.64999999999992
 30
0.0
 11
436.89999999999992
 21
359.64999999999992
 31
0.0
  0
LINE
  5
8B4
  8
DATA
  6
CONTINUOUS
 62
     7
 10
438.39999999999992
 20
386.14999999999992
 30
0.0
 11
536.40001000000007
 21
386.14999999999992
 31
0.0
  0
LINE
  5
8B5
  8
DATA
  6
CONTINUOUS
 62
     7
 10
438.39999999999992
 20
358.14999999999992
 30
0.0
 11
536.40001000000007
 21
358.14999999999992
 31
0.0
  0
LINE
  5
8B6
  8
DATA
  6
CONTINUOUS
 62
     7
 10
464.89999999999998
 20
380.39999999999981
 30
0.0
 11
524.90000999999995
 21
380.39999999999981
 31
0.0
  0
LINE
  5
8B7
  8
DATA
  6
CONTINUOUS
 62
     7
 10
464.89999999999998
 20
363.89999999999992
 30
0.0
 11
524.90000999999995
 21
363.89999999999992
 31
0.0
  0
LINE
  5
8B8
  8
DATA
  6
CONTINUOUS
 62
     7
 10
526.40000999999995
 20
378.89999999999992
 30
0.0
 11
526.40000999999995
 21
365.39999999999992
 31
0.0
  0
LINE
  5
8B9
  8
DATA
  6
CONTINUOUS
 62
     7
 10
463.39999999999992
 20
378.89999999999992
 30
0.0
 11
463.39999999999992
 21
365.39999999999992
 31
0.0
  0
LINE
  5
8BA
  8
DATA
  6
CONTINUOUS
 62
     7
 10
551.86999999999989
 20
370.14999999999992
 30
0.0
 11
551.86999999999989
 21
358.64999999999992
 31
0.0
  0
LINE
  5
8BB
  8
DATA
  6
CONTINUOUS
 62
     7
 10
551.86999999999989
 20
385.64999999999992
 30
0.0
 11
551.86999999999989
 21
374.14999999999981
 31
0.0
  0
LINE
  5
8BC
  8
DATA
  6
CONTINUOUS
 62
     7
 10
543.36999999999989
 20
370.14999999999992
 30
0.0
 11
543.36999999999989
 21
358.64999999999992
 31
0.0
  0
LINE
  5
8BD
  8
DATA
  6
CONTINUOUS
 62
     7
 10
543.36999999999989
 20
385.64999999999992
 30
0.0
 11
543.36999999999989
 21
374.14999999999981
 31
0.0
  0
LINE
  5
8BE
  8
DATA
  6
CONTINUOUS
 62
     7
 10
543.36999999999989
 20
385.64999999999992
 30
0.0
 11
551.86999999999989
 21
385.64999999999992
 31
0.0
  0
LINE
  5
8BF
  8
DATA
  6
CONTINUOUS
 62
     7
 10
543.36999999999989
 20
374.14999999999981
 30
0.0
 11
551.86999999999989
 21
374.14999999999981
 31
0.0
  0
LINE
  5
8C0
  8
DATA
  6
CONTINUOUS
 62
     7
 10
543.36999999999989
 20
370.14999999999992
 30
0.0
 11
551.86999999999989
 21
370.14999999999992
 31
0.0
  0
LINE
  5
8C1
  8
DATA
  6
CONTINUOUS
 62
     7
 10
543.36999999999989
 20
358.64999999999992
 30
0.0
 11
551.86999999999989
 21
358.64999999999992
 31
0.0
  0
CIRCLE
  5
8C2
  8
DATA
  6
CONTINUOUS
 62
     7
 10
441.39999999999992
 20
360.14999999999992
 30
0.0
 40
1.0
  0
CIRCLE
  5
8C3
  8
DATA
  6
CONTINUOUS
 62
     7
 10
447.39999999999998
 20
360.14999999999992
 30
0.0
 40
1.0
  0
CIRCLE
  5
8C4
  8
DATA
  6
CONTINUOUS
 62
     7
 10
453.39999999999992
 20
360.14999999999992
 30
0.0
 40
1.0
  0
CIRCLE
  5
8C5
  8
DATA
  6
CONTINUOUS
 62
     7
 10
441.39999999999992
 20
364.14999999999992
 30
0.0
 40
1.0
  0
CIRCLE
  5
8C6
  8
DATA
  6
CONTINUOUS
 62
     7
 10
447.39999999999998
 20
364.14999999999992
 30
0.0
 40
1.0
  0
CIRCLE
  5
8C7
  8
DATA
  6
CONTINUOUS
 62
     7
 10
453.39999999999992
 20
364.14999999999992
 30
0.0
 40
1.0
  0
CIRCLE
  5
8C8
  8
DATA
  6
CONTINUOUS
 62
     7
 10
441.39999999999992
 20
368.14999999999992
 30
0.0
 40
1.0
  0
CIRCLE
  5
8C9
  8
DATA
  6
CONTINUOUS
 62
     7
 10
447.39999999999998
 20
368.14999999999992
 30
0.0
 40
1.0
  0
CIRCLE
  5
8CA
  8
DATA
  6
CONTINUOUS
 62
     7
 10
453.39999999999992
 20
368.14999999999992
 30
0.0
 40
1.0
  0
CIRCLE
  5
8CB
  8
DATA
  6
CONTINUOUS
 62
     7
 10
441.39999999999992
 20
372.14999999999992
 30
0.0
 40
1.0
  0
CIRCLE
  5
8CC
  8
DATA
  6
CONTINUOUS
 62
     7
 10
447.39999999999998
 20
372.14999999999992
 30
0.0
 40
1.0
  0
CIRCLE
  5
8CD
  8
DATA
  6
CONTINUOUS
 62
     7
 10
453.39999999999992
 20
372.14999999999992
 30
0.0
 40
1.0
  0
CIRCLE
  5
8CE
  8
DATA
  6
CONTINUOUS
 62
     7
 10
441.39999999999992
 20
376.14999999999981
 30
0.0
 40
1.0
  0
CIRCLE
  5
8CF
  8
DATA
  6
CONTINUOUS
 62
     7
 10
447.39999999999998
 20
376.14999999999981
 30
0.0
 40
1.0
  0
CIRCLE
  5
8D0
  8
DATA
  6
CONTINUOUS
 62
     7
 10
453.39999999999992
 20
376.14999999999981
 30
0.0
 40
1.0
  0
CIRCLE
  5
8D1
  8
DATA
  6
CONTINUOUS
 62
     7
 10
453.39999999999992
 20
380.14999999999981
 30
0.0
 40
1.0
  0
CIRCLE
  5
8D2
  8
DATA
  6
CONTINUOUS
 62
     7
 10
441.39999999999992
 20
384.14999999999992
 30
0.0
 40
1.0
  0
CIRCLE
  5
8D3
  8
DATA
  6
CONTINUOUS
 62
     7
 10
447.39999999999998
 20
384.14999999999992
 30
0.0
 40
1.0
  0
CIRCLE
  5
8D4
  8
DATA
  6
CONTINUOUS
 62
     7
 10
453.39999999999992
 20
384.14999999999992
 30
0.0
 40
1.0
  0
TEXT
  5
8D5
  8
DATA
 62
     7
 10
440.7843770520833
 20
379.07000859999971
 30
0.0
 40
2.3085860546874999
  1
A
 41
0.8
 72
     1
 11
441.39999999999992
 21
381.37859465468728
 31
0.0
 73
     3
  0
LINE
  5
8D6
  8
DATA
  6
CONTINUOUS
 62
     7
 10
449.89999999999992
 20
378.30000999999987
 30
0.0
 11
449.89999999999992
 21
382.30000999999987
 31
0.0
  0
LINE
  5
8D7
  8
DATA
  6
CONTINUOUS
 62
     7
 10
438.89999999999998
 20
378.30000999999987
 30
0.0
 11
438.89999999999998
 21
382.30000999999987
 31
0.0
  0
LINE
  5
8D8
  8
DATA
  6
CONTINUOUS
 62
     7
 10
438.89999999999998
 20
382.30000999999987
 30
0.0
 11
449.89999999999992
 21
382.30000999999987
 31
0.0
  0
LINE
  5
8D9
  8
DATA
  6
CONTINUOUS
 62
     7
 10
438.89999999999998
 20
378.30000999999987
 30
0.0
 11
449.89999999999992
 21
378.30000999999987
 31
0.0
  0
TEXT
  5
8DA
  8
DATA
 62
     7
 10
446.7843770520833
 20
379.07000859999971
 30
0.0
 40
2.3085860546874999
  1
B
 41
0.8
 72
     1
 11
447.39999999999998
 21
381.37859465468728
 31
0.0
 73
     3
  0
ARC
  5
8DB
  8
DATA
  6
CONTINUOUS
 62
     7
 10
438.39999999999992
 20
384.64999999999992
 30
0.0
 40
1.5
 50
90.0
 51
180.0
  0
ARC
  5
8DC
  8
DATA
  6
CONTINUOUS
 62
     7
 10
438.39999999999992
 20
359.64999999999992
 30
0.0
 40
1.5
 50
180.0
 51
270.0
  0
ARC
  5
8DD
  8
DATA
  6
CONTINUOUS
 62
     7
 10
536.40001000000007
 20
359.64999999999992
 30
0.0
 40
1.5
 50
270.0
 51
0.0
  0
ARC
  5
8DE
  8
DATA
  6
CONTINUOUS
 62
     7
 10
536.40001000000007
 20
384.64999999999992
 30
0.0
 40
1.5
 50
0.0
 51
90.0
  0
ARC
  5
8DF
  8
DATA
  6
CONTINUOUS
 62
     7
 10
524.90000999999995
 20
378.89999999999992
 30
0.0
 40
1.5
 50
0.0
 51
90.0
  0
ARC
  5
8E0
  8
DATA
  6
CONTINUOUS
 62
     7
 10
524.90000999999995
 20
365.39999999999992
 30
0.0
 40
1.5
 50
270.0
 51
0.0
  0
ARC
  5
8E1
  8
DATA
  6
CONTINUOUS
 62
     7
 10
464.89999999999998
 20
378.89999999999992
 30
0.0
 40
1.5
 50
90.0
 51
180.0
  0
ARC
  5
8E2
  8
DATA
  6
CONTINUOUS
 62
     7
 10
464.89999999999998
 20
365.39999999999992
 30
0.0
 40
1.5
 50
180.0
 51
270.0
  0
ARC
  5
8E3
  8
DATA
  6
CONTINUOUS
 62
     7
 10
421.89999999999992
 20
388.14999999999992
 30
0.0
 40
1.5
 50
90.0
 51
180.0
  0
ARC
  5
8E4
  8
DATA
  6
CONTINUOUS
 62
     7
 10
421.89999999999992
 20
356.14999999999992
 30
0.0
 40
1.5
 50
180.0
 51
270.0
  0
ARC
  5
8E5
  8
DATA
  6
CONTINUOUS
 62
     7
 10
553.90000999999995
 20
388.14999999999992
 30
0.0
 40
1.5
 50
0.0
 51
90.0
  0
ARC
  5
8E6
  8
DATA
  6
CONTINUOUS
 62
     7
 10
553.90000999999995
 20
356.14999999999992
 30
0.0
 40
1.5
 50
270.0
 51
0.0
  0
LINE
  5
8E7
  8
DATA
  6
CONTINUOUS
 62
     7
 10
434.39999999999998
 20
379.14999999999992
 30
0.0
 11
424.39999999999992
 21
379.14999999999992
 31
0.0
  0
LINE
  5
8E8
  8
DATA
  6
CONTINUOUS
 62
     7
 10
434.39999999999998
 20
374.64999999999992
 30
0.0
 11
424.39999999999992
 21
374.64999999999992
 31
0.0
  0
LINE
  5
8E9
  8
DATA
  6
CONTINUOUS
 62
     7
 10
434.39999999999998
 20
366.14999999999992
 30
0.0
 11
424.39999999999992
 21
366.14999999999992
 31
0.0
  0
LINE
  5
8EA
  8
DATA
  6
CONTINUOUS
 62
     7
 10
434.39999999999998
 20
361.64999999999981
 30
0.0
 11
424.39999999999992
 21
361.64999999999981
 31
0.0
  0
LINE
  5
8EB
  8
DATA
  6
CONTINUOUS
 62
     7
 10
424.39999999999992
 20
366.14999999999992
 30
0.0
 11
424.39999999999992
 21
361.64999999999981
 31
0.0
  0
LINE
  5
8EC
  8
DATA
  6
CONTINUOUS
 62
     7
 10
424.39999999999992
 20
379.14999999999992
 30
0.0
 11
424.39999999999992
 21
374.64999999999992
 31
0.0
  0
LINE
  5
8ED
  8
DATA
  6
CONTINUOUS
 62
     7
 10
434.39999999999998
 20
366.14999999999992
 30
0.0
 11
434.39999999999998
 21
361.64999999999981
 31
0.0
  0
LINE
  5
8EE
  8
DATA
  6
CONTINUOUS
 62
     7
 10
434.39999999999998
 20
379.14999999999992
 30
0.0
 11
434.39999999999998
 21
374.64999999999992
 31
0.0
  0
TEXT
  5
8EF
  8
DATA
 62
     7
 10
424.65969878645831
 20
380.68801859999991
 30
0.0
 40
3.2320235546874989
  1
MENU
 41
0.8
 72
     1
 11
429.39999999999992
 21
383.92004215468728
 31
0.0
 73
     3
  0
TEXT
  5
8F0
  8
DATA
 62
     7
 10
422.59736119270821
 20
367.79600859999982
 30
0.0
 40
3.0011641796875002
  1
SELECT
 41
0.8
 72
     1
 11
429.39999999999992
 21
370.79717277968729
 31
0.0
 73
     3
  0
LINE
  5
8F1
  8
DATA
  6
CONTINUOUS
 62
     7
 10
436.89999999999992
 20
356.39999999999992
 30
0.0
 11
436.89999999999992
 21
354.64999999999992
 31
0.0
  0
TEXT
  5
8F2
  8
DATA
 62
     7
 10
441.39999999999992
 20
353.57000859999982
 30
0.0
 40
2.3085860546874999
  1
RF
 41
0.8
 11
441.39999999999992
 21
355.87859465468728
 31
0.0
 73
     3
  0
LINE
  5
8F3
  8
DATA
  6
CONTINUOUS
 62
     7
 10
448.89999999999992
 20
354.64999999999992
 30
0.0
 11
445.67349999999999
 21
354.64999999999992
 31
0.0
  0
LINE
  5
8F4
  8
DATA
  6
CONTINUOUS
 62
     7
 10
448.89999999999992
 20
356.39999999999992
 30
0.0
 11
448.89999999999992
 21
354.64999999999992
 31
0.0
  0
LINE
  5
8F5
  8
DATA
  6
CONTINUOUS
 62
     7
 10
451.89999999999998
 20
354.64999999999992
 30
0.0
 11
455.12652000000003
 21
354.64999999999992
 31
0.0
  0
LINE
  5
8F6
  8
DATA
  6
CONTINUOUS
 62
     7
 10
451.89999999999998
 20
356.39999999999992
 30
0.0
 11
451.89999999999998
 21
354.64999999999992
 31
0.0
  0
TEXT
  5
8F7
  8
DATA
 62
     7
 10
456.80000999999987
 20
353.57000859999982
 30
0.0
 40
2.3085860546874999
  1
AUDIO
 41
0.8
 11
456.80000999999987
 21
355.87859465468728
 31
0.0
 73
     3
  0
LINE
  5
8F8
  8
DATA
  6
CONTINUOUS
 62
     7
 10
545.37
 20
364.39999999999992
 30
0.0
 11
549.87
 21
364.39999999999992
 31
0.0
  0
LINE
  5
8F9
  8
DATA
  6
CONTINUOUS
 62
     7
 10
545.37
 20
379.89999999999992
 30
0.0
 11
549.87
 21
379.89999999999992
 31
0.0
  0
LINE
  5
8FA
  8
DATA
  6
CONTINUOUS
 62
     7
 10
547.62
 20
377.64999999999992
 30
0.0
 11
547.62
 21
382.14999999999981
 31
0.0
  0
TEXT
  5
8FB
  8
DATA
 62
     7
 10
566.66876205208325
 20
383.49000859999978
 30
0.0
 40
4.617179804687499
  1
2
 41
0.8
 72
     1
 11
567.90000999999995
 21
388.10718840468729
 31
0.0
 73
     3
  0
TEXT
  5
8FC
  8
DATA
 62
     7
 10
562.66721494270826
 20
359.22001859999989
 30
0.0
 40
2.3085860546874999
  1
OUTPUT
 41
0.8
 72
     1
 11
567.90000999999995
 21
361.5286046546874
 31
0.0
 73
     3
  0
TEXT
  5
8FD
  8
DATA
 62
     7
 10
563.28283789062493
 20
356.22002859999981
 30
0.0
 40
2.3085860546874999
  1
LEVEL
 41
0.8
 72
     1
 11
567.90000999999995
 21
358.52861465468732
 31
0.0
 73
     3
  0
LINE
  5
8FE
  8
DATA
  6
CONTINUOUS
 62
     7
 10
388.39999999999998
 20
388.14999999999992
 30
0.0
 11
388.39999999999998
 21
356.14999999999992
 31
0.0
  0
LINE
  5
8FF
  8
DATA
  6
CONTINUOUS
 62
     7
 10
253.40000000000001
 20
388.14999999999992
 30
0.0
 11
253.40000000000001
 21
356.14999999999992
 31
0.0
  0
LINE
  5
900
  8
DATA
  6
CONTINUOUS
 62
     7
 10
254.90000000000001
 20
389.64999999999992
 30
0.0
 11
310.60001
 21
389.64999999999992
 31
0.0
  0
LINE
  5
901
  8
DATA
  6
CONTINUOUS
 62
     7
 10
343.90001000000001
 20
389.64999999999992
 30
0.0
 11
386.80000000000001
 21
389.64999999999992
 31
0.0
  0
LINE
  5
902
  8
DATA
  6
CONTINUOUS
 62
     7
 10
254.90000000000001
 20
354.64999999999992
 30
0.0
 11
267.40001000000001
 21
354.64999999999992
 31
0.0
  0
LINE
  5
903
  8
DATA
  6
CONTINUOUS
 62
     7
 10
269.90001000000001
 20
354.64999999999992
 30
0.0
 11
273.12652000000003
 21
354.64999999999992
 31
0.0
  0
LINE
  5
904
  8
DATA
  6
CONTINUOUS
 62
     7
 10
299.20001000000002
 20
354.64999999999992
 30
0.0
 11
386.89999999999998
 21
354.64999999999992
 31
0.0
  0
LINE
  5
905
  8
DATA
  6
CONTINUOUS
 62
     7
 10
370.90001000000001
 20
384.64999999999992
 30
0.0
 11
370.90001000000001
 21
359.64999999999992
 31
0.0
  0
LINE
  5
906
  8
DATA
  6
CONTINUOUS
 62
     7
 10
269.90001000000001
 20
384.64999999999992
 30
0.0
 11
269.90001000000001
 21
359.64999999999992
 31
0.0
  0
LINE
  5
907
  8
DATA
  6
CONTINUOUS
 62
     7
 10
271.40001000000001
 20
386.14999999999992
 30
0.0
 11
369.40001000000001
 21
386.14999999999992
 31
0.0
  0
LINE
  5
908
  8
DATA
  6
CONTINUOUS
 62
     7
 10
271.40001000000001
 20
358.14999999999992
 30
0.0
 11
369.40001000000001
 21
358.14999999999992
 31
0.0
  0
LINE
  5
909
  8
DATA
  6
CONTINUOUS
 62
     7
 10
297.90001000000001
 20
380.39999999999981
 30
0.0
 11
357.90001000000001
 21
380.39999999999981
 31
0.0
  0
LINE
  5
90A
  8
DATA
  6
CONTINUOUS
 62
     7
 10
297.90001000000001
 20
363.89999999999992
 30
0.0
 11
357.90001000000001
 21
363.89999999999992
 31
0.0
  0
LINE
  5
90B
  8
DATA
  6
CONTINUOUS
 62
     7
 10
359.40001000000001
 20
378.89999999999992
 30
0.0
 11
359.40001000000001
 21
365.39999999999992
 31
0.0
  0
LINE
  5
90C
  8
DATA
  6
CONTINUOUS
 62
     7
 10
296.40001000000001
 20
378.89999999999992
 30
0.0
 11
296.40001000000001
 21
365.39999999999992
 31
0.0
  0
LINE
  5
90D
  8
DATA
  6
CONTINUOUS
 62
     7
 10
384.87000999999998
 20
370.14999999999992
 30
0.0
 11
384.87000999999998
 21
358.64999999999992
 31
0.0
  0
LINE
  5
90E
  8
DATA
  6
CONTINUOUS
 62
     7
 10
384.87000999999998
 20
385.64999999999992
 30
0.0
 11
384.87000999999998
 21
374.14999999999981
 31
0.0
  0
LINE
  5
90F
  8
DATA
  6
CONTINUOUS
 62
     7
 10
376.37000999999998
 20
370.14999999999992
 30
0.0
 11
376.37000999999998
 21
358.64999999999992
 31
0.0
  0
LINE
  5
910
  8
DATA
  6
CONTINUOUS
 62
     7
 10
376.37000999999998
 20
385.64999999999992
 30
0.0
 11
376.37000999999998
 21
374.14999999999981
 31
0.0
  0
LINE
  5
911
  8
DATA
  6
CONTINUOUS
 62
     7
 10
376.37000999999998
 20
385.64999999999992
 30
0.0
 11
384.87000999999998
 21
385.64999999999992
 31
0.0
  0
LINE
  5
912
  8
DATA
  6
CONTINUOUS
 62
     7
 10
376.37000999999998
 20
374.14999999999981
 30
0.0
 11
384.87000999999998
 21
374.14999999999981
 31
0.0
  0
LINE
  5
913
  8
DATA
  6
CONTINUOUS
 62
     7
 10
376.37000999999998
 20
370.14999999999992
 30
0.0
 11
384.87000999999998
 21
370.14999999999992
 31
0.0
  0
LINE
  5
914
  8
DATA
  6
CONTINUOUS
 62
     7
 10
376.37000999999998
 20
358.64999999999992
 30
0.0
 11
384.87000999999998
 21
358.64999999999992
 31
0.0
  0
CIRCLE
  5
915
  8
DATA
  6
CONTINUOUS
 62
     7
 10
274.40001000000001
 20
360.14999999999992
 30
0.0
 40
1.0
  0
CIRCLE
  5
916
  8
DATA
  6
CONTINUOUS
 62
     7
 10
280.40001000000001
 20
360.14999999999992
 30
0.0
 40
1.0
  0
CIRCLE
  5
917
  8
DATA
  6
CONTINUOUS
 62
     7
 10
286.40001000000001
 20
360.14999999999992
 30
0.0
 40
1.0
  0
CIRCLE
  5
918
  8
DATA
  6
CONTINUOUS
 62
     7
 10
274.40001000000001
 20
364.14999999999992
 30
0.0
 40
1.0
  0
CIRCLE
  5
919
  8
DATA
  6
CONTINUOUS
 62
     7
 10
280.40001000000001
 20
364.14999999999992
 30
0.0
 40
1.0
  0
CIRCLE
  5
91A
  8
DATA
  6
CONTINUOUS
 62
     7
 10
286.40001000000001
 20
364.14999999999992
 30
0.0
 40
1.0
  0
CIRCLE
  5
91B
  8
DATA
  6
CONTINUOUS
 62
     7
 10
274.40001000000001
 20
368.14999999999992
 30
0.0
 40
1.0
  0
CIRCLE
  5
91C
  8
DATA
  6
CONTINUOUS
 62
     7
 10
280.40001000000001
 20
368.14999999999992
 30
0.0
 40
1.0
  0
CIRCLE
  5
91D
  8
DATA
  6
CONTINUOUS
 62
     7
 10
286.40001000000001
 20
368.14999999999992
 30
0.0
 40
1.0
  0
CIRCLE
  5
91E
  8
DATA
  6
CONTINUOUS
 62
     7
 10
274.40001000000001
 20
372.14999999999992
 30
0.0
 40
1.0
  0
CIRCLE
  5
91F
  8
DATA
  6
CONTINUOUS
 62
     7
 10
280.40001000000001
 20
372.14999999999992
 30
0.0
 40
1.0
  0
CIRCLE
  5
920
  8
DATA
  6
CONTINUOUS
 62
     7
 10
286.40001000000001
 20
372.14999999999992
 30
0.0
 40
1.0
  0
CIRCLE
  5
921
  8
DATA
  6
CONTINUOUS
 62
     7
 10
274.40001000000001
 20
376.14999999999981
 30
0.0
 40
1.0
  0
CIRCLE
  5
922
  8
DATA
  6
CONTINUOUS
 62
     7
 10
280.40001000000001
 20
376.14999999999981
 30
0.0
 40
1.0
  0
CIRCLE
  5
923
  8
DATA
  6
CONTINUOUS
 62
     7
 10
286.40001000000001
 20
376.14999999999981
 30
0.0
 40
1.0
  0
CIRCLE
  5
924
  8
DATA
  6
CONTINUOUS
 62
     7
 10
286.40001000000001
 20
380.14999999999981
 30
0.0
 40
1.0
  0
CIRCLE
  5
925
  8
DATA
  6
CONTINUOUS
 62
     7
 10
274.40001000000001
 20
384.14999999999992
 30
0.0
 40
1.0
  0
CIRCLE
  5
926
  8
DATA
  6
CONTINUOUS
 62
     7
 10
280.40001000000001
 20
384.14999999999992
 30
0.0
 40
1.0
  0
CIRCLE
  5
927
  8
DATA
  6
CONTINUOUS
 62
     7
 10
286.40001000000001
 20
384.14999999999992
 30
0.0
 40
1.0
  0
TEXT
  5
928
  8
DATA
 62
     7
 10
273.78438705208328
 20
379.07000859999971
 30
0.0
 40
2.3085860546874999
  1
A
 41
0.8
 72
     1
 11
274.40001000000001
 21
381.37859465468728
 31
0.0
 73
     3
  0
LINE
  5
929
  8
DATA
  6
CONTINUOUS
 62
     7
 10
282.90001000000001
 20
378.30000999999987
 30
0.0
 11
282.90001000000001
 21
382.30000999999987
 31
0.0
  0
LINE
  5
92A
  8
DATA
  6
CONTINUOUS
 62
     7
 10
271.90001000000001
 20
378.30000999999987
 30
0.0
 11
271.90001000000001
 21
382.30000999999987
 31
0.0
  0
LINE
  5
92B
  8
DATA
  6
CONTINUOUS
 62
     7
 10
271.90001000000001
 20
382.30000999999987
 30
0.0
 11
282.90001000000001
 21
382.30000999999987
 31
0.0
  0
LINE
  5
92C
  8
DATA
  6
CONTINUOUS
 62
     7
 10
271.90001000000001
 20
378.30000999999987
 30
0.0
 11
282.90001000000001
 21
378.30000999999987
 31
0.0
  0
TEXT
  5
92D
  8
DATA
 62
     7
 10
279.78438705208328
 20
379.07000859999971
 30
0.0
 40
2.3085860546874999
  1
B
 41
0.8
 72
     1
 11
280.40001000000001
 21
381.37859465468728
 31
0.0
 73
     3
  0
ARC
  5
92E
  8
DATA
  6
CONTINUOUS
 62
     7
 10
271.40001000000001
 20
384.64999999999992
 30
0.0
 40
1.5
 50
90.0
 51
180.0
  0
ARC
  5
92F
  8
DATA
  6
CONTINUOUS
 62
     7
 10
271.40001000000001
 20
359.64999999999992
 30
0.0
 40
1.5
 50
180.0
 51
270.0
  0
ARC
  5
930
  8
DATA
  6
CONTINUOUS
 62
     7
 10
369.40001000000001
 20
359.64999999999992
 30
0.0
 40
1.5
 50
270.0
 51
0.0
  0
ARC
  5
931
  8
DATA
  6
CONTINUOUS
 62
     7
 10
369.40001000000001
 20
384.64999999999992
 30
0.0
 40
1.5
 50
0.0
 51
90.0
  0
ARC
  5
932
  8
DATA
  6
CONTINUOUS
 62
     7
 10
357.90001000000001
 20
378.89999999999992
 30
0.0
 40
1.5
 50
0.0
 51
90.0
  0
ARC
  5
933
  8
DATA
  6
CONTINUOUS
 62
     7
 10
357.90001000000001
 20
365.39999999999992
 30
0.0
 40
1.5
 50
270.0
 51
0.0
  0
ARC
  5
934
  8
DATA
  6
CONTINUOUS
 62
     7
 10
297.90001000000001
 20
378.89999999999992
 30
0.0
 40
1.5
 50
90.0
 51
180.0
  0
ARC
  5
935
  8
DATA
  6
CONTINUOUS
 62
     7
 10
297.90001000000001
 20
365.39999999999992
 30
0.0
 40
1.5
 50
180.0
 51
270.0
  0
ARC
  5
936
  8
DATA
  6
CONTINUOUS
 62
     7
 10
254.90000000000001
 20
388.14999999999992
 30
0.0
 40
1.5
 50
90.0
 51
180.0
  0
ARC
  5
937
  8
DATA
  6
CONTINUOUS
 62
     7
 10
254.90000000000001
 20
356.14999999999992
 30
0.0
 40
1.5
 50
180.0
 51
270.0
  0
ARC
  5
938
  8
DATA
  6
CONTINUOUS
 62
     7
 10
386.89999999999998
 20
388.14999999999992
 30
0.0
 40
1.5
 50
0.0
 51
90.0
  0
ARC
  5
939
  8
DATA
  6
CONTINUOUS
 62
     7
 10
386.89999999999998
 20
356.14999999999992
 30
0.0
 40
1.5
 50
270.0
 51
0.0
  0
LINE
  5
93A
  8
DATA
  6
CONTINUOUS
 62
     7
 10
267.40001000000001
 20
379.14999999999992
 30
0.0
 11
257.39999999999998
 21
379.14999999999992
 31
0.0
  0
LINE
  5
93B
  8
DATA
  6
CONTINUOUS
 62
     7
 10
267.40001000000001
 20
374.64999999999992
 30
0.0
 11
257.39999999999998
 21
374.64999999999992
 31
0.0
  0
LINE
  5
93C
  8
DATA
  6
CONTINUOUS
 62
     7
 10
267.40001000000001
 20
366.14999999999992
 30
0.0
 11
257.39999999999998
 21
366.14999999999992
 31
0.0
  0
LINE
  5
93D
  8
DATA
  6
CONTINUOUS
 62
     7
 10
267.40001000000001
 20
361.64999999999981
 30
0.0
 11
257.39999999999998
 21
361.64999999999981
 31
0.0
  0
LINE
  5
93E
  8
DATA
  6
CONTINUOUS
 62
     7
 10
257.39999999999998
 20
366.14999999999992
 30
0.0
 11
257.39999999999998
 21
361.64999999999981
 31
0.0
  0
LINE
  5
93F
  8
DATA
  6
CONTINUOUS
 62
     7
 10
257.39999999999998
 20
379.14999999999992
 30
0.0
 11
257.39999999999998
 21
374.64999999999992
 31
0.0
  0
LINE
  5
940
  8
DATA
  6
CONTINUOUS
 62
     7
 10
267.40001000000001
 20
366.14999999999992
 30
0.0
 11
267.40001000000001
 21
361.64999999999981
 31
0.0
  0
LINE
  5
941
  8
DATA
  6
CONTINUOUS
 62
     7
 10
267.40001000000001
 20
379.14999999999992
 30
0.0
 11
267.40001000000001
 21
374.64999999999992
 31
0.0
  0
TEXT
  5
942
  8
DATA
 62
     7
 10
257.65969878645842
 20
380.68801859999991
 30
0.0
 40
3.2320235546874989
  1
MENU
 41
0.8
 72
     1
 11
262.39999999999998
 21
383.92004215468728
 31
0.0
 73
     3
  0
TEXT
  5
943
  8
DATA
 62
     7
 10
255.59736119270841
 20
367.79600859999982
 30
0.0
 40
3.0011641796875002
  1
SELECT
 41
0.8
 72
     1
 11
262.39999999999998
 21
370.79717277968729
 31
0.0
 73
     3
  0
LINE
  5
944
  8
DATA
  6
CONTINUOUS
 62
     7
 10
269.90001000000001
 20
356.39999999999992
 30
0.0
 11
269.90001000000001
 21
354.64999999999992
 31
0.0
  0
TEXT
  5
945
  8
DATA
 62
     7
 10
274.40001000000001
 20
353.57000859999982
 30
0.0
 40
2.3085860546874999
  1
RF
 41
0.8
 11
274.40001000000001
 21
355.87859465468728
 31
0.0
 73
     3
  0
LINE
  5
946
  8
DATA
  6
CONTINUOUS
 62
     7
 10
281.90001000000001
 20
354.64999999999992
 30
0.0
 11
278.67349000000002
 21
354.64999999999992
 31
0.0
  0
LINE
  5
947
  8
DATA
  6
CONTINUOUS
 62
     7
 10
281.90001000000001
 20
356.39999999999992
 30
0.0
 11
281.90001000000001
 21
354.64999999999992
 31
0.0
  0
LINE
  5
948
  8
DATA
  6
CONTINUOUS
 62
     7
 10
284.90001000000001
 20
354.64999999999992
 30
0.0
 11
288.12652000000008
 21
354.64999999999992
 31
0.0
  0
LINE
  5
949
  8
DATA
  6
CONTINUOUS
 62
     7
 10
284.90001000000001
 20
356.39999999999992
 30
0.0
 11
284.90001000000001
 21
354.64999999999992
 31
0.0
  0
TEXT
  5
94A
  8
DATA
 62
     7
 10
289.80000000000001
 20
353.57000859999982
 30
0.0
 40
2.3085860546874999
  1
AUDIO
 41
0.8
 11
289.80000000000001
 21
355.87859465468728
 31
0.0
 73
     3
  0
LINE
  5
94B
  8
DATA
  6
CONTINUOUS
 62
     7
 10
378.37000999999998
 20
364.39999999999992
 30
0.0
 11
382.87000999999998
 21
364.39999999999992
 31
0.0
  0
LINE
  5
94C
  8
DATA
  6
CONTINUOUS
 62
     7
 10
378.37000999999998
 20
379.89999999999992
 30
0.0
 11
382.87000999999998
 21
379.89999999999992
 31
0.0
  0
LINE
  5
94D
  8
DATA
  6
CONTINUOUS
 62
     7
 10
380.62000999999998
 20
377.64999999999992
 30
0.0
 11
380.62000999999998
 21
382.14999999999981
 31
0.0
  0
LINE
  5
94E
  8
DATA
  6
CONTINUOUS
 62
     7
 10
403.25321000000002
 20
377.42052999999993
 30
0.0
 11
396.50321000000002
 21
365.72918999999979
 31
0.0
  0
LINE
  5
94F
  8
DATA
  6
CONTINUOUS
 62
     7
 10
404.55223999999998
 20
376.67052999999993
 30
0.0
 11
397.80223999999998
 21
364.97917999999987
 31
0.0
  0
LINE
  5
950
  8
DATA
  6
CONTINUOUS
 62
     7
 10
396.50321000000002
 20
365.72918999999979
 30
0.0
 11
397.80223999999998
 21
364.97917999999987
 31
0.0
  0
ARC
  5
951
  8
DATA
  6
CONTINUOUS
 62
     7
 10
400.80031000000002
 20
371.67195999999979
 30
0.0
 40
6.2500042294385691
 50
247.76520763931691
 51
233.1077707594099
  0
LINE
  5
952
  8
DATA
  6
CONTINUOUS
 62
     7
 10
398.75321000000002
 20
369.62628999999993
 30
0.0
 11
400.05223000000001
 21
368.87628999999993
 31
0.0
  0
LINE
  5
953
  8
DATA
  6
CONTINUOUS
 62
     7
 10
397.38855999999998
 20
365.21801999999991
 30
0.0
 11
396.27499999999998
 21
363.28927999999979
 31
0.0
  0
LINE
  5
954
  8
DATA
  6
CONTINUOUS
 62
     7
 10
398.63119
 20
377.5334899999998
 30
0.0
 11
397.73631999999998
 21
379.99215999999979
 31
0.0
  0
LINE
  5
955
  8
DATA
  6
CONTINUOUS
 62
     7
 10
395.02692000000002
 20
369.16237999999993
 30
0.0
 11
392.20783999999998
 21
368.13630999999992
 31
0.0
  0
LINE
  5
956
  8
DATA
  6
CONTINUOUS
 62
     7
 10
395.25664
 20
374.55820999999992
 30
0.0
 11
392.88927000000001
 21
375.92500999999987
 31
0.0
  0
LINE
  5
957
  8
DATA
  6
CONTINUOUS
 62
     7
 10
404.02499999999992
 20
365.88734999999991
 30
0.0
 11
405.52499999999998
 21
363.28927999999979
 31
0.0
  0
LINE
  5
958
  8
DATA
  6
CONTINUOUS
 62
     7
 10
403.10000999999988
 20
377.14999999999992
 30
0.0
 11
404.06368999999989
 21
379.99215999999979
 31
0.0
  0
LINE
  5
959
  8
DATA
  6
CONTINUOUS
 62
     7
 10
406.77308999999991
 20
369.16237999999993
 30
0.0
 11
409.59215999999992
 21
368.13630999999992
 31
0.0
  0
LINE
  5
95A
  8
DATA
  6
CONTINUOUS
 62
     7
 10
406.38934999999992
 20
374.46927999999991
 30
0.0
 11
408.91073999999992
 21
375.92500999999987
 31
0.0
  0
TEXT
  5
95B
  8
DATA
 62
     7
 10
400.28437602604163
 20
383.49000859999978
 30
0.0
 40
4.617179804687499
  1
1
 41
0.8
 72
     1
 11
400.89999999999992
 21
388.10718840468729
 31
0.0
 73
     3
  0
TEXT
  5
95C
  8
DATA
 62
     7
 10
395.66720494270828
 20
359.22001859999989
 30
0.0
 40
2.3085860546874999
  1
OUTPUT
 41
0.8
 72
     1
 11
400.89999999999992
 21
361.5286046546874
 31
0.0
 73
     3
  0
TEXT
  5
95D
  8
DATA
 62
     7
 10
396.28282789062501
 20
356.22002859999981
 30
0.0
 40
2.3085860546874999
  1
LEVEL
 41
0.8
 72
     1
 11
400.89999999999992
 21
358.52861465468732
 31
0.0
 73
     3
  0
TEXT
  5
95E
  8
DATA
 62
     7
 10
479.4601678885416
 20
388.35401859999979
 30
0.0
 40
2.7703048046875001
  1
MARCAD Diversity
 41
0.8
 72
     1
 11
494.89999999999992
 21
391.12432340468729
 31
0.0
 73
     3
  0
TEXT
  5
95F
  8
DATA
 62
     7
 10
312.46017788854169
 20
388.35401859999979
 30
0.0
 40
2.7703048046875001
  1
MARCAD Diversity
 41
0.8
 72
     1
 11
327.90001000000001
 21
391.12432340468729
 31
0.0
 73
     3
  0
CIRCLE
  5
960
  8
DATA
  6
CONTINUOUS
 62
     7
 10
594.39999999999986
 20
361.00000999999992
 30
0.0
 40
4.75
  0
CIRCLE
  5
961
  8
DATA
  6
CONTINUOUS
 62
     7
 10
594.39999999999986
 20
361.00000999999992
 30
0.0
 40
3.0
  0
CIRCLE
  5
962
  8
DATA
  6
CONTINUOUS
 62
     7
 10
594.39999999999986
 20
382.80000999999987
 30
0.0
 40
6.7499900000000004
  0
CIRCLE
  5
963
  8
DATA
  6
CONTINUOUS
 62
     7
 10
594.39999999999986
 20
382.80000999999987
 30
0.0
 40
6.2499900000000004
  0
CIRCLE
  5
964
  8
DATA
  6
CONTINUOUS
 62
     7
 10
594.39999999999986
 20
382.80000999999987
 30
0.0
 40
4.5000099999999987
  0
LINE
  5
965
  8
DATA
  6
CONTINUOUS
 62
     7
 10
594.39999999999986
 20
382.80000999999987
 30
0.0
 11
592.14999999999986
 21
378.90288999999979
 31
0.0
  0
CIRCLE
  5
966
  8
DATA
  6
CONTINUOUS
 62
     7
 10
589.89999999999998
 20
373.80000999999987
 30
0.0
 40
1.75
  0
CIRCLE
  5
967
  8
DATA
  6
CONTINUOUS
 62
     7
 10
599.89999999999986
 20
373.80000999999987
 30
0.0
 40
1.75
  0
TEXT
  5
968
  8
DATA
 62
     7
 10
585.47346725520833
 20
352.42001859999982
 30
0.0
 40
2.3085860546874999
  1
HEADPHONES
 41
0.8
 72
     1
 11
594.39999999999986
 21
354.72860465468727
 31
0.0
 73
     3
  0
LINE
  5
969
  8
DATA
  6
CONTINUOUS
 62
     7
 10
585.89999999999986
 20
389.29999999999978
 30
0.0
 11
585.89999999999986
 21
369.80000999999987
 31
0.0
  0
LINE
  5
96A
  8
DATA
  6
CONTINUOUS
 62
     7
 10
586.89999999999986
 20
368.80000999999987
 30
0.0
 11
588.89999999999998
 21
368.80000999999987
 31
0.0
  0
LINE
  5
96B
  8
DATA
  6
CONTINUOUS
 62
     7
 10
591.39999999999986
 20
368.80000999999987
 30
0.0
 11
597.90000999999995
 21
368.80000999999987
 31
0.0
  0
ARC
  5
96C
  8
DATA
  6
CONTINUOUS
 62
     7
 10
586.89999999999986
 20
369.80000999999987
 30
0.0
 40
1.0
 50
180.0
 51
270.0
  0
TEXT
  5
96D
  8
DATA
 62
     7
 10
589.89219852604174
 20
368.12001859999981
 30
0.0
 40
2.3085860546874999
  1
1
 41
0.8
 72
     1
 11
590.20001000000002
 21
370.42860465468732
 31
0.0
 73
     3
  0
TEXT
  5
96E
  8
DATA
 62
     7
 10
599.18437705208328
 20
368.12001859999981
 30
0.0
 40
2.3085860546874999
  1
2
 41
0.8
 72
     1
 11
599.79999999999995
 21
370.42860465468732
 31
0.0
 73
     3
  0
TEXT
  5
96F
  8
DATA
 62
     7
 10
582.5140737864582
 20
390.52000859999981
 30
0.0
 40
2.3085860546874999
  1
PUSH
 41
0.8
 72
     1
 11
585.89999999999986
 21
392.82859465468732
 31
0.0
 73
     3
  0
LINE
  5
970
  8
DATA
  6
CONTINUOUS
 62
     7
 10
570.35289999999986
 20
376.99462999999992
 30
0.0
 11
563.60290999999995
 21
365.30329999999992
 31
0.0
  0
LINE
  5
971
  8
DATA
  6
CONTINUOUS
 62
     7
 10
571.65195000000017
 20
376.24462999999992
 30
0.0
 11
564.90195000000006
 21
364.5532799999998
 31
0.0
  0
LINE
  5
972
  8
DATA
  6
CONTINUOUS
 62
     7
 10
563.60290999999995
 20
365.30329999999992
 30
0.0
 11
564.90195000000006
 21
364.5532799999998
 31
0.0
  0
ARC
  5
973
  8
DATA
  6
CONTINUOUS
 62
     7
 10
567.90000999999995
 20
371.2460699999998
 30
0.0
 40
6.2499949730299429
 50
247.7651729498622
 51
233.10777075940979
  0
LINE
  5
974
  8
DATA
  6
CONTINUOUS
 62
     7
 10
565.85290999999995
 20
369.20038999999991
 30
0.0
 11
567.15192999999988
 21
368.45038999999991
 31
0.0
  0
LINE
  5
975
  8
DATA
  6
CONTINUOUS
 62
     7
 10
564.48827000000006
 20
364.79212999999987
 30
0.0
 11
563.37471000000005
 21
362.86338999999992
 31
0.0
  0
LINE
  5
976
  8
DATA
  6
CONTINUOUS
 62
     7
 10
565.73089000000004
 20
377.1076099999998
 30
0.0
 11
564.83600999999987
 21
379.5662699999998
 31
0.0
  0
LINE
  5
977
  8
DATA
  6
CONTINUOUS
 62
     7
 10
562.12662999999998
 20
368.73647999999991
 30
0.0
 11
559.30754999999999
 21
367.7104299999998
 31
0.0
  0
LINE
  5
978
  8
DATA
  6
CONTINUOUS
 62
     7
 10
562.35635000000002
 20
374.13230999999979
 30
0.0
 11
559.98896999999999
 21
375.4991099999998
 31
0.0
  0
LINE
  5
979
  8
DATA
  6
CONTINUOUS
 62
     7
 10
571.12471000000005
 20
365.46144999999979
 30
0.0
 11
572.62469999999985
 21
362.86338999999992
 31
0.0
  0
LINE
  5
97A
  8
DATA
  6
CONTINUOUS
 62
     7
 10
570.19970999999987
 20
376.72411999999991
 30
0.0
 11
571.16340000000002
 21
379.5662699999998
 31
0.0
  0
LINE
  5
97B
  8
DATA
  6
CONTINUOUS
 62
     7
 10
573.8727899999999
 20
368.73647999999991
 30
0.0
 11
576.69186000000002
 21
367.7104299999998
 31
0.0
  0
LINE
  5
97C
  8
DATA
  6
CONTINUOUS
 62
     7
 10
573.48905999999988
 20
374.04339999999979
 30
0.0
 11
576.01044000000002
 21
375.4991099999998
 31
0.0
  0
LINE
  5
97D
  8
DATA
  6
CONTINUOUS
 62
     7
 10
319.0
 20
528.20000999999968
 30
0.0
 11
319.0
 21
532.20000999999968
 31
0.0
  0
LINE
  5
97E
  8
DATA
  6
CONTINUOUS
 62
     7
 10
317.0
 20
530.20000999999979
 30
0.0
 11
321.0
 21
530.20000999999979
 31
0.0
  0
CIRCLE
  5
97F
  8
DATA
  6
CONTINUOUS
 62
     7
 10
319.0
 20
530.20000999999979
 30
0.0
 40
3.25
  0
CIRCLE
  5
980
  8
DATA
  6
CONTINUOUS
 62
     7
 10
319.0
 20
530.20000999999979
 30
0.0
 40
8.0
  0
LINE
  5
981
  8
DATA
  6
CONTINUOUS
 62
     7
 10
504.50000999999997
 20
528.20000999999968
 30
0.0
 11
504.50000999999997
 21
532.20000999999968
 31
0.0
  0
LINE
  5
982
  8
DATA
  6
CONTINUOUS
 62
     7
 10
502.50000999999992
 20
530.20000999999979
 30
0.0
 11
506.50000999999992
 21
530.20000999999979
 31
0.0
  0
CIRCLE
  5
983
  8
DATA
  6
CONTINUOUS
 62
     7
 10
504.50000999999997
 20
530.20000999999979
 30
0.0
 40
3.25
  0
CIRCLE
  5
984
  8
DATA
  6
CONTINUOUS
 62
     7
 10
504.50000999999997
 20
530.20000999999979
 30
0.0
 40
8.0
  0
LINE
  5
985
  8
DATA
  6
CONTINUOUS
 62
     7
 10
336.0
 20
773.69999999999982
 30
0.0
 11
336.0
 21
777.69999999999982
 31
0.0
  0
LINE
  5
986
  8
DATA
  6
CONTINUOUS
 62
     7
 10
334.0
 20
775.69999999999982
 30
0.0
 11
338.0
 21
775.69999999999982
 31
0.0
  0
CIRCLE
  5
987
  8
DATA
  6
CONTINUOUS
 62
     7
 10
336.0
 20
775.69999999999982
 30
0.0
 40
3.25
  0
CIRCLE
  5
988
  8
DATA
  6
CONTINUOUS
 62
     7
 10
336.0
 20
775.69999999999982
 30
0.0
 40
8.0
  0
LINE
  5
989
  8
DATA
  6
CONTINUOUS
 62
     7
 10
391.00000999999997
 20
794.97499999999968
 30
0.0
 11
391.00000999999997
 21
797.47499999999957
 31
0.0
  0
LINE
  5
98A
  8
DATA
  6
CONTINUOUS
 62
     7
 10
430.01001000000002
 20
797.47499999999957
 30
0.0
 11
430.01001000000002
 21
794.97499999999968
 31
0.0
  0
LINE
  5
98B
  8
DATA
  6
CONTINUOUS
 62
     7
 10
391.00000999999997
 20
797.47499999999957
 30
0.0
 11
430.01001000000002
 21
797.47499999999957
 31
0.0
  0
LINE
  5
98C
  8
DATA
  6
CONTINUOUS
 62
     7
 10
386.98500000000001
 20
797.47499999999957
 30
0.0
 11
386.98500000000001
 21
794.97499999999968
 31
0.0
  0
LINE
  5
98D
  8
DATA
  6
CONTINUOUS
 62
     7
 10
434.02499999999998
 20
797.47499999999957
 30
0.0
 11
434.02499999999998
 21
794.97499999999968
 31
0.0
  0
LINE
  5
98E
  8
DATA
  6
CONTINUOUS
 62
     7
 10
436.52499999999992
 20
797.47499999999957
 30
0.0
 11
436.52499999999992
 21
794.97499999999968
 31
0.0
  0
LINE
  5
98F
  8
DATA
  6
CONTINUOUS
 62
     7
 10
431.52499999999992
 20
797.47499999999957
 30
0.0
 11
431.52499999999992
 21
794.97499999999968
 31
0.0
  0
LINE
  5
990
  8
DATA
  6
CONTINUOUS
 62
     7
 10
389.48500000000001
 20
797.47499999999957
 30
0.0
 11
389.48500000000001
 21
794.97499999999968
 31
0.0
  0
LINE
  5
991
  8
DATA
  6
CONTINUOUS
 62
     7
 10
384.48500000000001
 20
797.47499999999957
 30
0.0
 11
384.48500000000001
 21
794.97499999999968
 31
0.0
  0
LINE
  5
992
  8
DATA
  6
CONTINUOUS
 62
     7
 10
389.48500000000001
 20
797.47499999999957
 30
0.0
 11
384.48500000000001
 21
797.47499999999957
 31
0.0
  0
LINE
  5
993
  8
DATA
  6
CONTINUOUS
 62
     7
 10
431.52499999999992
 20
797.47499999999957
 30
0.0
 11
436.52499999999992
 21
797.47499999999957
 31
0.0
  0
LINE
  5
994
  8
DATA
  6
CONTINUOUS
 62
     7
 10
354.7000000000001
 20
794.97499999999968
 30
0.0
 11
354.7000000000001
 21
796.47499999999957
 31
0.0
  0
LINE
  5
995
  8
DATA
  6
CONTINUOUS
 62
     7
 10
345.30000000000001
 20
794.97499999999968
 30
0.0
 11
345.30000000000001
 21
796.47499999999957
 31
0.0
  0
LINE
  5
996
  8
DATA
  6
CONTINUOUS
 62
     7
 10
345.30000000000001
 20
796.47499999999957
 30
0.0
 11
354.7000000000001
 21
796.47499999999957
 31
0.0
  0
LINE
  5
997
  8
DATA
  6
CONTINUOUS
 62
     7
 10
499.72500000000002
 20
794.97499999999968
 30
0.0
 11
499.72500000000002
 21
796.47499999999957
 31
0.0
  0
LINE
  5
998
  8
DATA
  6
CONTINUOUS
 62
     7
 10
490.32499999999987
 20
794.97499999999968
 30
0.0
 11
490.32499999999987
 21
796.47499999999957
 31
0.0
  0
LINE
  5
999
  8
DATA
  6
CONTINUOUS
 62
     7
 10
490.32499999999987
 20
796.47499999999957
 30
0.0
 11
499.72500000000002
 21
796.47499999999957
 31
0.0
  0
TEXT
  5
99A
  8
DATA
 62
     7
 10
271.68779520729169
 20
986.37998139999956
 30
0.0
 40
2.3085860546874999
  1
12 Vdc OUT
 50
180.0
 41
0.8
 72
     1
 11
263.50000999999997
 21
984.07139534531211
 31
0.0
 73
     3
  0
TEXT
  5
99B
  8
DATA
 62
     7
 10
267.34765342447918
 20
989.37997139999959
 30
0.0
 40
2.3085860546874999
  1
150mA
 50
180.0
 41
0.8
 72
     1
 11
263.50000999999997
 21
987.07138534531225
 31
0.0
 73
     3
  0
TEXT
  5
99C
  8
DATA
 62
     7
 10
269.28686571041669
 20
992.37996139999984
 30
0.0
 40
2.3085860546874999
  1
CLASS 2
 50
180.0
 41
0.8
 72
     1
 11
263.50000999999997
 21
990.07137534531228
 31
0.0
 73
     3
  0
TEXT
  5
99D
  8
DATA
 62
     7
 10
273.22685257708338
 20
962.47999139999956
 30
0.0
 40
2.3085860546874999
  1
ANTENNA A IN
 50
180.0
 41
0.8
 72
     1
 11
263.50000999999997
 21
960.17140534531222
 31
0.0
 73
     3
  0
POLYLINE
  5
99E
  8
DATA
  6
CONTINUOUS
 62
     7
 66
     1
 10
0.0
 20
0.0
 30
0.0
 70
     1
  0
VERTEX
  5
1165
  8
DATA
  6
CONTINUOUS
 62
     7
 10
436.52499000000012
 20
965.55652999999973
 30
0.0
  0
VERTEX
  5
1166
  8
DATA
  6
CONTINUOUS
 62
     7
 10
436.52508999999992
 20
968.44325999999967
 30
0.0
  0
VERTEX
  5
1167
  8
DATA
  6
CONTINUOUS
 62
     7
 10
434.02514000000002
 20
969.88672999999983
 30
0.0
  0
VERTEX
  5
1168
  8
DATA
  6
CONTINUOUS
 62
     7
 10
431.52503000000002
 20
968.44349999999974
 30
0.0
  0
VERTEX
  5
1169
  8
DATA
  6
CONTINUOUS
 62
     7
 10
431.5249
 20
965.55670999999973
 30
0.0
  0
VERTEX
  5
116A
  8
DATA
  6
CONTINUOUS
 62
     7
 10
434.02487000000002
 20
964.11324999999954
 30
0.0
  0
SEQEND
  5
116B
  8
DATA
  6
CONTINUOUS
 62
     7
  0
POLYLINE
  5
9A7
  8
DATA
  6
CONTINUOUS
 62
     7
 66
     1
 10
0.0
 20
0.0
 30
0.0
 70
     1
  0
VERTEX
  5
116C
  8
DATA
  6
CONTINUOUS
 62
     7
 10
389.48498000000001
 20
965.55652999999973
 30
0.0
  0
VERTEX
  5
116D
  8
DATA
  6
CONTINUOUS
 62
     7
 10
389.48509000000001
 20
968.44325999999967
 30
0.0
  0
VERTEX
  5
116E
  8
DATA
  6
CONTINUOUS
 62
     7
 10
386.98514
 20
969.88672999999983
 30
0.0
  0
VERTEX
  5
116F
  8
DATA
  6
CONTINUOUS
 62
     7
 10
384.48504000000003
 20
968.44349999999974
 30
0.0
  0
VERTEX
  5
1170
  8
DATA
  6
CONTINUOUS
 62
     7
 10
384.48489999999998
 20
965.55670999999973
 30
0.0
  0
VERTEX
  5
1171
  8
DATA
  6
CONTINUOUS
 62
     7
 10
386.98487
 20
964.11324999999954
 30
0.0
  0
SEQEND
  5
1172
  8
DATA
  6
CONTINUOUS
 62
     7
  0
LINE
  5
9B0
  8
DATA
  6
CONTINUOUS
 62
     7
 10
393.06171000000001
 20
973.19998999999984
 30
0.0
 11
427.94828999999987
 21
973.19998999999984
 31
0.0
  0
LINE
  5
9B1
  8
DATA
  6
CONTINUOUS
 62
     7
 10
393.83753999999999
 20
960.79998999999953
 30
0.0
 11
427.17245999999989
 21
960.79998999999953
 31
0.0
  0
ARC
  5
9B2
  8
DATA
  6
CONTINUOUS
 62
     7
 10
393.06171000000001
 20
969.19998999999973
 30
0.0
 40
4.0
 50
90.0
 51
189.99993940657529
  0
ARC
  5
9B3
  8
DATA
  6
CONTINUOUS
 62
     7
 10
393.83753999999999
 20
964.79998999999964
 30
0.0
 40
4.0000002691125012
 50
190.0001053430303
 51
270.0
  0
ARC
  5
9B4
  8
DATA
  6
CONTINUOUS
 62
     7
 10
427.17245999999989
 20
964.79998999999964
 30
0.0
 40
4.0
 50
270.0
 51
350.00003572029539
  0
ARC
  5
9B5
  8
DATA
  6
CONTINUOUS
 62
     7
 10
427.94828999999987
 20
969.19998999999973
 30
0.0
 40
4.0000101171872178
 50
349.99991953043542
 51
90.0
  0
LINE
  5
9B6
  8
DATA
  6
CONTINUOUS
 62
     7
 10
389.89830999999998
 20
964.10538999999972
 30
0.0
 11
389.48498000000001
 21
965.55652999999973
 31
0.0
  0
LINE
  5
9B7
  8
DATA
  6
CONTINUOUS
 62
     7
 10
431.11167999999992
 20
964.10540999999955
 30
0.0
 11
431.5249
 21
965.55670999999973
 31
0.0
  0
CIRCLE
  5
9B8
  8
DATA
  6
CONTINUOUS
 62
     7
 10
495.02499999999992
 20
973.99999999999955
 30
0.0
 40
4.700000000000002
  0
POLYLINE
  5
9B9
  8
DATA
  6
CONTINUOUS
 62
     7
 66
     1
 10
0.0
 20
0.0
 30
0.0
 70
     1
  0
VERTEX
  5
1173
  8
DATA
  6
CONTINUOUS
 62
     7
 10
501.2750099999999
 20
970.39140999999961
 30
0.0
  0
VERTEX
  5
1174
  8
DATA
  6
CONTINUOUS
 62
     7
 10
501.27517999999998
 20
977.6082799999997
 30
0.0
  0
VERTEX
  5
1175
  8
DATA
  6
CONTINUOUS
 62
     7
 10
495.02521999999999
 20
981.21686999999974
 30
0.0
  0
VERTEX
  5
1176
  8
DATA
  6
CONTINUOUS
 62
     7
 10
488.77503999999988
 20
977.60865999999965
 30
0.0
  0
VERTEX
  5
1177
  8
DATA
  6
CONTINUOUS
 62
     7
 10
488.77481999999992
 20
970.3916899999997
 30
0.0
  0
VERTEX
  5
1178
  8
DATA
  6
CONTINUOUS
 62
     7
 10
495.02476999999999
 20
966.78310999999974
 30
0.0
  0
SEQEND
  5
1179
  8
DATA
  6
CONTINUOUS
 62
     7
  0
CIRCLE
  5
9C2
  8
DATA
  6
CONTINUOUS
 62
     7
 10
495.02499999999992
 20
973.99999999999955
 30
0.0
 40
8.0
  0
CIRCLE
  5
9C3
  8
DATA
  6
CONTINUOUS
 62
     7
 10
495.02499999999992
 20
973.99999999999955
 30
0.0
 40
3.1499980756343202
  0
LINE
  5
9C4
  8
DATA
  6
CONTINUOUS
 62
     7
 10
481.52499999999992
 20
980.79998999999964
 30
0.0
 11
481.52499999999992
 21
985.79998999999953
 31
0.0
  0
LINE
  5
9C5
  8
DATA
  6
CONTINUOUS
 62
     7
 10
472.52499999999992
 20
980.79998999999964
 30
0.0
 11
472.52499999999992
 21
985.79998999999953
 31
0.0
  0
LINE
  5
9C6
  8
DATA
  6
CONTINUOUS
 62
     7
 10
481.52499999999992
 20
980.79998999999964
 30
0.0
 11
472.52499999999992
 21
980.79998999999964
 31
0.0
  0
LINE
  5
9C7
  8
DATA
  6
CONTINUOUS
 62
     7
 10
481.52499999999992
 20
985.79998999999953
 30
0.0
 11
472.52499999999992
 21
985.79998999999953
 31
0.0
  0
LINE
  5
9C8
  8
DATA
  6
CONTINUOUS
 62
     7
 10
478.52499999999992
 20
982.29998999999975
 30
0.0
 11
473.52499999999992
 21
982.29998999999975
 31
0.0
  0
LINE
  5
9C9
  8
DATA
  6
CONTINUOUS
 62
     7
 10
473.52499999999992
 20
982.29998999999975
 30
0.0
 11
473.52499999999992
 21
985.79998999999953
 31
0.0
  0
LINE
  5
9CA
  8
DATA
  6
CONTINUOUS
 62
     7
 10
478.52499999999992
 20
982.29998999999975
 30
0.0
 11
478.52499999999992
 21
985.79998999999953
 31
0.0
  0
LINE
  5
9CB
  8
DATA
  6
CONTINUOUS
 62
     7
 10
477.22500000000002
 20
982.29998999999975
 30
0.0
 11
477.22500000000002
 21
985.79998999999953
 31
0.0
  0
LINE
  5
9CC
  8
DATA
  6
CONTINUOUS
 62
     7
 10
475.92500999999999
 20
982.29998999999975
 30
0.0
 11
475.92500999999999
 21
985.79998999999953
 31
0.0
  0
LINE
  5
9CD
  8
DATA
  6
CONTINUOUS
 62
     7
 10
474.62500999999997
 20
982.29998999999975
 30
0.0
 11
474.62500999999997
 21
985.79998999999953
 31
0.0
  0
CIRCLE
  5
9CE
  8
DATA
  6
CONTINUOUS
 62
     7
 10
449.8251699999999
 20
973.99999999999955
 30
0.0
 40
1.250020732828075
  0
CIRCLE
  5
9CF
  8
DATA
  6
CONTINUOUS
 62
     7
 10
454.02516000000003
 20
978.19998999999973
 30
0.0
 40
1.2499988475194701
  0
CIRCLE
  5
9D0
  8
DATA
  6
CONTINUOUS
 62
     7
 10
458.22516000000002
 20
973.99998999999968
 30
0.0
 40
1.2500110614710629
  0
LINE
  5
9D1
  8
DATA
  6
CONTINUOUS
 62
     7
 10
447.40795999999989
 20
969.50411999999983
 30
0.0
 11
446.70085999999992
 21
968.79700999999966
 31
0.0
  0
LINE
  5
9D2
  8
DATA
  6
CONTINUOUS
 62
     7
 10
449.52928000000003
 20
967.38278999999966
 30
0.0
 11
448.82217999999989
 21
966.67569999999955
 31
0.0
  0
LINE
  5
9D3
  8
DATA
  6
CONTINUOUS
 62
     7
 10
448.82217999999989
 20
966.67569999999955
 30
0.0
 11
446.70085999999992
 21
968.79700999999966
 31
0.0
  0
CIRCLE
  5
9D4
  8
DATA
  6
CONTINUOUS
 62
     7
 10
443.87515999999999
 20
985.79997999999955
 30
0.0
 40
2.9698484809835111
  0
CIRCLE
  5
9D5
  8
DATA
  6
CONTINUOUS
 62
     7
 10
464.17514999999992
 20
962.49998999999968
 30
0.0
 40
2.9000000000000048
  0
LINE
  5
9D6
  8
DATA
  6
CONTINUOUS
 62
     7
 10
443.87515999999999
 20
983.79997999999955
 30
0.0
 11
443.87515999999999
 21
987.79997999999955
 31
0.0
  0
LINE
  5
9D7
  8
DATA
  6
CONTINUOUS
 62
     7
 10
441.87515999999999
 20
985.79997999999955
 30
0.0
 11
445.87515999999999
 21
985.79997999999955
 31
0.0
  0
LINE
  5
9D8
  8
DATA
  6
CONTINUOUS
 62
     7
 10
464.17514999999992
 20
960.49998999999968
 30
0.0
 11
464.17514999999992
 21
964.49998999999957
 31
0.0
  0
LINE
  5
9D9
  8
DATA
  6
CONTINUOUS
 62
     7
 10
462.17514999999997
 20
962.49998999999968
 30
0.0
 11
466.17514999999997
 21
962.49998999999968
 31
0.0
  0
LINE
  5
9DA
  8
DATA
  6
CONTINUOUS
 62
     7
 10
477.02499999999992
 20
978.89998999999955
 30
0.0
 11
477.02499999999992
 21
973.99999999999955
 31
0.0
  0
LINE
  5
9DB
  8
DATA
  6
CONTINUOUS
 62
     7
 10
476.95001000000002
 20
973.99999999999955
 30
0.0
 11
466.05000999999999
 21
973.99999999999955
 31
0.0
  0
TEXT
  5
9DC
  8
DATA
 62
     7
 10
483.53604166666662
 20
978.50799999999981
 30
0.0
 40
2.1546875000000001
  1
MIC
 50
180.0
 41
0.8
 72
     1
 11
481.52499999999992
 21
976.35331249999979
 31
0.0
 73
     3
  0
TEXT
  5
9DD
  8
DATA
 62
     7
 10
475.39791666666662
 20
978.50799999999981
 30
0.0
 40
2.1546875000000001
  1
LINE
 50
180.0
 41
0.8
 72
     1
 11
472.52499999999992
 21
976.35331249999979
 31
0.0
 73
     3
  0
ARC
  5
9DE
  8
DATA
  6
CONTINUOUS
 62
     7
 10
454.02499999999992
 20
973.99999999999955
 30
0.0
 40
8.0000657313862167
 50
235.80791393539201
 51
214.19383434088081
  0
CIRCLE
  5
9DF
  8
DATA
  6
CONTINUOUS
 62
     7
 10
454.02499999999992
 20
973.99999999999955
 30
0.0
 40
11.49996434931866
  0
TEXT
  5
9E0
  8
DATA
 62
     7
 10
503.02499999999992
 20
963.90398139999957
 30
0.0
 40
3.0011641796875002
  1
RECEIVER 2 OUTPUTS
 50
180.0
 41
0.8
 11
503.02499999999992
 21
960.90281722031204
 31
0.0
 73
     3
  0
TEXT
  5
9E1
  8
DATA
 62
     7
 10
466.21433436874997
 20
992.2776213999997
 30
0.0
 40
2.3085860546874999
  1
BALANCED LOW Z
 50
180.0
 41
0.8
 72
     1
 11
454.02499999999992
 21
989.96903534531225
 31
0.0
 73
     3
  0
TEXT
  5
9E2
  8
DATA
 62
     7
 10
499.58060981458323
 20
992.2776213999997
 30
0.0
 40
2.3085860546874999
  1
HIGH Z
 50
180.0
 41
0.8
 72
     1
 11
495.02499999999992
 21
989.96903534531225
 31
0.0
 73
     3
  0
LINE
  5
9E3
  8
DATA
  6
CONTINUOUS
 62
     7
 10
509.52499999999998
 20
989.19762999999955
 30
0.0
 11
509.52499999999998
 21
964.49998999999957
 31
0.0
  0
LINE
  5
9E4
  8
DATA
  6
CONTINUOUS
 62
     7
 10
507.52499999999992
 20
962.49998999999968
 30
0.0
 11
505.89999999999998
 21
962.49998999999968
 31
0.0
  0
LINE
  5
9E5
  8
DATA
  6
CONTINUOUS
 62
     7
 10
501.27517999999998
 20
991.19762999999966
 30
0.0
 11
507.52499999999992
 21
991.19762999999966
 31
0.0
  0
LINE
  5
9E6
  8
DATA
  6
CONTINUOUS
 62
     7
 10
488.77503999999988
 20
991.19762999999966
 30
0.0
 11
465.52496000000002
 21
991.19762999999966
 31
0.0
  0
LINE
  5
9E7
  8
DATA
  6
CONTINUOUS
 62
     7
 10
438.10000999999988
 20
964.49998999999957
 30
0.0
 11
438.10000999999988
 21
989.09999999999957
 31
0.0
  0
LINE
  5
9E8
  8
DATA
  6
CONTINUOUS
 62
     7
 10
446.60000999999988
 20
962.49998999999968
 30
0.0
 11
440.10000999999988
 21
962.49998999999968
 31
0.0
  0
LINE
  5
9E9
  8
DATA
  6
CONTINUOUS
 62
     7
 10
440.10000999999988
 20
991.09999999999968
 30
0.0
 11
441.20001000000002
 21
991.09999999999968
 31
0.0
  0
ARC
  5
9EA
  8
DATA
  6
CONTINUOUS
 62
     7
 10
507.52499999999992
 20
964.49998999999957
 30
0.0
 40
2.0
 50
270.0
 51
0.0
  0
ARC
  5
9EB
  8
DATA
  6
CONTINUOUS
 62
     7
 10
507.52499999999992
 20
989.19762999999955
 30
0.0
 40
2.0
 50
0.0
 51
90.0
  0
ARC
  5
9EC
  8
DATA
  6
CONTINUOUS
 62
     7
 10
440.10000999999988
 20
989.09999999999957
 30
0.0
 40
2.0
 50
90.0
 51
180.0
  0
ARC
  5
9ED
  8
DATA
  6
CONTINUOUS
 62
     7
 10
440.10000999999988
 20
964.49998999999957
 30
0.0
 40
2.0
 50
180.0
 51
270.0
  0
CIRCLE
  5
9EE
  8
DATA
  6
CONTINUOUS
 62
     7
 10
350.2000000000001
 20
973.99999999999955
 30
0.0
 40
4.6999899999999846
  0
POLYLINE
  5
9EF
  8
DATA
  6
CONTINUOUS
 62
     7
 66
     1
 10
0.0
 20
0.0
 30
0.0
 70
     1
  0
VERTEX
  5
117A
  8
DATA
  6
CONTINUOUS
 62
     7
 10
356.45001999999999
 20
970.39140999999961
 30
0.0
  0
VERTEX
  5
117B
  8
DATA
  6
CONTINUOUS
 62
     7
 10
356.4501800000001
 20
977.6082799999997
 30
0.0
  0
VERTEX
  5
117C
  8
DATA
  6
CONTINUOUS
 62
     7
 10
350.20023000000009
 20
981.21686999999974
 30
0.0
  0
VERTEX
  5
117D
  8
DATA
  6
CONTINUOUS
 62
     7
 10
343.95004
 20
977.60865999999965
 30
0.0
  0
VERTEX
  5
117E
  8
DATA
  6
CONTINUOUS
 62
     7
 10
343.94981000000001
 20
970.3916899999997
 30
0.0
  0
VERTEX
  5
117F
  8
DATA
  6
CONTINUOUS
 62
     7
 10
350.19978000000009
 20
966.78310999999974
 30
0.0
  0
SEQEND
  5
1180
  8
DATA
  6
CONTINUOUS
 62
     7
  0
CIRCLE
  5
9F8
  8
DATA
  6
CONTINUOUS
 62
     7
 10
350.2000000000001
 20
973.99999999999955
 30
0.0
 40
8.0
  0
CIRCLE
  5
9F9
  8
DATA
  6
CONTINUOUS
 62
     7
 10
350.2000000000001
 20
973.99999999999955
 30
0.0
 40
3.1499910045585602
  0
LINE
  5
9FA
  8
DATA
  6
CONTINUOUS
 62
     7
 10
336.70001000000002
 20
980.79998999999964
 30
0.0
 11
336.70001000000002
 21
985.79998999999953
 31
0.0
  0
LINE
  5
9FB
  8
DATA
  6
CONTINUOUS
 62
     7
 10
327.70001000000002
 20
980.79998999999964
 30
0.0
 11
327.70001000000002
 21
985.79998999999953
 31
0.0
  0
LINE
  5
9FC
  8
DATA
  6
CONTINUOUS
 62
     7
 10
336.70001000000002
 20
980.79998999999964
 30
0.0
 11
327.70001000000002
 21
980.79998999999964
 31
0.0
  0
LINE
  5
9FD
  8
DATA
  6
CONTINUOUS
 62
     7
 10
336.70001000000002
 20
985.79998999999953
 30
0.0
 11
327.70001000000002
 21
985.79998999999953
 31
0.0
  0
LINE
  5
9FE
  8
DATA
  6
CONTINUOUS
 62
     7
 10
333.70001000000002
 20
982.29998999999975
 30
0.0
 11
328.70001000000002
 21
982.29998999999975
 31
0.0
  0
LINE
  5
9FF
  8
DATA
  6
CONTINUOUS
 62
     7
 10
328.70001000000002
 20
982.29998999999975
 30
0.0
 11
328.70001000000002
 21
985.79998999999953
 31
0.0
  0
LINE
  5
A00
  8
DATA
  6
CONTINUOUS
 62
     7
 10
333.70001000000002
 20
982.29998999999975
 30
0.0
 11
333.70001000000002
 21
985.79998999999953
 31
0.0
  0
LINE
  5
A01
  8
DATA
  6
CONTINUOUS
 62
     7
 10
332.40001000000001
 20
982.29998999999975
 30
0.0
 11
332.40001000000001
 21
985.79998999999953
 31
0.0
  0
LINE
  5
A02
  8
DATA
  6
CONTINUOUS
 62
     7
 10
331.10001
 20
982.29998999999975
 30
0.0
 11
331.10001
 21
985.79998999999953
 31
0.0
  0
LINE
  5
A03
  8
DATA
  6
CONTINUOUS
 62
     7
 10
329.80000000000001
 20
982.29998999999975
 30
0.0
 11
329.80000000000001
 21
985.79998999999953
 31
0.0
  0
CIRCLE
  5
A04
  8
DATA
  6
CONTINUOUS
 62
     7
 10
305.00017000000008
 20
973.99999999999955
 30
0.0
 40
1.250020732828075
  0
CIRCLE
  5
A05
  8
DATA
  6
CONTINUOUS
 62
     7
 10
309.20017000000001
 20
978.19998999999973
 30
0.0
 40
1.2500013901192359
  0
CIRCLE
  5
A06
  8
DATA
  6
CONTINUOUS
 62
     7
 10
313.40016000000008
 20
973.99998999999968
 30
0.0
 40
1.2500136041259771
  0
LINE
  5
A07
  8
DATA
  6
CONTINUOUS
 62
     7
 10
302.58296000000001
 20
969.50411999999983
 30
0.0
 11
301.87587000000002
 21
968.79700999999966
 31
0.0
  0
LINE
  5
A08
  8
DATA
  6
CONTINUOUS
 62
     7
 10
304.70429000000001
 20
967.38278999999966
 30
0.0
 11
303.99718000000001
 21
966.67569999999955
 31
0.0
  0
LINE
  5
A09
  8
DATA
  6
CONTINUOUS
 62
     7
 10
303.99718000000001
 20
966.67569999999955
 30
0.0
 11
301.87587000000002
 21
968.79700999999966
 31
0.0
  0
CIRCLE
  5
A0A
  8
DATA
  6
CONTINUOUS
 62
     7
 10
299.05016000000001
 20
985.79997999999955
 30
0.0
 40
2.9698555520597441
  0
CIRCLE
  5
A0B
  8
DATA
  6
CONTINUOUS
 62
     7
 10
319.35016000000002
 20
962.49998999999968
 30
0.0
 40
2.9000000000000341
  0
LINE
  5
A0C
  8
DATA
  6
CONTINUOUS
 62
     7
 10
299.05016000000001
 20
983.79997999999955
 30
0.0
 11
299.05016000000001
 21
987.79997999999955
 31
0.0
  0
LINE
  5
A0D
  8
DATA
  6
CONTINUOUS
 62
     7
 10
297.05016000000001
 20
985.79997999999955
 30
0.0
 11
301.05016000000001
 21
985.79997999999955
 31
0.0
  0
LINE
  5
A0E
  8
DATA
  6
CONTINUOUS
 62
     7
 10
319.35016000000002
 20
960.49998999999968
 30
0.0
 11
319.35016000000002
 21
964.49998999999957
 31
0.0
  0
LINE
  5
A0F
  8
DATA
  6
CONTINUOUS
 62
     7
 10
317.35016000000002
 20
962.49998999999968
 30
0.0
 11
321.35016000000002
 21
962.49998999999968
 31
0.0
  0
LINE
  5
A10
  8
DATA
  6
CONTINUOUS
 62
     7
 10
332.20001000000002
 20
978.89998999999955
 30
0.0
 11
332.20001000000002
 21
973.99999999999955
 31
0.0
  0
LINE
  5
A11
  8
DATA
  6
CONTINUOUS
 62
     7
 10
332.12502000000001
 20
973.99999999999955
 30
0.0
 11
321.22501
 21
973.99999999999955
 31
0.0
  0
TEXT
  5
A12
  8
DATA
 62
     7
 10
338.71105166666672
 20
978.50799999999981
 30
0.0
 40
2.1546875000000001
  1
MIC
 50
180.0
 41
0.8
 72
     1
 11
336.70001000000002
 21
976.35331249999979
 31
0.0
 73
     3
  0
TEXT
  5
A13
  8
DATA
 62
     7
 10
330.57292666666672
 20
978.50799999999981
 30
0.0
 40
2.1546875000000001
  1
LINE
 50
180.0
 41
0.8
 72
     1
 11
327.70001000000002
 21
976.35331249999979
 31
0.0
 73
     3
  0
ARC
  5
A14
  8
DATA
  6
CONTINUOUS
 62
     7
 10
309.20001000000002
 20
973.99999999999955
 30
0.0
 40
8.0000657313862167
 50
235.80791393539201
 51
214.19379409135399
  0
CIRCLE
  5
A15
  8
DATA
  6
CONTINUOUS
 62
     7
 10
309.20001000000002
 20
973.99999999999955
 30
0.0
 40
11.499960001217399
  0
TEXT
  5
A16
  8
DATA
 62
     7
 10
358.2000000000001
 20
963.90398139999957
 30
0.0
 40
3.0011641796875002
  1
RECEIVER 1 OUTPUTS
 50
180.0
 41
0.8
 11
358.2000000000001
 21
960.90281722031204
 31
0.0
 73
     3
  0
TEXT
  5
A17
  8
DATA
 62
     7
 10
321.38934436875002
 20
992.2776213999997
 30
0.0
 40
2.3085860546874999
  1
BALANCED LOW Z
 50
180.0
 41
0.8
 72
     1
 11
309.20001000000002
 21
989.96903534531225
 31
0.0
 73
     3
  0
TEXT
  5
A18
  8
DATA
 62
     7
 10
354.75560981458341
 20
992.2776213999997
 30
0.0
 40
2.3085860546874999
  1
HIGH Z
 50
180.0
 41
0.8
 72
     1
 11
350.2000000000001
 21
989.96903534531225
 31
0.0
 73
     3
  0
LINE
  5
A19
  8
DATA
  6
CONTINUOUS
 62
     7
 10
364.7000000000001
 20
989.19762999999955
 30
0.0
 11
364.7000000000001
 21
964.49998999999957
 31
0.0
  0
LINE
  5
A1A
  8
DATA
  6
CONTINUOUS
 62
     7
 10
362.7000000000001
 20
962.49998999999968
 30
0.0
 11
361.0750000000001
 21
962.49998999999968
 31
0.0
  0
LINE
  5
A1B
  8
DATA
  6
CONTINUOUS
 62
     7
 10
356.4501800000001
 20
991.19762999999966
 30
0.0
 11
362.7000000000001
 21
991.19762999999966
 31
0.0
  0
LINE
  5
A1C
  8
DATA
  6
CONTINUOUS
 62
     7
 10
343.95004
 20
991.19762999999966
 30
0.0
 11
320.69995
 21
991.19762999999966
 31
0.0
  0
LINE
  5
A1D
  8
DATA
  6
CONTINUOUS
 62
     7
 10
293.27501000000001
 20
964.49998999999957
 30
0.0
 11
293.27501000000001
 21
989.09999999999957
 31
0.0
  0
LINE
  5
A1E
  8
DATA
  6
CONTINUOUS
 62
     7
 10
301.77501000000001
 20
962.49998999999968
 30
0.0
 11
295.27501000000001
 21
962.49998999999968
 31
0.0
  0
LINE
  5
A1F
  8
DATA
  6
CONTINUOUS
 62
     7
 10
295.27501000000001
 20
991.09999999999968
 30
0.0
 11
296.375
 21
991.09999999999968
 31
0.0
  0
ARC
  5
A20
  8
DATA
  6
CONTINUOUS
 62
     7
 10
362.7000000000001
 20
964.49998999999957
 30
0.0
 40
2.0
 50
270.0
 51
0.0
  0
ARC
  5
A21
  8
DATA
  6
CONTINUOUS
 62
     7
 10
362.7000000000001
 20
989.19762999999955
 30
0.0
 40
2.0
 50
0.0
 51
90.0
  0
ARC
  5
A22
  8
DATA
  6
CONTINUOUS
 62
     7
 10
295.27501000000001
 20
989.09999999999957
 30
0.0
 40
2.0
 50
90.0
 51
180.0
  0
ARC
  5
A23
  8
DATA
  6
CONTINUOUS
 62
     7
 10
295.27501000000001
 20
964.49998999999957
 30
0.0
 40
2.0
 50
180.0
 51
270.0
  0
TEXT
  5
A24
  8
DATA
 62
     7
 10
430.01001000000002
 20
977.50398139999947
 30
0.0
 40
3.0011641796875002
  1
SHURE BROTHERS INC.
 50
180.0
 41
0.8
 11
430.01001000000002
 21
974.50281722031195
 31
0.0
 73
     3
  0
TEXT
  5
A25
  8
DATA
 62
     7
 10
430.01001000000002
 20
980.89998999999955
 30
0.0
 40
1.846875
  1
EVANSTON.IL 60202 USA. MADE IN USA
 50
180.0
 41
0.8
 11
430.01001000000002
 21
979.05311499999971
 31
0.0
 73
     3
  0
TEXT
  5
A26
  8
DATA
 62
     7
 10
430.01001000000002
 20
983.29998999999975
 30
0.0
 40
1.846875
  1
MODEL U4D-Ⅱ DUAL RECEIVER
 50
180.0
 41
0.8
 11
430.01001000000002
 21
981.45311499999957
 31
0.0
 73
     3
  0
TEXT
  5
A27
  8
DATA
 62
     7
 10
430.01001000000002
 20
985.69998999999962
 30
0.0
 40
1.846875
  1
FREQUENCY RANGE: 779-810 MHz
 50
180.0
 41
0.8
 11
430.01001000000002
 21
983.85311499999955
 31
0.0
 73
     3
  0
TEXT
  5
A28
  8
DATA
 62
     7
 10
381.10001
 20
984.70399139999984
 30
0.0
 40
3.0011641796875002
  1
VER.2
 50
180.0
 41
0.8
 11
381.10001
 21
981.7028272203122
 31
0.0
 73
     3
  0
TEXT
  5
A29
  8
DATA
 62
     7
 10
383.16018833333339
 20
967.60798999999975
 30
0.0
 40
2.1546875000000001
  1
NETWORKING
 50
180.0
 41
0.8
 72
     1
 11
374.82873000000001
 21
965.45330249999972
 31
0.0
 73
     3
  0
TEXT
  5
A2A
  8
DATA
 62
     7
 10
382.01102166666669
 20
970.40798999999981
 30
0.0
 40
2.1546875000000001
  1
INTERFACE
 50
180.0
 41
0.8
 72
     1
 11
374.82873000000001
 21
968.25330249999968
 31
0.0
 73
     3
  0
LINE
  5
A2B
  8
DATA
  6
CONTINUOUS
 62
     7
 10
1047.7750000000001
 20
380.18674999999979
 30
0.0
 11
1046.7750000000001
 21
380.18674999999979
 31
0.0
  0
LINE
  5
A2C
  8
DATA
  6
CONTINUOUS
 62
     7
 10
1047.7750000000001
 20
381.50000999999992
 30
0.0
 11
1046.7750000000001
 21
381.50000999999992
 31
0.0
  0
LINE
  5
A2D
  8
DATA
  6
CONTINUOUS
 62
     7
 10
526.27500999999995
 20
798.47499999999968
 30
0.0
 11
526.27500999999995
 21
796.37500999999975
 31
0.0
  0
LINE
  5
A2E
  8
DATA
  6
CONTINUOUS
 62
     7
 10
537.77500999999995
 20
798.47499999999968
 30
0.0
 11
537.77500999999995
 21
795.97499999999957
 31
0.0
  0
LINE
  5
A2F
  8
DATA
  6
CONTINUOUS
 62
     7
 10
1047.7750000000001
 20
375.14999999999992
 30
0.0
 11
1047.7750000000001
 21
381.50000999999992
 31
0.0
  0
LINE
  5
A30
  8
DATA
  6
CONTINUOUS
 62
     7
 10
268.245
 20
798.97499999999968
 30
0.0
 11
268.245
 21
808.97499999999957
 31
0.0
  0
LINE
  5
A31
  8
DATA
  6
CONTINUOUS
 62
     7
 10
258.745
 20
798.47499999999968
 30
0.0
 11
258.745
 21
808.97499999999957
 31
0.0
  0
LINE
  5
A32
  8
DATA
  6
CONTINUOUS
 62
     7
 10
258.745
 20
808.97499999999957
 30
0.0
 11
268.245
 21
808.97499999999957
 31
0.0
  0
LINE
  5
A33
  8
DATA
  6
CONTINUOUS
 62
     7
 10
270.64501000000001
 20
795.97499999999957
 30
0.0
 11
270.64501000000001
 21
794.97499999999968
 31
0.0
  0
LINE
  5
A34
  8
DATA
  6
CONTINUOUS
 62
     7
 10
256.34500000000003
 20
795.97499999999957
 30
0.0
 11
256.34500000000003
 21
794.97499999999968
 31
0.0
  0
LINE
  5
A35
  8
DATA
  6
CONTINUOUS
 62
     7
 10
256.34500000000003
 20
795.97499999999957
 30
0.0
 11
270.64501000000001
 21
795.97499999999957
 31
0.0
  0
LINE
  5
A36
  8
DATA
  6
CONTINUOUS
 62
     7
 10
257.745
 20
798.47499999999968
 30
0.0
 11
269.245
 21
798.47499999999968
 31
0.0
  0
CIRCLE
  5
A37
  8
DATA
  6
CONTINUOUS
 62
     7
 10
263.495
 20
804.97499999999968
 30
0.0
 40
1.0
  0
LINE
  5
A38
  8
DATA
  6
CONTINUOUS
 62
     7
 10
257.745
 20
798.47499999999968
 30
0.0
 11
257.745
 21
796.37500999999975
 31
0.0
  0
LINE
  5
A39
  8
DATA
  6
CONTINUOUS
 62
     7
 10
269.245
 20
798.47499999999968
 30
0.0
 11
269.245
 21
795.97499999999957
 31
0.0
  0
LINE
  5
A3A
  8
DATA
  6
CONTINUOUS
 62
     7
 10
600.64999
 20
485.39999999999981
 30
0.0
 11
601.14999
 21
499.70000999999979
 31
0.0
  0
LINE
  5
A3B
  8
DATA
  6
CONTINUOUS
 62
     7
 10
588.14999999999986
 20
485.39999999999981
 30
0.0
 11
587.64999999999998
 21
499.70000999999979
 31
0.0
  0
LINE
  5
A3C
  8
DATA
  6
CONTINUOUS
 62
     7
 10
588.14999999999986
 20
485.39999999999981
 30
0.0
 11
600.64999
 21
485.39999999999981
 31
0.0
  0
LINE
  5
A3D
  8
DATA
  6
CONTINUOUS
 62
     7
 10
574.14982999999995
 20
494.70000999999968
 30
0.0
 11
574.14982999999995
 21
499.70000999999979
 31
0.0
  0
LINE
  5
A3E
  8
DATA
  6
CONTINUOUS
 62
     7
 10
561.65017999999986
 20
494.70000999999968
 30
0.0
 11
561.65017999999986
 21
499.70000999999979
 31
0.0
  0
LINE
  5
A3F
  8
DATA
  6
CONTINUOUS
 62
     7
 10
561.65017999999986
 20
494.70000999999968
 30
0.0
 11
574.14982999999995
 21
494.70000999999968
 31
0.0
  0
LINE
  5
A40
  8
DATA
  6
CONTINUOUS
 62
     7
 10
561.65017999999986
 20
496.20000999999979
 30
0.0
 11
574.14982999999995
 21
496.20000999999979
 31
0.0
  0
LINE
  5
A41
  8
DATA
  6
CONTINUOUS
 62
     7
 10
543.36999999999989
 20
498.20000999999968
 30
0.0
 11
543.36999999999989
 21
499.70000999999979
 31
0.0
  0
LINE
  5
A42
  8
DATA
  6
CONTINUOUS
 62
     7
 10
551.86999999999989
 20
498.20000999999968
 30
0.0
 11
551.86999999999989
 21
499.70000999999979
 31
0.0
  0
LINE
  5
A43
  8
DATA
  6
CONTINUOUS
 62
     7
 10
424.39999999999992
 20
498.20000999999968
 30
0.0
 11
424.39999999999992
 21
499.70000999999979
 31
0.0
  0
LINE
  5
A44
  8
DATA
  6
CONTINUOUS
 62
     7
 10
434.39999999999998
 20
498.20000999999968
 30
0.0
 11
434.39999999999998
 21
499.70000999999979
 31
0.0
  0
LINE
  5
A45
  8
DATA
  6
CONTINUOUS
 62
     7
 10
543.36999999999989
 20
498.20000999999968
 30
0.0
 11
551.86999999999989
 21
498.20000999999968
 31
0.0
  0
LINE
  5
A46
  8
DATA
  6
CONTINUOUS
 62
     7
 10
424.39999999999992
 20
498.20000999999968
 30
0.0
 11
434.39999999999998
 21
498.20000999999968
 31
0.0
  0
LINE
  5
A47
  8
DATA
  6
CONTINUOUS
 62
     7
 10
407.24982999999992
 20
494.70000999999968
 30
0.0
 11
407.24982999999992
 21
499.70000999999979
 31
0.0
  0
LINE
  5
A48
  8
DATA
  6
CONTINUOUS
 62
     7
 10
394.75018
 20
494.70000999999968
 30
0.0
 11
394.75018
 21
499.70000999999979
 31
0.0
  0
LINE
  5
A49
  8
DATA
  6
CONTINUOUS
 62
     7
 10
394.75018
 20
494.70000999999968
 30
0.0
 11
407.24982999999992
 21
494.70000999999968
 31
0.0
  0
LINE
  5
A4A
  8
DATA
  6
CONTINUOUS
 62
     7
 10
394.75018
 20
496.20000999999979
 30
0.0
 11
407.24982999999992
 21
496.20000999999979
 31
0.0
  0
LINE
  5
A4B
  8
DATA
  6
CONTINUOUS
 62
     7
 10
376.47001
 20
498.20000999999968
 30
0.0
 11
376.47001
 21
499.70000999999979
 31
0.0
  0
LINE
  5
A4C
  8
DATA
  6
CONTINUOUS
 62
     7
 10
384.97001
 20
498.20000999999968
 30
0.0
 11
384.97001
 21
499.70000999999979
 31
0.0
  0
LINE
  5
A4D
  8
DATA
  6
CONTINUOUS
 62
     7
 10
257.50000999999997
 20
498.20000999999968
 30
0.0
 11
257.50000999999997
 21
499.70000999999979
 31
0.0
  0
LINE
  5
A4E
  8
DATA
  6
CONTINUOUS
 62
     7
 10
267.50000999999997
 20
498.20000999999968
 30
0.0
 11
267.50000999999997
 21
499.70000999999979
 31
0.0
  0
LINE
  5
A4F
  8
DATA
  6
CONTINUOUS
 62
     7
 10
376.47001
 20
498.20000999999968
 30
0.0
 11
384.97001
 21
498.20000999999968
 31
0.0
  0
LINE
  5
A50
  8
DATA
  6
CONTINUOUS
 62
     7
 10
257.50000999999997
 20
498.20000999999968
 30
0.0
 11
267.50000999999997
 21
498.20000999999968
 31
0.0
  0
LINE
  5
A51
  8
DATA
  6
CONTINUOUS
 62
     7
 10
735.15546999999981
 20
389.04999999999978
 30
0.0
 11
750.0
 21
389.54999999999978
 31
0.0
  0
LINE
  5
A52
  8
DATA
  6
CONTINUOUS
 62
     7
 10
735.15546999999981
 20
376.55000999999987
 30
0.0
 11
743.51368999999988
 21
376.05000999999987
 31
0.0
  0
LINE
  5
A53
  8
DATA
  6
CONTINUOUS
 62
     7
 10
735.15546999999981
 20
376.55000999999987
 30
0.0
 11
735.15546999999981
 21
389.04999999999978
 31
0.0
  0
LINE
  5
A54
  8
DATA
  6
CONTINUOUS
 62
     7
 10
231.0245934664371
 20
977.62978419825606
 30
0.0
 11
222.00000000000011
 21
977.62978419825606
 31
0.0
  0
LINE
  5
A55
  8
DATA
  6
CONTINUOUS
 62
     7
 10
231.00001
 20
979.74999999999966
 30
0.0
 11
231.00001
 21
977.62978419825606
 31
0.0
  0
ARC
  5
A56
  8
DATA
  6
CONTINUOUS
 62
     7
 10
226.50001
 20
972.10000000000002
 30
0.0
 40
7.0630871681796163
 50
224.71352052663721
 51
239.79712534008911
  0
ARC
  5
A57
  8
DATA
  6
CONTINUOUS
 62
     7
 10
226.50001
 20
972.10000000000002
 30
0.0
 40
7.1380956143846648
 50
17.545752965129282
 51
39.599964729448942
  0
ARC
  5
A58
  8
DATA
  6
CONTINUOUS
 62
     7
 10
656.49999000000003
 20
972.14998999999955
 30
0.0
 40
7.106342941351774
 50
309.28935580691069
 51
50.710644193089017
  0
LINE
  5
A59
  8
DATA
  6
CONTINUOUS
 62
     7
 10
651.97541000000001
 20
977.62977999999964
 30
0.0
 11
651.97541000000001
 21
979.74999999999966
 31
0.0
  0
LINE
  5
A5A
  8
DATA
  6
CONTINUOUS
 62
     7
 10
651.99999000000003
 20
979.74999999999966
 30
0.0
 11
651.97541000000001
 21
979.74999999999966
 31
0.0
  0
LINE
  5
A5B
  8
DATA
  6
CONTINUOUS
 62
     7
 10
651.97541000000001
 20
977.62977999999964
 30
0.0
 11
661.02459070680277
 21
977.62977999999964
 31
0.0
  0
ARC
  5
A5C
  8
DATA
  6
CONTINUOUS
 62
     7
 10
656.30000000000018
 20
972.14998971857517
 30
0.0
 40
6.9527051233977772
 50
139.66690994048651
 51
161.1752100199929
  0
LINE
  5
A5D
  8
DATA
  6
CONTINUOUS
 62
     7
 10
649.71919689626873
 20
974.39345557364004
 30
0.0
 11
649.70000000000005
 21
974.33399999999995
 31
0.0
  0
LINE
  5
A5E
  8
DATA
  6
CONTINUOUS
 62
     7
 10
560.47621000000004
 20
960.86393999999973
 30
0.0
 11
554.60000000000002
 21
967.81948113199519
 31
0.0
  0
LINE
  5
A5F
  8
DATA
  6
CONTINUOUS
 62
     7
 10
580.02380478119767
 20
960.86394440895128
 30
0.0
 11
585.89999999999986
 21
967.81946999999968
 31
0.0
  0
LINE
  5
A60
  8
DATA
  6
CONTINUOUS
 62
     7
 10
221.97234186132169
 20
366.67022225426672
 30
0.0
 11
231.02151813868059
 21
366.67022225426672
 31
0.0
  0
LINE
  5
A61
  8
DATA
  6
CONTINUOUS
 62
     7
 10
231.45005
 20
367.05426999999992
 30
0.0
 11
231.02151813868059
 21
366.67022225426672
 31
0.0
  0
LINE
  5
A62
  8
DATA
  6
CONTINUOUS
 62
     7
 10
743.51368999999988
 20
360.00000999999992
 30
0.0
 11
743.51368999999988
 21
359.68122887606017
 31
0.0
  0
LINE
  5
A63
  8
DATA
  6
CONTINUOUS
 62
     7
 10
743.56777999999974
 20
359.64999999999992
 30
0.0
 11
743.51368999999988
 21
359.68122887606017
 31
0.0
  0
TEXT
  5
A64
  8
DATA
 62
     7
 10
120.0000000000001
 20
85.428009999999972
 30
0.0
 40
9.7730468749999986
  1
仕様および外観は予告なく変更されることがありますので、ご了承ください。
 41
0.8
 11
120.0000000000001
 21
95.201056874999963
 31
0.0
 73
     3
  0
ENDSEC
  0
EOF
