  0
SECTION
  2
HEADER
  9
$ACADVER
  1
AC1009
  9
$INSBASE
 10
0.0
 20
0.0
 30
0.0
  9
$EXTMIN
 10
59.978030067843058
 20
14.28772404422716
 30
-0.0015258207003583
  9
$EXTMAX
 10
1140.0347926933721
 20
1620.049502250308
 30
0.0000000349246037
  9
$LIMMIN
 10
0.0
 20
0.0
  9
$LIMMAX
 10
0.0
 20
0.0
  9
$ORTHOMODE
 70
     0
  9
$REGENMODE
 70
     1
  9
$FILLMODE
 70
     1
  9
$QTEXTMODE
 70
     0
  9
$MIRRTEXT
 70
     1
  9
$DRAGMODE
 70
     2
  9
$LTSCALE
 40
30.48
  9
$OSMODE
 70
   231
  9
$ATTMODE
 70
     1
  9
$TEXTSIZE
 40
0.0
  9
$TRACEWID
 40
1.0
  9
$TEXTSTYLE
  7
STANDARD
  9
$CLAYER
  8
DATA
  9
$CELTYPE
  6
CONTINUOUS
  9
$CECOLOR
 62
   256
  9
$DIMSCALE
 40
1.0
  9
$DIMASZ
 40
0.18
  9
$DIMEXO
 40
0.0625
  9
$DIMDLI
 40
0.38
  9
$DIMRND
 40
0.0
  9
$DIMDLE
 40
0.0
  9
$DIMEXE
 40
0.18
  9
$DIMTP
 40
0.0
  9
$DIMTM
 40
0.0
  9
$DIMTXT
 40
0.18
  9
$DIMCEN
 40
0.09
  9
$DIMTSZ
 40
0.0
  9
$DIMTOL
 70
     0
  9
$DIMLIM
 70
     0
  9
$DIMTIH
 70
     1
  9
$DIMTOH
 70
     1
  9
$DIMSE1
 70
     0
  9
$DIMSE2
 70
     0
  9
$DIMTAD
 70
     0
  9
$DIMZIN
 70
     0
  9
$DIMBLK
  1

  9
$DIMASO
 70
     1
  9
$DIMSHO
 70
     1
  9
$DIMPOST
  1

  9
$DIMAPOST
  1

  9
$DIMALT
 70
     0
  9
$DIMALTD
 70
     2
  9
$DIMALTF
 40
25.399999999999999
  9
$DIMLFAC
 40
1.0
  9
$DIMTOFL
 70
     0
  9
$DIMTVP
 40
0.0
  9
$DIMTIX
 70
     0
  9
$DIMSOXD
 70
     0
  9
$DIMSAH
 70
     0
  9
$DIMBLK1
  1

  9
$DIMBLK2
  1

  9
$DIMSTYLE
  2
STANDARD
  9
$DIMCLRD
 70
     0
  9
$DIMCLRE
 70
     0
  9
$DIMCLRT
 70
     0
  9
$DIMTFAC
 40
1.0
  9
$DIMGAP
 40
0.09
  9
$LUNITS
 70
     2
  9
$LUPREC
 70
     4
  9
$SKETCHINC
 40
0.1
  9
$FILLETRAD
 40
0.0
  9
$AUNITS
 70
     0
  9
$AUPREC
 70
     0
  9
$MENU
  1
acad
  9
$ELEVATION
 40
0.0
  9
$PELEVATION
 40
0.0
  9
$THICKNESS
 40
0.0
  9
$LIMCHECK
 70
     0
  9
$BLIPMODE
 70
     0
  9
$CHAMFERA
 40
0.0
  9
$CHAMFERB
 40
0.0
  9
$SKPOLY
 70
     0
  9
$TDCREATE
 40
2453875.7423379631
  9
$TDUPDATE
 40
2453875.743341343
  9
$TDINDWG
 40
0.0002729977
  9
$TDUSRTIMER
 40
0.0002728125
  9
$USRTIMER
 70
     1
  9
$ANGBASE
 50
0.0
  9
$ANGDIR
 70
     0
  9
$PDMODE
 70
     1
  9
$PDSIZE
 40
-2.0
  9
$PLINEWID
 40
0.0
  9
$COORDS
 70
     1
  9
$SPLFRAME
 70
     0
  9
$SPLINETYPE
 70
     6
  9
$SPLINESEGS
 70
     8
  9
$ATTDIA
 70
     0
  9
$ATTREQ
 70
     1
  9
$HANDLING
 70
     1
  9
$HANDSEED
  5
518
  9
$SURFTAB1
 70
     6
  9
$SURFTAB2
 70
     6
  9
$SURFTYPE
 70
     6
  9
$SURFU
 70
     6
  9
$SURFV
 70
     6
  9
$UCSNAME
  2

  9
$UCSORG
 10
0.0
 20
0.0
 30
0.0
  9
$UCSXDIR
 10
1.0
 20
0.0
 30
0.0
  9
$UCSYDIR
 10
0.0
 20
1.0
 30
0.0
  9
$PUCSNAME
  2

  9
$PUCSORG
 10
0.0
 20
0.0
 30
0.0
  9
$PUCSXDIR
 10
1.0
 20
0.0
 30
0.0
  9
$PUCSYDIR
 10
0.0
 20
1.0
 30
0.0
  9
$USERI1
 70
     0
  9
$USERI2
 70
     0
  9
$USERI3
 70
     0
  9
$USERI4
 70
     0
  9
$USERI5
 70
     0
  9
$USERR1
 40
0.0
  9
$USERR2
 40
0.0
  9
$USERR3
 40
0.0
  9
$USERR4
 40
0.0
  9
$USERR5
 40
0.0
  9
$WORLDVIEW
 70
     1
  9
$SHADEDGE
 70
     3
  9
$SHADEDIF
 70
    70
  9
$TILEMODE
 70
     1
  9
$MAXACTVP
 70
    64
  9
$PLIMCHECK
 70
     0
  9
$PEXTMIN
 10
1.0000000000000000E+020
 20
1.0000000000000000E+020
 30
1.0000000000000000E+020
  9
$PEXTMAX
 10
-1.0000000000000000E+020
 20
-1.0000000000000000E+020
 30
-1.0000000000000000E+020
  9
$PLIMMIN
 10
0.0
 20
0.0
  9
$PLIMMAX
 10
12.0
 20
9.0
  9
$UNITMODE
 70
     0
  9
$VISRETAIN
 70
     0
  9
$PLINEGEN
 70
     1
  9
$PSLTSCALE
 70
     0
  0
ENDSEC
  0
SECTION
  2
TABLES
  0
TABLE
  2
VPORT
 70
     1
  0
VPORT
  2
*ACTIVE
 70
     0
 10
0.0
 20
0.0
 11
1.0
 21
1.0
 12
600.00641138060757
 22
817.16861314726748
 13
0.0
 23
0.0
 14
1.0
 24
1.0
 15
0.0
 25
0.0
 16
0.0
 26
0.0
 36
1.0
 17
0.0
 27
0.0
 37
0.0
 40
1619.087602091608
 41
1.6703601108033239
 42
50.0
 43
0.0
 44
0.0
 50
0.0
 51
0.0
 71
     0
 72
  2000
 73
     1
 74
     1
 75
     0
 76
     0
 77
     0
 78
     0
  0
ENDTAB
  0
TABLE
  2
LTYPE
 70
    11
  0
LTYPE
  2
CONTINUOUS
 70
     0
  3
Solid line
 72
    65
 73
     0
 40
0.0
  0
ENDTAB
  0
TABLE
  2
LAYER
 70
     5
  0
LAYER
  2
0
 70
     0
 62
     7
  6
CONTINUOUS
  0
LAYER
  2
DATA
 70
     0
 62
     7
  6
CONTINUOUS
  0
LAYER
  2
HIBINO-BASE
 70
     0
 62
     7
  6
CONTINUOUS
  0
LAYER
  2
SPEC
 70
     0
 62
     7
  6
CONTINUOUS
  0
LAYER
  2
DIMNSIONS
 70
     0
 62
     7
  6
CONTINUOUS
  0
ENDTAB
  0
TABLE
  2
STYLE
 70
     2
  0
STYLE
  2
STANDARD
 70
     0
 40
0.0
 41
1.0
 50
0.0
 71
     0
 42
0.0
  3
txt
  4
BIGFONT.SHX
  0
ENDTAB
  0
TABLE
  2
VIEW
 70
     0
  0
ENDTAB
  0
TABLE
  2
UCS
 70
     0
  0
ENDTAB
  0
TABLE
  2
APPID
 70
     1
  0
APPID
  2
ACAD
 70
     0
  0
ENDTAB
  0
TABLE
  2
DIMSTYLE
 70
     1
  0
DIMSTYLE
  2
STANDARD
 70
     0
  3

  4

  5

  6

  7

 40
1.0
 41
0.18
 42
0.0625
 43
0.38
 44
0.18
 45
0.0
 46
0.0
 47
0.0
 48
0.0
140
0.18
141
0.09
142
0.0
143
25.399999999999999
144
1.0
145
0.0
146
1.0
147
0.09
 71
     0
 72
     0
 73
     1
 74
     1
 75
     0
 76
     0
 77
     0
 78
     0
170
     0
171
     2
172
     0
173
     0
174
     0
175
     0
176
     0
177
     0
178
     0
  0
ENDTAB
  0
ENDSEC
  0
SECTION
  2
BLOCKS
  0
BLOCK
  8
0
  2
$MODEL_SPACE
 70
     0
 10
0.0
 20
0.0
 30
0.0
  3
$MODEL_SPACE
  1

  0
ENDBLK
  5
426
  8
0
  0
BLOCK
 67
     1
  8
0
  2
$PAPER_SPACE
 70
     0
 10
0.0
 20
0.0
 30
0.0
  3
$PAPER_SPACE
  1

  0
ENDBLK
  5
422
 67
     1
  8
0
  0
ENDSEC
  0
SECTION
  2
ENTITIES
  0
LINE
  5
2C
  8
HIBINO-BASE
  6
CONTINUOUS
 62
     7
 10
60.0
 20
1620.0000599999989
 30
0.0
 11
1140.0
 21
1620.0000599999989
 31
0.0
  0
LINE
  5
2D
  8
HIBINO-BASE
  6
CONTINUOUS
 62
     7
 10
1140.0
 20
60.000009999999847
 30
0.0
 11
60.0
 21
60.000009999999847
 31
0.0
  0
LINE
  5
2E
  8
HIBINO-BASE
  6
CONTINUOUS
 62
     7
 10
60.0
 20
60.000009999999847
 30
0.0
 11
60.0
 21
1620.0000599999989
 31
0.0
  0
TEXT
  5
2F
  8
HIBINO-BASE
 62
     7
 10
103.10401
 20
21.5479431999998
 30
0.0
 40
21.600265078124998
  1
Hibino Corporation
 41
0.8
 11
103.10401
 21
43.148208278124791
 31
0.0
 73
     3
  0
LINE
  5
30
  8
HIBINO-BASE
  6
CONTINUOUS
 62
     7
 10
1140.0
 20
1620.0000599999989
 30
0.0
 11
1140.0
 21
60.000009999999847
 31
0.0
  0
LINE
  5
31
  8
HIBINO-BASE
  6
CONTINUOUS
 62
     7
 10
600.0
 20
194.99999999999969
 30
0.0
 11
1140.0
 21
194.99999999999969
 31
0.0
  0
LINE
  5
32
  8
HIBINO-BASE
  6
CONTINUOUS
 62
     7
 10
600.0
 20
60.000009999999847
 30
0.0
 11
600.0
 21
194.99999999999969
 31
0.0
  0
TEXT
  5
33
  8
HIBINO-BASE
 62
     7
 10
605.39999999999998
 20
178.79999939999971
 30
0.0
 40
10.800147929687499
  1
NOTE
 41
0.8
 11
605.39999999999998
 21
189.6001473296873
 31
0.0
 73
     3
  0
LINE
  5
34
  8
HIBINO-BASE
  6
CONTINUOUS
 62
     7
 10
809.99999000000003
 20
60.000009999999847
 30
0.0
 11
809.99999000000003
 21
194.99999999999969
 31
0.0
  0
TEXT
  5
35
  8
HIBINO-BASE
 62
     7
 10
815.39999
 20
178.79999939999971
 30
0.0
 40
10.800147929687499
  1
TITLE
 41
0.8
 11
815.39999
 21
189.6001473296873
 31
0.0
 73
     3
  0
TEXT
  5
36
  8
HIBINO-BASE
 62
     7
 10
900.41032999999982
 20
21.5479431999998
 30
0.0
 40
21.600265078124998
  1
ヒビノ株式会社
 41
0.8
 11
900.41032999999982
 21
43.148208278124791
 31
0.0
 73
     3
  0
LINE
  5
37
  8
HIBINO-BASE
  6
CONTINUOUS
 62
     7
 10
600.0
 20
120.0000099999998
 30
0.0
 11
1140.0
 21
120.0000099999998
 31
0.0
  0
TEXT
  5
38
  8
HIBINO-BASE
 62
     7
 10
890.39999
 20
104.1379093999997
 30
0.0
 40
10.800147929687499
  1
DRAWN
 41
0.8
 11
890.39999
 21
114.9380573296872
 31
0.0
 73
     3
  0
TEXT
  5
39
  8
HIBINO-BASE
 62
     7
 10
740.39999
 20
104.1379093999997
 30
0.0
 40
10.800147929687499
  1
DATE
 41
0.8
 11
740.39999
 21
114.9380573296872
 31
0.0
 73
     3
  0
TEXT
  5
3A
  8
HIBINO-BASE
 62
     7
 10
606.60000000000002
 20
104.2832713999998
 30
0.0
 40
9.7730545703124996
  1
図面サイズ
 41
0.8
 11
606.60000000000002
 21
114.0563259703123
 31
0.0
 73
     3
  0
TEXT
  5
3B
  8
HIBINO-BASE
 62
     7
 10
680.39998999999989
 20
104.1379093999997
 30
0.0
 40
10.800147929687499
  1
SCALE
 41
0.8
 11
680.39998999999989
 21
114.9380573296872
 31
0.0
 73
     3
  0
TEXT
  5
3C
  8
HIBINO-BASE
 62
     7
 10
815.39999
 20
104.1379093999997
 30
0.0
 40
10.800147929687499
  1
DESIGN
 41
0.8
 11
815.39999
 21
114.9380573296872
 31
0.0
 73
     3
  0
TEXT
  5
3D
  8
HIBINO-BASE
 62
     7
 10
1040.4000000000001
 20
104.1379093999997
 30
0.0
 40
10.800147929687499
  1
DRAWING NO.
 41
0.8
 11
1040.4000000000001
 21
114.9380573296872
 31
0.0
 73
     3
  0
TEXT
  5
3E
  8
HIBINO-BASE
 62
     7
 10
965.39999999999986
 20
104.1379093999997
 30
0.0
 40
10.800147929687499
  1
CHECK
 41
0.8
 11
965.39999999999986
 21
114.9380573296872
 31
0.0
 73
     3
  0
LINE
  5
3F
  8
HIBINO-BASE
  6
CONTINUOUS
 62
     7
 10
686.24999000000003
 20
67.500009999999861
 30
0.0
 11
708.74999000000003
 21
90.000009999999861
 31
0.0
  0
TEXT
  5
40
  8
HIBINO-BASE
 62
     7
 10
682.49999000000003
 20
79.705703399999834
 30
0.0
 40
13.030711210937501
  1
1
 41
0.8
 11
682.49999000000003
 21
92.736414610937345
 31
0.0
 73
     3
  0
LINE
  5
41
  8
HIBINO-BASE
  6
CONTINUOUS
 62
     7
 10
675.0
 20
60.000009999999847
 30
0.0
 11
675.0
 21
120.0000099999998
 31
0.0
  0
LINE
  5
42
  8
HIBINO-BASE
  6
CONTINUOUS
 62
     7
 10
735.0
 20
60.000009999999847
 30
0.0
 11
735.0
 21
120.0000099999998
 31
0.0
  0
LINE
  5
43
  8
HIBINO-BASE
  6
CONTINUOUS
 62
     7
 10
885.0
 20
120.0000099999998
 30
0.0
 11
885.0
 21
60.000009999999847
 31
0.0
  0
LINE
  5
44
  8
HIBINO-BASE
  6
CONTINUOUS
 62
     7
 10
1034.99999
 20
120.0000099999998
 30
0.0
 11
1034.99999
 21
60.000009999999847
 31
0.0
  0
LINE
  5
45
  8
HIBINO-BASE
  6
CONTINUOUS
 62
     7
 10
959.99999000000003
 20
60.000009999999847
 30
0.0
 11
959.99999000000003
 21
120.0000099999998
 31
0.0
  0
TEXT
  5
46
  8
HIBINO-BASE
 62
     7
 10
623.46532999999988
 20
74.99073719999987
 30
0.0
 40
19.546078359374999
  1
A4
 41
0.8
 11
623.46532999999988
 21
94.536815559374872
 31
0.0
 73
     3
  0
TEXT
  5
47
  8
HIBINO-BASE
 62
     7
 10
739.62615426693924
 20
77.277496533469431
 30
0.0
 40
10.800147929687499
  1
'06.03.
 41
0.8
 11
739.62615426693924
 21
88.077644463156915
 31
0.0
 73
     3
  0
TEXT
  5
48
  8
HIBINO-BASE
 62
     7
 10
704.99999000000003
 20
68.455703399999834
 30
0.0
 40
13.030711210937501
  1
6
 41
0.8
 11
704.99999000000003
 21
81.486414610937345
 31
0.0
 73
     3
  0
TEXT
  5
49
  8
HIBINO-BASE
 62
     7
 10
894.03486006620744
 20
77.181889999999612
 30
0.0
 40
9.7730468749999986
  1
N.Sasaki
 41
0.8
 11
894.03486006620744
 21
86.954936874999589
 31
0.0
 73
     3
  0
TEXT
  5
4A
  8
SPEC
 62
     7
 10
112.50001
 20
1568.3596886
 30
0.0
 40
14.6595626171875
  1
仕様
 41
0.8
 11
112.50001
 21
1583.019251217187
 31
0.0
 73
     3
  0
LINE
  5
4B
  8
SPEC
  6
CONTINUOUS
 62
     7
 10
105.00345141415561
 20
1560.0001919926119
 30
0.0
 11
1050.0034314141551
 21
1560.0001919926119
 31
0.0
  0
LINE
  5
4C
  8
SPEC
  6
CONTINUOUS
 62
     7
 10
105.00345141415561
 20
1537.5001919926119
 30
0.0
 11
1050.0034314141551
 21
1537.5001919926119
 31
0.0
  0
TEXT
  5
4D
  8
SPEC
 62
     7
 10
306.3034773924021
 20
1543.1277475708589
 30
0.0
 40
11.4018675
  1
A帯・B帯共用シングルチャンネル・ダイバーシティ・レシーバー(Single cannel diversity)
 41
0.8
 11
306.3034773924021
 21
1554.5296150708591
 31
0.0
 73
     3
  0
LINE
  5
4E
  8
SPEC
  6
CONTINUOUS
 62
     7
 10
105.00345141415561
 20
1560.0001919926119
 30
0.0
 11
105.00345141415561
 21
1290.0001819926119
 31
0.0
  0
LINE
  5
4F
  8
SPEC
  6
CONTINUOUS
 62
     7
 10
300.00344141415519
 20
1560.0001919926119
 30
0.0
 11
300.00344141415519
 21
1290.0001819926119
 31
0.0
  0
LINE
  5
50
  8
SPEC
  6
CONTINUOUS
 62
     7
 10
1050.0034314141551
 20
1560.0001919926119
 30
0.0
 11
1050.0034314141551
 21
1290.0001819926119
 31
0.0
  0
TEXT
  5
51
  8
SPEC
 62
     7
 10
110.40344141415559
 20
1542.421752672559
 30
0.0
 40
11.4018675
  1
形式
 41
0.8
 11
110.40344141415559
 21
1553.823620172559
 31
0.0
 73
     3
  0
TEXT
  5
52
  8
SPEC
 62
     7
 10
110.2094103342084
 20
1519.7277215926131
 30
0.0
 40
11.4018675
  1
受信周波数
 41
0.8
 11
110.2094103342084
 21
1531.1295890926131
 31
0.0
 73
     3
  0
TEXT
  5
53
  8
SPEC
 62
     7
 10
306.3034773924021
 20
1519.7277215926131
 30
0.0
 40
11.4018675
  1
B型 (806～810MHz)30チャンネル、A型 (797～806MHz)71チャンネル、A2型(779～788MHz)71チャンネル
 41
0.8
 11
306.3034773924021
 21
1531.1295890926131
 31
0.0
 73
     3
  0
LINE
  5
54
  8
SPEC
  6
CONTINUOUS
 62
     7
 10
105.00345141415561
 20
1492.5001819926119
 30
0.0
 11
1050.0034314141551
 21
1492.5001819926119
 31
0.0
  0
TEXT
  5
55
  8
SPEC
 62
     7
 10
110.40344141415559
 20
1475.4281848054179
 30
0.0
 40
11.4018675
  1
アンテナ入力  
 41
0.8
 11
110.40344141415559
 21
1486.8300523054179
 31
0.0
 73
     3
  0
TEXT
  5
56
  8
SPEC
 62
     7
 10
302.5908702321334
 20
1475.2902278290171
 30
0.0
 40
11.4018675
  1
実効インピーダンス:50Ω　BNCコネクタ－
 41
0.8
 11
302.5908702321334
 21
1486.6920953290171
 31
0.0
 73
     3
  0
LINE
  5
57
  8
SPEC
  6
CONTINUOUS
 62
     7
 10
105.00345141415561
 20
1470.0001819926119
 30
0.0
 11
1050.0034314141551
 21
1470.0001819926119
 31
0.0
  0
TEXT
  5
58
  8
SPEC
 62
     7
 10
110.40344141415559
 20
1408.227711592612
 30
0.0
 40
11.4018675
  1
出力レベル
 41
0.8
 11
110.40344141415559
 21
1419.6295790926131
 31
0.0
 73
     3
  0
TEXT
  5
59
  8
SPEC
 62
     7
 10
110.2633467715944
 20
1452.9463208777349
 30
0.0
 40
11.4018675
  1
出力コネクタ 
 41
0.8
 11
110.2633467715944
 21
1464.3481883777349
 31
0.0
 73
     3
  0
TEXT
  5
5A
  8
SPEC
 62
     7
 10
306.19097414512117
 20
1408.340214839893
 30
0.0
 40
11.4018675
  1
-22dBV(マイク)、+2dBV(ライン) マイク/ライン切替スイッチ付
 41
0.8
 11
306.19097414512117
 21
1419.7420823398929
 31
0.0
 73
     3
  0
TEXT
  5
5B
  8
SPEC
 62
     7
 10
306.32971354894431
 20
1452.8905297219021
 30
0.0
 40
11.4018675
  1
XLR3ピン オス(2-HOT,バランス)、2Pフォーンジャック(アンバランス)、モニタ ーヘッドフォーンジャック
 41
0.8
 11
306.32971354894431
 21
1464.292397221901
 31
0.0
 73
     3
  0
TEXT
  5
5C
  8
SPEC
 62
     7
 10
304.05341244678471
 20
1430.3693705599819
 30
0.0
 40
11.4018675
  1
バランス 30Ω、アンバランス 1kΩ
 41
0.8
 11
304.05341244678471
 21
1441.7712380599819
 31
0.0
 73
     3
  0
TEXT
  5
5D
  8
SPEC
 62
     7
 10
110.40344141415559
 20
1430.3666048054181
 30
0.0
 40
11.4018675
  1
出力インピーダンス
 41
0.8
 11
110.40344141415559
 21
1441.7684723054181
 31
0.0
 73
     3
  0
LINE
  5
5E
  8
SPEC
  6
CONTINUOUS
 62
     7
 10
105.00345141415561
 20
1447.5001819926119
 30
0.0
 11
1050.0034314141551
 21
1447.5001819926119
 31
0.0
  0
LINE
  5
5F
  8
SPEC
  6
CONTINUOUS
 62
     7
 10
105.00345141415561
 20
1425.0001819926119
 30
0.0
 11
1050.0034314141551
 21
1425.0001819926119
 31
0.0
  0
TEXT
  5
60
  8
SPEC
 62
     7
 10
110.40344141415559
 20
1386.38595230749
 30
0.0
 40
11.4018675
  1
外装
 41
0.8
 11
110.40344141415559
 21
1397.78781980749
 31
0.0
 73
     3
  0
TEXT
  5
61
  8
SPEC
 62
     7
 10
302.70337347941432
 20
1386.1036253562081
 30
0.0
 40
11.4018675
  1
黒
 41
0.8
 11
302.70337347941432
 21
1397.5054928562081
 31
0.0
 73
     3
  0
LINE
  5
62
  8
SPEC
  6
CONTINUOUS
 62
     7
 10
105.00345141415561
 20
1380.0001819926131
 30
0.0
 11
1050.0034314141551
 21
1380.0001819926131
 31
0.0
  0
LINE
  5
63
  8
SPEC
  6
CONTINUOUS
 62
     7
 10
105.00345141415561
 20
1335.0001819926119
 30
0.0
 11
1050.0034314141551
 21
1335.0001819926119
 31
0.0
  0
LINE
  5
64
  8
SPEC
  6
CONTINUOUS
 62
     7
 10
105.00345141415561
 20
1357.5001819926119
 30
0.0
 11
1050.0034314141551
 21
1357.5001819926119
 31
0.0
  0
TEXT
  5
65
  8
SPEC
 62
     7
 10
109.98315748647229
 20
1317.90838409054
 30
0.0
 40
11.4018675
  1
重量
 41
0.8
 11
109.98315748647229
 21
1329.31025159054
 31
0.0
 73
     3
  0
TEXT
  5
66
  8
SPEC
 62
     7
 10
305.40345141415497
 20
1340.402731076297
 30
0.0
 40
11.4018675
  1
483×44×295.3mm
 41
0.8
 11
305.40345141415497
 21
1351.8045985762969
 31
0.0
 73
     3
  0
TEXT
  5
67
  8
SPEC
 62
     7
 10
303.60339945766123
 20
1318.8402767963869
 30
0.0
 40
11.4018675
  1
約3.5kg
 41
0.8
 11
303.60339945766123
 21
1330.2421442963871
 31
0.0
 73
     3
  0
TEXT
  5
68
  8
SPEC
 62
     7
 10
110.6836306992778
 20
1340.794795520296
 30
0.0
 40
11.4018675
  1
寸法(W+H+D)
 41
0.8
 11
110.6836306992778
 21
1352.196663020296
 31
0.0
 73
     3
  0
LINE
  5
69
  8
SPEC
  6
CONTINUOUS
 62
     7
 10
105.00345141415561
 20
1402.5001819926131
 30
0.0
 11
1050.0034314141551
 21
1402.5001819926131
 31
0.0
  0
TEXT
  5
6A
  8
SPEC
 62
     7
 10
110.2633467715944
 20
1294.567816235173
 30
0.0
 40
11.4018675
  1
付属品
 41
0.8
 11
110.2633467715944
 21
1305.969683735173
 31
0.0
 73
     3
  0
TEXT
  5
6B
  8
SPEC
 62
     7
 10
302.70337347941432
 20
1294.427721592612
 30
0.0
 40
11.4018675
  1
電源ケ－ブル　1本、ル－プ接続用電源ケ－ブル（40cm）１本、 1/2波長アンテナ 2本
 41
0.8
 11
302.70337347941432
 21
1305.829589092612
 31
0.0
 73
     3
  0
TEXT
  5
6C
  8
SPEC
 62
     7
 10
302.70337347941432
 20
1276.427721592612
 30
0.0
 40
11.4018675
  1
バルクヘッドアダプタ－　2個、50Ω同軸アンテナケ－ブル（60cm）2本、ハードウェアキット 1袋
 41
0.8
 11
302.70337347941432
 21
1287.829589092612
 31
0.0
 73
     3
  0
TEXT
  5
6D
  8
SPEC
 62
     7
 10
109.98315748647229
 20
1363.88595230749
 30
0.0
 40
11.4018675
  1
電源/消費電力
 41
0.8
 11
109.98315748647229
 21
1375.28781980749
 31
0.0
 73
     3
  0
TEXT
  5
6E
  8
SPEC
 62
     7
 10
306.3034773924021
 20
1363.4911221089269
 30
0.0
 40
11.4018675
  1
AC100V 50/60Hz 0.5A
 41
0.8
 11
306.3034773924021
 21
1374.8929896089271
 31
0.0
 73
     3
  0
TEXT
  5
6F
  8
SPEC
 62
     7
 10
429.81870947880719
 20
1498.6994742808299
 30
0.0
 40
11.4018675
  1
合計172チャンネルのうち任意の1チャンネル
 41
0.8
 11
429.81870947880719
 21
1510.1013417808299
 31
0.0
 73
     3
  0
LINE
  5
70
  8
SPEC
  6
CONTINUOUS
 62
     7
 10
105.00345141415561
 20
1312.5001819926119
 30
0.0
 11
1050.0034314141551
 21
1312.5001819926119
 31
0.0
  0
LINE
  5
71
  8
SPEC
  6
CONTINUOUS
 62
     7
 10
105.00345141415561
 20
1267.5001819926119
 30
0.0
 11
1050.0034314141551
 21
1267.5001819926119
 31
0.0
  0
LINE
  5
72
  8
SPEC
  6
CONTINUOUS
 62
     7
 10
105.00345141415561
 20
1267.5001819926119
 30
0.0
 11
105.00345141415561
 21
1290.200131992613
 31
0.0
  0
LINE
  5
73
  8
SPEC
  6
CONTINUOUS
 62
     7
 10
300.00344141415519
 20
1290.0001819926119
 30
0.0
 11
300.00344141415519
 21
1267.5001819926119
 31
0.0
  0
LINE
  5
74
  8
SPEC
  6
CONTINUOUS
 62
     7
 10
1050.0034314141551
 20
1267.5001819926119
 30
0.0
 11
1050.0034314141551
 21
1291.0001319926121
 31
0.0
  0
TEXT
  5
75
  8
DIMNSIONS
 62
     7
 10
480.00000999999997
 20
133.6169485999998
 30
0.0
 40
14.6595626171875
  1
(単位：mm)
 41
0.8
 11
480.00000999999997
 21
148.27651121718731
 31
0.0
 73
     3
  0
LINE
  5
76
  8
DIMNSIONS
  6
CONTINUOUS
 62
     7
 10
200.00001
 20
288.00000004470331
 30
0.0
 11
200.00001
 21
238.00001004470329
 31
0.0
  0
LINE
  5
77
  8
DIMNSIONS
  6
CONTINUOUS
 62
     7
 10
682.99999000000003
 20
288.00000004470331
 30
0.0
 11
682.99999000000003
 21
238.00001004470329
 31
0.0
  0
LINE
  5
78
  8
DIMNSIONS
  6
CONTINUOUS
 62
     7
 10
200.00001
 20
250.00000999999969
 30
0.0
 11
682.99999000000003
 21
250.00000999999969
 31
0.0
  0
LINE
  5
79
  8
DIMNSIONS
  6
CONTINUOUS
 62
     7
 10
200.00001
 20
250.00000999999969
 30
0.0
 11
219.05000999999999
 21
255.10444211581259
 31
0.0
  0
LINE
  5
7A
  8
DIMNSIONS
  6
CONTINUOUS
 62
     7
 10
200.00001
 20
250.00000999999969
 30
0.0
 11
219.05000999999999
 21
244.89557788418679
 31
0.0
  0
LINE
  5
7B
  8
DIMNSIONS
  6
CONTINUOUS
 62
     7
 10
682.99999000000003
 20
250.00000999999969
 30
0.0
 11
663.94998999999984
 21
244.89557788418679
 31
0.0
  0
LINE
  5
7C
  8
DIMNSIONS
  6
CONTINUOUS
 62
     7
 10
682.99999000000003
 20
250.00000999999969
 30
0.0
 11
663.94998999999984
 21
255.10444211581259
 31
0.0
  0
TEXT
  5
7D
  8
DIMNSIONS
 62
     7
 10
425.62499697208398
 20
258.96333379999959
 30
0.0
 40
16.2884140234375
  1
483
 41
0.8
 11
425.62499697208398
 21
275.25174782343709
 31
0.0
 73
     3
  0
LINE
  5
7E
  8
DIMNSIONS
  6
CONTINUOUS
 62
     7
 10
239.00001
 20
756.9749999552962
 30
0.0
 11
239.00001
 21
811.99999995529629
 31
0.0
  0
LINE
  5
7F
  8
DIMNSIONS
  6
CONTINUOUS
 62
     7
 10
643.99999000000003
 20
756.9749999552962
 30
0.0
 11
643.99999000000003
 21
811.99999995529629
 31
0.0
  0
LINE
  5
80
  8
DIMNSIONS
  6
CONTINUOUS
 62
     7
 10
239.00001
 20
799.99999999999955
 30
0.0
 11
643.99999000000003
 21
799.99999999999955
 31
0.0
  0
LINE
  5
81
  8
DIMNSIONS
  6
CONTINUOUS
 62
     7
 10
239.00001
 20
799.99999999999955
 30
0.0
 11
258.05000999999999
 21
805.10443211581264
 31
0.0
  0
LINE
  5
82
  8
DIMNSIONS
  6
CONTINUOUS
 62
     7
 10
239.00001
 20
799.99999999999955
 30
0.0
 11
258.05000999999999
 21
794.8955678841869
 31
0.0
  0
LINE
  5
83
  8
DIMNSIONS
  6
CONTINUOUS
 62
     7
 10
643.99999000000003
 20
799.99999999999955
 30
0.0
 11
624.94998999999984
 21
794.8955678841869
 31
0.0
  0
LINE
  5
84
  8
DIMNSIONS
  6
CONTINUOUS
 62
     7
 10
643.99999000000003
 20
799.99999999999955
 30
0.0
 11
624.94998999999984
 21
805.10443211581264
 31
0.0
  0
TEXT
  5
85
  8
DIMNSIONS
 62
     7
 10
425.62499697208398
 20
808.96332379999967
 30
0.0
 40
16.2884140234375
  1
405
 41
0.8
 11
425.62499697208398
 21
825.25173782343722
 31
0.0
 73
     3
  0
LINE
  5
86
  8
DIMNSIONS
  6
CONTINUOUS
 62
     7
 10
233.00001
 20
682.75000995529615
 30
0.0
 11
233.00001
 21
861.99999995529629
 31
0.0
  0
LINE
  5
87
  8
DIMNSIONS
  6
CONTINUOUS
 62
     7
 10
649.99999000000003
 20
682.75000995529615
 30
0.0
 11
649.99999000000003
 21
861.99999995529629
 31
0.0
  0
LINE
  5
88
  8
DIMNSIONS
  6
CONTINUOUS
 62
     7
 10
233.00001
 20
849.99999999999955
 30
0.0
 11
649.99999000000003
 21
849.99999999999955
 31
0.0
  0
LINE
  5
89
  8
DIMNSIONS
  6
CONTINUOUS
 62
     7
 10
233.00001
 20
849.99999999999955
 30
0.0
 11
252.05000999999999
 21
855.10443211581264
 31
0.0
  0
LINE
  5
8A
  8
DIMNSIONS
  6
CONTINUOUS
 62
     7
 10
233.00001
 20
849.99999999999955
 30
0.0
 11
252.05000999999999
 21
844.8955678841869
 31
0.0
  0
LINE
  5
8B
  8
DIMNSIONS
  6
CONTINUOUS
 62
     7
 10
649.99999000000003
 20
849.99999999999955
 30
0.0
 11
630.94998999999984
 21
844.8955678841869
 31
0.0
  0
LINE
  5
8C
  8
DIMNSIONS
  6
CONTINUOUS
 62
     7
 10
649.99999000000003
 20
849.99999999999955
 30
0.0
 11
630.94998999999984
 21
855.10443211581264
 31
0.0
  0
TEXT
  5
8D
  8
DIMNSIONS
 62
     7
 10
425.62499697208398
 20
858.96332379999967
 30
0.0
 40
16.2884140234375
  1
417
 41
0.8
 11
425.62499697208398
 21
875.25173782343722
 31
0.0
 73
     3
  0
LINE
  5
8E
  8
DIMNSIONS
  6
CONTINUOUS
 62
     7
 10
188.00001004470349
 20
299.99999999999972
 30
0.0
 11
163.00002004470349
 21
299.99999999999972
 31
0.0
  0
LINE
  5
8F
  8
DIMNSIONS
  6
CONTINUOUS
 62
     7
 10
188.00001004470349
 20
344.30000999999987
 30
0.0
 11
163.00002004470349
 21
344.30000999999987
 31
0.0
  0
LINE
  5
90
  8
DIMNSIONS
  6
CONTINUOUS
 62
     7
 10
175.00002000000001
 20
299.99999999999972
 30
0.0
 11
175.00002000000001
 21
344.30000999999987
 31
0.0
  0
LINE
  5
91
  8
DIMNSIONS
  6
CONTINUOUS
 62
     7
 10
175.00002000000001
 20
299.99999999999972
 30
0.0
 11
169.89558788418719
 21
319.04999999999973
 31
0.0
  0
LINE
  5
92
  8
DIMNSIONS
  6
CONTINUOUS
 62
     7
 10
175.00002000000001
 20
299.99999999999972
 30
0.0
 11
180.1044521158129
 21
319.04999999999973
 31
0.0
  0
LINE
  5
93
  8
DIMNSIONS
  6
CONTINUOUS
 62
     7
 10
175.00002000000001
 20
344.30000999999987
 30
0.0
 11
180.1044521158129
 21
325.2500099999998
 31
0.0
  0
LINE
  5
94
  8
DIMNSIONS
  6
CONTINUOUS
 62
     7
 10
175.00002000000001
 20
344.30000999999987
 30
0.0
 11
169.89558788418719
 21
325.2500099999998
 31
0.0
  0
TEXT
  5
95
  8
DIMNSIONS
 62
     7
 10
166.03669620000011
 20
311.56666964805572
 30
0.0
 40
16.2884140234375
  1
44
 50
90.0
 41
0.8
 11
149.74828217656261
 21
311.56666964805572
 31
0.0
 73
     3
  0
LINE
  5
96
  8
DIMNSIONS
  6
CONTINUOUS
 62
     7
 10
188.00001004470349
 20
449.70000999999979
 30
0.0
 11
163.00002004470349
 21
449.70000999999979
 31
0.0
  0
LINE
  5
97
  8
DIMNSIONS
  6
CONTINUOUS
 62
     7
 10
576.15000004470357
 20
435.39999999999981
 30
0.0
 11
163.00002004470349
 21
435.39999999999981
 31
0.0
  0
LINE
  5
98
  8
DIMNSIONS
  6
CONTINUOUS
 62
     7
 10
175.00002000000001
 20
435.39999999999981
 30
0.0
 11
175.00002000000001
 21
449.70000999999979
 31
0.0
  0
LINE
  5
99
  8
DIMNSIONS
  6
CONTINUOUS
 62
     7
 10
175.00002000000001
 20
449.70000999999979
 30
0.0
 11
175.00002000000001
 21
479.70001003017461
 31
0.0
  0
LINE
  5
9A
  8
DIMNSIONS
  6
CONTINUOUS
 62
     7
 10
175.00002000000001
 20
449.70000999999979
 30
0.0
 11
169.89558788418719
 21
468.7500099999998
 31
0.0
  0
LINE
  5
9B
  8
DIMNSIONS
  6
CONTINUOUS
 62
     7
 10
175.00002000000001
 20
449.70000999999979
 30
0.0
 11
180.1044521158129
 21
468.7500099999998
 31
0.0
  0
LINE
  5
9C
  8
DIMNSIONS
  6
CONTINUOUS
 62
     7
 10
175.00002000000001
 20
435.39999999999981
 30
0.0
 11
175.00002000000001
 21
377.72315859222402
 31
0.0
  0
LINE
  5
9D
  8
DIMNSIONS
  6
CONTINUOUS
 62
     7
 10
175.00002000000001
 20
435.39999999999981
 30
0.0
 11
180.1044521158129
 21
416.3499999999998
 31
0.0
  0
LINE
  5
9E
  8
DIMNSIONS
  6
CONTINUOUS
 62
     7
 10
175.00002000000001
 20
435.39999999999981
 30
0.0
 11
169.89558788418719
 21
416.3499999999998
 31
0.0
  0
TEXT
  5
9F
  8
DIMNSIONS
 62
     7
 10
166.03669620000011
 20
377.72315859222402
 30
0.0
 40
16.2884140234375
  1
14.3
 50
90.0
 41
0.8
 11
149.74828217656261
 21
377.72315859222402
 31
0.0
 73
     3
  0
LINE
  5
A0
  8
DIMNSIONS
  6
CONTINUOUS
 62
     7
 10
188.00001004470349
 20
449.70000999999979
 30
0.0
 11
163.00002004470349
 21
449.70000999999979
 31
0.0
  0
LINE
  5
A1
  8
DIMNSIONS
  6
CONTINUOUS
 62
     7
 10
227.00001004470349
 20
744.97499999999968
 30
0.0
 11
163.00002004470349
 21
744.97499999999968
 31
0.0
  0
LINE
  5
A2
  8
DIMNSIONS
  6
CONTINUOUS
 62
     7
 10
175.00002000000001
 20
449.70000999999979
 30
0.0
 11
175.00002000000001
 21
744.97499999999968
 31
0.0
  0
LINE
  5
A3
  8
DIMNSIONS
  6
CONTINUOUS
 62
     7
 10
175.00002000000001
 20
449.70000999999979
 30
0.0
 11
169.89558788418719
 21
468.7500099999998
 31
0.0
  0
LINE
  5
A4
  8
DIMNSIONS
  6
CONTINUOUS
 62
     7
 10
175.00002000000001
 20
449.70000999999979
 30
0.0
 11
180.1044521158129
 21
468.7500099999998
 31
0.0
  0
LINE
  5
A5
  8
DIMNSIONS
  6
CONTINUOUS
 62
     7
 10
175.00002000000001
 20
744.97499999999968
 30
0.0
 11
180.1044521158129
 21
725.92499999999973
 31
0.0
  0
LINE
  5
A6
  8
DIMNSIONS
  6
CONTINUOUS
 62
     7
 10
175.00002000000001
 20
744.97499999999968
 30
0.0
 11
169.89558788418719
 21
725.92499999999973
 31
0.0
  0
TEXT
  5
A7
  8
DIMNSIONS
 62
     7
 10
166.03669620000011
 20
570.87916762944531
 30
0.0
 40
16.2884140234375
  1
295.3
 50
90.0
 41
0.8
 11
149.74828217656261
 21
570.87916762944531
 31
0.0
 73
     3
  0
LINE
  5
A8
  8
DIMNSIONS
  6
CONTINUOUS
 62
     7
 10
246.74500004470349
 20
758.97500999999966
 30
0.0
 11
125.5000100447035
 21
758.97500999999966
 31
0.0
  0
LINE
  5
A9
  8
DIMNSIONS
  6
CONTINUOUS
 62
     7
 10
576.15000004470357
 20
435.39999999999981
 30
0.0
 11
125.5000100447035
 21
435.39999999999981
 31
0.0
  0
LINE
  5
AA
  8
DIMNSIONS
  6
CONTINUOUS
 62
     7
 10
137.50001
 20
758.97500999999966
 30
0.0
 11
137.50001
 21
435.39999999999981
 31
0.0
  0
LINE
  5
AB
  8
DIMNSIONS
  6
CONTINUOUS
 62
     7
 10
137.50001
 20
758.97500999999966
 30
0.0
 11
142.6044421158129
 21
739.9250099999997
 31
0.0
  0
LINE
  5
AC
  8
DIMNSIONS
  6
CONTINUOUS
 62
     7
 10
137.50001
 20
758.97500999999966
 30
0.0
 11
132.39557788418711
 21
739.9250099999997
 31
0.0
  0
LINE
  5
AD
  8
DIMNSIONS
  6
CONTINUOUS
 62
     7
 10
137.50001
 20
435.39999999999981
 30
0.0
 11
132.39557788418711
 21
454.44999999999982
 31
0.0
  0
LINE
  5
AE
  8
DIMNSIONS
  6
CONTINUOUS
 62
     7
 10
137.50001
 20
435.39999999999981
 30
0.0
 11
142.6044421158129
 21
454.44999999999982
 31
0.0
  0
TEXT
  5
AF
  8
DIMNSIONS
 62
     7
 10
128.53668619999999
 20
570.7291676294451
 30
0.0
 40
16.2884140234375
  1
323.6
 50
90.0
 41
0.8
 11
112.24827217656249
 21
570.7291676294451
 31
0.0
 73
     3
  0
TEXT
  5
B0
  8
DATA
 62
     7
 10
882.59998999999971
 20
173.28535859999991
 30
0.0
 40
14.6595626171875
  1
SHURE
 41
0.8
 11
882.59998999999971
 21
187.94492121718741
 31
0.0
 73
     3
  0
TEXT
  5
B1
  8
DATA
 62
     7
 10
835.6560840766208
 20
126.62704778764289
 30
0.0
 40
14.6595626171875
  1
U4S-ABJ
 41
0.8
 11
835.6560840766208
 21
141.28661040483041
 31
0.0
 73
     3
  0
LINE
  5
B2
  8
DATA
  6
CONTINUOUS
 62
     7
 10
682.99999000000003
 20
449.70000999999979
 30
0.0
 11
200.00001
 21
449.70000999999979
 31
0.0
  0
LINE
  5
B3
  8
DATA
  6
CONTINUOUS
 62
     7
 10
239.00001
 20
744.97499999999968
 30
0.0
 11
643.99999000000003
 21
744.97499999999968
 31
0.0
  0
LINE
  5
B4
  8
DATA
  6
CONTINUOUS
 62
     7
 10
682.99999000000003
 20
454.5000099999998
 30
0.0
 11
200.00001
 21
454.5000099999998
 31
0.0
  0
LINE
  5
B5
  8
DATA
  6
CONTINUOUS
 62
     7
 10
643.99999000000003
 20
744.97499999999968
 30
0.0
 11
643.99999000000003
 21
454.5000099999998
 31
0.0
  0
LINE
  5
B6
  8
DATA
  6
CONTINUOUS
 62
     7
 10
239.00001
 20
744.97499999999968
 30
0.0
 11
239.00001
 21
454.5000099999998
 31
0.0
  0
LINE
  5
B7
  8
DATA
  6
CONTINUOUS
 62
     7
 10
646.99999000000003
 20
682.49999999999966
 30
0.0
 11
646.99999000000003
 21
457.5000099999998
 31
0.0
  0
LINE
  5
B8
  8
DATA
  6
CONTINUOUS
 62
     7
 10
236.00001
 20
682.49999999999966
 30
0.0
 11
236.00001
 21
457.5000099999998
 31
0.0
  0
LINE
  5
B9
  8
DATA
  6
CONTINUOUS
 62
     7
 10
682.99999000000003
 20
457.5000099999998
 30
0.0
 11
646.99999000000003
 21
457.5000099999998
 31
0.0
  0
LINE
  5
BA
  8
DATA
  6
CONTINUOUS
 62
     7
 10
236.00001
 20
457.5000099999998
 30
0.0
 11
200.00001
 21
457.5000099999998
 31
0.0
  0
LINE
  5
BB
  8
DATA
  6
CONTINUOUS
 62
     7
 10
236.00001
 20
682.49999999999966
 30
0.0
 11
239.00001
 21
682.49999999999966
 31
0.0
  0
LINE
  5
BC
  8
DATA
  6
CONTINUOUS
 62
     7
 10
646.99999000000003
 20
682.49999999999966
 30
0.0
 11
643.99999000000003
 21
682.49999999999966
 31
0.0
  0
LINE
  5
BD
  8
DATA
  6
CONTINUOUS
 62
     7
 10
200.00001
 20
457.5000099999998
 30
0.0
 11
200.00001
 21
449.70000999999979
 31
0.0
  0
LINE
  5
BE
  8
DATA
  6
CONTINUOUS
 62
     7
 10
682.99999000000003
 20
457.5000099999998
 30
0.0
 11
682.99999000000003
 21
449.70000999999979
 31
0.0
  0
LINE
  5
BF
  8
DATA
  6
CONTINUOUS
 62
     7
 10
646.99999000000003
 20
679.49999999999977
 30
0.0
 11
643.99999000000003
 21
679.49999999999977
 31
0.0
  0
LINE
  5
C0
  8
DATA
  6
CONTINUOUS
 62
     7
 10
680.0
 20
457.5000099999998
 30
0.0
 11
680.0
 21
454.5000099999998
 31
0.0
  0
LINE
  5
C1
  8
DATA
  6
CONTINUOUS
 62
     7
 10
203.00001
 20
457.5000099999998
 30
0.0
 11
203.00001
 21
454.5000099999998
 31
0.0
  0
LINE
  5
C2
  8
DATA
  6
CONTINUOUS
 62
     7
 10
629.60000000000002
 20
449.70000999999979
 30
0.0
 11
629.60000000000002
 21
443.20000999999968
 31
0.0
  0
LINE
  5
C3
  8
DATA
  6
CONTINUOUS
 62
     7
 10
607.39999999999986
 20
449.70000999999979
 30
0.0
 11
607.39999999999986
 21
443.20000999999968
 31
0.0
  0
LINE
  5
C4
  8
DATA
  6
CONTINUOUS
 62
     7
 10
627.60000000000002
 20
447.70000999999968
 30
0.0
 11
627.60000000000002
 21
443.20000999999968
 31
0.0
  0
LINE
  5
C5
  8
DATA
  6
CONTINUOUS
 62
     7
 10
609.39999
 20
447.70000999999968
 30
0.0
 11
609.39999
 21
443.20000999999968
 31
0.0
  0
LINE
  5
C6
  8
DATA
  6
CONTINUOUS
 62
     7
 10
609.39999
 20
447.70000999999968
 30
0.0
 11
627.60000000000002
 21
447.70000999999968
 31
0.0
  0
LINE
  5
C7
  8
DATA
  6
CONTINUOUS
 62
     7
 10
607.39999999999986
 20
443.20000999999968
 30
0.0
 11
609.39999
 21
443.20000999999968
 31
0.0
  0
LINE
  5
C8
  8
DATA
  6
CONTINUOUS
 62
     7
 10
627.60000000000002
 20
443.20000999999968
 30
0.0
 11
629.60000000000002
 21
443.20000999999968
 31
0.0
  0
LINE
  5
C9
  8
DATA
  6
CONTINUOUS
 62
     7
 10
611.99999000000003
 20
443.20000999999968
 30
0.0
 11
624.99999000000003
 21
443.20000999999968
 31
0.0
  0
LINE
  5
CA
  8
DATA
  6
CONTINUOUS
 62
     7
 10
611.99999000000003
 20
443.20000999999968
 30
0.0
 11
611.99999000000003
 21
447.70000999999968
 31
0.0
  0
LINE
  5
CB
  8
DATA
  6
CONTINUOUS
 62
     7
 10
624.99999000000003
 20
443.20000999999968
 30
0.0
 11
624.99999000000003
 21
447.70000999999968
 31
0.0
  0
LINE
  5
CC
  8
DATA
  6
CONTINUOUS
 62
     7
 10
646.99999000000003
 20
543.90000999999984
 30
0.0
 11
649.70000000000005
 21
543.90000999999984
 31
0.0
  0
LINE
  5
CD
  8
DATA
  6
CONTINUOUS
 62
     7
 10
646.99999000000003
 20
537.10000999999977
 30
0.0
 11
649.99999000000003
 21
537.10000999999977
 31
0.0
  0
LINE
  5
CE
  8
DATA
  6
CONTINUOUS
 62
     7
 10
649.99999000000003
 20
543.90000999999984
 30
0.0
 11
649.99999000000003
 21
537.10000999999977
 31
0.0
  0
LINE
  5
CF
  8
DATA
  6
CONTINUOUS
 62
     7
 10
646.99999000000003
 20
670.75000999999975
 30
0.0
 11
649.99999000000003
 21
670.75000999999975
 31
0.0
  0
LINE
  5
D0
  8
DATA
  6
CONTINUOUS
 62
     7
 10
646.99999000000003
 20
663.94999999999982
 30
0.0
 11
649.99999000000003
 21
663.94999999999982
 31
0.0
  0
LINE
  5
D1
  8
DATA
  6
CONTINUOUS
 62
     7
 10
649.99999000000003
 20
670.75000999999975
 30
0.0
 11
649.99999000000003
 21
663.94999999999982
 31
0.0
  0
LINE
  5
D2
  8
DATA
  6
CONTINUOUS
 62
     7
 10
236.00001
 20
543.90000999999984
 30
0.0
 11
233.30000000000001
 21
543.90000999999984
 31
0.0
  0
LINE
  5
D3
  8
DATA
  6
CONTINUOUS
 62
     7
 10
236.00001
 20
537.10000999999977
 30
0.0
 11
233.00001
 21
537.10000999999977
 31
0.0
  0
LINE
  5
D4
  8
DATA
  6
CONTINUOUS
 62
     7
 10
233.00001
 20
543.90000999999984
 30
0.0
 11
233.00001
 21
537.10000999999977
 31
0.0
  0
LINE
  5
D5
  8
DATA
  6
CONTINUOUS
 62
     7
 10
236.00001
 20
670.75000999999975
 30
0.0
 11
233.00001
 21
670.75000999999975
 31
0.0
  0
LINE
  5
D6
  8
DATA
  6
CONTINUOUS
 62
     7
 10
236.00001
 20
663.94999999999982
 30
0.0
 11
233.00001
 21
663.94999999999982
 31
0.0
  0
LINE
  5
D7
  8
DATA
  6
CONTINUOUS
 62
     7
 10
233.00001
 20
670.75000999999975
 30
0.0
 11
233.00001
 21
663.94999999999982
 31
0.0
  0
LINE
  5
D8
  8
DATA
  6
CONTINUOUS
 62
     7
 10
414.00000999999992
 20
469.5000099999998
 30
0.0
 11
414.00000999999992
 21
473.5000099999998
 31
0.0
  0
LINE
  5
D9
  8
DATA
  6
CONTINUOUS
 62
     7
 10
412.00000999999992
 20
471.5000099999998
 30
0.0
 11
416.00000999999992
 21
471.5000099999998
 31
0.0
  0
CIRCLE
  5
DA
  8
DATA
  6
CONTINUOUS
 62
     7
 10
414.00000999999992
 20
471.5000099999998
 30
0.0
 40
3.25
  0
CIRCLE
  5
DB
  8
DATA
  6
CONTINUOUS
 62
     7
 10
414.00000999999992
 20
471.5000099999998
 30
0.0
 40
8.0
  0
LINE
  5
DC
  8
DATA
  6
CONTINUOUS
 62
     7
 10
483.00000999999992
 20
723.70000999999968
 30
0.0
 11
483.00000999999992
 21
727.69999999999982
 31
0.0
  0
LINE
  5
DD
  8
DATA
  6
CONTINUOUS
 62
     7
 10
481.00000999999992
 20
725.70000999999979
 30
0.0
 11
485.00000999999992
 21
725.70000999999979
 31
0.0
  0
CIRCLE
  5
DE
  8
DATA
  6
CONTINUOUS
 62
     7
 10
483.00000999999992
 20
725.70000999999979
 30
0.0
 40
3.2499899999999959
  0
CIRCLE
  5
DF
  8
DATA
  6
CONTINUOUS
 62
     7
 10
483.00000999999992
 20
725.70000999999979
 30
0.0
 40
7.9999899999999959
  0
LINE
  5
E0
  8
DATA
  6
CONTINUOUS
 62
     7
 10
536.77501000000007
 20
748.97499999999968
 30
0.0
 11
536.77501000000007
 21
758.97500999999966
 31
0.0
  0
LINE
  5
E1
  8
DATA
  6
CONTINUOUS
 62
     7
 10
527.27500999999995
 20
748.47499999999968
 30
0.0
 11
527.27500999999995
 21
758.97500999999966
 31
0.0
  0
LINE
  5
E2
  8
DATA
  6
CONTINUOUS
 62
     7
 10
527.27500999999995
 20
758.97500999999966
 30
0.0
 11
536.77501000000007
 21
758.97500999999966
 31
0.0
  0
LINE
  5
E3
  8
DATA
  6
CONTINUOUS
 62
     7
 10
539.17499999999995
 20
745.97499999999957
 30
0.0
 11
539.17499999999995
 21
744.97499999999968
 31
0.0
  0
LINE
  5
E4
  8
DATA
  6
CONTINUOUS
 62
     7
 10
524.875
 20
745.97499999999957
 30
0.0
 11
524.875
 21
744.97499999999968
 31
0.0
  0
LINE
  5
E5
  8
DATA
  6
CONTINUOUS
 62
     7
 10
524.875
 20
745.97499999999957
 30
0.0
 11
539.17499999999995
 21
745.97499999999957
 31
0.0
  0
LINE
  5
E6
  8
DATA
  6
CONTINUOUS
 62
     7
 10
526.27500999999995
 20
748.47499999999968
 30
0.0
 11
537.77500999999995
 21
748.47499999999968
 31
0.0
  0
CIRCLE
  5
E7
  8
DATA
  6
CONTINUOUS
 62
     7
 10
532.02500999999995
 20
754.97499999999957
 30
0.0
 40
1.0
  0
LINE
  5
E8
  8
DATA
  6
CONTINUOUS
 62
     7
 10
609.0
 20
744.97499999999968
 30
0.0
 11
609.0
 21
746.47499999999957
 31
0.0
  0
LINE
  5
E9
  8
DATA
  6
CONTINUOUS
 62
     7
 10
586.50000999999986
 20
744.97499999999968
 30
0.0
 11
586.50000999999986
 21
746.47499999999957
 31
0.0
  0
LINE
  5
EA
  8
DATA
  6
CONTINUOUS
 62
     7
 10
554.00000999999986
 20
744.97499999999968
 30
0.0
 11
554.00000999999986
 21
746.47499999999957
 31
0.0
  0
LINE
  5
EB
  8
DATA
  6
CONTINUOUS
 62
     7
 10
554.00000999999986
 20
746.47499999999957
 30
0.0
 11
609.0
 21
746.47499999999957
 31
0.0
  0
LINE
  5
EC
  8
DATA
  6
CONTINUOUS
 62
     7
 10
239.00001
 20
899.99998999999968
 30
0.0
 11
239.00001
 21
944.29999999999973
 31
0.0
  0
LINE
  5
ED
  8
DATA
  6
CONTINUOUS
 62
     7
 10
643.99999000000003
 20
899.99998999999968
 30
0.0
 11
643.99999000000003
 21
944.29999999999973
 31
0.0
  0
LINE
  5
EE
  8
DATA
  6
CONTINUOUS
 62
     7
 10
200.00001
 20
899.99998999999968
 30
0.0
 11
682.99999000000003
 21
899.99998999999968
 31
0.0
  0
LINE
  5
EF
  8
DATA
  6
CONTINUOUS
 62
     7
 10
200.00001
 20
899.99998999999968
 30
0.0
 11
200.00001
 21
944.29999999999973
 31
0.0
  0
LINE
  5
F0
  8
DATA
  6
CONTINUOUS
 62
     7
 10
682.99999000000003
 20
899.99998999999968
 30
0.0
 11
682.99999000000003
 21
944.29999999999973
 31
0.0
  0
LINE
  5
F1
  8
DATA
  6
CONTINUOUS
 62
     7
 10
646.99999000000003
 20
899.99998999999968
 30
0.0
 11
646.99999000000003
 21
944.29999999999973
 31
0.0
  0
LINE
  5
F2
  8
DATA
  6
CONTINUOUS
 62
     7
 10
236.00001
 20
899.99998999999968
 30
0.0
 11
236.00001
 21
944.29999999999973
 31
0.0
  0
LINE
  5
F3
  8
DATA
  6
CONTINUOUS
 62
     7
 10
649.70000000000005
 20
921.94998999999973
 30
0.0
 11
649.70000000000005
 21
928.64999999999975
 31
0.0
  0
LINE
  5
F4
  8
DATA
  6
CONTINUOUS
 62
     7
 10
200.00001
 20
944.29999999999973
 30
0.0
 11
682.99999000000003
 21
944.29999999999973
 31
0.0
  0
CIRCLE
  5
F5
  8
DATA
  6
CONTINUOUS
 62
     7
 10
263.50000999999997
 20
923.99998999999968
 30
0.0
 40
4.75
  0
CIRCLE
  5
F6
  8
DATA
  6
CONTINUOUS
 62
     7
 10
263.50000999999997
 20
923.99998999999968
 30
0.0
 40
5.75
  0
POLYLINE
  5
F7
  8
DATA
  6
CONTINUOUS
 62
     7
 66
     1
 10
0.0
 20
0.0
 30
0.0
 70
     1
  0
VERTEX
  5
443
  8
DATA
  6
CONTINUOUS
 62
     7
 10
270.65003000000002
 20
919.87177999999972
 30
0.0
  0
VERTEX
  5
444
  8
DATA
  6
CONTINUOUS
 62
     7
 10
270.65021000000002
 20
928.12788999999964
 30
0.0
  0
VERTEX
  5
445
  8
DATA
  6
CONTINUOUS
 62
     7
 10
263.50026000000003
 20
932.25610999999969
 30
0.0
  0
VERTEX
  5
446
  8
DATA
  6
CONTINUOUS
 62
     7
 10
256.35005000000001
 20
928.12832999999955
 30
0.0
  0
VERTEX
  5
447
  8
DATA
  6
CONTINUOUS
 62
     7
 10
256.34980000000002
 20
919.87211999999965
 30
0.0
  0
VERTEX
  5
448
  8
DATA
  6
CONTINUOUS
 62
     7
 10
263.49975000000001
 20
915.7438999999996
 30
0.0
  0
SEQEND
  5
449
  8
DATA
  6
CONTINUOUS
 62
     7
  0
CIRCLE
  5
100
  8
DATA
  6
CONTINUOUS
 62
     7
 10
263.50000999999997
 20
923.99998999999968
 30
0.0
 40
8.4999899999999968
  0
CIRCLE
  5
101
  8
DATA
  6
CONTINUOUS
 62
     7
 10
263.50000999999997
 20
923.99998999999968
 30
0.0
 40
2.25
  0
CIRCLE
  5
102
  8
DATA
  6
CONTINUOUS
 62
     7
 10
263.50000999999997
 20
923.99998999999968
 30
0.0
 40
0.6500100000000089
  0
CIRCLE
  5
103
  8
DATA
  6
CONTINUOUS
 62
     7
 10
532.02500999999995
 20
923.99998999999968
 30
0.0
 40
4.75
  0
CIRCLE
  5
104
  8
DATA
  6
CONTINUOUS
 62
     7
 10
532.02500999999995
 20
923.99998999999968
 30
0.0
 40
5.75
  0
POLYLINE
  5
105
  8
DATA
  6
CONTINUOUS
 62
     7
 66
     1
 10
0.0
 20
0.0
 30
0.0
 70
     1
  0
VERTEX
  5
44A
  8
DATA
  6
CONTINUOUS
 62
     7
 10
539.17502000000002
 20
919.87177999999972
 30
0.0
  0
VERTEX
  5
44B
  8
DATA
  6
CONTINUOUS
 62
     7
 10
539.17521999999985
 20
928.12788999999964
 30
0.0
  0
VERTEX
  5
44C
  8
DATA
  6
CONTINUOUS
 62
     7
 10
532.02525999999989
 20
932.25610999999969
 30
0.0
  0
VERTEX
  5
44D
  8
DATA
  6
CONTINUOUS
 62
     7
 10
524.87504999999987
 20
928.12832999999955
 30
0.0
  0
VERTEX
  5
44E
  8
DATA
  6
CONTINUOUS
 62
     7
 10
524.87481000000002
 20
919.87211999999965
 30
0.0
  0
VERTEX
  5
44F
  8
DATA
  6
CONTINUOUS
 62
     7
 10
532.02476000000001
 20
915.7438999999996
 30
0.0
  0
SEQEND
  5
450
  8
DATA
  6
CONTINUOUS
 62
     7
  0
CIRCLE
  5
10E
  8
DATA
  6
CONTINUOUS
 62
     7
 10
532.02500999999995
 20
923.99998999999968
 30
0.0
 40
8.4999899999999968
  0
CIRCLE
  5
10F
  8
DATA
  6
CONTINUOUS
 62
     7
 10
532.02500999999995
 20
923.99998999999968
 30
0.0
 40
2.25
  0
CIRCLE
  5
110
  8
DATA
  6
CONTINUOUS
 62
     7
 10
532.02500999999995
 20
923.99998999999968
 30
0.0
 40
0.6500100000000089
  0
LINE
  5
111
  8
DATA
  6
CONTINUOUS
 62
     7
 10
554.00000999999986
 20
906.29999999999973
 30
0.0
 11
554.00000999999986
 21
936.29999999999973
 31
0.0
  0
LINE
  5
112
  8
DATA
  6
CONTINUOUS
 62
     7
 10
586.50000999999986
 20
906.29999999999973
 30
0.0
 11
586.50000999999986
 21
936.29999999999973
 31
0.0
  0
LINE
  5
113
  8
DATA
  6
CONTINUOUS
 62
     7
 10
609.0
 20
906.29999999999973
 30
0.0
 11
609.0
 21
936.29999999999973
 31
0.0
  0
LINE
  5
114
  8
DATA
  6
CONTINUOUS
 62
     7
 10
609.0
 20
936.29999999999973
 30
0.0
 11
554.00000999999986
 21
936.29999999999973
 31
0.0
  0
LINE
  5
115
  8
DATA
  6
CONTINUOUS
 62
     7
 10
609.0
 20
906.29999999999973
 30
0.0
 11
554.00000999999986
 21
906.29999999999973
 31
0.0
  0
LINE
  5
116
  8
DATA
  6
CONTINUOUS
 62
     7
 10
246.00001
 20
906.99999999999955
 30
0.0
 11
554.00000999999986
 21
906.99999999999955
 31
0.0
  0
LINE
  5
117
  8
DATA
  6
CONTINUOUS
 62
     7
 10
609.0
 20
906.99999999999955
 30
0.0
 11
637.0
 21
906.99999999999955
 31
0.0
  0
LINE
  5
118
  8
DATA
  6
CONTINUOUS
 62
     7
 10
637.0
 20
906.99999999999955
 30
0.0
 11
637.0
 21
944.29999999999973
 31
0.0
  0
LINE
  5
119
  8
DATA
  6
CONTINUOUS
 62
     7
 10
637.0
 20
906.99999999999955
 30
0.0
 11
643.99999000000003
 21
899.99998999999968
 31
0.0
  0
LINE
  5
11A
  8
DATA
  6
CONTINUOUS
 62
     7
 10
606.14999999999986
 20
912.14998999999955
 30
0.0
 11
606.14999999999986
 21
930.44998999999973
 31
0.0
  0
LINE
  5
11B
  8
DATA
  6
CONTINUOUS
 62
     7
 10
589.35000999999988
 20
915.44279999999969
 30
0.0
 11
589.35000999999988
 21
927.15717999999981
 31
0.0
  0
LINE
  5
11C
  8
DATA
  6
CONTINUOUS
 62
     7
 10
603.14999999999998
 20
909.14998999999955
 30
0.0
 11
596.24761999999998
 21
909.14998999999955
 31
0.0
  0
LINE
  5
11D
  8
DATA
  6
CONTINUOUS
 62
     7
 10
603.14999999999998
 20
933.44998999999973
 30
0.0
 11
596.24761999999998
 21
933.44998999999973
 31
0.0
  0
LINE
  5
11E
  8
DATA
  6
CONTINUOUS
 62
     7
 10
594.31155000000001
 20
909.85833999999966
 30
0.0
 11
590.41394000000003
 21
913.15113999999971
 31
0.0
  0
LINE
  5
11F
  8
DATA
  6
CONTINUOUS
 62
     7
 10
590.41395999999986
 20
929.44884999999965
 30
0.0
 11
594.31155000000001
 21
932.74165999999968
 31
0.0
  0
LINE
  5
120
  8
DATA
  6
CONTINUOUS
 62
     7
 10
593.35000000000002
 20
920.29999999999973
 30
0.0
 11
593.35000000000002
 21
922.29999999999973
 31
0.0
  0
LINE
  5
121
  8
DATA
  6
CONTINUOUS
 62
     7
 10
597.35000000000002
 20
920.29999999999973
 30
0.0
 11
597.35000000000002
 21
922.29999999999973
 31
0.0
  0
LINE
  5
122
  8
DATA
  6
CONTINUOUS
 62
     7
 10
597.35000000000002
 20
920.29999999999973
 30
0.0
 11
593.35000000000002
 21
920.29999999999973
 31
0.0
  0
LINE
  5
123
  8
DATA
  6
CONTINUOUS
 62
     7
 10
597.35000000000002
 20
922.29999999999973
 30
0.0
 11
593.35000000000002
 21
922.29999999999973
 31
0.0
  0
LINE
  5
124
  8
DATA
  6
CONTINUOUS
 62
     7
 10
599.75000999999986
 20
913.29999999999973
 30
0.0
 11
599.75000999999986
 21
915.29999999999961
 31
0.0
  0
LINE
  5
125
  8
DATA
  6
CONTINUOUS
 62
     7
 10
603.74999000000003
 20
913.29999999999973
 30
0.0
 11
603.74999000000003
 21
915.29999999999961
 31
0.0
  0
LINE
  5
126
  8
DATA
  6
CONTINUOUS
 62
     7
 10
603.74999000000003
 20
913.29999999999973
 30
0.0
 11
599.75000999999986
 21
913.29999999999973
 31
0.0
  0
LINE
  5
127
  8
DATA
  6
CONTINUOUS
 62
     7
 10
603.74999000000003
 20
915.29999999999961
 30
0.0
 11
599.75000999999986
 21
915.29999999999961
 31
0.0
  0
LINE
  5
128
  8
DATA
  6
CONTINUOUS
 62
     7
 10
599.75000999999986
 20
927.29999999999973
 30
0.0
 11
599.75000999999986
 21
929.29999999999973
 31
0.0
  0
LINE
  5
129
  8
DATA
  6
CONTINUOUS
 62
     7
 10
603.74999000000003
 20
927.29999999999973
 30
0.0
 11
603.74999000000003
 21
929.29999999999973
 31
0.0
  0
LINE
  5
12A
  8
DATA
  6
CONTINUOUS
 62
     7
 10
603.74999000000003
 20
927.29999999999973
 30
0.0
 11
599.75000999999986
 21
927.29999999999973
 31
0.0
  0
LINE
  5
12B
  8
DATA
  6
CONTINUOUS
 62
     7
 10
603.74999000000003
 20
929.29999999999973
 30
0.0
 11
599.75000999999986
 21
929.29999999999973
 31
0.0
  0
LINE
  5
12C
  8
DATA
  6
CONTINUOUS
 62
     7
 10
579.40000999999995
 20
930.09999999999957
 30
0.0
 11
561.10000000000002
 21
930.09999999999957
 31
0.0
  0
LINE
  5
12D
  8
DATA
  6
CONTINUOUS
 62
     7
 10
576.10720000000003
 20
913.29999999999973
 30
0.0
 11
564.39282000000003
 21
913.29999999999973
 31
0.0
  0
LINE
  5
12E
  8
DATA
  6
CONTINUOUS
 62
     7
 10
582.40000999999995
 20
927.09999999999968
 30
0.0
 11
582.40000999999995
 21
920.19760999999971
 31
0.0
  0
LINE
  5
12F
  8
DATA
  6
CONTINUOUS
 62
     7
 10
558.10000000000002
 20
927.09999999999968
 30
0.0
 11
558.10000000000002
 21
920.19760999999971
 31
0.0
  0
LINE
  5
130
  8
DATA
  6
CONTINUOUS
 62
     7
 10
581.69167000000004
 20
918.26154999999972
 30
0.0
 11
578.3988599999999
 21
914.36393999999973
 31
0.0
  0
LINE
  5
131
  8
DATA
  6
CONTINUOUS
 62
     7
 10
562.10116000000005
 20
914.36393999999973
 30
0.0
 11
558.80834000000004
 21
918.26154999999972
 31
0.0
  0
LINE
  5
132
  8
DATA
  6
CONTINUOUS
 62
     7
 10
571.25000999999986
 20
917.29999999999984
 30
0.0
 11
569.25000999999997
 21
917.29999999999984
 31
0.0
  0
LINE
  5
133
  8
DATA
  6
CONTINUOUS
 62
     7
 10
571.25000999999986
 20
921.29999999999973
 30
0.0
 11
569.25000999999997
 21
921.29999999999973
 31
0.0
  0
LINE
  5
134
  8
DATA
  6
CONTINUOUS
 62
     7
 10
571.25000999999986
 20
921.29999999999973
 30
0.0
 11
571.25000999999986
 21
917.29999999999984
 31
0.0
  0
LINE
  5
135
  8
DATA
  6
CONTINUOUS
 62
     7
 10
569.25000999999997
 20
921.29999999999973
 30
0.0
 11
569.25000999999997
 21
917.29999999999984
 31
0.0
  0
LINE
  5
136
  8
DATA
  6
CONTINUOUS
 62
     7
 10
578.25000999999997
 20
923.69998999999973
 30
0.0
 11
576.25000999999986
 21
923.69998999999973
 31
0.0
  0
LINE
  5
137
  8
DATA
  6
CONTINUOUS
 62
     7
 10
578.25000999999997
 20
927.69998999999984
 30
0.0
 11
576.25000999999986
 21
927.69998999999984
 31
0.0
  0
LINE
  5
138
  8
DATA
  6
CONTINUOUS
 62
     7
 10
578.25000999999997
 20
927.69998999999984
 30
0.0
 11
578.25000999999997
 21
923.69998999999973
 31
0.0
  0
LINE
  5
139
  8
DATA
  6
CONTINUOUS
 62
     7
 10
576.25000999999986
 20
927.69998999999984
 30
0.0
 11
576.25000999999986
 21
923.69998999999973
 31
0.0
  0
LINE
  5
13A
  8
DATA
  6
CONTINUOUS
 62
     7
 10
564.25
 20
923.69998999999973
 30
0.0
 11
562.25
 21
923.69998999999973
 31
0.0
  0
LINE
  5
13B
  8
DATA
  6
CONTINUOUS
 62
     7
 10
564.25
 20
927.69998999999984
 30
0.0
 11
562.25
 21
927.69998999999984
 31
0.0
  0
LINE
  5
13C
  8
DATA
  6
CONTINUOUS
 62
     7
 10
564.25
 20
927.69998999999984
 30
0.0
 11
564.25
 21
923.69998999999973
 31
0.0
  0
LINE
  5
13D
  8
DATA
  6
CONTINUOUS
 62
     7
 10
562.25
 20
927.69998999999984
 30
0.0
 11
562.25
 21
923.69998999999973
 31
0.0
  0
LINE
  5
13E
  8
DATA
  6
CONTINUOUS
 62
     7
 10
577.73213999999984
 20
909.79999999999973
 30
0.0
 11
562.76787000000002
 21
909.79999999999973
 31
0.0
  0
LINE
  5
13F
  8
DATA
  6
CONTINUOUS
 62
     7
 10
581.90000999999995
 20
933.59999999999957
 30
0.0
 11
558.60000000000002
 21
933.59999999999957
 31
0.0
  0
LINE
  5
140
  8
DATA
  6
CONTINUOUS
 62
     7
 10
554.60000000000002
 20
929.59999999999968
 30
0.0
 11
554.60000000000002
 21
917.81946999999968
 31
0.0
  0
LINE
  5
141
  8
DATA
  6
CONTINUOUS
 62
     7
 10
585.89999999999986
 20
929.59999999999968
 30
0.0
 11
585.89999999999986
 21
917.81946999999968
 31
0.0
  0
LINE
  5
142
  8
DATA
  6
CONTINUOUS
 62
     7
 10
586.05253000000005
 20
917.99999999999955
 30
0.0
 11
580.02381000000003
 21
910.86393999999973
 31
0.0
  0
LINE
  5
143
  8
DATA
  6
CONTINUOUS
 62
     7
 10
554.4474899999999
 20
917.99999999999955
 30
0.0
 11
560.47621000000004
 21
910.86393999999973
 31
0.0
  0
ARC
  5
144
  8
DATA
  6
CONTINUOUS
 62
     7
 10
581.90000999999995
 20
929.59999999999968
 30
0.0
 40
3.9999899999999982
 50
0.0
 51
90.0
  0
ARC
  5
145
  8
DATA
  6
CONTINUOUS
 62
     7
 10
558.60000000000002
 20
929.59999999999968
 30
0.0
 40
4.0
 50
90.0
 51
180.0
  0
ARC
  5
146
  8
DATA
  6
CONTINUOUS
 62
     7
 10
579.40000999999995
 20
927.09999999999968
 30
0.0
 40
3.0
 50
0.0
 51
90.0
  0
ARC
  5
147
  8
DATA
  6
CONTINUOUS
 62
     7
 10
561.10000000000002
 20
927.09999999999968
 30
0.0
 40
3.0
 50
90.0
 51
180.0
  0
ARC
  5
148
  8
DATA
  6
CONTINUOUS
 62
     7
 10
579.40000999999995
 20
920.19758999999965
 30
0.0
 40
2.9999927395245418
 50
319.80821053129989
 51
0.0001909865684979
  0
ARC
  5
149
  8
DATA
  6
CONTINUOUS
 62
     7
 10
561.10000000000002
 20
920.19758999999965
 30
0.0
 40
3.0000000000666658
 50
179.9996180281365
 51
220.19193536069909
  0
ARC
  5
14A
  8
DATA
  6
CONTINUOUS
 62
     7
 10
564.39279999999985
 20
916.29999999999961
 30
0.0
 40
2.999990368851206
 50
220.19232775921341
 51
270.00019098593168
  0
ARC
  5
14B
  8
DATA
  6
CONTINUOUS
 62
     7
 10
576.1072099999999
 20
916.29999999999961
 30
0.0
 40
3.0000000000166658
 50
269.99980901406832
 51
319.80764960382169
  0
ARC
  5
14C
  8
DATA
  6
CONTINUOUS
 62
     7
 10
596.24760000000003
 20
912.14998999999955
 30
0.0
 40
2.9999915541547701
 50
229.80794138614939
 51
270.00019098656838
  0
ARC
  5
14D
  8
DATA
  6
CONTINUOUS
 62
     7
 10
592.35000000000002
 20
915.44278999999983
 30
0.0
 40
2.9999900000166662
 50
179.99980901343159
 51
229.80779549467169
  0
ARC
  5
14E
  8
DATA
  6
CONTINUOUS
 62
     7
 10
592.35000000000002
 20
927.15717999999981
 30
0.0
 40
3.0000003784166389
 50
130.19166621628301
 51
180.0
  0
ARC
  5
14F
  8
DATA
  6
CONTINUOUS
 62
     7
 10
596.24760000000003
 20
930.44998999999973
 30
0.0
 40
3.0000000000666658
 50
89.999618028136609
 51
130.19181210817561
  0
ARC
  5
150
  8
DATA
  6
CONTINUOUS
 62
     7
 10
603.14999999999998
 20
930.44998999999973
 30
0.0
 40
3.0
 50
0.0
 51
90.0
  0
ARC
  5
151
  8
DATA
  6
CONTINUOUS
 62
     7
 10
603.14999999999998
 20
912.14998999999955
 30
0.0
 40
3.0
 50
270.0
 51
0.0
  0
ARC
  5
152
  8
DATA
  6
CONTINUOUS
 62
     7
 10
577.73213999999984
 20
912.79999999999984
 30
0.0
 40
3.0
 50
270.0
 51
319.80804200055923
  0
ARC
  5
153
  8
DATA
  6
CONTINUOUS
 62
     7
 10
562.76787000000002
 20
912.79999999999984
 30
0.0
 40
3.000005646528018
 50
220.19208125207061
 51
270.0
  0
LINE
  5
154
  8
DATA
  6
CONTINUOUS
 62
     7
 10
246.00001
 20
906.99999999999955
 30
0.0
 11
246.00001
 21
944.29999999999973
 31
0.0
  0
LINE
  5
155
  8
DATA
  6
CONTINUOUS
 62
     7
 10
246.00001
 20
906.99999999999955
 30
0.0
 11
239.00001
 21
899.99998999999968
 31
0.0
  0
TEXT
  5
156
  8
DATA
 62
     7
 10
540.21279520729172
 20
936.37999139999965
 30
0.0
 40
2.3085860546874999
  1
12 Vdc OUT
 50
180.0
 41
0.8
 72
     1
 11
532.02500999999995
 21
934.07140534531231
 31
0.0
 73
     3
  0
TEXT
  5
157
  8
DATA
 62
     7
 10
535.87265342447927
 20
939.37998139999968
 30
0.0
 40
2.3085860546874999
  1
150mA
 50
180.0
 41
0.8
 72
     1
 11
532.02500999999995
 21
937.07139534531223
 31
0.0
 73
     3
  0
TEXT
  5
158
  8
DATA
 62
     7
 10
537.81186571041678
 20
942.3799713999997
 30
0.0
 40
2.3085860546874999
  1
CLASS 2
 50
180.0
 41
0.8
 72
     1
 11
532.02500999999995
 21
940.07138534531225
 31
0.0
 73
     3
  0
TEXT
  5
159
  8
DATA
 62
     7
 10
541.75185257708335
 20
912.4799813999997
 30
0.0
 40
2.3085860546874999
  1
ANTENNA B IN
 50
180.0
 41
0.8
 72
     1
 11
532.02500999999995
 21
910.17139534531225
 31
0.0
 73
     3
  0
TEXT
  5
15A
  8
DATA
 62
     7
 10
582.73804125000004
 20
939.72199999999975
 30
0.0
 40
2.077734374999999
  1
OUTPUT.90-120 VAC
 50
180.0
 41
0.8
 72
     1
 11
570.05001000000004
 21
937.64426562499966
 31
0.0
 73
     3
  0
TEXT
  5
15B
  8
DATA
 62
     7
 10
582.07316624999999
 20
942.42199999999957
 30
0.0
 40
2.077734374999999
  1
5A 50/60 Hz UNSW
 50
180.0
 41
0.8
 72
     1
 11
570.05001000000004
 21
940.34426562499959
 31
0.0
 73
     3
  0
TEXT
  5
15C
  8
DATA
 62
     7
 10
609.57991625
 20
939.72199999999975
 30
0.0
 40
2.077734374999999
  1
INPUT.90-120 VAC
 50
180.0
 41
0.8
 72
     1
 11
598.00000999999986
 21
937.64426562499966
 31
0.0
 73
     3
  0
TEXT
  5
15D
  8
DATA
 62
     7
 10
606.89271312499989
 20
942.42199999999957
 30
0.0
 40
2.077734374999999
  1
0.5A 50/60 Hz
 50
180.0
 41
0.8
 72
     1
 11
598.00000999999986
 21
940.34426562499959
 31
0.0
 73
     3
  0
LINE
  5
15E
  8
DATA
  6
CONTINUOUS
 62
     7
 10
646.99999000000003
 20
928.64999999999975
 30
0.0
 11
649.70000000000005
 21
928.64999999999975
 31
0.0
  0
LINE
  5
15F
  8
DATA
  6
CONTINUOUS
 62
     7
 10
646.99999000000003
 20
921.94998999999973
 30
0.0
 11
649.70000000000005
 21
921.94998999999973
 31
0.0
  0
LINE
  5
160
  8
DATA
  6
CONTINUOUS
 62
     7
 10
643.99999000000003
 20
941.29999999999961
 30
0.0
 11
646.99999000000003
 21
941.29999999999961
 31
0.0
  0
LINE
  5
161
  8
DATA
  6
CONTINUOUS
 62
     7
 10
643.99999000000003
 20
902.99998999999957
 30
0.0
 11
646.99999000000003
 21
902.99998999999957
 31
0.0
  0
LINE
  5
162
  8
DATA
  6
CONTINUOUS
 62
     7
 10
650.99999000000003
 20
926.64999999999975
 30
0.0
 11
649.70000000000005
 21
926.64999999999975
 31
0.0
  0
LINE
  5
163
  8
DATA
  6
CONTINUOUS
 62
     7
 10
650.99999000000003
 20
917.64998999999955
 30
0.0
 11
646.99999000000003
 21
917.64998999999955
 31
0.0
  0
LINE
  5
164
  8
DATA
  6
CONTINUOUS
 62
     7
 10
651.99999000000003
 20
914.54999999999961
 30
0.0
 11
651.99999000000003
 21
916.64998999999955
 31
0.0
  0
LINE
  5
165
  8
DATA
  6
CONTINUOUS
 62
     7
 10
660.99999000000003
 20
914.54999999999961
 30
0.0
 11
660.99999000000003
 21
916.64997999999957
 31
0.0
  0
LINE
  5
166
  8
DATA
  6
CONTINUOUS
 62
     7
 10
660.99999000000003
 20
929.74998999999957
 30
0.0
 11
651.99999000000003
 21
929.74998999999957
 31
0.0
  0
LINE
  5
167
  8
DATA
  6
CONTINUOUS
 62
     7
 10
660.99999000000003
 20
914.54999999999961
 30
0.0
 11
651.99999000000003
 21
914.54999999999961
 31
0.0
  0
ARC
  5
168
  8
DATA
  6
CONTINUOUS
 62
     7
 10
656.49999000000003
 20
922.14998999999955
 30
0.0
 40
7.1063297573712472
 50
129.54597387888791
 51
140.71053073621121
  0
ARC
  5
169
  8
DATA
  6
CONTINUOUS
 62
     7
 10
656.49999000000003
 20
922.14998999999955
 30
0.0
 40
7.1063382981110612
 50
315.0
 51
50.710644193089138
  0
LINE
  5
16A
  8
DATA
  6
CONTINUOUS
 62
     7
 10
651.99999000000003
 20
929.74998999999957
 30
0.0
 11
651.97541000000001
 21
927.62977999999964
 31
0.0
  0
LINE
  5
16B
  8
DATA
  6
CONTINUOUS
 62
     7
 10
660.99999000000003
 20
929.74998999999957
 30
0.0
 11
660.99999000000003
 21
927.65000999999984
 31
0.0
  0
ARC
  5
16C
  8
DATA
  6
CONTINUOUS
 62
     7
 10
656.49999000000003
 20
922.14998999999955
 30
0.0
 40
7.1063314034528364
 50
181.6846084670423
 51
309.28940686250041
  0
ARC
  5
16D
  8
DATA
  6
CONTINUOUS
 62
     7
 10
656.49999000000003
 20
922.14998999999955
 30
0.0
 40
7.1063415341580658
 50
140.71053073621121
 51
160.6891176438985
  0
LINE
  5
16E
  8
DATA
  6
CONTINUOUS
 62
     7
 10
651.97541000000001
 20
927.62977999999964
 30
0.0
 11
660.99999000000003
 21
927.65000999999984
 31
0.0
  0
LINE
  5
16F
  8
DATA
  6
CONTINUOUS
 62
     7
 10
233.30000000000001
 20
921.94998999999973
 30
0.0
 11
233.30000000000001
 21
928.64999999999975
 31
0.0
  0
LINE
  5
170
  8
DATA
  6
CONTINUOUS
 62
     7
 10
236.00001
 20
928.64999999999975
 30
0.0
 11
233.30000000000001
 21
928.64999999999975
 31
0.0
  0
LINE
  5
171
  8
DATA
  6
CONTINUOUS
 62
     7
 10
236.00001
 20
921.94998999999973
 30
0.0
 11
233.30000000000001
 21
921.94998999999973
 31
0.0
  0
LINE
  5
172
  8
DATA
  6
CONTINUOUS
 62
     7
 10
232.00001000000009
 20
926.64999999999975
 30
0.0
 11
233.30000000000001
 21
926.64999999999975
 31
0.0
  0
LINE
  5
173
  8
DATA
  6
CONTINUOUS
 62
     7
 10
232.00001000000009
 20
917.64998999999955
 30
0.0
 11
236.00001
 21
917.64998999999955
 31
0.0
  0
LINE
  5
174
  8
DATA
  6
CONTINUOUS
 62
     7
 10
231.00001
 20
914.54999999999961
 30
0.0
 11
231.00001
 21
916.64998999999955
 31
0.0
  0
LINE
  5
175
  8
DATA
  6
CONTINUOUS
 62
     7
 10
222.00001
 20
914.54999999999961
 30
0.0
 11
222.00001
 21
916.64997999999957
 31
0.0
  0
LINE
  5
176
  8
DATA
  6
CONTINUOUS
 62
     7
 10
222.00001
 20
929.74998999999957
 30
0.0
 11
231.00001
 21
929.74998999999957
 31
0.0
  0
LINE
  5
177
  8
DATA
  6
CONTINUOUS
 62
     7
 10
222.00001
 20
914.54999999999961
 30
0.0
 11
231.00001
 21
914.54999999999961
 31
0.0
  0
ARC
  5
178
  8
DATA
  6
CONTINUOUS
 62
     7
 10
226.50001
 20
922.14998999999955
 30
0.0
 40
7.1063415341580658
 50
39.289469263788803
 51
50.45402612111203
  0
ARC
  5
179
  8
DATA
  6
CONTINUOUS
 62
     7
 10
226.50001
 20
922.14998999999955
 30
0.0
 40
7.1063506809332209
 50
129.2893047514325
 51
224.99994298865039
  0
LINE
  5
17A
  8
DATA
  6
CONTINUOUS
 62
     7
 10
231.00001
 20
929.74998999999957
 30
0.0
 11
231.02459999999999
 21
927.62977999999964
 31
0.0
  0
LINE
  5
17B
  8
DATA
  6
CONTINUOUS
 62
     7
 10
222.00001
 20
929.74998999999957
 30
0.0
 11
222.00001
 21
927.65000999999984
 31
0.0
  0
ARC
  5
17C
  8
DATA
  6
CONTINUOUS
 62
     7
 10
226.50001
 20
922.14998999999955
 30
0.0
 40
7.1063441617543361
 50
239.99992627360399
 51
358.31539153295768
  0
ARC
  5
17D
  8
DATA
  6
CONTINUOUS
 62
     7
 10
226.50001
 20
922.14998999999955
 30
0.0
 40
7.106322774839299
 50
19.310832928479911
 51
39.289457918200682
  0
LINE
  5
17E
  8
DATA
  6
CONTINUOUS
 62
     7
 10
231.02459999999999
 20
927.62977999999964
 30
0.0
 11
222.00001
 21
927.65000999999984
 31
0.0
  0
LINE
  5
17F
  8
DATA
  6
CONTINUOUS
 62
     7
 10
239.00001
 20
941.29999999999961
 30
0.0
 11
236.00001
 21
941.29999999999961
 31
0.0
  0
LINE
  5
180
  8
DATA
  6
CONTINUOUS
 62
     7
 10
239.00001
 20
902.99998999999957
 30
0.0
 11
236.00001
 21
902.99998999999957
 31
0.0
  0
LINE
  5
181
  8
DATA
  6
CONTINUOUS
 62
     7
 10
676.05179999999984
 20
902.39998999999955
 30
0.0
 11
672.94818999999995
 21
902.39998999999955
 31
0.0
  0
LINE
  5
182
  8
DATA
  6
CONTINUOUS
 62
     7
 10
676.05179999999984
 20
909.39998999999955
 30
0.0
 11
672.94818999999995
 21
909.39998999999955
 31
0.0
  0
ARC
  5
183
  8
DATA
  6
CONTINUOUS
 62
     7
 10
672.94818999999995
 20
905.89998999999955
 30
0.0
 40
3.5
 50
90.0
 51
270.0
  0
ARC
  5
184
  8
DATA
  6
CONTINUOUS
 62
     7
 10
676.05179999999984
 20
905.89998999999955
 30
0.0
 40
3.499999999999992
 50
270.0
 51
90.0
  0
LINE
  5
185
  8
DATA
  6
CONTINUOUS
 62
     7
 10
676.05179999999984
 20
941.89999999999964
 30
0.0
 11
672.94818999999995
 21
941.89999999999964
 31
0.0
  0
LINE
  5
186
  8
DATA
  6
CONTINUOUS
 62
     7
 10
676.05179999999984
 20
934.89999999999975
 30
0.0
 11
672.94818999999995
 21
934.89999999999975
 31
0.0
  0
ARC
  5
187
  8
DATA
  6
CONTINUOUS
 62
     7
 10
672.94818999999995
 20
938.39999999999975
 30
0.0
 40
3.5
 50
90.0
 51
270.0
  0
ARC
  5
188
  8
DATA
  6
CONTINUOUS
 62
     7
 10
676.05179999999984
 20
938.39999999999975
 30
0.0
 40
3.5
 50
270.0
 51
90.0
  0
LINE
  5
189
  8
DATA
  6
CONTINUOUS
 62
     7
 10
206.94819000000001
 20
902.39998999999955
 30
0.0
 11
210.05181999999999
 21
902.39998999999955
 31
0.0
  0
LINE
  5
18A
  8
DATA
  6
CONTINUOUS
 62
     7
 10
206.94819000000001
 20
909.39998999999955
 30
0.0
 11
210.05181999999999
 21
909.39998999999955
 31
0.0
  0
ARC
  5
18B
  8
DATA
  6
CONTINUOUS
 62
     7
 10
210.05181999999999
 20
905.89998999999955
 30
0.0
 40
3.499999999999992
 50
270.0
 51
90.0
  0
ARC
  5
18C
  8
DATA
  6
CONTINUOUS
 62
     7
 10
206.94819000000001
 20
905.89998999999955
 30
0.0
 40
3.5
 50
90.0
 51
270.0
  0
LINE
  5
18D
  8
DATA
  6
CONTINUOUS
 62
     7
 10
206.94819000000001
 20
941.89999999999964
 30
0.0
 11
210.05181999999999
 21
941.89999999999964
 31
0.0
  0
LINE
  5
18E
  8
DATA
  6
CONTINUOUS
 62
     7
 10
206.94819000000001
 20
934.89999999999975
 30
0.0
 11
210.05181999999999
 21
934.89999999999975
 31
0.0
  0
ARC
  5
18F
  8
DATA
  6
CONTINUOUS
 62
     7
 10
210.05181999999999
 20
938.39999999999975
 30
0.0
 40
3.5
 50
270.0
 51
90.0
  0
ARC
  5
190
  8
DATA
  6
CONTINUOUS
 62
     7
 10
206.94819000000001
 20
938.39999999999975
 30
0.0
 40
3.5
 50
90.0
 51
270.0
  0
LINE
  5
191
  8
DATA
  6
CONTINUOUS
 62
     7
 10
200.00001
 20
299.99999999999972
 30
0.0
 11
682.99999000000003
 21
299.99999999999972
 31
0.0
  0
LINE
  5
192
  8
DATA
  6
CONTINUOUS
 62
     7
 10
200.00001
 20
299.99999999999972
 30
0.0
 11
200.00001
 21
344.30000999999987
 31
0.0
  0
LINE
  5
193
  8
DATA
  6
CONTINUOUS
 62
     7
 10
682.99999000000003
 20
299.99999999999972
 30
0.0
 11
682.99999000000003
 21
344.30000999999987
 31
0.0
  0
LINE
  5
194
  8
DATA
  6
CONTINUOUS
 62
     7
 10
200.00001
 20
344.30000999999987
 30
0.0
 11
682.99999000000003
 21
344.30000999999987
 31
0.0
  0
ARC
  5
195
  8
DATA
  6
CONTINUOUS
 62
     7
 10
656.49999000000003
 20
322.15000999999978
 30
0.0
 40
7.106357913594028
 50
309.54599555388518
 51
230.45400444611491
  0
ARC
  5
196
  8
DATA
  6
CONTINUOUS
 62
     7
 10
226.49692999999999
 20
322.15000999999978
 30
0.0
 40
7.1063254898224404
 50
314.18693157628542
 51
225.8130684237077
  0
LINE
  5
197
  8
DATA
  6
CONTINUOUS
 62
     7
 10
676.05179999999984
 20
302.40000999999978
 30
0.0
 11
672.94818999999995
 21
302.40000999999978
 31
0.0
  0
LINE
  5
198
  8
DATA
  6
CONTINUOUS
 62
     7
 10
676.05179999999984
 20
309.40000999999978
 30
0.0
 11
672.94818999999995
 21
309.40000999999978
 31
0.0
  0
ARC
  5
199
  8
DATA
  6
CONTINUOUS
 62
     7
 10
672.94818999999995
 20
305.90000999999978
 30
0.0
 40
3.5
 50
90.0
 51
270.0
  0
ARC
  5
19A
  8
DATA
  6
CONTINUOUS
 62
     7
 10
676.05179999999984
 20
305.90000999999978
 30
0.0
 40
3.5
 50
270.0
 51
90.0
  0
LINE
  5
19B
  8
DATA
  6
CONTINUOUS
 62
     7
 10
676.05179999999984
 20
341.89999999999981
 30
0.0
 11
672.94818999999995
 21
341.89999999999981
 31
0.0
  0
LINE
  5
19C
  8
DATA
  6
CONTINUOUS
 62
     7
 10
676.05179999999984
 20
334.89999999999981
 30
0.0
 11
672.94818999999995
 21
334.89999999999981
 31
0.0
  0
ARC
  5
19D
  8
DATA
  6
CONTINUOUS
 62
     7
 10
672.94818999999995
 20
338.39999999999981
 30
0.0
 40
3.5
 50
90.0
 51
270.0
  0
ARC
  5
19E
  8
DATA
  6
CONTINUOUS
 62
     7
 10
676.05179999999984
 20
338.39999999999981
 30
0.0
 40
3.5
 50
270.0
 51
90.0
  0
LINE
  5
19F
  8
DATA
  6
CONTINUOUS
 62
     7
 10
206.94819000000001
 20
302.40000999999978
 30
0.0
 11
210.05181999999999
 21
302.40000999999978
 31
0.0
  0
LINE
  5
1A0
  8
DATA
  6
CONTINUOUS
 62
     7
 10
206.94819000000001
 20
309.40000999999978
 30
0.0
 11
210.05181999999999
 21
309.40000999999978
 31
0.0
  0
ARC
  5
1A1
  8
DATA
  6
CONTINUOUS
 62
     7
 10
210.05181999999999
 20
305.90000999999978
 30
0.0
 40
3.5
 50
270.0
 51
90.0
  0
ARC
  5
1A2
  8
DATA
  6
CONTINUOUS
 62
     7
 10
206.94819000000001
 20
305.90000999999978
 30
0.0
 40
3.5
 50
90.0
 51
270.0
  0
LINE
  5
1A3
  8
DATA
  6
CONTINUOUS
 62
     7
 10
206.94819000000001
 20
341.89999999999981
 30
0.0
 11
210.05181999999999
 21
341.89999999999981
 31
0.0
  0
LINE
  5
1A4
  8
DATA
  6
CONTINUOUS
 62
     7
 10
206.94819000000001
 20
334.89999999999981
 30
0.0
 11
210.05181999999999
 21
334.89999999999981
 31
0.0
  0
ARC
  5
1A5
  8
DATA
  6
CONTINUOUS
 62
     7
 10
210.05181999999999
 20
338.39999999999981
 30
0.0
 40
3.5
 50
270.0
 51
90.0
  0
ARC
  5
1A6
  8
DATA
  6
CONTINUOUS
 62
     7
 10
206.94819000000001
 20
338.39999999999981
 30
0.0
 40
3.5
 50
90.0
 51
270.0
  0
LINE
  5
1A7
  8
DATA
  6
CONTINUOUS
 62
     7
 10
629.60000000000002
 20
337.30000999999982
 30
0.0
 11
629.60000000000002
 21
306.99999999999972
 31
0.0
  0
LINE
  5
1A8
  8
DATA
  6
CONTINUOUS
 62
     7
 10
627.60000000000002
 20
337.30000999999982
 30
0.0
 11
627.60000000000002
 21
306.99999999999972
 31
0.0
  0
LINE
  5
1A9
  8
DATA
  6
CONTINUOUS
 62
     7
 10
624.99999000000003
 20
332.14999999999981
 30
0.0
 11
624.99999000000003
 21
312.15000999999978
 31
0.0
  0
LINE
  5
1AA
  8
DATA
  6
CONTINUOUS
 62
     7
 10
611.99999000000003
 20
332.14999999999981
 30
0.0
 11
611.99999000000003
 21
312.15000999999978
 31
0.0
  0
LINE
  5
1AB
  8
DATA
  6
CONTINUOUS
 62
     7
 10
609.39999
 20
337.30000999999982
 30
0.0
 11
609.39999
 21
306.99999999999972
 31
0.0
  0
LINE
  5
1AC
  8
DATA
  6
CONTINUOUS
 62
     7
 10
607.39999999999986
 20
337.30000999999982
 30
0.0
 11
607.39999999999986
 21
306.99999999999972
 31
0.0
  0
LINE
  5
1AD
  8
DATA
  6
CONTINUOUS
 62
     7
 10
607.39999999999986
 20
337.30000999999982
 30
0.0
 11
629.60000000000002
 21
337.30000999999982
 31
0.0
  0
LINE
  5
1AE
  8
DATA
  6
CONTINUOUS
 62
     7
 10
607.39999999999986
 20
306.99999999999972
 30
0.0
 11
629.60000000000002
 21
306.99999999999972
 31
0.0
  0
LINE
  5
1AF
  8
DATA
  6
CONTINUOUS
 62
     7
 10
609.39999
 20
335.8499999999998
 30
0.0
 11
627.60000000000002
 21
335.8499999999998
 31
0.0
  0
LINE
  5
1B0
  8
DATA
  6
CONTINUOUS
 62
     7
 10
609.39999
 20
308.45000999999968
 30
0.0
 11
627.60000000000002
 21
308.45000999999968
 31
0.0
  0
LINE
  5
1B1
  8
DATA
  6
CONTINUOUS
 62
     7
 10
611.99999000000003
 20
332.14999999999981
 30
0.0
 11
624.99999000000003
 21
332.14999999999981
 31
0.0
  0
LINE
  5
1B2
  8
DATA
  6
CONTINUOUS
 62
     7
 10
611.99999000000003
 20
312.15000999999978
 30
0.0
 11
624.99999000000003
 21
312.15000999999978
 31
0.0
  0
LINE
  5
1B3
  8
DATA
  6
CONTINUOUS
 62
     7
 10
611.99999000000003
 20
327.65000999999978
 30
0.0
 11
624.99999000000003
 21
327.65000999999978
 31
0.0
  0
CIRCLE
  5
1B4
  8
DATA
  6
CONTINUOUS
 62
     7
 10
618.5
 20
316.55000999999982
 30
0.0
 40
1.9999915386320739
  0
LINE
  5
1B5
  8
DATA
  6
CONTINUOUS
 62
     7
 10
618.5
 20
326.40000999999978
 30
0.0
 11
618.5
 21
323.40000999999978
 31
0.0
  0
LINE
  5
1B6
  8
DATA
  6
CONTINUOUS
 62
     7
 10
635.59999000000005
 20
344.30000999999987
 30
0.0
 11
635.59999000000005
 21
299.99999999999972
 31
0.0
  0
LINE
  5
1B7
  8
DATA
  6
CONTINUOUS
 62
     7
 10
636.59999000000016
 20
344.30000999999987
 30
0.0
 11
636.59999000000016
 21
299.99999999999972
 31
0.0
  0
LINE
  5
1B8
  8
DATA
  6
CONTINUOUS
 62
     7
 10
247.40000000000001
 20
344.30000999999987
 30
0.0
 11
247.40000000000001
 21
299.99999999999972
 31
0.0
  0
LINE
  5
1B9
  8
DATA
  6
CONTINUOUS
 62
     7
 10
246.40000000000001
 20
344.30000999999987
 30
0.0
 11
246.40000000000001
 21
299.99999999999972
 31
0.0
  0
TEXT
  5
1BA
  8
DATA
 62
     7
 10
603.23252544583318
 20
338.44000859999971
 30
0.0
 40
4.617179804687499
  1
SHURE UHF
 41
0.8
 72
     1
 11
618.5
 21
343.05718840468722
 31
0.0
 73
     3
  0
TEXT
  5
1BB
  8
DATA
 62
     7
 10
612.11249999999995
 20
301.7720099999998
 30
0.0
 40
3.6937500000000001
  1
POWER
 41
0.8
 72
     1
 11
619.5
 21
305.46575999999982
 31
0.0
 73
     3
  0
LINE
  5
1BC
  8
DATA
  6
CONTINUOUS
 62
     7
 10
750.0
 20
299.99999999999972
 30
0.0
 11
1045.2750000000001
 21
299.99999999999972
 31
0.0
  0
LINE
  5
1BD
  8
DATA
  6
CONTINUOUS
 62
     7
 10
750.0
 20
344.30000999999987
 30
0.0
 11
1045.2750000000001
 21
344.30000999999987
 31
0.0
  0
LINE
  5
1BE
  8
DATA
  6
CONTINUOUS
 62
     7
 10
750.0
 20
344.30000999999987
 30
0.0
 11
750.0
 21
299.99999999999972
 31
0.0
  0
LINE
  5
1BF
  8
DATA
  6
CONTINUOUS
 62
     7
 10
754.79998999999987
 20
344.30000999999987
 30
0.0
 11
754.79998999999987
 21
299.99999999999972
 31
0.0
  0
LINE
  5
1C0
  8
DATA
  6
CONTINUOUS
 62
     7
 10
757.79998999999998
 20
344.30000999999987
 30
0.0
 11
757.79998999999998
 21
299.99999999999972
 31
0.0
  0
LINE
  5
1C1
  8
DATA
  6
CONTINUOUS
 62
     7
 10
840.70000000000005
 20
316.99999999999972
 30
0.0
 11
840.70000000000005
 21
320.99999999999972
 31
0.0
  0
LINE
  5
1C2
  8
DATA
  6
CONTINUOUS
 62
     7
 10
982.79998999999998
 20
341.30000999999982
 30
0.0
 11
982.79998999999998
 21
302.99999999999972
 31
0.0
  0
LINE
  5
1C3
  8
DATA
  6
CONTINUOUS
 62
     7
 10
1045.2750000000001
 20
344.30000999999987
 30
0.0
 11
1045.2750000000001
 21
299.99999999999972
 31
0.0
  0
LINE
  5
1C4
  8
DATA
  6
CONTINUOUS
 62
     7
 10
747.5
 20
337.30000999999982
 30
0.0
 11
750.0
 21
337.30000999999982
 31
0.0
  0
LINE
  5
1C5
  8
DATA
  6
CONTINUOUS
 62
     7
 10
747.5
 20
306.99999999999972
 30
0.0
 11
750.0
 21
306.99999999999972
 31
0.0
  0
LINE
  5
1C6
  8
DATA
  6
CONTINUOUS
 62
     7
 10
743.51368999999988
 20
309.99999999999972
 30
0.0
 11
743.51368999999988
 21
334.99849999999981
 31
0.0
  0
LINE
  5
1C7
  8
DATA
  6
CONTINUOUS
 62
     7
 10
627.60000000000002
 20
334.64999999999981
 30
0.0
 11
629.60000000000002
 21
334.64999999999981
 31
0.0
  0
LINE
  5
1C8
  8
DATA
  6
CONTINUOUS
 62
     7
 10
627.60000000000002
 20
309.65000999999978
 30
0.0
 11
629.60000000000002
 21
309.65000999999978
 31
0.0
  0
LINE
  5
1C9
  8
DATA
  6
CONTINUOUS
 62
     7
 10
609.39999
 20
334.64999999999981
 30
0.0
 11
607.39999999999986
 21
334.64999999999981
 31
0.0
  0
LINE
  5
1CA
  8
DATA
  6
CONTINUOUS
 62
     7
 10
609.39999
 20
309.65000999999978
 30
0.0
 11
607.39999999999986
 21
309.65000999999978
 31
0.0
  0
LINE
  5
1CB
  8
DATA
  6
CONTINUOUS
 62
     7
 10
747.5
 20
337.30000999999982
 30
0.0
 11
743.51368999999988
 21
334.99849999999981
 31
0.0
  0
LINE
  5
1CC
  8
DATA
  6
CONTINUOUS
 62
     7
 10
747.5
 20
306.99999999999972
 30
0.0
 11
743.56777999999974
 21
309.65000999999978
 31
0.0
  0
LINE
  5
1CD
  8
DATA
  6
CONTINUOUS
 62
     7
 10
754.79998999999987
 20
341.30000999999982
 30
0.0
 11
757.79998999999998
 21
341.30000999999982
 31
0.0
  0
LINE
  5
1CE
  8
DATA
  6
CONTINUOUS
 62
     7
 10
754.79998999999987
 20
302.99999999999972
 30
0.0
 11
757.79998999999998
 21
302.99999999999972
 31
0.0
  0
LINE
  5
1CF
  8
DATA
  6
CONTINUOUS
 62
     7
 10
838.70000000000005
 20
318.99999999999972
 30
0.0
 11
842.70000000000005
 21
318.99999999999972
 31
0.0
  0
CIRCLE
  5
1D0
  8
DATA
  6
CONTINUOUS
 62
     7
 10
840.70000000000005
 20
318.99999999999972
 30
0.0
 40
3.349999882462706
  0
LINE
  5
1D1
  8
DATA
  6
CONTINUOUS
 62
     7
 10
967.54998999999998
 20
316.99999999999972
 30
0.0
 11
967.54998999999998
 21
320.99999999999972
 31
0.0
  0
LINE
  5
1D2
  8
DATA
  6
CONTINUOUS
 62
     7
 10
965.54998999999998
 20
318.99999999999972
 30
0.0
 11
969.54998999999987
 21
318.99999999999972
 31
0.0
  0
CIRCLE
  5
1D3
  8
DATA
  6
CONTINUOUS
 62
     7
 10
967.54998999999998
 20
318.99999999999972
 30
0.0
 40
3.3500000463582298
  0
LINE
  5
1D4
  8
DATA
  6
CONTINUOUS
 62
     7
 10
979.79998999999998
 20
344.30000999999987
 30
0.0
 11
982.79998999999998
 21
341.30000999999982
 31
0.0
  0
LINE
  5
1D5
  8
DATA
  6
CONTINUOUS
 62
     7
 10
979.79998999999998
 20
299.99999999999972
 30
0.0
 11
982.79998999999998
 21
302.99999999999972
 31
0.0
  0
LINE
  5
1D6
  8
DATA
  6
CONTINUOUS
 62
     7
 10
1046.7750000000001
 20
307.99999999999972
 30
0.0
 11
1046.7750000000001
 21
338.0000099999998
 31
0.0
  0
LINE
  5
1D7
  8
DATA
  6
CONTINUOUS
 62
     7
 10
1059.2762600000001
 20
315.65000999999978
 30
0.0
 11
1059.2737199999999
 21
325.15000999999978
 31
0.0
  0
LINE
  5
1D8
  8
DATA
  6
CONTINUOUS
 62
     7
 10
1046.7750000000001
 20
338.0000099999998
 30
0.0
 11
1045.2750000000001
 21
338.0000099999998
 31
0.0
  0
LINE
  5
1D9
  8
DATA
  6
CONTINUOUS
 62
     7
 10
1046.7750000000001
 20
307.99999999999972
 30
0.0
 11
1045.2750000000001
 21
307.99999999999972
 31
0.0
  0
LINE
  5
1DA
  8
DATA
  6
CONTINUOUS
 62
     7
 10
1059.2737199999999
 20
325.15000999999978
 30
0.0
 11
1046.7750000000001
 21
325.15000999999978
 31
0.0
  0
LINE
  5
1DB
  8
DATA
  6
CONTINUOUS
 62
     7
 10
1059.2762600000001
 20
315.65000999999978
 30
0.0
 11
1046.7750000000001
 21
315.65000999999978
 31
0.0
  0
LINE
  5
1DC
  8
DATA
  6
CONTINUOUS
 62
     7
 10
1054.2782
 20
325.15000999999978
 30
0.0
 11
1054.2782
 21
325.65000999999978
 31
0.0
  0
LINE
  5
1DD
  8
DATA
  6
CONTINUOUS
 62
     7
 10
1054.2782
 20
315.65000999999978
 30
0.0
 11
1054.2782
 21
315.15000999999978
 31
0.0
  0
LINE
  5
1DE
  8
DATA
  6
CONTINUOUS
 62
     7
 10
1056.2782
 20
325.15000999999978
 30
0.0
 11
1056.2782
 21
325.65000999999978
 31
0.0
  0
LINE
  5
1DF
  8
DATA
  6
CONTINUOUS
 62
     7
 10
1056.2782
 20
315.65000999999978
 30
0.0
 11
1056.2782
 21
315.15000999999978
 31
0.0
  0
LINE
  5
1E0
  8
DATA
  6
CONTINUOUS
 62
     7
 10
1054.2782
 20
325.65000999999978
 30
0.0
 11
1056.0781999999999
 21
325.65000999999978
 31
0.0
  0
LINE
  5
1E1
  8
DATA
  6
CONTINUOUS
 62
     7
 10
1054.2782
 20
315.15000999999978
 30
0.0
 11
1056.0781999999999
 21
315.15000999999978
 31
0.0
  0
LINE
  5
1E2
  8
DATA
  6
CONTINUOUS
 62
     7
 10
262.50000999999997
 20
921.48442999999975
 30
0.0
 11
264.50000999999997
 21
921.48442999999975
 31
0.0
  0
LINE
  5
1E3
  8
DATA
  6
CONTINUOUS
 62
     7
 10
531.02501000000007
 20
926.51555999999982
 30
0.0
 11
533.02500999999995
 21
926.51555999999982
 31
0.0
  0
LINE
  5
1E4
  8
DATA
  6
CONTINUOUS
 62
     7
 10
531.02501000000007
 20
921.48442999999975
 30
0.0
 11
533.02500999999995
 21
921.48442999999975
 31
0.0
  0
LINE
  5
1E5
  8
DATA
  6
CONTINUOUS
 62
     7
 10
680.0
 20
944.29999999999973
 30
0.0
 11
682.99999000000003
 21
941.29999999999961
 31
0.0
  0
LINE
  5
1E6
  8
DATA
  6
CONTINUOUS
 62
     7
 10
680.0
 20
899.99998999999968
 30
0.0
 11
682.99999000000003
 21
902.99998999999957
 31
0.0
  0
LINE
  5
1E7
  8
DATA
  6
CONTINUOUS
 62
     7
 10
203.00001
 20
944.29999999999973
 30
0.0
 11
200.00001
 21
941.29999999999961
 31
0.0
  0
LINE
  5
1E8
  8
DATA
  6
CONTINUOUS
 62
     7
 10
203.00001
 20
899.99998999999968
 30
0.0
 11
200.00001
 21
902.99998999999957
 31
0.0
  0
LINE
  5
1E9
  8
DATA
  6
CONTINUOUS
 62
     7
 10
788.32255999999984
 20
326.65000999999978
 30
0.0
 11
757.79998999999998
 21
326.65000999999978
 31
0.0
  0
LINE
  5
1EA
  8
DATA
  6
CONTINUOUS
 62
     7
 10
788.32255999999984
 20
317.65000999999978
 30
0.0
 11
757.79998999999998
 21
317.65000999999978
 31
0.0
  0
ARC
  5
1EB
  8
DATA
  6
CONTINUOUS
 62
     7
 10
788.32255999999984
 20
322.15000999999978
 30
0.0
 40
4.5
 50
270.0
 51
90.0
  0
CIRCLE
  5
1EC
  8
DATA
  6
CONTINUOUS
 62
     7
 10
840.70000000000005
 20
325.0320499999998
 30
0.0
 40
2.0
  0
CIRCLE
  5
1ED
  8
DATA
  6
CONTINUOUS
 62
     7
 10
967.54998999999998
 20
325.20000999999968
 30
0.0
 40
2.0
  0
LINE
  5
1EE
  8
DATA
  6
CONTINUOUS
 62
     7
 10
393.00000999999997
 20
921.19998999999962
 30
0.0
 11
428.01001000000002
 21
921.19998999999962
 31
0.0
  0
LINE
  5
1EF
  8
DATA
  6
CONTINUOUS
 62
     7
 10
393.38715999999999
 20
912.79999999999984
 30
0.0
 11
427.62285999999989
 21
912.79999999999984
 31
0.0
  0
POLYLINE
  5
1F0
  8
DATA
  6
CONTINUOUS
 62
     7
 66
     1
 10
0.0
 20
0.0
 30
0.0
 70
   129
  0
VERTEX
  5
451
  8
DATA
  6
CONTINUOUS
 62
     7
 10
397.58499999999998
 20
915.5799999999997
 30
0.0
 42
-0.4142135623730951
  0
VERTEX
  5
452
  8
DATA
  6
CONTINUOUS
 62
     7
 10
398.08499999999998
 20
916.07999999999981
 30
0.0
 42
-0.4142135623730784
  0
VERTEX
  5
453
  8
DATA
  6
CONTINUOUS
 62
     7
 10
398.58499999999998
 20
915.5799999999997
 30
0.0
 42
-0.4142135623730951
  0
VERTEX
  5
454
  8
DATA
  6
CONTINUOUS
 62
     7
 10
398.08499999999998
 20
915.07999999999981
 30
0.0
 42
-0.4142135623731117
  0
VERTEX
  5
455
  8
DATA
  6
CONTINUOUS
 62
     7
 10
397.58499999999998
 20
915.5799999999997
 30
0.0
  0
SEQEND
  5
456
  8
DATA
  6
CONTINUOUS
 62
     7
  0
POLYLINE
  5
1F7
  8
DATA
  6
CONTINUOUS
 62
     7
 66
     1
 10
0.0
 20
0.0
 30
0.0
 70
   129
  0
VERTEX
  5
457
  8
DATA
  6
CONTINUOUS
 62
     7
 10
385.48500000000001
 20
916.99999999999955
 30
0.0
 42
-0.4142135623730951
  0
VERTEX
  5
458
  8
DATA
  6
CONTINUOUS
 62
     7
 10
386.98500000000001
 20
918.49999999999955
 30
0.0
 42
-0.4142135623730951
  0
VERTEX
  5
459
  8
DATA
  6
CONTINUOUS
 62
     7
 10
388.48500000000001
 20
916.99999999999955
 30
0.0
 42
-0.4142135623730951
  0
VERTEX
  5
45A
  8
DATA
  6
CONTINUOUS
 62
     7
 10
386.98500000000001
 20
915.49999999999966
 30
0.0
 42
-0.4142135623730951
  0
VERTEX
  5
45B
  8
DATA
  6
CONTINUOUS
 62
     7
 10
385.48500000000001
 20
916.99999999999955
 30
0.0
  0
SEQEND
  5
45C
  8
DATA
  6
CONTINUOUS
 62
     7
  0
POLYLINE
  5
1FE
  8
DATA
  6
CONTINUOUS
 62
     7
 66
     1
 10
0.0
 20
0.0
 30
0.0
 70
   129
  0
VERTEX
  5
45D
  8
DATA
  6
CONTINUOUS
 62
     7
 10
394.81500999999997
 20
915.5799999999997
 30
0.0
 42
-0.4142135623730868
  0
VERTEX
  5
45E
  8
DATA
  6
CONTINUOUS
 62
     7
 10
395.31500999999997
 20
916.07999999999981
 30
0.0
 42
-0.4142135623730951
  0
VERTEX
  5
45F
  8
DATA
  6
CONTINUOUS
 62
     7
 10
395.81500999999997
 20
915.5799999999997
 30
0.0
 42
-0.4142135623731035
  0
VERTEX
  5
460
  8
DATA
  6
CONTINUOUS
 62
     7
 10
395.31500999999997
 20
915.07999999999981
 30
0.0
 42
-0.4142135623730951
  0
VERTEX
  5
461
  8
DATA
  6
CONTINUOUS
 62
     7
 10
394.81500999999997
 20
915.5799999999997
 30
0.0
  0
SEQEND
  5
462
  8
DATA
  6
CONTINUOUS
 62
     7
  0
POLYLINE
  5
205
  8
DATA
  6
CONTINUOUS
 62
     7
 66
     1
 10
0.0
 20
0.0
 30
0.0
 70
   129
  0
VERTEX
  5
463
  8
DATA
  6
CONTINUOUS
 62
     7
 10
393.44501000000002
 20
918.41998999999953
 30
0.0
 42
-0.4142135623730951
  0
VERTEX
  5
464
  8
DATA
  6
CONTINUOUS
 62
     7
 10
393.94501000000002
 20
918.91998999999964
 30
0.0
 42
-0.4142135623730951
  0
VERTEX
  5
465
  8
DATA
  6
CONTINUOUS
 62
     7
 10
394.44501000000002
 20
918.41998999999953
 30
0.0
 42
-0.4142135623730951
  0
VERTEX
  5
466
  8
DATA
  6
CONTINUOUS
 62
     7
 10
393.94501000000002
 20
917.91998999999964
 30
0.0
 42
-0.4142135623730951
  0
VERTEX
  5
467
  8
DATA
  6
CONTINUOUS
 62
     7
 10
393.44501000000002
 20
918.41998999999953
 30
0.0
  0
SEQEND
  5
468
  8
DATA
  6
CONTINUOUS
 62
     7
  0
POLYLINE
  5
20C
  8
DATA
  6
CONTINUOUS
 62
     7
 66
     1
 10
0.0
 20
0.0
 30
0.0
 70
   129
  0
VERTEX
  5
469
  8
DATA
  6
CONTINUOUS
 62
     7
 10
396.18500999999998
 20
918.41998999999953
 30
0.0
 42
-0.4142135623730951
  0
VERTEX
  5
46A
  8
DATA
  6
CONTINUOUS
 62
     7
 10
396.68500999999998
 20
918.91998999999964
 30
0.0
 42
-0.4142135623730784
  0
VERTEX
  5
46B
  8
DATA
  6
CONTINUOUS
 62
     7
 10
397.18500999999998
 20
918.41998999999953
 30
0.0
 42
-0.4142135623730951
  0
VERTEX
  5
46C
  8
DATA
  6
CONTINUOUS
 62
     7
 10
396.68500999999998
 20
917.91998999999964
 30
0.0
 42
-0.4142135623731117
  0
VERTEX
  5
46D
  8
DATA
  6
CONTINUOUS
 62
     7
 10
396.18500999999998
 20
918.41998999999953
 30
0.0
  0
SEQEND
  5
46E
  8
DATA
  6
CONTINUOUS
 62
     7
  0
POLYLINE
  5
213
  8
DATA
  6
CONTINUOUS
 62
     7
 66
     1
 10
0.0
 20
0.0
 30
0.0
 70
   129
  0
VERTEX
  5
46F
  8
DATA
  6
CONTINUOUS
 62
     7
 10
408.60500000000002
 20
915.5799999999997
 30
0.0
 42
-0.4142135623730951
  0
VERTEX
  5
470
  8
DATA
  6
CONTINUOUS
 62
     7
 10
409.10500000000002
 20
916.07999999999981
 30
0.0
 42
-0.4142135623730951
  0
VERTEX
  5
471
  8
DATA
  6
CONTINUOUS
 62
     7
 10
409.6049999999999
 20
915.5799999999997
 30
0.0
 42
-0.4142135623730951
  0
VERTEX
  5
472
  8
DATA
  6
CONTINUOUS
 62
     7
 10
409.10500000000002
 20
915.07999999999981
 30
0.0
 42
-0.4142135623730951
  0
VERTEX
  5
473
  8
DATA
  6
CONTINUOUS
 62
     7
 10
408.60500000000002
 20
915.5799999999997
 30
0.0
  0
SEQEND
  5
474
  8
DATA
  6
CONTINUOUS
 62
     7
  0
POLYLINE
  5
21A
  8
DATA
  6
CONTINUOUS
 62
     7
 66
     1
 10
0.0
 20
0.0
 30
0.0
 70
   129
  0
VERTEX
  5
475
  8
DATA
  6
CONTINUOUS
 62
     7
 10
405.86500000000001
 20
915.5799999999997
 30
0.0
 42
-0.4142135623730951
  0
VERTEX
  5
476
  8
DATA
  6
CONTINUOUS
 62
     7
 10
406.3649999999999
 20
916.07999999999981
 30
0.0
 42
-0.4142135623730951
  0
VERTEX
  5
477
  8
DATA
  6
CONTINUOUS
 62
     7
 10
406.8649999999999
 20
915.5799999999997
 30
0.0
 42
-0.4142135623730951
  0
VERTEX
  5
478
  8
DATA
  6
CONTINUOUS
 62
     7
 10
406.3649999999999
 20
915.07999999999981
 30
0.0
 42
-0.4142135623730951
  0
VERTEX
  5
479
  8
DATA
  6
CONTINUOUS
 62
     7
 10
405.86500000000001
 20
915.5799999999997
 30
0.0
  0
SEQEND
  5
47A
  8
DATA
  6
CONTINUOUS
 62
     7
  0
POLYLINE
  5
221
  8
DATA
  6
CONTINUOUS
 62
     7
 66
     1
 10
0.0
 20
0.0
 30
0.0
 70
   129
  0
VERTEX
  5
47B
  8
DATA
  6
CONTINUOUS
 62
     7
 10
400.3250000000001
 20
915.5799999999997
 30
0.0
 42
-0.4142135623730951
  0
VERTEX
  5
47C
  8
DATA
  6
CONTINUOUS
 62
     7
 10
400.8250000000001
 20
916.07999999999981
 30
0.0
 42
-0.4142135623730784
  0
VERTEX
  5
47D
  8
DATA
  6
CONTINUOUS
 62
     7
 10
401.3250000000001
 20
915.5799999999997
 30
0.0
 42
-0.4142135623730951
  0
VERTEX
  5
47E
  8
DATA
  6
CONTINUOUS
 62
     7
 10
400.8250000000001
 20
915.07999999999981
 30
0.0
 42
-0.4142135623731117
  0
VERTEX
  5
47F
  8
DATA
  6
CONTINUOUS
 62
     7
 10
400.3250000000001
 20
915.5799999999997
 30
0.0
  0
SEQEND
  5
480
  8
DATA
  6
CONTINUOUS
 62
     7
  0
POLYLINE
  5
228
  8
DATA
  6
CONTINUOUS
 62
     7
 66
     1
 10
0.0
 20
0.0
 30
0.0
 70
   129
  0
VERTEX
  5
481
  8
DATA
  6
CONTINUOUS
 62
     7
 10
403.09501
 20
915.5799999999997
 30
0.0
 42
-0.4142135623730951
  0
VERTEX
  5
482
  8
DATA
  6
CONTINUOUS
 62
     7
 10
403.59500999999989
 20
916.07999999999981
 30
0.0
 42
-0.4142135623730784
  0
VERTEX
  5
483
  8
DATA
  6
CONTINUOUS
 62
     7
 10
404.09500999999989
 20
915.5799999999997
 30
0.0
 42
-0.4142135623730951
  0
VERTEX
  5
484
  8
DATA
  6
CONTINUOUS
 62
     7
 10
403.59500999999989
 20
915.07999999999981
 30
0.0
 42
-0.4142135623731117
  0
VERTEX
  5
485
  8
DATA
  6
CONTINUOUS
 62
     7
 10
403.09501
 20
915.5799999999997
 30
0.0
  0
SEQEND
  5
486
  8
DATA
  6
CONTINUOUS
 62
     7
  0
POLYLINE
  5
22F
  8
DATA
  6
CONTINUOUS
 62
     7
 66
     1
 10
0.0
 20
0.0
 30
0.0
 70
   129
  0
VERTEX
  5
487
  8
DATA
  6
CONTINUOUS
 62
     7
 10
410.00501000000003
 20
918.41998999999953
 30
0.0
 42
-0.4142135623730951
  0
VERTEX
  5
488
  8
DATA
  6
CONTINUOUS
 62
     7
 10
410.50501000000003
 20
918.91998999999964
 30
0.0
 42
-0.4142135623730951
  0
VERTEX
  5
489
  8
DATA
  6
CONTINUOUS
 62
     7
 10
411.00501000000003
 20
918.41998999999953
 30
0.0
 42
-0.4142135623730951
  0
VERTEX
  5
48A
  8
DATA
  6
CONTINUOUS
 62
     7
 10
410.50501000000003
 20
917.91998999999964
 30
0.0
 42
-0.4142135623730951
  0
VERTEX
  5
48B
  8
DATA
  6
CONTINUOUS
 62
     7
 10
410.00501000000003
 20
918.41998999999953
 30
0.0
  0
SEQEND
  5
48C
  8
DATA
  6
CONTINUOUS
 62
     7
  0
POLYLINE
  5
236
  8
DATA
  6
CONTINUOUS
 62
     7
 66
     1
 10
0.0
 20
0.0
 30
0.0
 70
   129
  0
VERTEX
  5
48D
  8
DATA
  6
CONTINUOUS
 62
     7
 10
407.23500000000001
 20
918.41998999999953
 30
0.0
 42
-0.4142135623730951
  0
VERTEX
  5
48E
  8
DATA
  6
CONTINUOUS
 62
     7
 10
407.73500000000001
 20
918.91998999999964
 30
0.0
 42
-0.4142135623730951
  0
VERTEX
  5
48F
  8
DATA
  6
CONTINUOUS
 62
     7
 10
408.2349999999999
 20
918.41998999999953
 30
0.0
 42
-0.4142135623730951
  0
VERTEX
  5
490
  8
DATA
  6
CONTINUOUS
 62
     7
 10
407.73500000000001
 20
917.91998999999964
 30
0.0
 42
-0.4142135623730951
  0
VERTEX
  5
491
  8
DATA
  6
CONTINUOUS
 62
     7
 10
407.23500000000001
 20
918.41998999999953
 30
0.0
  0
SEQEND
  5
492
  8
DATA
  6
CONTINUOUS
 62
     7
  0
POLYLINE
  5
23D
  8
DATA
  6
CONTINUOUS
 62
     7
 66
     1
 10
0.0
 20
0.0
 30
0.0
 70
   129
  0
VERTEX
  5
493
  8
DATA
  6
CONTINUOUS
 62
     7
 10
404.46499999999992
 20
918.41998999999953
 30
0.0
 42
-0.4142135623730951
  0
VERTEX
  5
494
  8
DATA
  6
CONTINUOUS
 62
     7
 10
404.96499999999992
 20
918.91998999999964
 30
0.0
 42
-0.4142135623730784
  0
VERTEX
  5
495
  8
DATA
  6
CONTINUOUS
 62
     7
 10
405.46499999999992
 20
918.41998999999953
 30
0.0
 42
-0.4142135623730951
  0
VERTEX
  5
496
  8
DATA
  6
CONTINUOUS
 62
     7
 10
404.96499999999992
 20
917.91998999999964
 30
0.0
 42
-0.4142135623731117
  0
VERTEX
  5
497
  8
DATA
  6
CONTINUOUS
 62
     7
 10
404.46499999999992
 20
918.41998999999953
 30
0.0
  0
SEQEND
  5
498
  8
DATA
  6
CONTINUOUS
 62
     7
  0
POLYLINE
  5
244
  8
DATA
  6
CONTINUOUS
 62
     7
 66
     1
 10
0.0
 20
0.0
 30
0.0
 70
   129
  0
VERTEX
  5
499
  8
DATA
  6
CONTINUOUS
 62
     7
 10
401.72501
 20
918.41998999999953
 30
0.0
 42
-0.4142135623730951
  0
VERTEX
  5
49A
  8
DATA
  6
CONTINUOUS
 62
     7
 10
402.22500999999988
 20
918.91998999999964
 30
0.0
 42
-0.4142135623730784
  0
VERTEX
  5
49B
  8
DATA
  6
CONTINUOUS
 62
     7
 10
402.72500999999988
 20
918.41998999999953
 30
0.0
 42
-0.4142135623730951
  0
VERTEX
  5
49C
  8
DATA
  6
CONTINUOUS
 62
     7
 10
402.22500999999988
 20
917.91998999999964
 30
0.0
 42
-0.4142135623731117
  0
VERTEX
  5
49D
  8
DATA
  6
CONTINUOUS
 62
     7
 10
401.72501
 20
918.41998999999953
 30
0.0
  0
SEQEND
  5
49E
  8
DATA
  6
CONTINUOUS
 62
     7
  0
POLYLINE
  5
24B
  8
DATA
  6
CONTINUOUS
 62
     7
 66
     1
 10
0.0
 20
0.0
 30
0.0
 70
   129
  0
VERTEX
  5
49F
  8
DATA
  6
CONTINUOUS
 62
     7
 10
398.95499999999998
 20
918.41998999999953
 30
0.0
 42
-0.4142135623730951
  0
VERTEX
  5
4A0
  8
DATA
  6
CONTINUOUS
 62
     7
 10
399.45499999999998
 20
918.91998999999964
 30
0.0
 42
-0.4142135623730784
  0
VERTEX
  5
4A1
  8
DATA
  6
CONTINUOUS
 62
     7
 10
399.95499999999998
 20
918.41998999999953
 30
0.0
 42
-0.4142135623730951
  0
VERTEX
  5
4A2
  8
DATA
  6
CONTINUOUS
 62
     7
 10
399.45499999999998
 20
917.91998999999964
 30
0.0
 42
-0.4142135623731117
  0
VERTEX
  5
4A3
  8
DATA
  6
CONTINUOUS
 62
     7
 10
398.95499999999998
 20
918.41998999999953
 30
0.0
  0
SEQEND
  5
4A4
  8
DATA
  6
CONTINUOUS
 62
     7
  0
ARC
  5
252
  8
DATA
  6
CONTINUOUS
 62
     7
 10
393.00000999999997
 20
919.19998999999973
 30
0.0
 40
2.0
 50
90.0
 51
180.0
  0
LINE
  5
253
  8
DATA
  6
CONTINUOUS
 62
     7
 10
391.00000999999997
 20
919.19998999999973
 30
0.0
 11
391.90994000000001
 21
914.0395299999999
 31
0.0
  0
ARC
  5
254
  8
DATA
  6
CONTINUOUS
 62
     7
 10
393.38715999999999
 20
914.29999999999973
 30
0.0
 40
1.5000078497461431
 50
189.99985922171919
 51
270.0
  0
POLYLINE
  5
255
  8
DATA
  6
CONTINUOUS
 62
     7
 66
     1
 10
0.0
 20
0.0
 30
0.0
 70
   129
  0
VERTEX
  5
4A5
  8
DATA
  6
CONTINUOUS
 62
     7
 10
432.52499999999992
 20
916.99999999999955
 30
0.0
 42
-0.4142135623730951
  0
VERTEX
  5
4A6
  8
DATA
  6
CONTINUOUS
 62
     7
 10
434.02499999999998
 20
918.49999999999955
 30
0.0
 42
-0.4142135623730951
  0
VERTEX
  5
4A7
  8
DATA
  6
CONTINUOUS
 62
     7
 10
435.52499999999992
 20
916.99999999999955
 30
0.0
 42
-0.4142135623730951
  0
VERTEX
  5
4A8
  8
DATA
  6
CONTINUOUS
 62
     7
 10
434.02499999999998
 20
915.49999999999966
 30
0.0
 42
-0.4142135623730951
  0
VERTEX
  5
4A9
  8
DATA
  6
CONTINUOUS
 62
     7
 10
432.52499999999992
 20
916.99999999999955
 30
0.0
  0
SEQEND
  5
4AA
  8
DATA
  6
CONTINUOUS
 62
     7
  0
POLYLINE
  5
25C
  8
DATA
  6
CONTINUOUS
 62
     7
 66
     1
 10
0.0
 20
0.0
 30
0.0
 70
   129
  0
VERTEX
  5
4AB
  8
DATA
  6
CONTINUOUS
 62
     7
 10
422.42500000000001
 20
915.5799999999997
 30
0.0
 42
-0.4142135623730951
  0
VERTEX
  5
4AC
  8
DATA
  6
CONTINUOUS
 62
     7
 10
422.92500000000001
 20
916.07999999999981
 30
0.0
 42
-0.4142135623730951
  0
VERTEX
  5
4AD
  8
DATA
  6
CONTINUOUS
 62
     7
 10
423.42500000000001
 20
915.5799999999997
 30
0.0
 42
-0.4142135623730951
  0
VERTEX
  5
4AE
  8
DATA
  6
CONTINUOUS
 62
     7
 10
422.92500000000001
 20
915.07999999999981
 30
0.0
 42
-0.4142135623730951
  0
VERTEX
  5
4AF
  8
DATA
  6
CONTINUOUS
 62
     7
 10
422.42500000000001
 20
915.5799999999997
 30
0.0
  0
SEQEND
  5
4B0
  8
DATA
  6
CONTINUOUS
 62
     7
  0
POLYLINE
  5
263
  8
DATA
  6
CONTINUOUS
 62
     7
 66
     1
 10
0.0
 20
0.0
 30
0.0
 70
   129
  0
VERTEX
  5
4B1
  8
DATA
  6
CONTINUOUS
 62
     7
 10
411.40501
 20
915.5799999999997
 30
0.0
 42
-0.4142135623730951
  0
VERTEX
  5
4B2
  8
DATA
  6
CONTINUOUS
 62
     7
 10
411.90500999999989
 20
916.07999999999981
 30
0.0
 42
-0.4142135623730951
  0
VERTEX
  5
4B3
  8
DATA
  6
CONTINUOUS
 62
     7
 10
412.40500999999989
 20
915.5799999999997
 30
0.0
 42
-0.4142135623730951
  0
VERTEX
  5
4B4
  8
DATA
  6
CONTINUOUS
 62
     7
 10
411.90500999999989
 20
915.07999999999981
 30
0.0
 42
-0.4142135623730951
  0
VERTEX
  5
4B5
  8
DATA
  6
CONTINUOUS
 62
     7
 10
411.40501
 20
915.5799999999997
 30
0.0
  0
SEQEND
  5
4B6
  8
DATA
  6
CONTINUOUS
 62
     7
  0
POLYLINE
  5
26A
  8
DATA
  6
CONTINUOUS
 62
     7
 66
     1
 10
0.0
 20
0.0
 30
0.0
 70
   129
  0
VERTEX
  5
4B7
  8
DATA
  6
CONTINUOUS
 62
     7
 10
414.14499999999992
 20
915.5799999999997
 30
0.0
 42
-0.4142135623730951
  0
VERTEX
  5
4B8
  8
DATA
  6
CONTINUOUS
 62
     7
 10
414.64499999999992
 20
916.07999999999981
 30
0.0
 42
-0.4142135623730784
  0
VERTEX
  5
4B9
  8
DATA
  6
CONTINUOUS
 62
     7
 10
415.14499999999992
 20
915.5799999999997
 30
0.0
 42
-0.4142135623730951
  0
VERTEX
  5
4BA
  8
DATA
  6
CONTINUOUS
 62
     7
 10
414.64499999999992
 20
915.07999999999981
 30
0.0
 42
-0.4142135623731117
  0
VERTEX
  5
4BB
  8
DATA
  6
CONTINUOUS
 62
     7
 10
414.14499999999992
 20
915.5799999999997
 30
0.0
  0
SEQEND
  5
4BC
  8
DATA
  6
CONTINUOUS
 62
     7
  0
POLYLINE
  5
271
  8
DATA
  6
CONTINUOUS
 62
     7
 66
     1
 10
0.0
 20
0.0
 30
0.0
 70
   129
  0
VERTEX
  5
4BD
  8
DATA
  6
CONTINUOUS
 62
     7
 10
419.685
 20
915.5799999999997
 30
0.0
 42
-0.4142135623730951
  0
VERTEX
  5
4BE
  8
DATA
  6
CONTINUOUS
 62
     7
 10
420.185
 20
916.07999999999981
 30
0.0
 42
-0.4142135623730951
  0
VERTEX
  5
4BF
  8
DATA
  6
CONTINUOUS
 62
     7
 10
420.685
 20
915.5799999999997
 30
0.0
 42
-0.4142135623730951
  0
VERTEX
  5
4C0
  8
DATA
  6
CONTINUOUS
 62
     7
 10
420.185
 20
915.07999999999981
 30
0.0
 42
-0.4142135623730951
  0
VERTEX
  5
4C1
  8
DATA
  6
CONTINUOUS
 62
     7
 10
419.685
 20
915.5799999999997
 30
0.0
  0
SEQEND
  5
4C2
  8
DATA
  6
CONTINUOUS
 62
     7
  0
POLYLINE
  5
278
  8
DATA
  6
CONTINUOUS
 62
     7
 66
     1
 10
0.0
 20
0.0
 30
0.0
 70
   129
  0
VERTEX
  5
4C3
  8
DATA
  6
CONTINUOUS
 62
     7
 10
416.91501
 20
915.5799999999997
 30
0.0
 42
-0.4142135623730951
  0
VERTEX
  5
4C4
  8
DATA
  6
CONTINUOUS
 62
     7
 10
417.41501
 20
916.07999999999981
 30
0.0
 42
-0.4142135623730784
  0
VERTEX
  5
4C5
  8
DATA
  6
CONTINUOUS
 62
     7
 10
417.91501
 20
915.5799999999997
 30
0.0
 42
-0.4142135623730951
  0
VERTEX
  5
4C6
  8
DATA
  6
CONTINUOUS
 62
     7
 10
417.41501
 20
915.07999999999981
 30
0.0
 42
-0.4142135623731117
  0
VERTEX
  5
4C7
  8
DATA
  6
CONTINUOUS
 62
     7
 10
416.91501
 20
915.5799999999997
 30
0.0
  0
SEQEND
  5
4C8
  8
DATA
  6
CONTINUOUS
 62
     7
  0
POLYLINE
  5
27F
  8
DATA
  6
CONTINUOUS
 62
     7
 66
     1
 10
0.0
 20
0.0
 30
0.0
 70
   129
  0
VERTEX
  5
4C9
  8
DATA
  6
CONTINUOUS
 62
     7
 10
425.19501000000002
 20
915.5799999999997
 30
0.0
 42
-0.4142135623730951
  0
VERTEX
  5
4CA
  8
DATA
  6
CONTINUOUS
 62
     7
 10
425.69501000000002
 20
916.07999999999981
 30
0.0
 42
-0.4142135623730951
  0
VERTEX
  5
4CB
  8
DATA
  6
CONTINUOUS
 62
     7
 10
426.19500999999991
 20
915.5799999999997
 30
0.0
 42
-0.4142135623730951
  0
VERTEX
  5
4CC
  8
DATA
  6
CONTINUOUS
 62
     7
 10
425.69501000000002
 20
915.07999999999981
 30
0.0
 42
-0.4142135623730951
  0
VERTEX
  5
4CD
  8
DATA
  6
CONTINUOUS
 62
     7
 10
425.19501000000002
 20
915.5799999999997
 30
0.0
  0
SEQEND
  5
4CE
  8
DATA
  6
CONTINUOUS
 62
     7
  0
POLYLINE
  5
286
  8
DATA
  6
CONTINUOUS
 62
     7
 66
     1
 10
0.0
 20
0.0
 30
0.0
 70
   129
  0
VERTEX
  5
4CF
  8
DATA
  6
CONTINUOUS
 62
     7
 10
412.77499999999992
 20
918.41998999999953
 30
0.0
 42
-0.4142135623730951
  0
VERTEX
  5
4D0
  8
DATA
  6
CONTINUOUS
 62
     7
 10
413.27499999999992
 20
918.91998999999964
 30
0.0
 42
-0.4142135623730784
  0
VERTEX
  5
4D1
  8
DATA
  6
CONTINUOUS
 62
     7
 10
413.77499999999992
 20
918.41998999999953
 30
0.0
 42
-0.4142135623730951
  0
VERTEX
  5
4D2
  8
DATA
  6
CONTINUOUS
 62
     7
 10
413.27499999999992
 20
917.91998999999964
 30
0.0
 42
-0.4142135623731117
  0
VERTEX
  5
4D3
  8
DATA
  6
CONTINUOUS
 62
     7
 10
412.77499999999992
 20
918.41998999999953
 30
0.0
  0
SEQEND
  5
4D4
  8
DATA
  6
CONTINUOUS
 62
     7
  0
POLYLINE
  5
28D
  8
DATA
  6
CONTINUOUS
 62
     7
 66
     1
 10
0.0
 20
0.0
 30
0.0
 70
   129
  0
VERTEX
  5
4D5
  8
DATA
  6
CONTINUOUS
 62
     7
 10
415.54500000000002
 20
918.41998999999953
 30
0.0
 42
-0.4142135623730951
  0
VERTEX
  5
4D6
  8
DATA
  6
CONTINUOUS
 62
     7
 10
416.0449999999999
 20
918.91998999999964
 30
0.0
 42
-0.4142135623730951
  0
VERTEX
  5
4D7
  8
DATA
  6
CONTINUOUS
 62
     7
 10
416.5449999999999
 20
918.41998999999953
 30
0.0
 42
-0.4142135623730951
  0
VERTEX
  5
4D8
  8
DATA
  6
CONTINUOUS
 62
     7
 10
416.0449999999999
 20
917.91998999999964
 30
0.0
 42
-0.4142135623730951
  0
VERTEX
  5
4D9
  8
DATA
  6
CONTINUOUS
 62
     7
 10
415.54500000000002
 20
918.41998999999953
 30
0.0
  0
SEQEND
  5
4DA
  8
DATA
  6
CONTINUOUS
 62
     7
  0
POLYLINE
  5
294
  8
DATA
  6
CONTINUOUS
 62
     7
 66
     1
 10
0.0
 20
0.0
 30
0.0
 70
   129
  0
VERTEX
  5
4DB
  8
DATA
  6
CONTINUOUS
 62
     7
 10
418.28501
 20
918.41998999999953
 30
0.0
 42
-0.4142135623730951
  0
VERTEX
  5
4DC
  8
DATA
  6
CONTINUOUS
 62
     7
 10
418.78501
 20
918.91998999999964
 30
0.0
 42
-0.4142135623730784
  0
VERTEX
  5
4DD
  8
DATA
  6
CONTINUOUS
 62
     7
 10
419.28501
 20
918.41998999999953
 30
0.0
 42
-0.4142135623730951
  0
VERTEX
  5
4DE
  8
DATA
  6
CONTINUOUS
 62
     7
 10
418.78501
 20
917.91998999999964
 30
0.0
 42
-0.4142135623731117
  0
VERTEX
  5
4DF
  8
DATA
  6
CONTINUOUS
 62
     7
 10
418.28501
 20
918.41998999999953
 30
0.0
  0
SEQEND
  5
4E0
  8
DATA
  6
CONTINUOUS
 62
     7
  0
POLYLINE
  5
29B
  8
DATA
  6
CONTINUOUS
 62
     7
 66
     1
 10
0.0
 20
0.0
 30
0.0
 70
   129
  0
VERTEX
  5
4E1
  8
DATA
  6
CONTINUOUS
 62
     7
 10
421.05500000000001
 20
918.41998999999953
 30
0.0
 42
-0.4142135623730951
  0
VERTEX
  5
4E2
  8
DATA
  6
CONTINUOUS
 62
     7
 10
421.55500000000001
 20
918.91998999999964
 30
0.0
 42
-0.4142135623730951
  0
VERTEX
  5
4E3
  8
DATA
  6
CONTINUOUS
 62
     7
 10
422.05500000000001
 20
918.41998999999953
 30
0.0
 42
-0.4142135623730951
  0
VERTEX
  5
4E4
  8
DATA
  6
CONTINUOUS
 62
     7
 10
421.55500000000001
 20
917.91998999999964
 30
0.0
 42
-0.4142135623730951
  0
VERTEX
  5
4E5
  8
DATA
  6
CONTINUOUS
 62
     7
 10
421.05500000000001
 20
918.41998999999953
 30
0.0
  0
SEQEND
  5
4E6
  8
DATA
  6
CONTINUOUS
 62
     7
  0
POLYLINE
  5
2A2
  8
DATA
  6
CONTINUOUS
 62
     7
 66
     1
 10
0.0
 20
0.0
 30
0.0
 70
   129
  0
VERTEX
  5
4E7
  8
DATA
  6
CONTINUOUS
 62
     7
 10
423.82499999999999
 20
918.41998999999953
 30
0.0
 42
-0.4142135623730951
  0
VERTEX
  5
4E8
  8
DATA
  6
CONTINUOUS
 62
     7
 10
424.3250000000001
 20
918.91998999999964
 30
0.0
 42
-0.4142135623730784
  0
VERTEX
  5
4E9
  8
DATA
  6
CONTINUOUS
 62
     7
 10
424.8250000000001
 20
918.41998999999953
 30
0.0
 42
-0.4142135623730951
  0
VERTEX
  5
4EA
  8
DATA
  6
CONTINUOUS
 62
     7
 10
424.3250000000001
 20
917.91998999999964
 30
0.0
 42
-0.4142135623731117
  0
VERTEX
  5
4EB
  8
DATA
  6
CONTINUOUS
 62
     7
 10
423.82499999999999
 20
918.41998999999953
 30
0.0
  0
SEQEND
  5
4EC
  8
DATA
  6
CONTINUOUS
 62
     7
  0
POLYLINE
  5
2A9
  8
DATA
  6
CONTINUOUS
 62
     7
 66
     1
 10
0.0
 20
0.0
 30
0.0
 70
   129
  0
VERTEX
  5
4ED
  8
DATA
  6
CONTINUOUS
 62
     7
 10
426.56500999999997
 20
918.41998999999953
 30
0.0
 42
-0.4142135623730951
  0
VERTEX
  5
4EE
  8
DATA
  6
CONTINUOUS
 62
     7
 10
427.06500999999997
 20
918.91998999999964
 30
0.0
 42
-0.4142135623730617
  0
VERTEX
  5
4EF
  8
DATA
  6
CONTINUOUS
 62
     7
 10
427.56500999999997
 20
918.41998999999953
 30
0.0
 42
-0.4142135623731117
  0
VERTEX
  5
4F0
  8
DATA
  6
CONTINUOUS
 62
     7
 10
427.06500999999997
 20
917.91998999999964
 30
0.0
 42
-0.4142135623730951
  0
VERTEX
  5
4F1
  8
DATA
  6
CONTINUOUS
 62
     7
 10
426.56500999999997
 20
918.41998999999953
 30
0.0
  0
SEQEND
  5
4F2
  8
DATA
  6
CONTINUOUS
 62
     7
  0
ARC
  5
2B0
  8
DATA
  6
CONTINUOUS
 62
     7
 10
427.62285999999989
 20
914.29999999999973
 30
0.0
 40
1.5
 50
270.0
 51
349.99976461166892
  0
ARC
  5
2B1
  8
DATA
  6
CONTINUOUS
 62
     7
 10
428.01001000000002
 20
919.19998999999973
 30
0.0
 40
2.0
 50
0.0
 51
90.0
  0
LINE
  5
2B2
  8
DATA
  6
CONTINUOUS
 62
     7
 10
430.01001000000002
 20
919.19998999999973
 30
0.0
 11
429.10007000000002
 21
914.0395299999999
 31
0.0
  0
LINE
  5
2B3
  8
DATA
  6
CONTINUOUS
 62
     7
 10
581.40000999999995
 20
344.30000999999987
 30
0.0
 11
581.40000999999995
 21
299.99999999999972
 31
0.0
  0
LINE
  5
2B4
  8
DATA
  6
CONTINUOUS
 62
     7
 10
580.40000999999995
 20
344.30000999999987
 30
0.0
 11
580.40000999999995
 21
299.99999999999972
 31
0.0
  0
LINE
  5
2B5
  8
DATA
  6
CONTINUOUS
 62
     7
 10
414.39999999999998
 20
299.99999999999972
 30
0.0
 11
414.39999999999998
 21
344.30000999999987
 31
0.0
  0
LINE
  5
2B6
  8
DATA
  6
CONTINUOUS
 62
     7
 10
413.39999999999992
 20
299.99999999999972
 30
0.0
 11
413.39999999999992
 21
344.30000999999987
 31
0.0
  0
LINE
  5
2B7
  8
DATA
  6
CONTINUOUS
 62
     7
 10
555.40000999999995
 20
338.14999999999981
 30
0.0
 11
555.40000999999995
 21
306.15000999999978
 31
0.0
  0
LINE
  5
2B8
  8
DATA
  6
CONTINUOUS
 62
     7
 10
420.39999999999992
 20
338.14999999999981
 30
0.0
 11
420.39999999999992
 21
306.15000999999978
 31
0.0
  0
LINE
  5
2B9
  8
DATA
  6
CONTINUOUS
 62
     7
 10
421.89999999999992
 20
339.64999999999981
 30
0.0
 11
477.60000000000002
 21
339.64999999999981
 31
0.0
  0
LINE
  5
2BA
  8
DATA
  6
CONTINUOUS
 62
     7
 10
511.00000999999992
 20
339.64999999999981
 30
0.0
 11
553.90000999999995
 21
339.64999999999981
 31
0.0
  0
LINE
  5
2BB
  8
DATA
  6
CONTINUOUS
 62
     7
 10
421.89999999999992
 20
304.65000999999978
 30
0.0
 11
434.39999999999998
 21
304.65000999999978
 31
0.0
  0
LINE
  5
2BC
  8
DATA
  6
CONTINUOUS
 62
     7
 10
436.89999999999992
 20
304.65000999999978
 30
0.0
 11
440.12652000000003
 21
304.65000999999978
 31
0.0
  0
LINE
  5
2BD
  8
DATA
  6
CONTINUOUS
 62
     7
 10
466.20001000000002
 20
304.65000999999978
 30
0.0
 11
553.90000999999995
 21
304.65000999999978
 31
0.0
  0
LINE
  5
2BE
  8
DATA
  6
CONTINUOUS
 62
     7
 10
537.90000999999995
 20
334.64999999999981
 30
0.0
 11
537.90000999999995
 21
309.65000999999978
 31
0.0
  0
LINE
  5
2BF
  8
DATA
  6
CONTINUOUS
 62
     7
 10
436.89999999999992
 20
334.64999999999981
 30
0.0
 11
436.89999999999992
 21
309.65000999999978
 31
0.0
  0
LINE
  5
2C0
  8
DATA
  6
CONTINUOUS
 62
     7
 10
438.39999999999992
 20
336.14999999999981
 30
0.0
 11
536.40001000000007
 21
336.14999999999981
 31
0.0
  0
LINE
  5
2C1
  8
DATA
  6
CONTINUOUS
 62
     7
 10
438.39999999999992
 20
308.15000999999978
 30
0.0
 11
536.40001000000007
 21
308.15000999999978
 31
0.0
  0
LINE
  5
2C2
  8
DATA
  6
CONTINUOUS
 62
     7
 10
464.89999999999998
 20
330.39999999999981
 30
0.0
 11
524.90000999999995
 21
330.39999999999981
 31
0.0
  0
LINE
  5
2C3
  8
DATA
  6
CONTINUOUS
 62
     7
 10
464.89999999999998
 20
313.90000999999978
 30
0.0
 11
524.90000999999995
 21
313.90000999999978
 31
0.0
  0
LINE
  5
2C4
  8
DATA
  6
CONTINUOUS
 62
     7
 10
526.40000999999995
 20
328.89999999999981
 30
0.0
 11
526.40000999999995
 21
315.40000999999978
 31
0.0
  0
LINE
  5
2C5
  8
DATA
  6
CONTINUOUS
 62
     7
 10
463.39999999999992
 20
328.89999999999981
 30
0.0
 11
463.39999999999992
 21
315.40000999999978
 31
0.0
  0
LINE
  5
2C6
  8
DATA
  6
CONTINUOUS
 62
     7
 10
551.86999999999989
 20
320.15000999999978
 30
0.0
 11
551.86999999999989
 21
308.65000999999978
 31
0.0
  0
LINE
  5
2C7
  8
DATA
  6
CONTINUOUS
 62
     7
 10
551.86999999999989
 20
335.64999999999981
 30
0.0
 11
551.86999999999989
 21
324.15000999999978
 31
0.0
  0
LINE
  5
2C8
  8
DATA
  6
CONTINUOUS
 62
     7
 10
543.36999999999989
 20
320.15000999999978
 30
0.0
 11
543.36999999999989
 21
308.65000999999978
 31
0.0
  0
LINE
  5
2C9
  8
DATA
  6
CONTINUOUS
 62
     7
 10
543.36999999999989
 20
335.64999999999981
 30
0.0
 11
543.36999999999989
 21
324.15000999999978
 31
0.0
  0
LINE
  5
2CA
  8
DATA
  6
CONTINUOUS
 62
     7
 10
543.36999999999989
 20
335.64999999999981
 30
0.0
 11
551.86999999999989
 21
335.64999999999981
 31
0.0
  0
LINE
  5
2CB
  8
DATA
  6
CONTINUOUS
 62
     7
 10
543.36999999999989
 20
324.15000999999978
 30
0.0
 11
551.86999999999989
 21
324.15000999999978
 31
0.0
  0
LINE
  5
2CC
  8
DATA
  6
CONTINUOUS
 62
     7
 10
543.36999999999989
 20
320.15000999999978
 30
0.0
 11
551.86999999999989
 21
320.15000999999978
 31
0.0
  0
LINE
  5
2CD
  8
DATA
  6
CONTINUOUS
 62
     7
 10
543.36999999999989
 20
308.65000999999978
 30
0.0
 11
551.86999999999989
 21
308.65000999999978
 31
0.0
  0
CIRCLE
  5
2CE
  8
DATA
  6
CONTINUOUS
 62
     7
 10
441.39999999999992
 20
310.15000999999978
 30
0.0
 40
1.0
  0
CIRCLE
  5
2CF
  8
DATA
  6
CONTINUOUS
 62
     7
 10
447.39999999999998
 20
310.15000999999978
 30
0.0
 40
1.0
  0
CIRCLE
  5
2D0
  8
DATA
  6
CONTINUOUS
 62
     7
 10
453.39999999999992
 20
310.15000999999978
 30
0.0
 40
1.0
  0
CIRCLE
  5
2D1
  8
DATA
  6
CONTINUOUS
 62
     7
 10
441.39999999999992
 20
314.15000999999978
 30
0.0
 40
1.0
  0
CIRCLE
  5
2D2
  8
DATA
  6
CONTINUOUS
 62
     7
 10
447.39999999999998
 20
314.15000999999978
 30
0.0
 40
1.0
  0
CIRCLE
  5
2D3
  8
DATA
  6
CONTINUOUS
 62
     7
 10
453.39999999999992
 20
314.15000999999978
 30
0.0
 40
1.0
  0
CIRCLE
  5
2D4
  8
DATA
  6
CONTINUOUS
 62
     7
 10
441.39999999999992
 20
318.15000999999978
 30
0.0
 40
1.0
  0
CIRCLE
  5
2D5
  8
DATA
  6
CONTINUOUS
 62
     7
 10
447.39999999999998
 20
318.15000999999978
 30
0.0
 40
1.0
  0
CIRCLE
  5
2D6
  8
DATA
  6
CONTINUOUS
 62
     7
 10
453.39999999999992
 20
318.15000999999978
 30
0.0
 40
1.0
  0
CIRCLE
  5
2D7
  8
DATA
  6
CONTINUOUS
 62
     7
 10
441.39999999999992
 20
322.15000999999978
 30
0.0
 40
1.0
  0
CIRCLE
  5
2D8
  8
DATA
  6
CONTINUOUS
 62
     7
 10
447.39999999999998
 20
322.15000999999978
 30
0.0
 40
1.0
  0
CIRCLE
  5
2D9
  8
DATA
  6
CONTINUOUS
 62
     7
 10
453.39999999999992
 20
322.15000999999978
 30
0.0
 40
1.0
  0
CIRCLE
  5
2DA
  8
DATA
  6
CONTINUOUS
 62
     7
 10
441.39999999999992
 20
326.15000999999978
 30
0.0
 40
1.0
  0
CIRCLE
  5
2DB
  8
DATA
  6
CONTINUOUS
 62
     7
 10
447.39999999999998
 20
326.15000999999978
 30
0.0
 40
1.0
  0
CIRCLE
  5
2DC
  8
DATA
  6
CONTINUOUS
 62
     7
 10
453.39999999999992
 20
326.15000999999978
 30
0.0
 40
1.0
  0
CIRCLE
  5
2DD
  8
DATA
  6
CONTINUOUS
 62
     7
 10
453.39999999999992
 20
330.14999999999981
 30
0.0
 40
1.0
  0
CIRCLE
  5
2DE
  8
DATA
  6
CONTINUOUS
 62
     7
 10
441.39999999999992
 20
334.14999999999981
 30
0.0
 40
1.0
  0
CIRCLE
  5
2DF
  8
DATA
  6
CONTINUOUS
 62
     7
 10
447.39999999999998
 20
334.14999999999981
 30
0.0
 40
1.0
  0
CIRCLE
  5
2E0
  8
DATA
  6
CONTINUOUS
 62
     7
 10
453.39999999999992
 20
334.14999999999981
 30
0.0
 40
1.0
  0
TEXT
  5
2E1
  8
DATA
 62
     7
 10
440.7843770520833
 20
329.07000859999982
 30
0.0
 40
2.3085860546874999
  1
A
 41
0.8
 72
     1
 11
441.39999999999992
 21
331.37859465468728
 31
0.0
 73
     3
  0
LINE
  5
2E2
  8
DATA
  6
CONTINUOUS
 62
     7
 10
449.89999999999992
 20
328.30000999999982
 30
0.0
 11
449.89999999999992
 21
332.30000999999982
 31
0.0
  0
LINE
  5
2E3
  8
DATA
  6
CONTINUOUS
 62
     7
 10
438.89999999999998
 20
328.30000999999982
 30
0.0
 11
438.89999999999998
 21
332.30000999999982
 31
0.0
  0
LINE
  5
2E4
  8
DATA
  6
CONTINUOUS
 62
     7
 10
438.89999999999998
 20
332.30000999999982
 30
0.0
 11
449.89999999999992
 21
332.30000999999982
 31
0.0
  0
LINE
  5
2E5
  8
DATA
  6
CONTINUOUS
 62
     7
 10
438.89999999999998
 20
328.30000999999982
 30
0.0
 11
449.89999999999992
 21
328.30000999999982
 31
0.0
  0
TEXT
  5
2E6
  8
DATA
 62
     7
 10
446.7843770520833
 20
329.07000859999982
 30
0.0
 40
2.3085860546874999
  1
B
 41
0.8
 72
     1
 11
447.39999999999998
 21
331.37859465468728
 31
0.0
 73
     3
  0
ARC
  5
2E7
  8
DATA
  6
CONTINUOUS
 62
     7
 10
438.39999999999992
 20
334.64999999999981
 30
0.0
 40
1.5
 50
90.0
 51
180.0
  0
ARC
  5
2E8
  8
DATA
  6
CONTINUOUS
 62
     7
 10
438.39999999999992
 20
309.65000999999978
 30
0.0
 40
1.5
 50
180.0
 51
270.0
  0
ARC
  5
2E9
  8
DATA
  6
CONTINUOUS
 62
     7
 10
536.40001000000007
 20
309.65000999999978
 30
0.0
 40
1.5
 50
270.0
 51
0.0
  0
ARC
  5
2EA
  8
DATA
  6
CONTINUOUS
 62
     7
 10
536.40001000000007
 20
334.64999999999981
 30
0.0
 40
1.5
 50
0.0
 51
90.0
  0
ARC
  5
2EB
  8
DATA
  6
CONTINUOUS
 62
     7
 10
524.90000999999995
 20
328.89999999999981
 30
0.0
 40
1.5
 50
0.0
 51
90.0
  0
ARC
  5
2EC
  8
DATA
  6
CONTINUOUS
 62
     7
 10
524.90000999999995
 20
315.40000999999978
 30
0.0
 40
1.5
 50
270.0
 51
0.0
  0
ARC
  5
2ED
  8
DATA
  6
CONTINUOUS
 62
     7
 10
464.89999999999998
 20
328.89999999999981
 30
0.0
 40
1.5
 50
90.0
 51
180.0
  0
ARC
  5
2EE
  8
DATA
  6
CONTINUOUS
 62
     7
 10
464.89999999999998
 20
315.40000999999978
 30
0.0
 40
1.5
 50
180.0
 51
270.0
  0
ARC
  5
2EF
  8
DATA
  6
CONTINUOUS
 62
     7
 10
421.89999999999992
 20
338.14999999999981
 30
0.0
 40
1.5
 50
90.0
 51
180.0
  0
ARC
  5
2F0
  8
DATA
  6
CONTINUOUS
 62
     7
 10
421.89999999999992
 20
306.15000999999978
 30
0.0
 40
1.5
 50
180.0
 51
270.0
  0
ARC
  5
2F1
  8
DATA
  6
CONTINUOUS
 62
     7
 10
553.90000999999995
 20
338.14999999999981
 30
0.0
 40
1.5
 50
0.0
 51
90.0
  0
ARC
  5
2F2
  8
DATA
  6
CONTINUOUS
 62
     7
 10
553.90000999999995
 20
306.15000999999978
 30
0.0
 40
1.5
 50
270.0
 51
0.0
  0
LINE
  5
2F3
  8
DATA
  6
CONTINUOUS
 62
     7
 10
434.39999999999998
 20
329.14999999999981
 30
0.0
 11
424.39999999999992
 21
329.14999999999981
 31
0.0
  0
LINE
  5
2F4
  8
DATA
  6
CONTINUOUS
 62
     7
 10
434.39999999999998
 20
324.65000999999978
 30
0.0
 11
424.39999999999992
 21
324.65000999999978
 31
0.0
  0
LINE
  5
2F5
  8
DATA
  6
CONTINUOUS
 62
     7
 10
434.39999999999998
 20
316.15000999999978
 30
0.0
 11
424.39999999999992
 21
316.15000999999978
 31
0.0
  0
LINE
  5
2F6
  8
DATA
  6
CONTINUOUS
 62
     7
 10
434.39999999999998
 20
311.65000999999978
 30
0.0
 11
424.39999999999992
 21
311.65000999999978
 31
0.0
  0
LINE
  5
2F7
  8
DATA
  6
CONTINUOUS
 62
     7
 10
424.39999999999992
 20
316.15000999999978
 30
0.0
 11
424.39999999999992
 21
311.65000999999978
 31
0.0
  0
LINE
  5
2F8
  8
DATA
  6
CONTINUOUS
 62
     7
 10
424.39999999999992
 20
329.14999999999981
 30
0.0
 11
424.39999999999992
 21
324.65000999999978
 31
0.0
  0
LINE
  5
2F9
  8
DATA
  6
CONTINUOUS
 62
     7
 10
434.39999999999998
 20
316.15000999999978
 30
0.0
 11
434.39999999999998
 21
311.65000999999978
 31
0.0
  0
LINE
  5
2FA
  8
DATA
  6
CONTINUOUS
 62
     7
 10
434.39999999999998
 20
329.14999999999981
 30
0.0
 11
434.39999999999998
 21
324.65000999999978
 31
0.0
  0
TEXT
  5
2FB
  8
DATA
 62
     7
 10
424.65969878645831
 20
330.68801859999991
 30
0.0
 40
3.2320235546874989
  1
MENU
 41
0.8
 72
     1
 11
429.39999999999992
 21
333.92004215468728
 31
0.0
 73
     3
  0
TEXT
  5
2FC
  8
DATA
 62
     7
 10
422.59736119270821
 20
317.79601859999968
 30
0.0
 40
3.0011641796875002
  1
SELECT
 41
0.8
 72
     1
 11
429.39999999999992
 21
320.7971827796872
 31
0.0
 73
     3
  0
LINE
  5
2FD
  8
DATA
  6
CONTINUOUS
 62
     7
 10
436.89999999999992
 20
306.40000999999978
 30
0.0
 11
436.89999999999992
 21
304.65000999999978
 31
0.0
  0
TEXT
  5
2FE
  8
DATA
 62
     7
 10
441.39999999999992
 20
303.57001859999991
 30
0.0
 40
2.3085860546874999
  1
RF
 41
0.8
 11
441.39999999999992
 21
305.87860465468742
 31
0.0
 73
     3
  0
LINE
  5
2FF
  8
DATA
  6
CONTINUOUS
 62
     7
 10
448.89999999999992
 20
304.65000999999978
 30
0.0
 11
445.67349999999999
 21
304.65000999999978
 31
0.0
  0
LINE
  5
300
  8
DATA
  6
CONTINUOUS
 62
     7
 10
448.89999999999992
 20
306.40000999999978
 30
0.0
 11
448.89999999999992
 21
304.65000999999978
 31
0.0
  0
LINE
  5
301
  8
DATA
  6
CONTINUOUS
 62
     7
 10
451.89999999999998
 20
304.65000999999978
 30
0.0
 11
455.12652000000003
 21
304.65000999999978
 31
0.0
  0
LINE
  5
302
  8
DATA
  6
CONTINUOUS
 62
     7
 10
451.89999999999998
 20
306.40000999999978
 30
0.0
 11
451.89999999999998
 21
304.65000999999978
 31
0.0
  0
TEXT
  5
303
  8
DATA
 62
     7
 10
456.80000999999987
 20
303.57001859999991
 30
0.0
 40
2.3085860546874999
  1
AUDIO
 41
0.8
 11
456.80000999999987
 21
305.87860465468742
 31
0.0
 73
     3
  0
LINE
  5
304
  8
DATA
  6
CONTINUOUS
 62
     7
 10
545.37
 20
314.40000999999978
 30
0.0
 11
549.87
 21
314.40000999999978
 31
0.0
  0
LINE
  5
305
  8
DATA
  6
CONTINUOUS
 62
     7
 10
545.37
 20
329.89999999999981
 30
0.0
 11
549.87
 21
329.89999999999981
 31
0.0
  0
LINE
  5
306
  8
DATA
  6
CONTINUOUS
 62
     7
 10
547.62
 20
327.65000999999978
 30
0.0
 11
547.62
 21
332.14999999999981
 31
0.0
  0
TEXT
  5
307
  8
DATA
 62
     7
 10
562.66721494270826
 20
309.22001859999978
 30
0.0
 40
2.3085860546874999
  1
OUTPUT
 41
0.8
 72
     1
 11
567.90000999999995
 21
311.52860465468729
 31
0.0
 73
     3
  0
TEXT
  5
308
  8
DATA
 62
     7
 10
563.28283789062493
 20
306.22002859999981
 30
0.0
 40
2.3085860546874999
  1
LEVEL
 41
0.8
 72
     1
 11
567.90000999999995
 21
308.52861465468732
 31
0.0
 73
     3
  0
TEXT
  5
309
  8
DATA
 62
     7
 10
479.4601678885416
 20
338.35401859999979
 30
0.0
 40
2.7703048046875001
  1
MARCAD Diversity
 41
0.8
 72
     1
 11
494.89999999999992
 21
341.12432340468717
 31
0.0
 73
     3
  0
CIRCLE
  5
30A
  8
DATA
  6
CONTINUOUS
 62
     7
 10
594.39999999999986
 20
310.99999999999972
 30
0.0
 40
4.75
  0
CIRCLE
  5
30B
  8
DATA
  6
CONTINUOUS
 62
     7
 10
594.39999999999986
 20
310.99999999999972
 30
0.0
 40
3.0
  0
CIRCLE
  5
30C
  8
DATA
  6
CONTINUOUS
 62
     7
 10
594.39999999999986
 20
332.80000999999982
 30
0.0
 40
6.7499900000000004
  0
CIRCLE
  5
30D
  8
DATA
  6
CONTINUOUS
 62
     7
 10
594.39999999999986
 20
332.80000999999982
 30
0.0
 40
6.2499900000000004
  0
CIRCLE
  5
30E
  8
DATA
  6
CONTINUOUS
 62
     7
 10
594.39999999999986
 20
332.80000999999982
 30
0.0
 40
4.5000099999999987
  0
LINE
  5
30F
  8
DATA
  6
CONTINUOUS
 62
     7
 10
594.39999999999986
 20
332.80000999999982
 30
0.0
 11
592.14999999999986
 21
328.90289999999982
 31
0.0
  0
CIRCLE
  5
310
  8
DATA
  6
CONTINUOUS
 62
     7
 10
589.89999999999998
 20
323.80000999999982
 30
0.0
 40
1.75
  0
CIRCLE
  5
311
  8
DATA
  6
CONTINUOUS
 62
     7
 10
599.89999999999986
 20
323.80000999999982
 30
0.0
 40
1.75
  0
TEXT
  5
312
  8
DATA
 62
     7
 10
585.47346725520833
 20
302.42000859999979
 30
0.0
 40
2.3085860546874999
  1
HEADPHONES
 41
0.8
 72
     1
 11
594.39999999999986
 21
304.7285946546873
 31
0.0
 73
     3
  0
LINE
  5
313
  8
DATA
  6
CONTINUOUS
 62
     7
 10
585.89999999999986
 20
339.30000999999982
 30
0.0
 11
585.89999999999986
 21
319.80000999999982
 31
0.0
  0
LINE
  5
314
  8
DATA
  6
CONTINUOUS
 62
     7
 10
593.10000000000002
 20
318.80000999999982
 30
0.0
 11
596.90000999999995
 21
318.80000999999982
 31
0.0
  0
ARC
  5
315
  8
DATA
  6
CONTINUOUS
 62
     7
 10
586.89999999999986
 20
319.80000999999982
 30
0.0
 40
1.0
 50
180.0
 51
278.13002132571188
  0
TEXT
  5
316
  8
DATA
 62
     7
 10
587.73751820833331
 20
318.1200185999997
 30
0.0
 40
2.3085860546874999
  1
OFF
 41
0.8
 72
     1
 11
590.20001000000002
 21
320.42860465468721
 31
0.0
 73
     3
  0
TEXT
  5
317
  8
DATA
 62
     7
 10
598.26094263020832
 20
318.1200185999997
 30
0.0
 40
2.3085860546874999
  1
ON
 41
0.8
 72
     1
 11
599.79999999999995
 21
320.42860465468721
 31
0.0
 73
     3
  0
TEXT
  5
318
  8
DATA
 62
     7
 10
582.5140737864582
 20
340.5200085999997
 30
0.0
 40
2.3085860546874999
  1
PUSH
 41
0.8
 72
     1
 11
585.89999999999986
 21
342.82859465468721
 31
0.0
 73
     3
  0
LINE
  5
319
  8
DATA
  6
CONTINUOUS
 62
     7
 10
570.35289999999986
 20
326.9946299999998
 30
0.0
 11
563.60290999999995
 21
315.30329999999981
 31
0.0
  0
LINE
  5
31A
  8
DATA
  6
CONTINUOUS
 62
     7
 10
571.65195000000017
 20
326.2446299999998
 30
0.0
 11
564.90195000000006
 21
314.55328999999978
 31
0.0
  0
LINE
  5
31B
  8
DATA
  6
CONTINUOUS
 62
     7
 10
563.60290999999995
 20
315.30329999999981
 30
0.0
 11
564.90195000000006
 21
314.55328999999978
 31
0.0
  0
ARC
  5
31C
  8
DATA
  6
CONTINUOUS
 62
     7
 10
567.90000999999995
 20
321.2460699999998
 30
0.0
 40
6.2499949730299971
 50
247.7651729498624
 51
233.10777075940939
  0
LINE
  5
31D
  8
DATA
  6
CONTINUOUS
 62
     7
 10
565.85290999999995
 20
319.20039999999977
 30
0.0
 11
567.15192999999988
 21
318.45039999999977
 31
0.0
  0
LINE
  5
31E
  8
DATA
  6
CONTINUOUS
 62
     7
 10
564.48827000000006
 20
314.79212999999982
 30
0.0
 11
563.37471000000005
 21
312.86337999999972
 31
0.0
  0
LINE
  5
31F
  8
DATA
  6
CONTINUOUS
 62
     7
 10
565.73089000000004
 20
327.1076099999998
 30
0.0
 11
564.83600999999987
 21
329.5662699999998
 31
0.0
  0
LINE
  5
320
  8
DATA
  6
CONTINUOUS
 62
     7
 10
562.12662999999998
 20
318.7364799999998
 30
0.0
 11
559.30754999999999
 21
317.71041999999971
 31
0.0
  0
LINE
  5
321
  8
DATA
  6
CONTINUOUS
 62
     7
 10
562.35635000000002
 20
324.13231999999982
 30
0.0
 11
559.98896999999999
 21
325.49911999999978
 31
0.0
  0
LINE
  5
322
  8
DATA
  6
CONTINUOUS
 62
     7
 10
571.12471000000005
 20
315.46144999999967
 30
0.0
 11
572.62469999999985
 21
312.86337999999972
 31
0.0
  0
LINE
  5
323
  8
DATA
  6
CONTINUOUS
 62
     7
 10
570.19970999999987
 20
326.72410999999971
 30
0.0
 11
571.16340000000002
 21
329.5662699999998
 31
0.0
  0
LINE
  5
324
  8
DATA
  6
CONTINUOUS
 62
     7
 10
573.8727899999999
 20
318.7364799999998
 30
0.0
 11
576.69186000000002
 21
317.71041999999971
 31
0.0
  0
LINE
  5
325
  8
DATA
  6
CONTINUOUS
 62
     7
 10
573.48905999999988
 20
324.04339999999968
 30
0.0
 11
576.01044000000002
 21
325.49911999999978
 31
0.0
  0
LINE
  5
326
  8
DATA
  6
CONTINUOUS
 62
     7
 10
319.0
 20
478.20000999999968
 30
0.0
 11
319.0
 21
482.20000999999968
 31
0.0
  0
LINE
  5
327
  8
DATA
  6
CONTINUOUS
 62
     7
 10
317.0
 20
480.20000999999979
 30
0.0
 11
321.0
 21
480.20000999999979
 31
0.0
  0
CIRCLE
  5
328
  8
DATA
  6
CONTINUOUS
 62
     7
 10
319.0
 20
480.20000999999979
 30
0.0
 40
3.25
  0
CIRCLE
  5
329
  8
DATA
  6
CONTINUOUS
 62
     7
 10
319.0
 20
480.20000999999979
 30
0.0
 40
8.0
  0
LINE
  5
32A
  8
DATA
  6
CONTINUOUS
 62
     7
 10
504.50000999999997
 20
478.20000999999968
 30
0.0
 11
504.50000999999997
 21
482.20000999999968
 31
0.0
  0
LINE
  5
32B
  8
DATA
  6
CONTINUOUS
 62
     7
 10
502.50000999999992
 20
480.20000999999979
 30
0.0
 11
506.50000999999992
 21
480.20000999999979
 31
0.0
  0
CIRCLE
  5
32C
  8
DATA
  6
CONTINUOUS
 62
     7
 10
504.50000999999997
 20
480.20000999999979
 30
0.0
 40
3.25
  0
CIRCLE
  5
32D
  8
DATA
  6
CONTINUOUS
 62
     7
 10
504.50000999999997
 20
480.20000999999979
 30
0.0
 40
8.0
  0
LINE
  5
32E
  8
DATA
  6
CONTINUOUS
 62
     7
 10
336.0
 20
723.70000999999968
 30
0.0
 11
336.0
 21
727.69999999999982
 31
0.0
  0
LINE
  5
32F
  8
DATA
  6
CONTINUOUS
 62
     7
 10
334.0
 20
725.70000999999979
 30
0.0
 11
338.0
 21
725.70000999999979
 31
0.0
  0
CIRCLE
  5
330
  8
DATA
  6
CONTINUOUS
 62
     7
 10
336.0
 20
725.70000999999979
 30
0.0
 40
3.2499899999999959
  0
CIRCLE
  5
331
  8
DATA
  6
CONTINUOUS
 62
     7
 10
336.0
 20
725.70000999999979
 30
0.0
 40
7.9999899999999959
  0
LINE
  5
332
  8
DATA
  6
CONTINUOUS
 62
     7
 10
391.00000999999997
 20
744.97499999999968
 30
0.0
 11
391.00000999999997
 21
747.47499999999957
 31
0.0
  0
LINE
  5
333
  8
DATA
  6
CONTINUOUS
 62
     7
 10
430.01001000000002
 20
747.47499999999957
 30
0.0
 11
430.01001000000002
 21
744.97499999999968
 31
0.0
  0
LINE
  5
334
  8
DATA
  6
CONTINUOUS
 62
     7
 10
391.00000999999997
 20
747.47499999999957
 30
0.0
 11
430.01001000000002
 21
747.47499999999957
 31
0.0
  0
LINE
  5
335
  8
DATA
  6
CONTINUOUS
 62
     7
 10
386.98500000000001
 20
747.47499999999957
 30
0.0
 11
386.98500000000001
 21
744.97499999999968
 31
0.0
  0
LINE
  5
336
  8
DATA
  6
CONTINUOUS
 62
     7
 10
434.02499999999998
 20
747.47499999999957
 30
0.0
 11
434.02499999999998
 21
744.97499999999968
 31
0.0
  0
LINE
  5
337
  8
DATA
  6
CONTINUOUS
 62
     7
 10
436.52499999999992
 20
747.47499999999957
 30
0.0
 11
436.52499999999992
 21
744.97499999999968
 31
0.0
  0
LINE
  5
338
  8
DATA
  6
CONTINUOUS
 62
     7
 10
431.52499999999992
 20
747.47499999999957
 30
0.0
 11
431.52499999999992
 21
744.97499999999968
 31
0.0
  0
LINE
  5
339
  8
DATA
  6
CONTINUOUS
 62
     7
 10
389.48500000000001
 20
747.47499999999957
 30
0.0
 11
389.48500000000001
 21
744.97499999999968
 31
0.0
  0
LINE
  5
33A
  8
DATA
  6
CONTINUOUS
 62
     7
 10
384.48500000000001
 20
747.47499999999957
 30
0.0
 11
384.48500000000001
 21
744.97499999999968
 31
0.0
  0
LINE
  5
33B
  8
DATA
  6
CONTINUOUS
 62
     7
 10
389.48500000000001
 20
747.47499999999957
 30
0.0
 11
384.48500000000001
 21
747.47499999999957
 31
0.0
  0
LINE
  5
33C
  8
DATA
  6
CONTINUOUS
 62
     7
 10
431.52499999999992
 20
747.47499999999957
 30
0.0
 11
436.52499999999992
 21
747.47499999999957
 31
0.0
  0
LINE
  5
33D
  8
DATA
  6
CONTINUOUS
 62
     7
 10
499.72500000000002
 20
744.97499999999968
 30
0.0
 11
499.72500000000002
 21
746.47499999999957
 31
0.0
  0
LINE
  5
33E
  8
DATA
  6
CONTINUOUS
 62
     7
 10
490.32499999999987
 20
744.97499999999968
 30
0.0
 11
490.32499999999987
 21
746.47499999999957
 31
0.0
  0
LINE
  5
33F
  8
DATA
  6
CONTINUOUS
 62
     7
 10
490.32499999999987
 20
746.47499999999957
 30
0.0
 11
499.72500000000002
 21
746.47499999999957
 31
0.0
  0
TEXT
  5
340
  8
DATA
 62
     7
 10
271.68779520729169
 20
936.37999139999965
 30
0.0
 40
2.3085860546874999
  1
12 Vdc OUT
 50
180.0
 41
0.8
 72
     1
 11
263.50000999999997
 21
934.07140534531231
 31
0.0
 73
     3
  0
TEXT
  5
341
  8
DATA
 62
     7
 10
267.34765342447918
 20
939.37998139999968
 30
0.0
 40
2.3085860546874999
  1
150mA
 50
180.0
 41
0.8
 72
     1
 11
263.50000999999997
 21
937.07139534531223
 31
0.0
 73
     3
  0
TEXT
  5
342
  8
DATA
 62
     7
 10
269.28686571041669
 20
942.3799713999997
 30
0.0
 40
2.3085860546874999
  1
CLASS 2
 50
180.0
 41
0.8
 72
     1
 11
263.50000999999997
 21
940.07138534531225
 31
0.0
 73
     3
  0
TEXT
  5
343
  8
DATA
 62
     7
 10
273.22685257708338
 20
912.4799813999997
 30
0.0
 40
2.3085860546874999
  1
ANTENNA A IN
 50
180.0
 41
0.8
 72
     1
 11
263.50000999999997
 21
910.17139534531225
 31
0.0
 73
     3
  0
POLYLINE
  5
344
  8
DATA
  6
CONTINUOUS
 62
     7
 66
     1
 10
0.0
 20
0.0
 30
0.0
 70
     1
  0
VERTEX
  5
4F3
  8
DATA
  6
CONTINUOUS
 62
     7
 10
436.52499000000012
 20
915.55651999999975
 30
0.0
  0
VERTEX
  5
4F4
  8
DATA
  6
CONTINUOUS
 62
     7
 10
436.52508999999992
 20
918.44326999999964
 30
0.0
  0
VERTEX
  5
4F5
  8
DATA
  6
CONTINUOUS
 62
     7
 10
434.02514000000002
 20
919.88672999999983
 30
0.0
  0
VERTEX
  5
4F6
  8
DATA
  6
CONTINUOUS
 62
     7
 10
431.52503000000002
 20
918.44349999999974
 30
0.0
  0
VERTEX
  5
4F7
  8
DATA
  6
CONTINUOUS
 62
     7
 10
431.5249
 20
915.55671999999981
 30
0.0
  0
VERTEX
  5
4F8
  8
DATA
  6
CONTINUOUS
 62
     7
 10
434.02487000000002
 20
914.11323999999979
 30
0.0
  0
SEQEND
  5
4F9
  8
DATA
  6
CONTINUOUS
 62
     7
  0
POLYLINE
  5
34D
  8
DATA
  6
CONTINUOUS
 62
     7
 66
     1
 10
0.0
 20
0.0
 30
0.0
 70
     1
  0
VERTEX
  5
4FA
  8
DATA
  6
CONTINUOUS
 62
     7
 10
389.48498000000001
 20
915.55651999999975
 30
0.0
  0
VERTEX
  5
4FB
  8
DATA
  6
CONTINUOUS
 62
     7
 10
389.48509000000001
 20
918.44326999999964
 30
0.0
  0
VERTEX
  5
4FC
  8
DATA
  6
CONTINUOUS
 62
     7
 10
386.98514
 20
919.88672999999983
 30
0.0
  0
VERTEX
  5
4FD
  8
DATA
  6
CONTINUOUS
 62
     7
 10
384.48504000000003
 20
918.44349999999974
 30
0.0
  0
VERTEX
  5
4FE
  8
DATA
  6
CONTINUOUS
 62
     7
 10
384.48489999999998
 20
915.55671999999981
 30
0.0
  0
VERTEX
  5
4FF
  8
DATA
  6
CONTINUOUS
 62
     7
 10
386.98487
 20
914.11323999999979
 30
0.0
  0
SEQEND
  5
500
  8
DATA
  6
CONTINUOUS
 62
     7
  0
LINE
  5
356
  8
DATA
  6
CONTINUOUS
 62
     7
 10
393.06171000000001
 20
923.19998999999984
 30
0.0
 11
427.94828999999987
 21
923.19998999999984
 31
0.0
  0
LINE
  5
357
  8
DATA
  6
CONTINUOUS
 62
     7
 10
393.83753999999999
 20
910.79999999999961
 30
0.0
 11
427.17245999999989
 21
910.79999999999961
 31
0.0
  0
ARC
  5
358
  8
DATA
  6
CONTINUOUS
 62
     7
 10
393.06171000000001
 20
919.19998999999973
 30
0.0
 40
4.0
 50
90.0
 51
189.99993940657529
  0
ARC
  5
359
  8
DATA
  6
CONTINUOUS
 62
     7
 10
393.83753999999999
 20
914.79999999999973
 30
0.0
 40
4.0000020056245047
 50
190.0002464062334
 51
270.0
  0
ARC
  5
35A
  8
DATA
  6
CONTINUOUS
 62
     7
 10
427.17245999999989
 20
914.79999999999973
 30
0.0
 40
4.0
 50
270.0
 51
349.99989465696967
  0
ARC
  5
35B
  8
DATA
  6
CONTINUOUS
 62
     7
 10
427.94828999999987
 20
919.19998999999973
 30
0.0
 40
4.0000101171872178
 50
349.99991953043542
 51
90.0
  0
LINE
  5
35C
  8
DATA
  6
CONTINUOUS
 62
     7
 10
389.89830999999998
 20
914.10538999999972
 30
0.0
 11
389.48498000000001
 21
915.55651999999975
 31
0.0
  0
LINE
  5
35D
  8
DATA
  6
CONTINUOUS
 62
     7
 10
431.11167999999992
 20
914.10539999999958
 30
0.0
 11
431.5249
 21
915.55671999999981
 31
0.0
  0
CIRCLE
  5
35E
  8
DATA
  6
CONTINUOUS
 62
     7
 10
495.02499999999992
 20
923.99998999999968
 30
0.0
 40
4.700000000000002
  0
POLYLINE
  5
35F
  8
DATA
  6
CONTINUOUS
 62
     7
 66
     1
 10
0.0
 20
0.0
 30
0.0
 70
     1
  0
VERTEX
  5
501
  8
DATA
  6
CONTINUOUS
 62
     7
 10
501.2750099999999
 20
920.39141999999981
 30
0.0
  0
VERTEX
  5
502
  8
DATA
  6
CONTINUOUS
 62
     7
 10
501.27517999999998
 20
927.60828999999956
 30
0.0
  0
VERTEX
  5
503
  8
DATA
  6
CONTINUOUS
 62
     7
 10
495.02521999999999
 20
931.21685999999966
 30
0.0
  0
VERTEX
  5
504
  8
DATA
  6
CONTINUOUS
 62
     7
 10
488.77503999999988
 20
927.60865999999965
 30
0.0
  0
VERTEX
  5
505
  8
DATA
  6
CONTINUOUS
 62
     7
 10
488.77481999999992
 20
920.3916899999997
 30
0.0
  0
VERTEX
  5
506
  8
DATA
  6
CONTINUOUS
 62
     7
 10
495.02476999999999
 20
916.78311999999983
 30
0.0
  0
SEQEND
  5
507
  8
DATA
  6
CONTINUOUS
 62
     7
  0
CIRCLE
  5
368
  8
DATA
  6
CONTINUOUS
 62
     7
 10
495.02499999999992
 20
923.99998999999968
 30
0.0
 40
8.0
  0
CIRCLE
  5
369
  8
DATA
  6
CONTINUOUS
 62
     7
 10
495.02499999999992
 20
923.99998999999968
 30
0.0
 40
3.1500051466942081
  0
LINE
  5
36A
  8
DATA
  6
CONTINUOUS
 62
     7
 10
481.52499999999992
 20
930.79999999999984
 30
0.0
 11
481.52499999999992
 21
935.79999999999961
 31
0.0
  0
LINE
  5
36B
  8
DATA
  6
CONTINUOUS
 62
     7
 10
472.52499999999992
 20
930.79999999999984
 30
0.0
 11
472.52499999999992
 21
935.79999999999961
 31
0.0
  0
LINE
  5
36C
  8
DATA
  6
CONTINUOUS
 62
     7
 10
481.52499999999992
 20
930.79999999999984
 30
0.0
 11
472.52499999999992
 21
930.79999999999984
 31
0.0
  0
LINE
  5
36D
  8
DATA
  6
CONTINUOUS
 62
     7
 10
481.52499999999992
 20
935.79999999999961
 30
0.0
 11
472.52499999999992
 21
935.79999999999961
 31
0.0
  0
LINE
  5
36E
  8
DATA
  6
CONTINUOUS
 62
     7
 10
478.52499999999992
 20
932.29999999999961
 30
0.0
 11
473.52499999999992
 21
932.29999999999961
 31
0.0
  0
LINE
  5
36F
  8
DATA
  6
CONTINUOUS
 62
     7
 10
473.52499999999992
 20
932.29999999999961
 30
0.0
 11
473.52499999999992
 21
935.79999999999961
 31
0.0
  0
LINE
  5
370
  8
DATA
  6
CONTINUOUS
 62
     7
 10
478.52499999999992
 20
932.29999999999961
 30
0.0
 11
478.52499999999992
 21
935.79999999999961
 31
0.0
  0
LINE
  5
371
  8
DATA
  6
CONTINUOUS
 62
     7
 10
477.22500000000002
 20
932.29999999999961
 30
0.0
 11
477.22500000000002
 21
935.79999999999961
 31
0.0
  0
LINE
  5
372
  8
DATA
  6
CONTINUOUS
 62
     7
 10
475.92500999999999
 20
932.29999999999961
 30
0.0
 11
475.92500999999999
 21
935.79999999999961
 31
0.0
  0
LINE
  5
373
  8
DATA
  6
CONTINUOUS
 62
     7
 10
474.62500999999997
 20
932.29999999999961
 30
0.0
 11
474.62500999999997
 21
935.79999999999961
 31
0.0
  0
CIRCLE
  5
374
  8
DATA
  6
CONTINUOUS
 62
     7
 10
449.8251699999999
 20
923.99998999999968
 30
0.0
 40
1.25001106147107
  0
CIRCLE
  5
375
  8
DATA
  6
CONTINUOUS
 62
     7
 10
454.02516000000003
 20
928.19998999999973
 30
0.0
 40
1.2499988475194701
  0
CIRCLE
  5
376
  8
DATA
  6
CONTINUOUS
 62
     7
 10
458.22516000000002
 20
923.99998999999968
 30
0.0
 40
1.2500110614710629
  0
LINE
  5
377
  8
DATA
  6
CONTINUOUS
 62
     7
 10
447.40795999999989
 20
919.50410999999974
 30
0.0
 11
446.70085999999992
 21
918.79700999999966
 31
0.0
  0
LINE
  5
378
  8
DATA
  6
CONTINUOUS
 62
     7
 10
449.52928000000003
 20
917.38278999999966
 30
0.0
 11
448.82217999999989
 21
916.67568999999969
 31
0.0
  0
LINE
  5
379
  8
DATA
  6
CONTINUOUS
 62
     7
 10
448.82217999999989
 20
916.67568999999969
 30
0.0
 11
446.70085999999992
 21
918.79700999999966
 31
0.0
  0
CIRCLE
  5
37A
  8
DATA
  6
CONTINUOUS
 62
     7
 10
443.87515999999999
 20
935.79998999999953
 30
0.0
 40
2.9698414099240948
  0
CIRCLE
  5
37B
  8
DATA
  6
CONTINUOUS
 62
     7
 10
464.17514999999992
 20
912.49999999999955
 30
0.0
 40
2.9000000000000048
  0
LINE
  5
37C
  8
DATA
  6
CONTINUOUS
 62
     7
 10
443.87515999999999
 20
933.79998999999964
 30
0.0
 11
443.87515999999999
 21
937.79998999999975
 31
0.0
  0
LINE
  5
37D
  8
DATA
  6
CONTINUOUS
 62
     7
 10
441.87515999999999
 20
935.79998999999953
 30
0.0
 11
445.87515999999999
 21
935.79998999999953
 31
0.0
  0
LINE
  5
37E
  8
DATA
  6
CONTINUOUS
 62
     7
 10
464.17514999999992
 20
910.49999999999955
 30
0.0
 11
464.17514999999992
 21
914.49999999999955
 31
0.0
  0
LINE
  5
37F
  8
DATA
  6
CONTINUOUS
 62
     7
 10
462.17514999999997
 20
912.49999999999955
 30
0.0
 11
466.17514999999997
 21
912.49999999999955
 31
0.0
  0
LINE
  5
380
  8
DATA
  6
CONTINUOUS
 62
     7
 10
477.02499999999992
 20
928.89999999999975
 30
0.0
 11
477.02499999999992
 21
923.99998999999968
 31
0.0
  0
LINE
  5
381
  8
DATA
  6
CONTINUOUS
 62
     7
 10
476.95001000000002
 20
923.99998999999968
 30
0.0
 11
466.05000999999999
 21
923.99998999999968
 31
0.0
  0
TEXT
  5
382
  8
DATA
 62
     7
 10
483.53604166666662
 20
928.50799999999981
 30
0.0
 40
2.1546875000000001
  1
MIC
 50
180.0
 41
0.8
 72
     1
 11
481.52499999999992
 21
926.35331249999979
 31
0.0
 73
     3
  0
TEXT
  5
383
  8
DATA
 62
     7
 10
475.39791666666662
 20
928.50799999999981
 30
0.0
 40
2.1546875000000001
  1
LINE
 50
180.0
 41
0.8
 72
     1
 11
472.52499999999992
 21
926.35331249999979
 31
0.0
 73
     3
  0
ARC
  5
384
  8
DATA
  6
CONTINUOUS
 62
     7
 10
454.02499999999992
 20
923.99998999999968
 30
0.0
 40
8.0000491882300331
 50
235.80783343973809
 51
214.1937751016865
  0
CIRCLE
  5
385
  8
DATA
  6
CONTINUOUS
 62
     7
 10
454.02499999999992
 20
923.99998999999968
 30
0.0
 40
11.49994482769373
  0
TEXT
  5
386
  8
DATA
 62
     7
 10
503.02499999999992
 20
913.90399139999965
 30
0.0
 40
3.0011641796875002
  1
OUTPUTS
 50
180.0
 41
0.8
 11
503.02499999999992
 21
910.90282722031225
 31
0.0
 73
     3
  0
TEXT
  5
387
  8
DATA
 62
     7
 10
466.21433436874997
 20
942.27763139999956
 30
0.0
 40
2.3085860546874999
  1
BALANCED LOW Z
 50
180.0
 41
0.8
 72
     1
 11
454.02499999999992
 21
939.96904534531211
 31
0.0
 73
     3
  0
TEXT
  5
388
  8
DATA
 62
     7
 10
499.58060981458323
 20
942.27763139999956
 30
0.0
 40
2.3085860546874999
  1
HIGH Z
 50
180.0
 41
0.8
 72
     1
 11
495.02499999999992
 21
939.96904534531211
 31
0.0
 73
     3
  0
LINE
  5
389
  8
DATA
  6
CONTINUOUS
 62
     7
 10
509.52499999999998
 20
939.19763999999975
 30
0.0
 11
509.52499999999998
 21
914.49999999999955
 31
0.0
  0
LINE
  5
38A
  8
DATA
  6
CONTINUOUS
 62
     7
 10
507.52499999999992
 20
912.49999999999955
 30
0.0
 11
505.89999999999998
 21
912.49999999999955
 31
0.0
  0
LINE
  5
38B
  8
DATA
  6
CONTINUOUS
 62
     7
 10
501.27517999999998
 20
941.19763999999975
 30
0.0
 11
507.52499999999992
 21
941.19763999999975
 31
0.0
  0
LINE
  5
38C
  8
DATA
  6
CONTINUOUS
 62
     7
 10
488.77503999999988
 20
941.19763999999975
 30
0.0
 11
465.52496000000002
 21
941.19763999999975
 31
0.0
  0
LINE
  5
38D
  8
DATA
  6
CONTINUOUS
 62
     7
 10
438.10000999999988
 20
914.49999999999955
 30
0.0
 11
438.10000999999988
 21
939.09999999999957
 31
0.0
  0
LINE
  5
38E
  8
DATA
  6
CONTINUOUS
 62
     7
 10
446.60000999999988
 20
912.49999999999955
 30
0.0
 11
440.10000999999988
 21
912.49999999999955
 31
0.0
  0
LINE
  5
38F
  8
DATA
  6
CONTINUOUS
 62
     7
 10
440.10000999999988
 20
941.09999999999968
 30
0.0
 11
441.20001000000002
 21
941.09999999999968
 31
0.0
  0
ARC
  5
390
  8
DATA
  6
CONTINUOUS
 62
     7
 10
507.52499999999992
 20
914.49999999999955
 30
0.0
 40
2.0
 50
270.0
 51
0.0
  0
ARC
  5
391
  8
DATA
  6
CONTINUOUS
 62
     7
 10
507.52499999999992
 20
939.19763999999975
 30
0.0
 40
2.0
 50
0.0
 51
90.0
  0
ARC
  5
392
  8
DATA
  6
CONTINUOUS
 62
     7
 10
440.10000999999988
 20
939.09999999999957
 30
0.0
 40
2.0
 50
90.0
 51
180.0
  0
ARC
  5
393
  8
DATA
  6
CONTINUOUS
 62
     7
 10
440.10000999999988
 20
914.49999999999955
 30
0.0
 40
2.0
 50
180.0
 51
270.0
  0
TEXT
  5
394
  8
DATA
 62
     7
 10
430.01001000000002
 20
927.50399139999968
 30
0.0
 40
3.0011641796875002
  1
SHURE BROTHERS INC.
 50
180.0
 41
0.8
 11
430.01001000000002
 21
924.50282722031216
 31
0.0
 73
     3
  0
TEXT
  5
395
  8
DATA
 62
     7
 10
430.01001000000002
 20
930.89999999999952
 30
0.0
 40
1.846875
  1
MODEL U4S-Ⅱ DUAL RECEIVER
 50
180.0
 41
0.8
 11
430.01001000000002
 21
929.05312499999968
 31
0.0
 73
     3
  0
TEXT
  5
396
  8
DATA
 62
     7
 10
430.01001000000002
 20
933.29999999999961
 30
0.0
 40
1.846875
  1
FREQUENCY RANGE: 779-810 MHz
 50
180.0
 41
0.8
 11
430.01001000000002
 21
931.45312499999955
 31
0.0
 73
     3
  0
TEXT
  5
397
  8
DATA
 62
     7
 10
381.10001
 20
934.70399139999984
 30
0.0
 40
3.0011641796875002
  1
VER.2
 50
180.0
 41
0.8
 11
381.10001
 21
931.7028272203122
 31
0.0
 73
     3
  0
TEXT
  5
398
  8
DATA
 62
     7
 10
383.16018833333339
 20
917.60798999999986
 30
0.0
 40
2.1546875000000001
  1
NETWORKING
 50
180.0
 41
0.8
 72
     1
 11
374.82873000000001
 21
915.45330249999995
 31
0.0
 73
     3
  0
TEXT
  5
399
  8
DATA
 62
     7
 10
382.01102166666669
 20
920.40798999999981
 30
0.0
 40
2.1546875000000001
  1
INTERFACE
 50
180.0
 41
0.8
 72
     1
 11
374.82873000000001
 21
918.25330249999968
 31
0.0
 73
     3
  0
LINE
  5
39A
  8
DATA
  6
CONTINUOUS
 62
     7
 10
1047.7750000000001
 20
330.18674999999968
 30
0.0
 11
1046.7750000000001
 21
330.18674999999968
 31
0.0
  0
LINE
  5
39B
  8
DATA
  6
CONTINUOUS
 62
     7
 10
1047.7750000000001
 20
331.5000099999998
 30
0.0
 11
1046.7750000000001
 21
331.5000099999998
 31
0.0
  0
LINE
  5
39C
  8
DATA
  6
CONTINUOUS
 62
     7
 10
526.27500999999995
 20
748.47499999999968
 30
0.0
 11
526.27500999999995
 21
746.37500999999975
 31
0.0
  0
LINE
  5
39D
  8
DATA
  6
CONTINUOUS
 62
     7
 10
537.77500999999995
 20
748.47499999999968
 30
0.0
 11
537.77500999999995
 21
745.97499999999957
 31
0.0
  0
LINE
  5
39E
  8
DATA
  6
CONTINUOUS
 62
     7
 10
1047.7750000000001
 20
325.15000999999978
 30
0.0
 11
1047.7750000000001
 21
331.5000099999998
 31
0.0
  0
LINE
  5
39F
  8
DATA
  6
CONTINUOUS
 62
     7
 10
268.245
 20
748.97499999999968
 30
0.0
 11
268.245
 21
758.97500999999966
 31
0.0
  0
LINE
  5
3A0
  8
DATA
  6
CONTINUOUS
 62
     7
 10
258.745
 20
748.47499999999968
 30
0.0
 11
258.745
 21
758.97500999999966
 31
0.0
  0
LINE
  5
3A1
  8
DATA
  6
CONTINUOUS
 62
     7
 10
258.745
 20
758.97500999999966
 30
0.0
 11
268.245
 21
758.97500999999966
 31
0.0
  0
LINE
  5
3A2
  8
DATA
  6
CONTINUOUS
 62
     7
 10
270.64501000000001
 20
745.97499999999957
 30
0.0
 11
270.64501000000001
 21
744.97499999999968
 31
0.0
  0
LINE
  5
3A3
  8
DATA
  6
CONTINUOUS
 62
     7
 10
256.34500000000003
 20
745.97499999999957
 30
0.0
 11
256.34500000000003
 21
744.97499999999968
 31
0.0
  0
LINE
  5
3A4
  8
DATA
  6
CONTINUOUS
 62
     7
 10
256.34500000000003
 20
745.97499999999957
 30
0.0
 11
270.64501000000001
 21
745.97499999999957
 31
0.0
  0
LINE
  5
3A5
  8
DATA
  6
CONTINUOUS
 62
     7
 10
257.745
 20
748.47499999999968
 30
0.0
 11
269.245
 21
748.47499999999968
 31
0.0
  0
CIRCLE
  5
3A6
  8
DATA
  6
CONTINUOUS
 62
     7
 10
263.495
 20
754.97499999999957
 30
0.0
 40
1.0
  0
LINE
  5
3A7
  8
DATA
  6
CONTINUOUS
 62
     7
 10
257.745
 20
748.47499999999968
 30
0.0
 11
257.745
 21
746.37500999999975
 31
0.0
  0
LINE
  5
3A8
  8
DATA
  6
CONTINUOUS
 62
     7
 10
269.245
 20
748.47499999999968
 30
0.0
 11
269.245
 21
745.97499999999957
 31
0.0
  0
LINE
  5
3A9
  8
DATA
  6
CONTINUOUS
 62
     7
 10
600.64999
 20
435.39999999999981
 30
0.0
 11
601.14999
 21
449.70000999999979
 31
0.0
  0
LINE
  5
3AA
  8
DATA
  6
CONTINUOUS
 62
     7
 10
588.14999999999986
 20
435.39999999999981
 30
0.0
 11
587.64999999999998
 21
449.70000999999979
 31
0.0
  0
LINE
  5
3AB
  8
DATA
  6
CONTINUOUS
 62
     7
 10
588.14999999999986
 20
435.39999999999981
 30
0.0
 11
600.64999
 21
435.39999999999981
 31
0.0
  0
LINE
  5
3AC
  8
DATA
  6
CONTINUOUS
 62
     7
 10
574.14982999999995
 20
444.70000999999968
 30
0.0
 11
574.14982999999995
 21
449.70000999999979
 31
0.0
  0
LINE
  5
3AD
  8
DATA
  6
CONTINUOUS
 62
     7
 10
561.65017999999986
 20
444.70000999999968
 30
0.0
 11
561.65017999999986
 21
449.70000999999979
 31
0.0
  0
LINE
  5
3AE
  8
DATA
  6
CONTINUOUS
 62
     7
 10
561.65017999999986
 20
444.70000999999968
 30
0.0
 11
574.14982999999995
 21
444.70000999999968
 31
0.0
  0
LINE
  5
3AF
  8
DATA
  6
CONTINUOUS
 62
     7
 10
561.65017999999986
 20
446.20000999999979
 30
0.0
 11
574.14982999999995
 21
446.20000999999979
 31
0.0
  0
LINE
  5
3B0
  8
DATA
  6
CONTINUOUS
 62
     7
 10
543.36999999999989
 20
448.20000999999968
 30
0.0
 11
543.36999999999989
 21
449.70000999999979
 31
0.0
  0
LINE
  5
3B1
  8
DATA
  6
CONTINUOUS
 62
     7
 10
551.86999999999989
 20
448.20000999999968
 30
0.0
 11
551.86999999999989
 21
449.70000999999979
 31
0.0
  0
LINE
  5
3B2
  8
DATA
  6
CONTINUOUS
 62
     7
 10
424.39999999999992
 20
448.20000999999968
 30
0.0
 11
424.39999999999992
 21
449.70000999999979
 31
0.0
  0
LINE
  5
3B3
  8
DATA
  6
CONTINUOUS
 62
     7
 10
434.39999999999998
 20
448.20000999999968
 30
0.0
 11
434.39999999999998
 21
449.70000999999979
 31
0.0
  0
LINE
  5
3B4
  8
DATA
  6
CONTINUOUS
 62
     7
 10
543.36999999999989
 20
448.20000999999968
 30
0.0
 11
551.86999999999989
 21
448.20000999999968
 31
0.0
  0
LINE
  5
3B5
  8
DATA
  6
CONTINUOUS
 62
     7
 10
424.39999999999992
 20
448.20000999999968
 30
0.0
 11
434.39999999999998
 21
448.20000999999968
 31
0.0
  0
LINE
  5
3B6
  8
DATA
  6
CONTINUOUS
 62
     7
 10
735.15546999999981
 20
339.05000999999982
 30
0.0
 11
750.0
 21
339.55000999999982
 31
0.0
  0
LINE
  5
3B7
  8
DATA
  6
CONTINUOUS
 62
     7
 10
735.15546999999981
 20
326.55000999999982
 30
0.0
 11
743.51368999999988
 21
326.05000999999982
 31
0.0
  0
LINE
  5
3B8
  8
DATA
  6
CONTINUOUS
 62
     7
 10
735.15546999999981
 20
326.55000999999982
 30
0.0
 11
735.15546999999981
 21
339.05000999999982
 31
0.0
  0
LINE
  5
3B9
  8
DATA
  6
CONTINUOUS
 62
     7
 10
396.39999999999998
 20
307.40000999999978
 30
0.0
 11
396.39999999999998
 21
336.89999999999981
 31
0.0
  0
LINE
  5
3BA
  8
DATA
  6
CONTINUOUS
 62
     7
 10
392.39999999999998
 20
307.40000999999978
 30
0.0
 11
392.39999999999998
 21
336.89999999999981
 31
0.0
  0
LINE
  5
3BB
  8
DATA
  6
CONTINUOUS
 62
     7
 10
392.39999999999998
 20
336.89999999999981
 30
0.0
 11
396.39999999999998
 21
336.89999999999981
 31
0.0
  0
LINE
  5
3BC
  8
DATA
  6
CONTINUOUS
 62
     7
 10
392.39999999999998
 20
307.40000999999978
 30
0.0
 11
396.39999999999998
 21
307.40000999999978
 31
0.0
  0
LINE
  5
3BD
  8
DATA
  6
CONTINUOUS
 62
     7
 10
383.60001
 20
307.40000999999978
 30
0.0
 11
383.60001
 21
336.89999999999981
 31
0.0
  0
LINE
  5
3BE
  8
DATA
  6
CONTINUOUS
 62
     7
 10
379.60001
 20
307.40000999999978
 30
0.0
 11
379.60001
 21
336.89999999999981
 31
0.0
  0
LINE
  5
3BF
  8
DATA
  6
CONTINUOUS
 62
     7
 10
379.60001
 20
336.89999999999981
 30
0.0
 11
383.60001
 21
336.89999999999981
 31
0.0
  0
LINE
  5
3C0
  8
DATA
  6
CONTINUOUS
 62
     7
 10
379.60001
 20
307.40000999999978
 30
0.0
 11
383.60001
 21
307.40000999999978
 31
0.0
  0
LINE
  5
3C1
  8
DATA
  6
CONTINUOUS
 62
     7
 10
370.80000000000001
 20
307.40000999999978
 30
0.0
 11
370.80000000000001
 21
336.89999999999981
 31
0.0
  0
LINE
  5
3C2
  8
DATA
  6
CONTINUOUS
 62
     7
 10
366.80000000000001
 20
307.40000999999978
 30
0.0
 11
366.80000000000001
 21
336.89999999999981
 31
0.0
  0
LINE
  5
3C3
  8
DATA
  6
CONTINUOUS
 62
     7
 10
366.80000000000001
 20
336.89999999999981
 30
0.0
 11
370.80000000000001
 21
336.89999999999981
 31
0.0
  0
LINE
  5
3C4
  8
DATA
  6
CONTINUOUS
 62
     7
 10
366.80000000000001
 20
307.40000999999978
 30
0.0
 11
370.80000000000001
 21
307.40000999999978
 31
0.0
  0
LINE
  5
3C5
  8
DATA
  6
CONTINUOUS
 62
     7
 10
358.00001000000009
 20
307.40000999999978
 30
0.0
 11
358.00001000000009
 21
336.89999999999981
 31
0.0
  0
LINE
  5
3C6
  8
DATA
  6
CONTINUOUS
 62
     7
 10
354.00001000000009
 20
307.40000999999978
 30
0.0
 11
354.00001000000009
 21
336.89999999999981
 31
0.0
  0
LINE
  5
3C7
  8
DATA
  6
CONTINUOUS
 62
     7
 10
354.00001000000009
 20
336.89999999999981
 30
0.0
 11
358.00001000000009
 21
336.89999999999981
 31
0.0
  0
LINE
  5
3C8
  8
DATA
  6
CONTINUOUS
 62
     7
 10
354.00001000000009
 20
307.40000999999978
 30
0.0
 11
358.00001000000009
 21
307.40000999999978
 31
0.0
  0
LINE
  5
3C9
  8
DATA
  6
CONTINUOUS
 62
     7
 10
345.2000000000001
 20
307.40000999999978
 30
0.0
 11
345.2000000000001
 21
336.89999999999981
 31
0.0
  0
LINE
  5
3CA
  8
DATA
  6
CONTINUOUS
 62
     7
 10
341.20001000000002
 20
307.40000999999978
 30
0.0
 11
341.20001000000002
 21
336.89999999999981
 31
0.0
  0
LINE
  5
3CB
  8
DATA
  6
CONTINUOUS
 62
     7
 10
341.20001000000002
 20
336.89999999999981
 30
0.0
 11
345.2000000000001
 21
336.89999999999981
 31
0.0
  0
LINE
  5
3CC
  8
DATA
  6
CONTINUOUS
 62
     7
 10
341.20001000000002
 20
307.40000999999978
 30
0.0
 11
345.2000000000001
 21
307.40000999999978
 31
0.0
  0
LINE
  5
3CD
  8
DATA
  6
CONTINUOUS
 62
     7
 10
332.40001000000001
 20
307.40000999999978
 30
0.0
 11
332.40001000000001
 21
336.89999999999981
 31
0.0
  0
LINE
  5
3CE
  8
DATA
  6
CONTINUOUS
 62
     7
 10
328.40001000000001
 20
307.40000999999978
 30
0.0
 11
328.40001000000001
 21
336.89999999999981
 31
0.0
  0
LINE
  5
3CF
  8
DATA
  6
CONTINUOUS
 62
     7
 10
328.40001000000001
 20
336.89999999999981
 30
0.0
 11
332.40001000000001
 21
336.89999999999981
 31
0.0
  0
LINE
  5
3D0
  8
DATA
  6
CONTINUOUS
 62
     7
 10
328.40001000000001
 20
307.40000999999978
 30
0.0
 11
332.40001000000001
 21
307.40000999999978
 31
0.0
  0
LINE
  5
3D1
  8
DATA
  6
CONTINUOUS
 62
     7
 10
319.60001
 20
307.40000999999978
 30
0.0
 11
319.60001
 21
336.89999999999981
 31
0.0
  0
LINE
  5
3D2
  8
DATA
  6
CONTINUOUS
 62
     7
 10
315.60001
 20
307.40000999999978
 30
0.0
 11
315.60001
 21
336.89999999999981
 31
0.0
  0
LINE
  5
3D3
  8
DATA
  6
CONTINUOUS
 62
     7
 10
315.60001
 20
336.89999999999981
 30
0.0
 11
319.60001
 21
336.89999999999981
 31
0.0
  0
LINE
  5
3D4
  8
DATA
  6
CONTINUOUS
 62
     7
 10
315.60001
 20
307.40000999999978
 30
0.0
 11
319.60001
 21
307.40000999999978
 31
0.0
  0
LINE
  5
3D5
  8
DATA
  6
CONTINUOUS
 62
     7
 10
306.80000000000001
 20
307.40000999999978
 30
0.0
 11
306.80000000000001
 21
336.89999999999981
 31
0.0
  0
LINE
  5
3D6
  8
DATA
  6
CONTINUOUS
 62
     7
 10
302.80000000000001
 20
307.40000999999978
 30
0.0
 11
302.80000000000001
 21
336.89999999999981
 31
0.0
  0
LINE
  5
3D7
  8
DATA
  6
CONTINUOUS
 62
     7
 10
302.80000000000001
 20
336.89999999999981
 30
0.0
 11
306.80000000000001
 21
336.89999999999981
 31
0.0
  0
LINE
  5
3D8
  8
DATA
  6
CONTINUOUS
 62
     7
 10
302.80000000000001
 20
307.40000999999978
 30
0.0
 11
306.80000000000001
 21
307.40000999999978
 31
0.0
  0
LINE
  5
3D9
  8
DATA
  6
CONTINUOUS
 62
     7
 10
294.0
 20
307.40000999999978
 30
0.0
 11
294.0
 21
336.89999999999981
 31
0.0
  0
LINE
  5
3DA
  8
DATA
  6
CONTINUOUS
 62
     7
 10
290.0
 20
307.40000999999978
 30
0.0
 11
290.0
 21
336.89999999999981
 31
0.0
  0
LINE
  5
3DB
  8
DATA
  6
CONTINUOUS
 62
     7
 10
290.0
 20
336.89999999999981
 30
0.0
 11
294.0
 21
336.89999999999981
 31
0.0
  0
LINE
  5
3DC
  8
DATA
  6
CONTINUOUS
 62
     7
 10
290.0
 20
307.40000999999978
 30
0.0
 11
294.0
 21
307.40000999999978
 31
0.0
  0
LINE
  5
3DD
  8
DATA
  6
CONTINUOUS
 62
     7
 10
281.20001000000002
 20
307.40000999999978
 30
0.0
 11
281.20001000000002
 21
336.89999999999981
 31
0.0
  0
LINE
  5
3DE
  8
DATA
  6
CONTINUOUS
 62
     7
 10
277.20001000000002
 20
307.40000999999978
 30
0.0
 11
277.20001000000002
 21
336.89999999999981
 31
0.0
  0
LINE
  5
3DF
  8
DATA
  6
CONTINUOUS
 62
     7
 10
277.20001000000002
 20
336.89999999999981
 30
0.0
 11
281.20001000000002
 21
336.89999999999981
 31
0.0
  0
LINE
  5
3E0
  8
DATA
  6
CONTINUOUS
 62
     7
 10
277.20001000000002
 20
307.40000999999978
 30
0.0
 11
281.20001000000002
 21
307.40000999999978
 31
0.0
  0
LINE
  5
3E1
  8
DATA
  6
CONTINUOUS
 62
     7
 10
268.40001000000001
 20
307.40000999999978
 30
0.0
 11
268.40001000000001
 21
336.89999999999981
 31
0.0
  0
LINE
  5
3E2
  8
DATA
  6
CONTINUOUS
 62
     7
 10
264.40000000000009
 20
307.40000999999978
 30
0.0
 11
264.40000000000009
 21
336.89999999999981
 31
0.0
  0
LINE
  5
3E3
  8
DATA
  6
CONTINUOUS
 62
     7
 10
264.40000000000009
 20
336.89999999999981
 30
0.0
 11
268.40001000000001
 21
336.89999999999981
 31
0.0
  0
LINE
  5
3E4
  8
DATA
  6
CONTINUOUS
 62
     7
 10
264.40000000000009
 20
307.40000999999978
 30
0.0
 11
268.40001000000001
 21
307.40000999999978
 31
0.0
  0
LINE
  5
3E5
  8
DATA
  6
CONTINUOUS
 62
     7
 10
467.07515000000001
 20
912.49999999999955
 30
0.0
 11
487.02499999999992
 21
912.49999999999955
 31
0.0
  0
LINE
  5
3E6
  8
DATA
  6
CONTINUOUS
 62
     7
 10
231.45005
 20
317.05427999999978
 30
0.0
 11
221.54380999999881
 21
317.05427999999978
 31
0.0
  0
LINE
  5
3E7
  8
DATA
  6
CONTINUOUS
 62
     7
 10
661.02458999999988
 20
316.6701999999998
 30
0.0
 11
651.97538999999995
 21
316.6701999999998
 31
0.0
  0
TEXT
  5
3E8
  8
DATA
 62
     7
 10
834.60657729496552
 20
149.50398542035381
 30
0.0
 40
11.401888020833329
  1
シングルチャンネル・ダイバーシティ受信機
 41
0.8
 11
834.60657729496552
 21
160.90587344118711
 31
0.0
 73
     3
  0
LINE
  5
3E9
  8
DATA
  6
CONTINUOUS
 62
     7
 10
222.94683000000001
 20
915.99571999999966
 30
0.0
 11
221.47505624402129
 21
917.12504624402834
 31
0.0
  0
LINE
  5
3EA
  8
DATA
  6
CONTINUOUS
 62
     7
 10
222.00001
 20
916.64997999999957
 30
0.0
 11
222.00001
 21
916.72223701392761
 31
0.0
  0
LINE
  5
3EB
  8
DATA
  6
CONTINUOUS
 62
     7
 10
661.52493000000004
 20
917.12504999999965
 30
0.0
 11
660.99999000000003
 21
916.64997999999957
 31
0.0
  0
TEXT
  5
3EC
  8
DATA
 62
     7
 10
120.0000000000001
 20
85.428009999999489
 30
0.0
 40
9.7730468749999986
  1
仕様および外観は予告なく変更されることがありますので、ご了承ください。
 41
0.8
 11
120.0000000000001
 21
95.201056874999466
 31
0.0
 73
     3
  0
ENDSEC
  0
EOF
