  0
SECTION
  2
HEADER
  9
$ACADVER
  1
AC1009
  9
$INSBASE
 10
0.0
 20
0.0
 30
0.0
  9
$EXTMIN
 10
-71.76097548933717
 20
-111.71198723730249
 30
-0.0015258207003583
  9
$EXTMAX
 10
288.2609771657178
 20
423.54812151340587
 30
0.0000000349246037
  9
$LIMMIN
 10
0.0
 20
0.0
  9
$LIMMAX
 10
0.0
 20
0.0
  9
$ORTHOMODE
 70
     0
  9
$REGENMODE
 70
     1
  9
$FILLMODE
 70
     1
  9
$QTEXTMODE
 70
     0
  9
$MIRRTEXT
 70
     1
  9
$DRAGMODE
 70
     2
  9
$LTSCALE
 40
10.16
  9
$OSMODE
 70
   231
  9
$ATTMODE
 70
     1
  9
$TEXTSIZE
 40
0.0
  9
$TRACEWID
 40
1.0
  9
$TEXTSTYLE
  7
STANDARD
  9
$CLAYER
  8
DATA
  9
$CELTYPE
  6
BYLAYER
  9
$CECOLOR
 62
   256
  9
$DIMSCALE
 40
1.0
  9
$DIMASZ
 40
0.18
  9
$DIMEXO
 40
0.0625
  9
$DIMDLI
 40
0.38
  9
$DIMRND
 40
0.0
  9
$DIMDLE
 40
0.0
  9
$DIMEXE
 40
0.18
  9
$DIMTP
 40
0.0
  9
$DIMTM
 40
0.0
  9
$DIMTXT
 40
0.18
  9
$DIMCEN
 40
0.09
  9
$DIMTSZ
 40
0.0
  9
$DIMTOL
 70
     0
  9
$DIMLIM
 70
     0
  9
$DIMTIH
 70
     1
  9
$DIMTOH
 70
     1
  9
$DIMSE1
 70
     0
  9
$DIMSE2
 70
     0
  9
$DIMTAD
 70
     0
  9
$DIMZIN
 70
     0
  9
$DIMBLK
  1

  9
$DIMASO
 70
     1
  9
$DIMSHO
 70
     1
  9
$DIMPOST
  1

  9
$DIMAPOST
  1

  9
$DIMALT
 70
     0
  9
$DIMALTD
 70
     2
  9
$DIMALTF
 40
25.399999999999999
  9
$DIMLFAC
 40
1.0
  9
$DIMTOFL
 70
     0
  9
$DIMTVP
 40
0.0
  9
$DIMTIX
 70
     0
  9
$DIMSOXD
 70
     0
  9
$DIMSAH
 70
     0
  9
$DIMBLK1
  1

  9
$DIMBLK2
  1

  9
$DIMSTYLE
  2
STANDARD
  9
$DIMCLRD
 70
     0
  9
$DIMCLRE
 70
     0
  9
$DIMCLRT
 70
     0
  9
$DIMTFAC
 40
1.0
  9
$DIMGAP
 40
0.09
  9
$LUNITS
 70
     2
  9
$LUPREC
 70
     4
  9
$SKETCHINC
 40
0.1
  9
$FILLETRAD
 40
0.0
  9
$AUNITS
 70
     0
  9
$AUPREC
 70
     0
  9
$MENU
  1
acad
  9
$ELEVATION
 40
0.0
  9
$PELEVATION
 40
0.0
  9
$THICKNESS
 40
0.0
  9
$LIMCHECK
 70
     0
  9
$BLIPMODE
 70
     0
  9
$CHAMFERA
 40
0.0
  9
$CHAMFERB
 40
0.0
  9
$SKPOLY
 70
     0
  9
$TDCREATE
 40
2454952.7697916669
  9
$TDUPDATE
 40
2454952.7824713541
  9
$TDINDWG
 40
0.0004270023
  9
$TDUSRTIMER
 40
0.0004266435
  9
$USRTIMER
 70
     1
  9
$ANGBASE
 50
0.0
  9
$ANGDIR
 70
     0
  9
$PDMODE
 70
     1
  9
$PDSIZE
 40
-2.0
  9
$PLINEWID
 40
0.0
  9
$COORDS
 70
     1
  9
$SPLFRAME
 70
     0
  9
$SPLINETYPE
 70
     6
  9
$SPLINESEGS
 70
     8
  9
$ATTDIA
 70
     0
  9
$ATTREQ
 70
     1
  9
$HANDLING
 70
     1
  9
$HANDSEED
  5
2CA
  9
$SURFTAB1
 70
     6
  9
$SURFTAB2
 70
     6
  9
$SURFTYPE
 70
     6
  9
$SURFU
 70
     6
  9
$SURFV
 70
     6
  9
$UCSNAME
  2

  9
$UCSORG
 10
0.0
 20
0.0
 30
0.0
  9
$UCSXDIR
 10
1.0
 20
0.0
 30
0.0
  9
$UCSYDIR
 10
0.0
 20
1.0
 30
0.0
  9
$PUCSNAME
  2

  9
$PUCSORG
 10
0.0
 20
0.0
 30
0.0
  9
$PUCSXDIR
 10
1.0
 20
0.0
 30
0.0
  9
$PUCSYDIR
 10
0.0
 20
1.0
 30
0.0
  9
$USERI1
 70
     0
  9
$USERI2
 70
     0
  9
$USERI3
 70
     0
  9
$USERI4
 70
     0
  9
$USERI5
 70
     0
  9
$USERR1
 40
0.0
  9
$USERR2
 40
0.0
  9
$USERR3
 40
0.0
  9
$USERR4
 40
0.0
  9
$USERR5
 40
0.0
  9
$WORLDVIEW
 70
     1
  9
$SHADEDGE
 70
     3
  9
$SHADEDIF
 70
    70
  9
$TILEMODE
 70
     1
  9
$MAXACTVP
 70
    64
  9
$PLIMCHECK
 70
     0
  9
$PEXTMIN
 10
1.0000000000000000E+020
 20
1.0000000000000000E+020
 30
1.0000000000000000E+020
  9
$PEXTMAX
 10
-1.0000000000000000E+020
 20
-1.0000000000000000E+020
 30
-1.0000000000000000E+020
  9
$PLIMMIN
 10
0.0
 20
0.0
  9
$PLIMMAX
 10
12.0
 20
9.0
  9
$UNITMODE
 70
     0
  9
$VISRETAIN
 70
     0
  9
$PLINEGEN
 70
     1
  9
$PSLTSCALE
 70
     0
  0
ENDSEC
  0
SECTION
  2
TABLES
  0
TABLE
  2
VPORT
 70
     1
  0
VPORT
  2
*ACTIVE
 70
     0
 10
0.0
 20
0.0
 11
1.0
 21
1.0
 12
108.2500008381903
 22
155.9180671380517
 13
0.0
 23
0.0
 14
1.0
 24
1.0
 15
0.0
 25
0.0
 16
0.0
 26
0.0
 36
1.0
 17
0.0
 27
0.0
 37
0.0
 40
539.75180197099405
 41
1.6596638655462179
 42
50.0
 43
0.0
 44
0.0
 50
0.0
 51
0.0
 71
     0
 72
  2000
 73
     1
 74
     1
 75
     0
 76
     0
 77
     0
 78
     0
  0
ENDTAB
  0
TABLE
  2
LTYPE
 70
    11
  0
LTYPE
  2
CONTINUOUS
 70
     0
  3
Solid line
 72
    65
 73
     0
 40
0.0
  0
ENDTAB
  0
TABLE
  2
LAYER
 70
     5
  0
LAYER
  2
0
 70
     0
 62
     7
  6
CONTINUOUS
  0
LAYER
  2
DATA
 70
     0
 62
     7
  6
CONTINUOUS
  0
LAYER
  2
HIBINO-BASE
 70
     0
 62
     7
  6
CONTINUOUS
  0
LAYER
  2
SPEC
 70
     0
 62
     7
  6
CONTINUOUS
  0
LAYER
  2
DIMNSIONS
 70
     0
 62
     7
  6
CONTINUOUS
  0
ENDTAB
  0
TABLE
  2
STYLE
 70
     3
  0
STYLE
  2
STANDARD
 70
     0
 40
0.0
 41
1.0
 50
0.0
 71
     0
 42
0.0
  3
txt
  4
BIGFONT.SHX
  0
ENDTAB
  0
TABLE
  2
VIEW
 70
     0
  0
ENDTAB
  0
TABLE
  2
UCS
 70
     0
  0
ENDTAB
  0
TABLE
  2
APPID
 70
     3
  0
APPID
  2
ACAD
 70
     0
  0
APPID
  2
ACADANNOTATIVE
 70
     0
  0
APPID
  2
ACAD_MLEADERVER
 70
     0
  0
ENDTAB
  0
TABLE
  2
DIMSTYLE
 70
     2
  0
DIMSTYLE
  2
STANDARD
 70
     0
  3

  4

  5

  6

  7

 40
1.0
 41
0.18
 42
0.0625
 43
0.38
 44
0.18
 45
0.0
 46
0.0
 47
0.0
 48
0.0
140
0.18
141
0.09
142
0.0
143
25.399999999999999
144
1.0
145
0.0
146
1.0
147
0.09
 71
     0
 72
     0
 73
     1
 74
     1
 75
     0
 76
     0
 77
     0
 78
     0
170
     0
171
     2
172
     0
173
     0
174
     0
175
     0
176
     0
177
     0
178
     0
  0
ENDTAB
  0
ENDSEC
  0
SECTION
  2
BLOCKS
  0
BLOCK
  8
0
  2
$MODEL_SPACE
 70
     0
 10
0.0
 20
0.0
 30
0.0
  3
$MODEL_SPACE
  1

  0
ENDBLK
  5
26B
  8
0
  0
BLOCK
 67
     1
  8
0
  2
$PAPER_SPACE
 70
     0
 10
0.0
 20
0.0
 30
0.0
  3
$PAPER_SPACE
  1

  0
ENDBLK
  5
267
 67
     1
  8
0
  0
ENDSEC
  0
SECTION
  2
ENTITIES
  0
LINE
  5
2C
  8
HIBINO-BASE
  6
CONTINUOUS
 62
     7
 10
-71.749990000000025
 20
423.53181999999998
 30
0.0
 11
288.24999000000003
 21
423.53181999999998
 31
0.0
  0
LINE
  5
2D
  8
HIBINO-BASE
  6
CONTINUOUS
 62
     7
 10
288.24999000000003
 20
-96.468169999999986
 30
0.0
 11
-71.749990000000025
 21
-96.468169999999986
 31
0.0
  0
LINE
  5
2E
  8
HIBINO-BASE
  6
CONTINUOUS
 62
     7
 10
-71.749990000000025
 20
-96.468169999999986
 30
0.0
 11
-71.749990000000025
 21
423.53181999999998
 31
0.0
  0
TEXT
  5
2F
  8
HIBINO-BASE
 62
     7
 10
-57.381989999999981
 20
-109.285517
 30
0.0
 40
7.200080664062499
  1
Hibino Corporation
 41
0.7
 11
-57.381989999999981
 21
-102.0854363359375
 31
0.0
 73
     3
  0
LINE
  5
30
  8
HIBINO-BASE
  6
CONTINUOUS
 62
     7
 10
288.24999000000003
 20
423.53181999999998
 30
0.0
 11
288.24999000000003
 21
-96.468169999999986
 31
0.0
  0
LINE
  5
31
  8
HIBINO-BASE
  6
CONTINUOUS
 62
     7
 10
108.25
 20
-51.46817999999999
 30
0.0
 11
288.24999000000003
 21
-51.46817999999999
 31
0.0
  0
LINE
  5
32
  8
HIBINO-BASE
  6
CONTINUOUS
 62
     7
 10
108.25
 20
-96.468169999999986
 30
0.0
 11
108.25
 21
-51.46817999999999
 31
0.0
  0
TEXT
  5
33
  8
HIBINO-BASE
 62
     7
 10
110.04998999999989
 20
-56.868186399999999
 30
0.0
 40
3.6000518750000001
  1
NOTE
 41
0.7
 11
110.04998999999989
 21
-53.268134525000001
 31
0.0
 73
     3
  0
LINE
  5
34
  8
HIBINO-BASE
  6
CONTINUOUS
 62
     7
 10
178.25
 20
-96.468169999999986
 30
0.0
 11
178.25
 21
-51.46817999999999
 31
0.0
  0
TEXT
  5
35
  8
HIBINO-BASE
 62
     7
 10
180.0499999999999
 20
-56.868186399999999
 30
0.0
 40
3.6000518750000001
  1
TITLE
 41
0.7
 11
180.0499999999999
 21
-53.268134525000001
 31
0.0
 73
     3
  0
TEXT
  5
36
  8
HIBINO-BASE
 62
     7
 10
208.38677000000001
 20
-109.285517
 30
0.0
 40
7.200080664062499
  1
ヒビノ株式会社
 41
0.7
 11
208.38677000000001
 21
-102.0854363359375
 31
0.0
 73
     3
  0
LINE
  5
37
  8
HIBINO-BASE
  6
CONTINUOUS
 62
     7
 10
108.25
 20
-76.468179999999975
 30
0.0
 11
288.24999000000003
 21
-76.468179999999975
 31
0.0
  0
TEXT
  5
38
  8
HIBINO-BASE
 62
     7
 10
205.05000000000001
 20
-81.755536399999983
 30
0.0
 40
3.6000518750000001
  1
DRAWN
 41
0.7
 11
205.05000000000001
 21
-78.155484524999977
 31
0.0
 73
     3
  0
TEXT
  5
39
  8
HIBINO-BASE
 62
     7
 10
155.0499999999999
 20
-81.755536399999983
 30
0.0
 40
3.6000518750000001
  1
DATE
 41
0.7
 11
155.0499999999999
 21
-78.155484524999977
 31
0.0
 73
     3
  0
TEXT
  5
3A
  8
HIBINO-BASE
 62
     7
 10
110.44999
 20
-81.707073800000003
 30
0.0
 40
3.257679726562499
  1
図面サイズ
 41
0.7
 11
110.44999
 21
-78.449394073437503
 31
0.0
 73
     3
  0
TEXT
  5
3B
  8
HIBINO-BASE
 62
     7
 10
135.04998999999989
 20
-81.755536399999983
 30
0.0
 40
3.6000518750000001
  1
SCALE
 41
0.7
 11
135.04998999999989
 21
-78.155484524999977
 31
0.0
 73
     3
  0
TEXT
  5
3C
  8
HIBINO-BASE
 62
     7
 10
180.0499999999999
 20
-81.755536399999983
 30
0.0
 40
3.6000518750000001
  1
DESIGN
 41
0.7
 11
180.0499999999999
 21
-78.155484524999977
 31
0.0
 73
     3
  0
TEXT
  5
3D
  8
HIBINO-BASE
 62
     7
 10
255.04999000000001
 20
-81.755536399999983
 30
0.0
 40
3.6000518750000001
  1
DRAWING NO.
 41
0.7
 11
255.04999000000001
 21
-78.155484524999977
 31
0.0
 73
     3
  0
TEXT
  5
3E
  8
HIBINO-BASE
 62
     7
 10
230.04999000000001
 20
-81.755536399999983
 30
0.0
 40
3.6000518750000001
  1
CHECK
 41
0.7
 11
230.04999000000001
 21
-78.155484524999977
 31
0.0
 73
     3
  0
LINE
  5
3F
  8
HIBINO-BASE
  6
CONTINUOUS
 62
     7
 10
136.99998999999991
 20
-93.968180000000004
 30
0.0
 11
144.5
 21
-86.468179999999975
 31
0.0
  0
TEXT
  5
40
  8
HIBINO-BASE
 62
     7
 10
135.74998999999991
 20
-89.899608399999934
 30
0.0
 40
4.3435729687500002
  1
1
 41
0.7
 11
135.74998999999991
 21
-85.556035431249953
 31
0.0
 73
     3
  0
LINE
  5
41
  8
HIBINO-BASE
  6
CONTINUOUS
 62
     7
 10
133.24998999999991
 20
-96.468169999999986
 30
0.0
 11
133.24998999999991
 21
-76.468179999999975
 31
0.0
  0
LINE
  5
42
  8
HIBINO-BASE
  6
CONTINUOUS
 62
     7
 10
153.24998999999991
 20
-96.468169999999986
 30
0.0
 11
153.24998999999991
 21
-76.468179999999975
 31
0.0
  0
LINE
  5
43
  8
HIBINO-BASE
  6
CONTINUOUS
 62
     7
 10
203.24999
 20
-76.468179999999975
 30
0.0
 11
203.24999
 21
-96.468169999999986
 31
0.0
  0
LINE
  5
44
  8
HIBINO-BASE
  6
CONTINUOUS
 62
     7
 10
253.25
 20
-76.468179999999975
 30
0.0
 11
253.25
 21
-96.468169999999986
 31
0.0
  0
LINE
  5
45
  8
HIBINO-BASE
  6
CONTINUOUS
 62
     7
 10
228.24999
 20
-96.468169999999986
 30
0.0
 11
228.24999
 21
-76.468179999999975
 31
0.0
  0
TEXT
  5
46
  8
HIBINO-BASE
 62
     7
 10
116.07178
 20
-91.471248999999943
 30
0.0
 40
6.5153517578124989
  1
A4
 41
0.7
 11
116.07178
 21
-84.955897242187433
 31
0.0
 73
     3
  0
TEXT
  5
47
  8
HIBINO-BASE
 62
     7
 10
154.96307999999999
 20
-91.123496399999965
 30
0.0
 40
3.6000518750000001
  1
'06.2.
 41
0.7
 11
154.96307999999999
 21
-87.523444524999945
 31
0.0
 73
     3
  0
TEXT
  5
48
  8
HIBINO-BASE
 62
     7
 10
143.25
 20
-93.649608399999963
 30
0.0
 40
4.3435729687500002
  1
2
 41
0.7
 11
143.25
 21
-89.306035431249967
 31
0.0
 73
     3
  0
TEXT
  5
49
  8
HIBINO-BASE
 62
     7
 10
206.26161002206919
 20
-90.740881666666667
 30
0.0
 40
3.2576822916666659
  1
N.Sasaki
 41
0.7
 11
206.26161002206919
 21
-87.483199374999984
 31
0.0
 73
     3
  0
LINE
  5
4A
  8
SPEC
  6
CONTINUOUS
 62
     7
 10
-56.749990000000011
 20
403.53181999999993
 30
0.0
 11
190.0
 21
403.53181999999993
 31
0.0
  0
LINE
  5
4B
  8
SPEC
  6
CONTINUOUS
 62
     7
 10
-56.749990000000011
 20
396.03181999999998
 30
0.0
 11
190.0
 21
396.03181999999998
 31
0.0
  0
LINE
  5
4C
  8
SPEC
  6
CONTINUOUS
 62
     7
 10
-56.749990000000011
 20
351.03181999999998
 30
0.0
 11
190.0
 21
351.03181999999998
 31
0.0
  0
LINE
  5
4D
  8
SPEC
  6
CONTINUOUS
 62
     7
 10
-56.749990000000011
 20
358.53181999999998
 30
0.0
 11
190.0
 21
358.53181999999998
 31
0.0
  0
LINE
  5
4E
  8
SPEC
  6
CONTINUOUS
 62
     7
 10
-56.749990000000011
 20
366.03181999999998
 30
0.0
 11
190.0
 21
366.03181999999998
 31
0.0
  0
LINE
  5
4F
  8
SPEC
  6
CONTINUOUS
 62
     7
 10
-56.749990000000011
 20
343.53181999999998
 30
0.0
 11
190.0
 21
343.53181999999998
 31
0.0
  0
LINE
  5
50
  8
SPEC
  6
CONTINUOUS
 62
     7
 10
-56.749990000000011
 20
328.53181999999998
 30
0.0
 11
190.0
 21
328.53181999999998
 31
0.0
  0
LINE
  5
51
  8
SPEC
  6
CONTINUOUS
 62
     7
 10
-56.749990000000011
 20
336.03181999999998
 30
0.0
 11
190.0
 21
336.03181999999998
 31
0.0
  0
LINE
  5
52
  8
SPEC
  6
CONTINUOUS
 62
     7
 10
-56.749990000000011
 20
313.53181999999998
 30
0.0
 11
183.25001
 21
313.53181999999998
 31
0.0
  0
LINE
  5
53
  8
SPEC
  6
CONTINUOUS
 62
     7
 10
-56.749990000000011
 20
373.53181999999998
 30
0.0
 11
190.0
 21
373.53181999999998
 31
0.0
  0
TEXT
  5
54
  8
SPEC
 62
     7
 10
11.75001
 20
397.60764555555551
 30
0.0
 40
3.8006293402777769
  1
F8W
 41
0.7
 11
11.75001
 21
401.40827489583319
 31
0.0
 73
     3
  0
LINE
  5
55
  8
SPEC
  6
CONTINUOUS
 62
     7
 10
-56.749990000000011
 20
403.53181999999993
 30
0.0
 11
-56.749990000000011
 21
283.53181999999998
 31
0.0
  0
TEXT
  5
56
  8
SPEC
 62
     7
 10
-54.249990000000011
 20
406.31835000000001
 30
0.0
 40
4.8865234375000002
  1
仕様
 41
0.7
 11
-54.249990000000011
 21
411.20487343749988
 31
0.0
 73
     3
  0
LINE
  5
57
  8
SPEC
  6
CONTINUOUS
 62
     7
 10
9.9500099999999936
 20
403.53181999999993
 30
0.0
 11
9.9500099999999936
 21
283.53181999999998
 31
0.0
  0
LINE
  5
58
  8
SPEC
  6
CONTINUOUS
 62
     7
 10
190.0
 20
403.53181999999993
 30
0.0
 11
190.0
 21
283.53181999999998
 31
0.0
  0
TEXT
  5
59
  8
SPEC
 62
     7
 10
11.75001
 20
322.60765555555548
 30
0.0
 40
3.8006293402777769
  1
+10dBu(パッド無し)、+20dBu(パッド使用)
 41
0.7
 11
11.75001
 21
326.40828489583339
 31
0.0
 73
     3
  0
TEXT
  5
5A
  8
SPEC
 62
     7
 10
-54.949989999999993
 20
352.60765555555548
 30
0.0
 40
3.8006293402777769
  1
アンテナ形式
 41
0.7
 11
-54.949989999999993
 21
356.40828489583328
 31
0.0
 73
     3
  0
TEXT
  5
5B
  8
SPEC
 62
     7
 10
-54.949989999999993
 20
397.60764555555551
 30
0.0
 40
3.8006293402777769
  1
電波型式
 41
0.7
 11
-54.949989999999993
 21
401.40827489583319
 31
0.0
 73
     3
  0
TEXT
  5
5C
  8
SPEC
 62
     7
 10
-54.949989999999993
 20
337.6076555555556
 30
0.0
 40
3.8006293402777769
  1
トーン信号周波数
 41
0.7
 11
-54.949989999999993
 21
341.40828489583328
 31
0.0
 73
     3
  0
TEXT
  5
5D
  8
SPEC
 62
     7
 10
-54.949989999999993
 20
330.10765555555548
 30
0.0
 40
3.8006293402777769
  1
周波数特性
 41
0.7
 11
-54.949989999999993
 21
333.90828489583328
 31
0.0
 73
     3
  0
TEXT
  5
5E
  8
SPEC
 62
     7
 10
-54.949989999999993
 20
360.10765555555548
 30
0.0
 40
3.8006293402777769
  1
空中線電力
 41
0.7
 11
-54.949989999999993
 21
363.90828489583328
 31
0.0
 73
     3
  0
TEXT
  5
5F
  8
SPEC
 62
     7
 10
-54.949989999999993
 20
345.10765555555548
 30
0.0
 40
3.8006293402777769
  1
到達距離
 41
0.7
 11
-54.949989999999993
 21
348.90828489583328
 31
0.0
 73
     3
  0
TEXT
  5
60
  8
SPEC
 62
     7
 10
-54.949989999999993
 20
390.10765555555548
 30
0.0
 40
3.8006293402777769
  1
送信周波数
 41
0.7
 11
-54.949989999999993
 21
393.90828489583328
 31
0.0
 73
     3
  0
TEXT
  5
61
  8
SPEC
 62
     7
 10
-54.949989999999993
 20
367.60765555555548
 30
0.0
 40
3.8006293402777769
  1
発振方式
 41
0.7
 11
-54.949989999999993
 21
371.40828489583328
 31
0.0
 73
     3
  0
TEXT
  5
62
  8
SPEC
 62
     7
 10
-54.949989999999993
 20
322.60765555555548
 30
0.0
 40
3.8006293402777769
  1
最大入力レベル
 41
0.7
 11
-54.949989999999993
 21
326.40828489583339
 31
0.0
 73
     3
  0
TEXT
  5
63
  8
SPEC
 62
     7
 10
11.75001
 20
352.60765555555548
 30
0.0
 40
3.8006293402777769
  1
1/4波長ホイップ、50\U+03A9
 41
0.7
 11
11.75001
 21
356.40828489583328
 31
0.0
 73
     3
  0
TEXT
  5
64
  8
SPEC
 62
     7
 10
11.75001
 20
337.6076555555556
 30
0.0
 40
3.8006293402777769
  1
32.768kHz
 41
0.7
 11
11.75001
 21
341.40828489583328
 31
0.0
 73
     3
  0
TEXT
  5
65
  8
SPEC
 62
     7
 10
11.75001
 20
330.10765555555548
 30
0.0
 40
3.8006293402777769
  1
40Hz～15kHz \U+00B11dB（システム全体の帯域幅はマイクヘッドにより変動）
 41
0.7
 11
11.75001
 21
333.90828489583328
 31
0.0
 73
     3
  0
TEXT
  5
66
  8
SPEC
 62
     7
 10
11.75001
 20
360.10765555555548
 30
0.0
 40
3.8006293402777769
  1
10mW
 41
0.7
 11
11.75001
 21
363.90828489583328
 31
0.0
 73
     3
  0
TEXT
  5
67
  8
SPEC
 62
     7
 10
11.75001
 20
345.10765555555548
 30
0.0
 40
3.8006293402777769
  1
約100m(標準環境における最大値)
 41
0.7
 11
11.75001
 21
348.90828489583328
 31
0.0
 73
     3
  0
TEXT
  5
68
  8
SPEC
 62
     7
 10
11.75001
 20
367.60765555555548
 30
0.0
 40
3.8006293402777769
  1
水晶制御PLLシンセサイザー方式
 41
0.7
 11
11.75001
 21
371.40828489583328
 31
0.0
 73
     3
  0
TEXT
  5
69
  8
SPEC
 62
     7
 10
11.75001
 20
390.10765555555548
 30
0.0
 40
3.8006293402777769
  1
UR1-JBX:B型 (806～810MHz)30チャンネルのうち任意の1チャンネル
 41
0.7
 11
11.75001
 21
393.90828489583328
 31
0.0
 73
     3
  0
LINE
  5
6A
  8
SPEC
  6
CONTINUOUS
 62
     7
 10
-56.749990000000011
 20
313.53181999999998
 30
0.0
 11
190.0
 21
313.53181999999998
 31
0.0
  0
LINE
  5
6B
  8
SPEC
  6
CONTINUOUS
 62
     7
 10
-56.749990000000011
 20
306.03181999999998
 30
0.0
 11
183.25001
 21
306.03181999999998
 31
0.0
  0
TEXT
  5
6C
  8
SPEC
 62
     7
 10
11.75001
 20
307.60765555555548
 30
0.0
 40
3.8006293402777769
  1
Switchcraft TA4M
 41
0.7
 11
11.75001
 21
311.40828489583328
 31
0.0
 73
     3
  0
TEXT
  5
6D
  8
SPEC
 62
     7
 10
-54.949989999999993
 20
307.60765555555548
 30
0.0
 40
3.8006293402777769
  1
入力コネクタ 
 41
0.7
 11
-54.949989999999993
 21
311.40828489583328
 31
0.0
 73
     3
  0
LINE
  5
6E
  8
SPEC
  6
CONTINUOUS
 62
     7
 10
-56.749990000000011
 20
306.03181999999998
 30
0.0
 11
190.0
 21
306.03181999999998
 31
0.0
  0
LINE
  5
6F
  8
SPEC
  6
CONTINUOUS
 62
     7
 10
-56.749990000000011
 20
298.53181999999998
 30
0.0
 11
183.25001
 21
298.53181999999998
 31
0.0
  0
TEXT
  5
70
  8
SPEC
 62
     7
 10
11.75001
 20
300.1076555555556
 30
0.0
 40
3.8006293402777769
  1
単3形アルカリ乾電池\U+00D72
 41
0.7
 11
11.75001
 21
303.90828489583328
 31
0.0
 73
     3
  0
TEXT
  5
71
  8
SPEC
 62
     7
 10
-54.949989999999993
 20
300.1076555555556
 30
0.0
 40
3.8006293402777769
  1
電源
 41
0.7
 11
-54.949989999999993
 21
303.90828489583328
 31
0.0
 73
     3
  0
LINE
  5
72
  8
SPEC
  6
CONTINUOUS
 62
     7
 10
-56.749990000000011
 20
298.53181999999998
 30
0.0
 11
190.0
 21
298.53181999999998
 31
0.0
  0
LINE
  5
73
  8
SPEC
  6
CONTINUOUS
 62
     7
 10
-56.749990000000011
 20
291.03181999999998
 30
0.0
 11
183.25001
 21
291.03181999999998
 31
0.0
  0
TEXT
  5
74
  8
SPEC
 62
     7
 10
11.75001
 20
292.60765555555548
 30
0.0
 40
3.8006293402777769
  1
61\U+00D798\U+00D717mm(アンテナ・クリップ・突起部除く)
 41
0.7
 11
11.75001
 21
296.40828489583328
 31
0.0
 73
     3
  0
TEXT
  5
75
  8
SPEC
 62
     7
 10
-54.949989999999993
 20
292.60765555555548
 30
0.0
 40
3.8006293402777769
  1
寸法(W\U+00D7H\U+00D7D)
 41
0.7
 11
-54.949989999999993
 21
296.40828489583328
 31
0.0
 73
     3
  0
LINE
  5
76
  8
SPEC
  6
CONTINUOUS
 62
     7
 10
-56.749990000000011
 20
291.03181999999998
 30
0.0
 11
190.0
 21
291.03181999999998
 31
0.0
  0
LINE
  5
77
  8
SPEC
  6
CONTINUOUS
 62
     7
 10
-56.749990000000011
 20
283.53181999999998
 30
0.0
 11
183.25001
 21
283.53181999999998
 31
0.0
  0
TEXT
  5
78
  8
SPEC
 62
     7
 10
11.75001
 20
285.10765555555548
 30
0.0
 40
3.8006293402777769
  1
約97g(乾電池除く)
 41
0.7
 11
11.75001
 21
288.90828489583339
 31
0.0
 73
     3
  0
TEXT
  5
79
  8
SPEC
 62
     7
 10
-54.949989999999993
 20
285.10765555555548
 30
0.0
 40
3.8006293402777769
  1
質量
 41
0.7
 11
-54.949989999999993
 21
288.90828489583339
 31
0.0
 73
     3
  0
LINE
  5
7A
  8
SPEC
  6
CONTINUOUS
 62
     7
 10
-56.749990000000011
 20
283.53181999999998
 30
0.0
 11
190.0
 21
283.53181999999998
 31
0.0
  0
TEXT
  5
7B
  8
SPEC
 62
     7
 10
11.75001
 20
315.10765555555548
 30
0.0
 40
3.8006293402777769
  1
-20～+35dB
 41
0.7
 11
11.75001
 21
318.90828489583328
 31
0.0
 73
     3
  0
TEXT
  5
7C
  8
SPEC
 62
     7
 10
-54.949989999999993
 20
315.10765555555548
 30
0.0
 40
3.8006293402777769
  1
ゲイン調整範囲
 41
0.7
 11
-54.949989999999993
 21
318.90828489583328
 31
0.0
 73
     3
  0
LINE
  5
7D
  8
SPEC
  6
CONTINUOUS
 62
     7
 10
-56.749990000000011
 20
321.03181999999998
 30
0.0
 11
190.0
 21
321.03181999999998
 31
0.0
  0
TEXT
  5
7E
  8
SPEC
 62
     7
 10
11.75001
 20
382.60765555555548
 30
0.0
 40
3.8006293402777769
  1
UR1-A24:A型 (797～806MHz)71チャンネルとA2型(779～788MHz)71チャンネル
 41
0.7
 11
11.75001
 21
386.40828489583328
 31
0.0
 73
     3
  0
TEXT
  5
7F
  8
SPEC
 62
     7
 10
30.75001
 20
375.10765555555548
 30
0.0
 40
3.8006293402777769
  1
合計142チャンネルのうち任意の1チャンネル
 41
0.7
 11
30.75001
 21
378.90828489583328
 31
0.0
 73
     3
  0
TEXT
  5
80
  8
DIMNSIONS
 62
     7
 10
68.249999999999986
 20
-71.929189999999991
 30
0.0
 40
4.8865234375000002
  1
(単位：mm)
 41
0.7
 11
68.249999999999986
 21
-67.042666562499974
 31
0.0
 73
     3
  0
LINE
  5
81
  8
DIMNSIONS
  6
CONTINUOUS
 62
     7
 10
0.0
 20
-2.9999999850988379
 30
0.0
 11
0.0
 21
-33.999999985098839
 31
0.0
  0
LINE
  5
82
  8
DIMNSIONS
  6
CONTINUOUS
 62
     7
 10
60.5
 20
-2.9999999850988379
 30
0.0
 11
60.5
 21
-33.999999985098839
 31
0.0
  0
LINE
  5
83
  8
DIMNSIONS
  6
CONTINUOUS
 62
     7
 10
0.0
 20
-30.0
 30
0.0
 11
60.5
 21
-30.0
 31
0.0
  0
LINE
  5
84
  8
DIMNSIONS
  6
CONTINUOUS
 62
     7
 10
0.0
 20
-30.0
 30
0.0
 11
6.3499999999999934
 21
-28.298522628062361
 31
0.0
  0
LINE
  5
85
  8
DIMNSIONS
  6
CONTINUOUS
 62
     7
 10
0.0
 20
-30.0
 30
0.0
 11
6.3499999999999934
 21
-31.701477371937639
 31
0.0
  0
LINE
  5
86
  8
DIMNSIONS
  6
CONTINUOUS
 62
     7
 10
60.5
 20
-30.0
 30
0.0
 11
54.149999999999999
 21
-31.701477371937639
 31
0.0
  0
LINE
  5
87
  8
DIMNSIONS
  6
CONTINUOUS
 62
     7
 10
60.5
 20
-30.0
 30
0.0
 11
54.149999999999999
 21
-28.298522628062361
 31
0.0
  0
TEXT
  5
88
  8
DIMNSIONS
 62
     7
 10
26.722222222222229
 20
-27.01222222967283
 30
0.0
 40
5.4294704861111107
  1
61
 41
0.7
 11
26.722222222222229
 21
-21.582751743561708
 31
0.0
 73
     3
  0
LINE
  5
89
  8
DIMNSIONS
  6
CONTINUOUS
 62
     7
 10
104.25
 20
-2.9999999850988379
 30
0.0
 11
104.25
 21
-33.999999985098839
 31
0.0
  0
LINE
  5
8A
  8
DIMNSIONS
  6
CONTINUOUS
 62
     7
 10
121.25
 20
-2.9999999850988379
 30
0.0
 11
121.25
 21
-33.999999985098839
 31
0.0
  0
LINE
  5
8B
  8
DIMNSIONS
  6
CONTINUOUS
 62
     7
 10
104.25
 20
-30.0
 30
0.0
 11
121.25
 21
-30.0
 31
0.0
  0
LINE
  5
8C
  8
DIMNSIONS
  6
CONTINUOUS
 62
     7
 10
104.25
 20
-30.0
 30
0.0
 11
110.59999999999999
 21
-28.298522628062361
 31
0.0
  0
LINE
  5
8D
  8
DIMNSIONS
  6
CONTINUOUS
 62
     7
 10
104.25
 20
-30.0
 30
0.0
 11
110.59999999999999
 21
-31.701477371937639
 31
0.0
  0
LINE
  5
8E
  8
DIMNSIONS
  6
CONTINUOUS
 62
     7
 10
121.25
 20
-30.0
 30
0.0
 11
114.90000000000001
 21
-31.701477371937639
 31
0.0
  0
LINE
  5
8F
  8
DIMNSIONS
  6
CONTINUOUS
 62
     7
 10
121.25
 20
-30.0
 30
0.0
 11
114.90000000000001
 21
-28.298522628062361
 31
0.0
  0
TEXT
  5
90
  8
DIMNSIONS
 62
     7
 10
109.2222222222222
 20
-27.01222222967283
 30
0.0
 40
5.4294704861111107
  1
17
 41
0.7
 11
109.2222222222222
 21
-21.582751743561708
 31
0.0
 73
     3
  0
LINE
  5
91
  8
DIMNSIONS
  6
CONTINUOUS
 62
     7
 10
-2.9999999850988379
 20
98.0
 30
0.0
 11
-33.749999985098853
 21
98.0
 31
0.0
  0
LINE
  5
92
  8
DIMNSIONS
  6
CONTINUOUS
 62
     7
 10
-2.9999999850988379
 20
0.0
 30
0.0
 11
-33.749999985098853
 21
0.0
 31
0.0
  0
LINE
  5
93
  8
DIMNSIONS
  6
CONTINUOUS
 62
     7
 10
-29.750000000000011
 20
98.0
 30
0.0
 11
-29.750000000000011
 21
0.0
 31
0.0
  0
LINE
  5
94
  8
DIMNSIONS
  6
CONTINUOUS
 62
     7
 10
-29.750000000000011
 20
98.0
 30
0.0
 11
-28.048522628062369
 21
91.650000000000006
 31
0.0
  0
LINE
  5
95
  8
DIMNSIONS
  6
CONTINUOUS
 62
     7
 10
-29.750000000000011
 20
98.0
 30
0.0
 11
-31.45147737193766
 21
91.650000000000006
 31
0.0
  0
LINE
  5
96
  8
DIMNSIONS
  6
CONTINUOUS
 62
     7
 10
-29.750000000000011
 20
0.0
 30
0.0
 11
-31.45147737193766
 21
6.3499999999999934
 31
0.0
  0
LINE
  5
97
  8
DIMNSIONS
  6
CONTINUOUS
 62
     7
 10
-29.750000000000011
 20
0.0
 30
0.0
 11
-28.048522628062369
 21
6.3499999999999934
 31
0.0
  0
TEXT
  5
98
  8
DIMNSIONS
 62
     7
 10
-32.737777770327178
 20
45.472222222222221
 30
0.0
 40
5.4294704861111107
  1
98
 50
90.0
 41
0.7
 11
-38.167248256438299
 21
45.472222222222221
 31
0.0
 73
     3
  0
TEXT
  5
99
  8
DATA
 62
     7
 10
203.24999
 20
-74.206399999999974
 30
0.0
 40
4.8865234375000002
  1
UR1-JBX / UR1-A24
 41
0.7
 11
203.24999
 21
-69.319876562499985
 31
0.0
 73
     3
  0
TEXT
  5
9A
  8
DATA
 62
     7
 10
203.24999
 20
-59.706399999999988
 30
0.0
 40
4.8865234375000002
  1
SHURE
 41
0.7
 11
203.24999
 21
-54.819876562499992
 31
0.0
 73
     3
  0
TEXT
  5
9B
  8
DATA
 62
     7
 10
203.24999
 20
-66.373618304093526
 30
0.0
 40
4.3435763888888879
  1
ボディパック型送信機
 41
0.7
 11
203.24999
 21
-62.030041915204642
 31
0.0
 73
     3
  0
LINE
  5
9C
  8
DATA
  6
CONTINUOUS
 62
     7
 10
1.0
 20
0.0
 30
0.0
 11
59.5
 21
0.0
 31
0.0
  0
LINE
  5
9D
  8
DATA
  6
CONTINUOUS
 62
     7
 10
0.0
 20
1.0
 30
0.0
 11
0.0
 21
97.0
 31
0.0
  0
LINE
  5
9E
  8
DATA
  6
CONTINUOUS
 62
     7
 10
60.5
 20
1.0
 30
0.0
 11
60.5
 21
97.0
 31
0.0
  0
LINE
  5
9F
  8
DATA
  6
CONTINUOUS
 62
     7
 10
1.0
 20
98.0
 30
0.0
 11
59.5
 21
98.0
 31
0.0
  0
LINE
  5
A0
  8
DATA
  6
CONTINUOUS
 62
     7
 10
0.0
 20
8.5
 30
0.0
 11
60.5
 21
8.5
 31
0.0
  0
LINE
  5
A1
  8
DATA
  6
CONTINUOUS
 62
     7
 10
0.0
 20
9.5
 30
0.0
 11
60.5
 21
9.5
 31
0.0
  0
LINE
  5
A2
  8
DATA
  6
CONTINUOUS
 62
     7
 10
0.0
 20
55.0
 30
0.0
 11
60.5
 21
55.0
 31
0.0
  0
LINE
  5
A3
  8
DATA
  6
CONTINUOUS
 62
     7
 10
0.0
 20
56.0
 30
0.0
 11
60.5
 21
56.0
 31
0.0
  0
LINE
  5
A4
  8
DATA
  6
CONTINUOUS
 62
     7
 10
0.0
 20
37.5
 30
0.0
 11
-1.0
 21
37.5
 31
0.0
  0
LINE
  5
A5
  8
DATA
  6
CONTINUOUS
 62
     7
 10
-1.0
 20
37.5
 30
0.0
 11
-1.0
 21
47.0
 31
0.0
  0
LINE
  5
A6
  8
DATA
  6
CONTINUOUS
 62
     7
 10
-1.0
 20
47.0
 30
0.0
 11
0.0
 21
47.0
 31
0.0
  0
LINE
  5
A7
  8
DATA
  6
CONTINUOUS
 62
     7
 10
60.5
 20
37.5
 30
0.0
 11
61.5
 21
37.5
 31
0.0
  0
LINE
  5
A8
  8
DATA
  6
CONTINUOUS
 62
     7
 10
61.5
 20
37.5
 30
0.0
 11
61.5
 21
47.0
 31
0.0
  0
LINE
  5
A9
  8
DATA
  6
CONTINUOUS
 62
     7
 10
61.5
 20
47.0
 30
0.0
 11
60.5
 21
47.0
 31
0.0
  0
ARC
  5
AA
  8
DATA
  6
CONTINUOUS
 62
     7
 10
1.0
 20
1.0
 30
0.0
 40
1.0
 50
180.0
 51
270.0
  0
ARC
  5
AB
  8
DATA
  6
CONTINUOUS
 62
     7
 10
59.5
 20
1.0
 30
0.0
 40
1.0
 50
270.0
 51
0.0
  0
ARC
  5
AC
  8
DATA
  6
CONTINUOUS
 62
     7
 10
1.0
 20
97.0
 30
0.0
 40
1.0
 50
90.0
 51
180.0
  0
ARC
  5
AD
  8
DATA
  6
CONTINUOUS
 62
     7
 10
59.5
 20
97.0
 30
0.0
 40
1.0
 50
0.0
 51
90.0
  0
LINE
  5
AE
  8
DATA
  6
CONTINUOUS
 62
     7
 10
0.0
 20
57.0
 30
0.0
 11
-0.4680886794832447
 21
57.0
 31
0.0
  0
LINE
  5
AF
  8
DATA
  6
CONTINUOUS
 62
     7
 10
-1.5
 20
80.750000000000014
 30
0.0
 11
-1.9677563799665441
 21
58.531571951589143
 31
0.0
  0
LINE
  5
B0
  8
DATA
  6
CONTINUOUS
 62
     7
 10
0.0
 20
80.750000000000014
 30
0.0
 11
-0.4681103634913059
 21
58.5
 31
0.0
  0
LINE
  5
B1
  8
DATA
  6
CONTINUOUS
 62
     7
 10
-0.4996613740573111
 20
57.000332315102241
 30
0.0
 11
-0.500312272304825
 21
56.969394128006222
 31
0.0
  0
LINE
  5
B2
  8
DATA
  6
CONTINUOUS
 62
     7
 10
0.0
 20
58.5
 30
0.0
 11
-0.4681103634913059
 21
58.5
 31
0.0
  0
LINE
  5
B3
  8
DATA
  6
CONTINUOUS
 62
     7
 10
-1.9680886794828041
 20
58.5
 30
0.0
 11
-2.0
 21
58.5
 31
0.0
  0
ARC
  5
B4
  8
DATA
  6
CONTINUOUS
 62
     7
 10
-0.7499999999999858
 20
80.749999999999986
 30
0.0
 40
0.7499999999999928
 50
357.58948892639432
 51
179.99999999999889
  0
ARC
  5
B5
  8
DATA
  6
CONTINUOUS
 62
     7
 10
-0.4680886794832588
 20
58.5
 30
0.0
 40
1.4999999999999909
 50
178.79395122077969
 51
270.00000000000051
  0
LINE
  5
B6
  8
DATA
  6
CONTINUOUS
 62
     7
 10
60.5
 20
57.0
 30
0.0
 11
60.968088679483252
 21
57.0
 31
0.0
  0
LINE
  5
B7
  8
DATA
  6
CONTINUOUS
 62
     7
 10
62.0
 20
80.750000000000014
 30
0.0
 11
62.467756379966552
 21
58.531571951589143
 31
0.0
  0
LINE
  5
B8
  8
DATA
  6
CONTINUOUS
 62
     7
 10
60.5
 20
80.750000000000014
 30
0.0
 11
60.968110363491299
 21
58.5
 31
0.0
  0
LINE
  5
B9
  8
DATA
  6
CONTINUOUS
 62
     7
 10
60.999661374057311
 20
57.000332315102241
 30
0.0
 11
61.000312272304811
 21
56.969394128006222
 31
0.0
  0
LINE
  5
BA
  8
DATA
  6
CONTINUOUS
 62
     7
 10
60.5
 20
58.5
 30
0.0
 11
60.968110363491299
 21
58.5
 31
0.0
  0
LINE
  5
BB
  8
DATA
  6
CONTINUOUS
 62
     7
 10
62.468088679482797
 20
58.5
 30
0.0
 11
62.5
 21
58.5
 31
0.0
  0
ARC
  5
BC
  8
DATA
  6
CONTINUOUS
 62
     7
 10
61.25
 20
80.749999999999986
 30
0.0
 40
0.7500000000000142
 50
0.00000000000108
 51
182.4105110736057
  0
ARC
  5
BD
  8
DATA
  6
CONTINUOUS
 62
     7
 10
60.968088679483252
 20
58.5
 30
0.0
 40
1.5
 50
269.99999999999937
 51
1.206048779220225
  0
LINE
  5
BE
  8
DATA
  6
CONTINUOUS
 62
     7
 10
20.75
 20
61.5
 30
0.0
 11
39.75
 21
61.5
 31
0.0
  0
LINE
  5
BF
  8
DATA
  6
CONTINUOUS
 62
     7
 10
19.75
 20
62.5
 30
0.0
 11
19.75
 21
84.500000000000014
 31
0.0
  0
LINE
  5
C0
  8
DATA
  6
CONTINUOUS
 62
     7
 10
40.75
 20
62.5
 30
0.0
 11
40.75
 21
84.500000000000014
 31
0.0
  0
LINE
  5
C1
  8
DATA
  6
CONTINUOUS
 62
     7
 10
20.75
 20
85.5
 30
0.0
 11
39.75
 21
85.5
 31
0.0
  0
LINE
  5
C2
  8
DATA
  6
CONTINUOUS
 62
     7
 10
22.25
 20
66.5
 30
0.0
 11
38.25
 21
66.5
 31
0.0
  0
LINE
  5
C3
  8
DATA
  6
CONTINUOUS
 62
     7
 10
22.25
 20
66.5
 30
0.0
 11
22.25
 21
82.5
 31
0.0
  0
LINE
  5
C4
  8
DATA
  6
CONTINUOUS
 62
     7
 10
22.25
 20
82.5
 30
0.0
 11
38.25
 21
82.5
 31
0.0
  0
LINE
  5
C5
  8
DATA
  6
CONTINUOUS
 62
     7
 10
38.25
 20
82.5
 30
0.0
 11
38.25
 21
66.5
 31
0.0
  0
ARC
  5
C6
  8
DATA
  6
CONTINUOUS
 62
     7
 10
20.75
 20
84.500000000000014
 30
0.0
 40
1.0
 50
90.0
 51
180.0
  0
ARC
  5
C7
  8
DATA
  6
CONTINUOUS
 62
     7
 10
39.75
 20
84.500000000000014
 30
0.0
 40
1.0
 50
0.0
 51
90.0
  0
ARC
  5
C8
  8
DATA
  6
CONTINUOUS
 62
     7
 10
20.75
 20
62.5
 30
0.0
 40
1.0
 50
180.0
 51
270.0
  0
ARC
  5
C9
  8
DATA
  6
CONTINUOUS
 62
     7
 10
39.75
 20
62.5
 30
0.0
 40
1.0
 50
270.0
 51
0.0
  0
LINE
  5
CA
  8
DATA
  6
CONTINUOUS
 62
     7
 10
42.0
 20
100.0
 30
0.0
 11
56.5
 21
100.0
 31
0.0
  0
LINE
  5
CB
  8
DATA
  6
CONTINUOUS
 62
     7
 10
42.0
 20
100.0
 30
0.0
 11
42.0
 21
98.0
 31
0.0
  0
LINE
  5
CC
  8
DATA
  6
CONTINUOUS
 62
     7
 10
56.5
 20
100.0
 30
0.0
 11
56.5
 21
98.0
 31
0.0
  0
LINE
  5
CD
  8
DATA
  6
CONTINUOUS
 62
     7
 10
44.249999999999993
 20
102.0
 30
0.0
 11
54.25
 21
102.0
 31
0.0
  0
LINE
  5
CE
  8
DATA
  6
CONTINUOUS
 62
     7
 10
44.249999999999993
 20
102.0
 30
0.0
 11
44.249999999999993
 21
100.0
 31
0.0
  0
LINE
  5
CF
  8
DATA
  6
CONTINUOUS
 62
     7
 10
54.25
 20
102.0
 30
0.0
 11
54.25
 21
100.0
 31
0.0
  0
LINE
  5
D0
  8
DATA
  6
CONTINUOUS
 62
     7
 10
44.249999999999993
 20
100.0
 30
0.0
 11
54.25
 21
101.0
 31
0.0
  0
LINE
  5
D1
  8
DATA
  6
CONTINUOUS
 62
     7
 10
44.249999999999993
 20
101.0
 30
0.0
 11
54.25
 21
102.0
 31
0.0
  0
LINE
  5
D2
  8
DATA
  6
CONTINUOUS
 62
     7
 10
36.0
 20
98.0
 30
0.0
 11
35.652703644666133
 21
99.969615506024425
 31
0.0
  0
LINE
  5
D3
  8
DATA
  6
CONTINUOUS
 62
     7
 10
34.0
 20
98.0
 30
0.0
 11
33.713011023880227
 21
99.627595362698727
 31
0.0
  0
LINE
  5
D4
  8
DATA
  6
CONTINUOUS
 62
     7
 10
35.652703644666133
 20
99.969615506024425
 30
0.0
 11
33.713011023880213
 21
99.627595362698727
 31
0.0
  0
LINE
  5
D5
  8
DATA
  6
CONTINUOUS
 62
     7
 10
7.0
 20
113.0
 30
0.0
 11
18.5
 21
113.0
 31
0.0
  0
LINE
  5
D6
  8
DATA
  6
CONTINUOUS
 62
     7
 10
7.0
 20
113.0
 30
0.0
 11
7.0
 21
98.500000000000014
 31
0.0
  0
LINE
  5
D7
  8
DATA
  6
CONTINUOUS
 62
     7
 10
18.5
 20
113.0
 30
0.0
 11
18.5
 21
98.500000000000014
 31
0.0
  0
LINE
  5
D8
  8
DATA
  6
CONTINUOUS
 62
     7
 10
7.0
 20
98.500000000000014
 30
0.0
 11
18.5
 21
98.500000000000014
 31
0.0
  0
LINE
  5
D9
  8
DATA
  6
CONTINUOUS
 62
     7
 10
7.75
 20
98.500000000000014
 30
0.0
 11
7.75
 21
98.0
 31
0.0
  0
LINE
  5
DA
  8
DATA
  6
CONTINUOUS
 62
     7
 10
17.75
 20
98.500000000000014
 30
0.0
 11
17.75
 21
98.0
 31
0.0
  0
LINE
  5
DB
  8
DATA
  6
CONTINUOUS
 62
     7
 10
7.75
 20
114.0
 30
0.0
 11
17.75
 21
114.0
 31
0.0
  0
LINE
  5
DC
  8
DATA
  6
CONTINUOUS
 62
     7
 10
7.75
 20
114.0
 30
0.0
 11
7.0
 21
113.0
 31
0.0
  0
LINE
  5
DD
  8
DATA
  6
CONTINUOUS
 62
     7
 10
17.75
 20
114.0
 30
0.0
 11
18.5
 21
113.0
 31
0.0
  0
LINE
  5
DE
  8
DATA
  6
CONTINUOUS
 62
     7
 10
11.25
 20
128.0
 30
0.0
 11
14.25
 21
128.0
 31
0.0
  0
LINE
  5
DF
  8
DATA
  6
CONTINUOUS
 62
     7
 10
11.250000000000011
 20
128.0
 30
0.0
 11
11.250000000000011
 21
122.3101862191326
 31
0.0
  0
ARC
  5
E0
  8
DATA
  6
CONTINUOUS
 62
     7
 10
21.44807692307689
 20
114.8153846153846
 30
0.0
 40
12.474753350421221
 50
146.2058566557393
 51
176.25231653751661
  0
ARC
  5
E1
  8
DATA
  6
CONTINUOUS
 62
     7
 10
10.24999999999944
 20
122.3101862191326
 30
0.0
 40
1.000000000000566
 50
326.20585665576021
 51
0.0
  0
LINE
  5
E2
  8
DATA
  6
CONTINUOUS
 62
     7
 10
9.0
 20
114.0
 30
0.0
 11
9.0
 21
115.6307692307692
 31
0.0
  0
LINE
  5
E3
  8
DATA
  6
CONTINUOUS
 62
     7
 10
14.24999999999998
 20
128.0
 30
0.0
 11
14.24999999999998
 21
122.3101862191326
 31
0.0
  0
ARC
  5
E4
  8
DATA
  6
CONTINUOUS
 62
     7
 10
4.0519230769231021
 20
114.8153846153846
 30
0.0
 40
12.474753350421221
 50
3.7476834624834439
 51
33.794143344260618
  0
ARC
  5
E5
  8
DATA
  6
CONTINUOUS
 62
     7
 10
15.250000000000551
 20
122.3101862191326
 30
0.0
 40
1.000000000000568
 50
180.0
 51
213.79414334423981
  0
LINE
  5
E6
  8
DATA
  6
CONTINUOUS
 62
     7
 10
16.5
 20
114.0
 30
0.0
 11
16.5
 21
115.6307692307692
 31
0.0
  0
LINE
  5
E7
  8
DATA
  6
CONTINUOUS
 62
     7
 10
11.75
 20
128.0
 30
0.0
 11
11.75
 21
185.0
 31
0.0
  0
LINE
  5
E8
  8
DATA
  6
CONTINUOUS
 62
     7
 10
13.75
 20
128.0
 30
0.0
 11
13.75
 21
185.0
 31
0.0
  0
LINE
  5
E9
  8
DATA
  6
CONTINUOUS
 62
     7
 10
11.25
 20
185.0
 30
0.0
 11
14.25
 21
185.0
 31
0.0
  0
LINE
  5
EA
  8
DATA
  6
CONTINUOUS
 62
     7
 10
11.25
 20
185.0
 30
0.0
 11
11.25
 21
193.5
 31
0.0
  0
ARC
  5
EB
  8
DATA
  6
CONTINUOUS
 62
     7
 10
12.75
 20
193.5
 30
0.0
 40
1.5
 50
0.0
 51
180.0
  0
LINE
  5
EC
  8
DATA
  6
CONTINUOUS
 62
     7
 10
14.25
 20
193.5
 30
0.0
 11
14.25
 21
185.0
 31
0.0
  0
LINE
  5
ED
  8
DATA
  6
CONTINUOUS
 62
     7
 10
105.25
 20
0.0
 30
0.0
 11
120.25
 21
0.0
 31
0.0
  0
LINE
  5
EE
  8
DATA
  6
CONTINUOUS
 62
     7
 10
104.25
 20
1.0
 30
0.0
 11
104.25
 21
97.0
 31
0.0
  0
LINE
  5
EF
  8
DATA
  6
CONTINUOUS
 62
     7
 10
121.25
 20
1.0
 30
0.0
 11
121.25
 21
79.999999999999986
 31
0.0
  0
LINE
  5
F0
  8
DATA
  6
CONTINUOUS
 62
     7
 10
121.25
 20
81.499999999999986
 30
0.0
 11
121.25
 21
98.0
 31
0.0
  0
LINE
  5
F1
  8
DATA
  6
CONTINUOUS
 62
     7
 10
105.25
 20
98.0
 30
0.0
 11
121.25
 21
98.0
 31
0.0
  0
LINE
  5
F2
  8
DATA
  6
CONTINUOUS
 62
     7
 10
104.25
 20
8.5
 30
0.0
 11
112.25
 21
8.5
 31
0.0
  0
LINE
  5
F3
  8
DATA
  6
CONTINUOUS
 62
     7
 10
114.25
 20
8.5
 30
0.0
 11
121.25
 21
8.5
 31
0.0
  0
LINE
  5
F4
  8
DATA
  6
CONTINUOUS
 62
     7
 10
104.25
 20
9.5
 30
0.0
 11
112.25
 21
9.5
 31
0.0
  0
LINE
  5
F5
  8
DATA
  6
CONTINUOUS
 62
     7
 10
114.25
 20
9.5
 30
0.0
 11
121.25
 21
9.5
 31
0.0
  0
LINE
  5
F6
  8
DATA
  6
CONTINUOUS
 62
     7
 10
113.25
 20
0.0
 30
0.0
 11
113.25
 21
98.0
 31
0.0
  0
LINE
  5
F7
  8
DATA
  6
CONTINUOUS
 62
     7
 10
114.25
 20
9.5
 30
0.0
 11
114.25
 21
8.5
 31
0.0
  0
LINE
  5
F8
  8
DATA
  6
CONTINUOUS
 62
     7
 10
112.25
 20
9.5
 30
0.0
 11
112.25
 21
8.5
 31
0.0
  0
LINE
  5
F9
  8
DATA
  6
CONTINUOUS
 62
     7
 10
110.25
 20
37.5
 30
0.0
 11
113.25
 21
37.5
 31
0.0
  0
LINE
  5
FA
  8
DATA
  6
CONTINUOUS
 62
     7
 10
110.25
 20
47.0
 30
0.0
 11
113.25
 21
47.0
 31
0.0
  0
ARC
  5
FB
  8
DATA
  6
CONTINUOUS
 62
     7
 10
121.03125
 20
42.25
 30
0.0
 40
11.78125000000002
 50
156.22268392074409
 51
203.7773160792558
  0
LINE
  5
FC
  8
DATA
  6
CONTINUOUS
 62
     7
 10
104.25
 20
55.0
 30
0.0
 11
113.25
 21
55.0
 31
0.0
  0
LINE
  5
FD
  8
DATA
  6
CONTINUOUS
 62
     7
 10
104.25
 20
56.0
 30
0.0
 11
113.25
 21
56.0
 31
0.0
  0
LINE
  5
FE
  8
DATA
  6
CONTINUOUS
 62
     7
 10
60.5
 20
57.0
 30
0.0
 11
60.999668365524428
 21
57.0
 31
0.0
  0
LINE
  5
FF
  8
DATA
  6
CONTINUOUS
 62
     7
 10
116.25
 20
57.0
 30
0.0
 11
120.25
 21
57.0
 31
0.0
  0
LINE
  5
100
  8
DATA
  6
CONTINUOUS
 62
     7
 10
116.25
 20
81.499999999999986
 30
0.0
 11
122.0
 21
81.5
 31
0.0
  0
LINE
  5
101
  8
DATA
  6
CONTINUOUS
 62
     7
 10
113.25
 20
60.0
 30
0.0
 11
113.25
 21
78.499999999999986
 31
0.0
  0
ARC
  5
102
  8
DATA
  6
CONTINUOUS
 62
     7
 10
116.25
 20
60.0
 30
0.0
 40
3.0
 50
180.0
 51
270.0
  0
ARC
  5
103
  8
DATA
  6
CONTINUOUS
 62
     7
 10
116.25
 20
78.499999999999986
 30
0.0
 40
3.0
 50
90.0
 51
180.0
  0
LINE
  5
104
  8
DATA
  6
CONTINUOUS
 62
     7
 10
116.25
 20
79.999999999999986
 30
0.0
 11
121.25
 21
80.0
 31
0.0
  0
ARC
  5
105
  8
DATA
  6
CONTINUOUS
 62
     7
 10
116.25
 20
78.499999999999986
 30
0.0
 40
1.5
 50
90.0
 51
180.0
  0
LINE
  5
106
  8
DATA
  6
CONTINUOUS
 62
     7
 10
114.75
 20
60.0
 30
0.0
 11
114.75
 21
78.499999999999986
 31
0.0
  0
ARC
  5
107
  8
DATA
  6
CONTINUOUS
 62
     7
 10
116.25
 20
60.0
 30
0.0
 40
1.5
 50
180.0
 51
270.0
  0
LINE
  5
108
  8
DATA
  6
CONTINUOUS
 62
     7
 10
116.25
 20
58.5
 30
0.0
 11
120.25
 21
58.5
 31
0.0
  0
ARC
  5
109
  8
DATA
  6
CONTINUOUS
 62
     7
 10
120.25
 20
57.75
 30
0.0
 40
0.75
 50
270.0
 51
90.0
  0
ARC
  5
10A
  8
DATA
  6
CONTINUOUS
 62
     7
 10
121.9999999999999
 20
80.750000000000014
 30
0.0
 40
0.7499999999999547
 50
359.99909942025391
 51
90.000000000002615
  0
LINE
  5
10B
  8
DATA
  6
CONTINUOUS
 62
     7
 10
122.7499999999999
 20
80.750000000000014
 30
0.0
 11
122.7071067811865
 21
33.54984706329887
 31
0.0
  0
LINE
  5
10C
  8
DATA
  6
CONTINUOUS
 62
     7
 10
122.90211065746961
 20
32.485893706269849
 30
0.0
 11
125.6038509644893
 21
25.36305224107474
 31
0.0
  0
LINE
  5
10D
  8
DATA
  6
CONTINUOUS
 62
     7
 10
121.4459861246588
 20
32.096329469835077
 30
0.0
 11
124.2465756091668
 21
24.733364598921639
 31
0.0
  0
ARC
  5
10E
  8
DATA
  6
CONTINUOUS
 62
     7
 10
125.7071067811865
 20
33.54984706329887
 30
0.0
 40
3.0
 50
180.0
 51
200.77206379106761
  0
ARC
  5
10F
  8
DATA
  6
CONTINUOUS
 62
     7
 10
124.25
 20
33.16286882067692
 30
0.0
 40
3.0
 50
180.0
 51
200.82489540336559
  0
ARC
  5
110
  8
DATA
  6
CONTINUOUS
 62
     7
 10
105.25
 20
97.0
 30
0.0
 40
1.0
 50
90.0
 51
180.0
  0
ARC
  5
111
  8
DATA
  6
CONTINUOUS
 62
     7
 10
120.25
 20
97.0
 30
0.0
 40
1.0
 50
0.0
 51
90.0
  0
ARC
  5
112
  8
DATA
  6
CONTINUOUS
 62
     7
 10
105.25
 20
1.0
 30
0.0
 40
1.0
 50
180.0
 51
270.0
  0
ARC
  5
113
  8
DATA
  6
CONTINUOUS
 62
     7
 10
120.25
 20
1.0
 30
0.0
 40
1.0
 50
270.0
 51
0.0
  0
LINE
  5
114
  8
DATA
  6
CONTINUOUS
 62
     7
 10
106.25
 20
100.0
 30
0.0
 11
120.75
 21
100.0
 31
0.0
  0
LINE
  5
115
  8
DATA
  6
CONTINUOUS
 62
     7
 10
120.75
 20
100.0
 30
0.0
 11
120.75
 21
98.0
 31
0.0
  0
LINE
  5
116
  8
DATA
  6
CONTINUOUS
 62
     7
 10
106.25
 20
100.0
 30
0.0
 11
106.25
 21
98.0
 31
0.0
  0
LINE
  5
117
  8
DATA
  6
CONTINUOUS
 62
     7
 10
108.0
 20
102.0
 30
0.0
 11
119.0
 21
102.0
 31
0.0
  0
LINE
  5
118
  8
DATA
  6
CONTINUOUS
 62
     7
 10
119.0
 20
102.0
 30
0.0
 11
119.0
 21
100.0
 31
0.0
  0
LINE
  5
119
  8
DATA
  6
CONTINUOUS
 62
     7
 10
108.0
 20
102.0
 30
0.0
 11
108.0
 21
100.0
 31
0.0
  0
LINE
  5
11A
  8
DATA
  6
CONTINUOUS
 62
     7
 10
108.55
 20
100.0
 30
0.0
 11
119.0
 21
101.045
 31
0.0
  0
LINE
  5
11B
  8
DATA
  6
CONTINUOUS
 62
     7
 10
108.0
 20
100.94499999999999
 30
0.0
 11
118.55
 21
102.0
 31
0.0
  0
LINE
  5
11C
  8
DATA
  6
CONTINUOUS
 62
     7
 10
119.75
 20
113.0
 30
0.0
 11
119.75
 21
100.0
 31
0.0
  0
LINE
  5
11D
  8
DATA
  6
CONTINUOUS
 62
     7
 10
108.3
 20
113.0
 30
0.0
 11
119.8
 21
113.0
 31
0.0
  0
LINE
  5
11E
  8
DATA
  6
CONTINUOUS
 62
     7
 10
109.05
 20
114.0
 30
0.0
 11
119.05
 21
114.0
 31
0.0
  0
LINE
  5
11F
  8
DATA
  6
CONTINUOUS
 62
     7
 10
109.05
 20
114.0
 30
0.0
 11
108.3
 21
113.0
 31
0.0
  0
LINE
  5
120
  8
DATA
  6
CONTINUOUS
 62
     7
 10
119.05
 20
114.0
 30
0.0
 11
119.8
 21
113.0
 31
0.0
  0
LINE
  5
121
  8
DATA
  6
CONTINUOUS
 62
     7
 10
112.55
 20
128.0
 30
0.0
 11
115.55
 21
128.0
 31
0.0
  0
LINE
  5
122
  8
DATA
  6
CONTINUOUS
 62
     7
 10
112.55
 20
128.0
 30
0.0
 11
112.55
 21
122.3101862191326
 31
0.0
  0
ARC
  5
123
  8
DATA
  6
CONTINUOUS
 62
     7
 10
122.74807692307679
 20
114.8153846153846
 30
0.0
 40
12.474753350421221
 50
146.2058566557393
 51
176.25231653751661
  0
ARC
  5
124
  8
DATA
  6
CONTINUOUS
 62
     7
 10
111.5499999999994
 20
122.3101862191326
 30
0.0
 40
1.000000000000566
 50
326.20585665576021
 51
0.0
  0
LINE
  5
125
  8
DATA
  6
CONTINUOUS
 62
     7
 10
110.3
 20
114.0
 30
0.0
 11
110.3
 21
115.6307692307692
 31
0.0
  0
LINE
  5
126
  8
DATA
  6
CONTINUOUS
 62
     7
 10
115.5499999999999
 20
128.0
 30
0.0
 11
115.5499999999999
 21
122.3101862191326
 31
0.0
  0
ARC
  5
127
  8
DATA
  6
CONTINUOUS
 62
     7
 10
105.3519230769231
 20
114.8153846153846
 30
0.0
 40
12.474753350421221
 50
3.7476834624834439
 51
33.794143344260618
  0
ARC
  5
128
  8
DATA
  6
CONTINUOUS
 62
     7
 10
116.55000000000049
 20
122.3101862191326
 30
0.0
 40
1.000000000000568
 50
180.0
 51
213.79414334423981
  0
LINE
  5
129
  8
DATA
  6
CONTINUOUS
 62
     7
 10
117.8
 20
114.0
 30
0.0
 11
117.8
 21
115.6307692307692
 31
0.0
  0
LINE
  5
12A
  8
DATA
  6
CONTINUOUS
 62
     7
 10
113.05
 20
128.0
 30
0.0
 11
113.05
 21
185.0
 31
0.0
  0
LINE
  5
12B
  8
DATA
  6
CONTINUOUS
 62
     7
 10
115.05
 20
128.0
 30
0.0
 11
115.05
 21
185.0
 31
0.0
  0
LINE
  5
12C
  8
DATA
  6
CONTINUOUS
 62
     7
 10
112.55
 20
185.0
 30
0.0
 11
115.55
 21
185.0
 31
0.0
  0
LINE
  5
12D
  8
DATA
  6
CONTINUOUS
 62
     7
 10
112.55
 20
185.0
 30
0.0
 11
112.55
 21
193.5
 31
0.0
  0
ARC
  5
12E
  8
DATA
  6
CONTINUOUS
 62
     7
 10
114.05
 20
193.5
 30
0.0
 40
1.5
 50
0.0
 51
180.0
  0
LINE
  5
12F
  8
DATA
  6
CONTINUOUS
 62
     7
 10
115.55
 20
193.5
 30
0.0
 11
115.55
 21
185.0
 31
0.0
  0
LINE
  5
130
  8
DATA
  6
CONTINUOUS
 62
     7
 10
108.3
 20
113.0
 30
0.0
 11
108.3
 21
102.0
 31
0.0
  0
LINE
  5
131
  8
DATA
  6
CONTINUOUS
 62
     7
 10
224.5
 20
0.0
 30
0.0
 11
166.0
 21
0.0
 31
0.0
  0
LINE
  5
132
  8
DATA
  6
CONTINUOUS
 62
     7
 10
225.5
 20
1.0
 30
0.0
 11
225.5
 21
57.0
 31
0.0
  0
LINE
  5
133
  8
DATA
  6
CONTINUOUS
 62
     7
 10
225.5
 20
58.5
 30
0.0
 11
225.5
 21
79.999999999999986
 31
0.0
  0
LINE
  5
134
  8
DATA
  6
CONTINUOUS
 62
     7
 10
225.5
 20
81.499999999999986
 30
0.0
 11
225.5
 21
97.0
 31
0.0
  0
LINE
  5
135
  8
DATA
  6
CONTINUOUS
 62
     7
 10
165.0
 20
1.0
 30
0.0
 11
165.0
 21
57.0
 31
0.0
  0
LINE
  5
136
  8
DATA
  6
CONTINUOUS
 62
     7
 10
165.0
 20
58.5
 30
0.0
 11
165.0
 21
79.999999999999986
 31
0.0
  0
LINE
  5
137
  8
DATA
  6
CONTINUOUS
 62
     7
 10
165.0
 20
81.499999999999986
 30
0.0
 11
165.0
 21
97.0
 31
0.0
  0
LINE
  5
138
  8
DATA
  6
CONTINUOUS
 62
     7
 10
224.5
 20
98.0
 30
0.0
 11
166.0
 21
98.0
 31
0.0
  0
LINE
  5
139
  8
DATA
  6
CONTINUOUS
 62
     7
 10
225.5
 20
8.5
 30
0.0
 11
165.0
 21
8.5
 31
0.0
  0
LINE
  5
13A
  8
DATA
  6
CONTINUOUS
 62
     7
 10
225.5
 20
9.5
 30
0.0
 11
165.0
 21
9.5
 31
0.0
  0
LINE
  5
13B
  8
DATA
  6
CONTINUOUS
 62
     7
 10
225.5
 20
37.5
 30
0.0
 11
226.5
 21
37.5
 31
0.0
  0
LINE
  5
13C
  8
DATA
  6
CONTINUOUS
 62
     7
 10
226.5
 20
37.5
 30
0.0
 11
226.5
 21
47.0
 31
0.0
  0
LINE
  5
13D
  8
DATA
  6
CONTINUOUS
 62
     7
 10
226.5
 20
47.0
 30
0.0
 11
225.5
 21
47.0
 31
0.0
  0
LINE
  5
13E
  8
DATA
  6
CONTINUOUS
 62
     7
 10
165.0
 20
37.5
 30
0.0
 11
164.0
 21
37.5
 31
0.0
  0
LINE
  5
13F
  8
DATA
  6
CONTINUOUS
 62
     7
 10
164.0
 20
37.5
 30
0.0
 11
164.0
 21
47.0
 31
0.0
  0
LINE
  5
140
  8
DATA
  6
CONTINUOUS
 62
     7
 10
164.0
 20
47.0
 30
0.0
 11
165.0
 21
47.0
 31
0.0
  0
ARC
  5
141
  8
DATA
  6
CONTINUOUS
 62
     7
 10
224.5
 20
1.0
 30
0.0
 40
1.0
 50
270.0
 51
0.0
  0
ARC
  5
142
  8
DATA
  6
CONTINUOUS
 62
     7
 10
166.0
 20
1.0
 30
0.0
 40
1.0
 50
180.0
 51
270.0
  0
ARC
  5
143
  8
DATA
  6
CONTINUOUS
 62
     7
 10
224.5
 20
97.0
 30
0.0
 40
1.0
 50
0.0
 51
90.0
  0
ARC
  5
144
  8
DATA
  6
CONTINUOUS
 62
     7
 10
166.0
 20
97.0
 30
0.0
 40
1.0
 50
90.0
 51
180.0
  0
LINE
  5
145
  8
DATA
  6
CONTINUOUS
 62
     7
 10
227.0
 20
80.750000000000014
 30
0.0
 11
227.4677563799666
 21
58.531571951589143
 31
0.0
  0
LINE
  5
146
  8
DATA
  6
CONTINUOUS
 62
     7
 10
225.51577900101651
 20
79.999999999999986
 30
0.0
 11
225.96811036349129
 21
58.5
 31
0.0
  0
LINE
  5
147
  8
DATA
  6
CONTINUOUS
 62
     7
 10
165.0
 20
57.0
 30
0.0
 11
164.53191132051671
 21
57.0
 31
0.0
  0
LINE
  5
148
  8
DATA
  6
CONTINUOUS
 62
     7
 10
163.5
 20
80.750000000000014
 30
0.0
 11
163.03224362003351
 21
58.531571951589143
 31
0.0
  0
LINE
  5
149
  8
DATA
  6
CONTINUOUS
 62
     7
 10
164.9842209989834
 20
79.999999999999986
 30
0.0
 11
164.53188963650871
 21
58.5
 31
0.0
  0
LINE
  5
14A
  8
DATA
  6
CONTINUOUS
 62
     7
 10
164.5003386259427
 20
57.000332315102241
 30
0.0
 11
164.49968772769509
 21
56.969394128006222
 31
0.0
  0
LINE
  5
14B
  8
DATA
  6
CONTINUOUS
 62
     7
 10
166.66143782776609
 20
58.5
 30
0.0
 11
164.53188963650871
 21
58.5
 31
0.0
  0
LINE
  5
14C
  8
DATA
  6
CONTINUOUS
 62
     7
 10
163.0319113205172
 20
58.5
 30
0.0
 11
163.0
 21
58.5
 31
0.0
  0
ARC
  5
14D
  8
DATA
  6
CONTINUOUS
 62
     7
 10
164.25
 20
80.749999999999986
 30
0.0
 40
0.7499999999999858
 50
90.0
 51
179.99999999999889
  0
ARC
  5
14E
  8
DATA
  6
CONTINUOUS
 62
     7
 10
164.53191132051671
 20
58.5
 30
0.0
 40
1.4999999999999909
 50
178.79395122077969
 51
270.00000000000051
  0
LINE
  5
14F
  8
DATA
  6
CONTINUOUS
 62
     7
 10
183.5
 20
100.0
 30
0.0
 11
169.0
 21
100.0
 31
0.0
  0
LINE
  5
150
  8
DATA
  6
CONTINUOUS
 62
     7
 10
183.5
 20
100.0
 30
0.0
 11
183.5
 21
98.0
 31
0.0
  0
LINE
  5
151
  8
DATA
  6
CONTINUOUS
 62
     7
 10
169.0
 20
100.0
 30
0.0
 11
169.0
 21
98.0
 31
0.0
  0
LINE
  5
152
  8
DATA
  6
CONTINUOUS
 62
     7
 10
181.25
 20
102.0
 30
0.0
 11
171.25
 21
102.0
 31
0.0
  0
LINE
  5
153
  8
DATA
  6
CONTINUOUS
 62
     7
 10
181.25
 20
102.0
 30
0.0
 11
181.25
 21
100.0
 31
0.0
  0
LINE
  5
154
  8
DATA
  6
CONTINUOUS
 62
     7
 10
171.25
 20
102.0
 30
0.0
 11
171.25
 21
100.0
 31
0.0
  0
LINE
  5
155
  8
DATA
  6
CONTINUOUS
 62
     7
 10
181.25
 20
100.0
 30
0.0
 11
171.25
 21
101.0
 31
0.0
  0
LINE
  5
156
  8
DATA
  6
CONTINUOUS
 62
     7
 10
181.25
 20
101.0
 30
0.0
 11
171.25
 21
102.0
 31
0.0
  0
LINE
  5
157
  8
DATA
  6
CONTINUOUS
 62
     7
 10
189.5
 20
98.0
 30
0.0
 11
189.84729635533381
 21
99.969615506024425
 31
0.0
  0
LINE
  5
158
  8
DATA
  6
CONTINUOUS
 62
     7
 10
191.5
 20
98.0
 30
0.0
 11
191.78698897611969
 21
99.627595362698727
 31
0.0
  0
LINE
  5
159
  8
DATA
  6
CONTINUOUS
 62
     7
 10
189.84729635533381
 20
99.969615506024425
 30
0.0
 11
191.7869889761198
 21
99.627595362698727
 31
0.0
  0
LINE
  5
15A
  8
DATA
  6
CONTINUOUS
 62
     7
 10
218.5
 20
113.0
 30
0.0
 11
207.0
 21
113.0
 31
0.0
  0
LINE
  5
15B
  8
DATA
  6
CONTINUOUS
 62
     7
 10
218.5
 20
113.0
 30
0.0
 11
218.5
 21
98.500000000000014
 31
0.0
  0
LINE
  5
15C
  8
DATA
  6
CONTINUOUS
 62
     7
 10
207.0
 20
113.0
 30
0.0
 11
207.0
 21
98.500000000000014
 31
0.0
  0
LINE
  5
15D
  8
DATA
  6
CONTINUOUS
 62
     7
 10
218.5
 20
98.500000000000014
 30
0.0
 11
207.0
 21
98.500000000000014
 31
0.0
  0
LINE
  5
15E
  8
DATA
  6
CONTINUOUS
 62
     7
 10
217.75
 20
98.500000000000014
 30
0.0
 11
217.75
 21
98.0
 31
0.0
  0
LINE
  5
15F
  8
DATA
  6
CONTINUOUS
 62
     7
 10
207.75
 20
98.500000000000014
 30
0.0
 11
207.75
 21
98.0
 31
0.0
  0
LINE
  5
160
  8
DATA
  6
CONTINUOUS
 62
     7
 10
217.75
 20
114.0
 30
0.0
 11
207.75
 21
114.0
 31
0.0
  0
LINE
  5
161
  8
DATA
  6
CONTINUOUS
 62
     7
 10
217.75
 20
114.0
 30
0.0
 11
218.5
 21
113.0
 31
0.0
  0
LINE
  5
162
  8
DATA
  6
CONTINUOUS
 62
     7
 10
207.75
 20
114.0
 30
0.0
 11
207.0
 21
113.0
 31
0.0
  0
LINE
  5
163
  8
DATA
  6
CONTINUOUS
 62
     7
 10
214.25
 20
128.0
 30
0.0
 11
211.25
 21
128.0
 31
0.0
  0
LINE
  5
164
  8
DATA
  6
CONTINUOUS
 62
     7
 10
214.25
 20
128.0
 30
0.0
 11
214.25
 21
122.3101862191326
 31
0.0
  0
ARC
  5
165
  8
DATA
  6
CONTINUOUS
 62
     7
 10
204.05192307692309
 20
114.8153846153846
 30
0.0
 40
12.474753350421221
 50
3.7476834624834439
 51
33.794143344260618
  0
ARC
  5
166
  8
DATA
  6
CONTINUOUS
 62
     7
 10
215.2500000000006
 20
122.3101862191326
 30
0.0
 40
1.000000000000568
 50
180.0
 51
213.79414334423981
  0
LINE
  5
167
  8
DATA
  6
CONTINUOUS
 62
     7
 10
216.5
 20
114.0
 30
0.0
 11
216.5
 21
115.6307692307692
 31
0.0
  0
LINE
  5
168
  8
DATA
  6
CONTINUOUS
 62
     7
 10
211.25
 20
128.0
 30
0.0
 11
211.25
 21
122.3101862191326
 31
0.0
  0
ARC
  5
169
  8
DATA
  6
CONTINUOUS
 62
     7
 10
221.4480769230768
 20
114.8153846153846
 30
0.0
 40
12.474753350421221
 50
146.2058566557393
 51
176.25231653751661
  0
ARC
  5
16A
  8
DATA
  6
CONTINUOUS
 62
     7
 10
210.2499999999994
 20
122.3101862191326
 30
0.0
 40
1.000000000000566
 50
326.20585665576021
 51
0.0
  0
LINE
  5
16B
  8
DATA
  6
CONTINUOUS
 62
     7
 10
209.0
 20
114.0
 30
0.0
 11
209.0
 21
115.6307692307692
 31
0.0
  0
LINE
  5
16C
  8
DATA
  6
CONTINUOUS
 62
     7
 10
213.75
 20
128.0
 30
0.0
 11
213.75
 21
185.0
 31
0.0
  0
LINE
  5
16D
  8
DATA
  6
CONTINUOUS
 62
     7
 10
211.75
 20
128.0
 30
0.0
 11
211.75
 21
185.0
 31
0.0
  0
LINE
  5
16E
  8
DATA
  6
CONTINUOUS
 62
     7
 10
214.25
 20
185.0
 30
0.0
 11
211.25
 21
185.0
 31
0.0
  0
LINE
  5
16F
  8
DATA
  6
CONTINUOUS
 62
     7
 10
214.25
 20
185.0
 30
0.0
 11
214.25
 21
193.5
 31
0.0
  0
ARC
  5
170
  8
DATA
  6
CONTINUOUS
 62
     7
 10
212.75
 20
193.5
 30
0.0
 40
1.5
 50
0.0
 51
180.0
  0
LINE
  5
171
  8
DATA
  6
CONTINUOUS
 62
     7
 10
211.25
 20
193.5
 30
0.0
 11
211.25
 21
185.0
 31
0.0
  0
LINE
  5
172
  8
DATA
  6
CONTINUOUS
 62
     7
 10
166.66143782776641
 20
57.0
 30
0.0
 11
164.50033163447549
 21
57.0
 31
0.0
  0
LINE
  5
173
  8
DATA
  6
CONTINUOUS
 62
     7
 10
176.75
 20
81.499999999999986
 30
0.0
 11
164.25
 21
81.499999999999986
 31
0.0
  0
LINE
  5
174
  8
DATA
  6
CONTINUOUS
 62
     7
 10
164.9842209989834
 20
79.999999999999986
 30
0.0
 11
176.75
 21
79.999999999999986
 31
0.0
  0
ARC
  5
175
  8
DATA
  6
CONTINUOUS
 62
     7
 10
124.9475788637186
 20
25.0
 30
0.0
 40
0.75
 50
180.0
 51
28.951536688804349
  0
LINE
  5
176
  8
DATA
  6
CONTINUOUS
 62
     7
 10
179.75
 20
78.499999999999986
 30
0.0
 11
179.75
 21
61.62291971370415
 31
0.0
  0
LINE
  5
177
  8
DATA
  6
CONTINUOUS
 62
     7
 10
178.25
 20
78.499999999999986
 30
0.0
 11
178.25
 21
61.704866189507129
 31
0.0
  0
LINE
  5
178
  8
DATA
  6
CONTINUOUS
 62
     7
 10
179.73214601960649
 20
61.29610919100756
 30
0.0
 11
176.0189729862191
 21
27.41340526134832
 31
0.0
  0
LINE
  5
179
  8
DATA
  6
CONTINUOUS
 62
     7
 10
178.23214601960649
 20
61.378055666810532
 30
0.0
 11
174.52789997641591
 21
27.576810522696601
 31
0.0
  0
LINE
  5
17A
  8
DATA
  6
CONTINUOUS
 62
     7
 10
177.51004514831189
 20
25.75
 30
0.0
 11
212.9899540039776
 21
25.75
 31
0.0
  0
LINE
  5
17B
  8
DATA
  6
CONTINUOUS
 62
     7
 10
177.51004599602231
 20
24.25
 30
0.0
 11
212.9899540039776
 21
24.25
 31
0.0
  0
ARC
  5
17C
  8
DATA
  6
CONTINUOUS
 62
     7
 10
176.75
 20
78.499999999999986
 30
0.0
 40
3.0
 50
0.0
 51
90.0
  0
ARC
  5
17D
  8
DATA
  6
CONTINUOUS
 62
     7
 10
176.75
 20
78.499999999999986
 30
0.0
 40
1.5
 50
0.0
 51
90.0
  0
ARC
  5
17E
  8
DATA
  6
CONTINUOUS
 62
     7
 10
177.51004599602231
 20
27.25
 30
0.0
 40
2.99999999999998
 50
173.74596725608339
 51
270.00000000000028
  0
ARC
  5
17F
  8
DATA
  6
CONTINUOUS
 62
     7
 10
177.51004599602231
 20
27.25
 30
0.0
 40
1.499999999999988
 50
173.74596725608399
 51
270.00000000000051
  0
ARC
  5
180
  8
DATA
  6
CONTINUOUS
 62
     7
 10
176.75
 20
61.622919713704349
 30
0.0
 40
3.0000000000000129
 50
353.74596725608018
 51
359.99999999999682
  0
ARC
  5
181
  8
DATA
  6
CONTINUOUS
 62
     7
 10
175.25
 20
61.704866189507293
 30
0.0
 40
3.0000000000000129
 50
353.74596725608018
 51
359.99999999999682
  0
LINE
  5
182
  8
DATA
  6
CONTINUOUS
 62
     7
 10
210.75
 20
78.499999999999986
 30
0.0
 11
210.75
 21
61.62291971370415
 31
0.0
  0
LINE
  5
183
  8
DATA
  6
CONTINUOUS
 62
     7
 10
212.25
 20
78.499999999999986
 30
0.0
 11
212.25
 21
61.704866189507129
 31
0.0
  0
LINE
  5
184
  8
DATA
  6
CONTINUOUS
 62
     7
 10
210.76785398039351
 20
61.29610919100756
 30
0.0
 11
214.4810270137809
 21
27.41340526134832
 31
0.0
  0
LINE
  5
185
  8
DATA
  6
CONTINUOUS
 62
     7
 10
212.26785398039351
 20
61.378055666810532
 30
0.0
 11
215.97210002358409
 21
27.576810522696601
 31
0.0
  0
ARC
  5
186
  8
DATA
  6
CONTINUOUS
 62
     7
 10
213.75
 20
78.499999999999986
 30
0.0
 40
3.0
 50
90.0
 51
180.0
  0
ARC
  5
187
  8
DATA
  6
CONTINUOUS
 62
     7
 10
213.75
 20
78.499999999999986
 30
0.0
 40
1.5
 50
90.0
 51
180.0
  0
ARC
  5
188
  8
DATA
  6
CONTINUOUS
 62
     7
 10
212.9899540039776
 20
27.25
 30
0.0
 40
3.0
 50
269.99999999999972
 51
6.2540327439165821
  0
ARC
  5
189
  8
DATA
  6
CONTINUOUS
 62
     7
 10
212.9899540039776
 20
27.25
 30
0.0
 40
1.5
 50
269.99999999999937
 51
6.2540327439160128
  0
ARC
  5
18A
  8
DATA
  6
CONTINUOUS
 62
     7
 10
213.75
 20
61.622919713704349
 30
0.0
 40
3.0
 50
180.0000000000033
 51
186.25403274391979
  0
ARC
  5
18B
  8
DATA
  6
CONTINUOUS
 62
     7
 10
215.25
 20
61.704866189507293
 30
0.0
 40
3.0
 50
180.0000000000033
 51
186.25403274391979
  0
ARC
  5
18C
  8
DATA
  6
CONTINUOUS
 62
     7
 10
226.25
 20
80.749999999999986
 30
0.0
 40
0.75
 50
0.00000000000108
 51
90.0
  0
LINE
  5
18D
  8
DATA
  6
CONTINUOUS
 62
     7
 10
213.75
 20
81.499999999999986
 30
0.0
 11
226.25
 21
81.499999999999986
 31
0.0
  0
LINE
  5
18E
  8
DATA
  6
CONTINUOUS
 62
     7
 10
225.51577900101651
 20
79.999999999999986
 30
0.0
 11
213.75
 21
79.999999999999986
 31
0.0
  0
LINE
  5
18F
  8
DATA
  6
CONTINUOUS
 62
     7
 10
0.0
 20
243.2762105681407
 30
0.0
 11
0.0
 21
252.2762105681407
 31
0.0
  0
LINE
  5
190
  8
DATA
  6
CONTINUOUS
 62
     7
 10
60.5
 20
243.2762105681407
 30
0.0
 11
60.5
 21
252.2762105681407
 31
0.0
  0
LINE
  5
191
  8
DATA
  6
CONTINUOUS
 62
     7
 10
4.0
 20
239.2762105681407
 30
0.0
 11
56.5
 21
239.2762105681407
 31
0.0
  0
LINE
  5
192
  8
DATA
  6
CONTINUOUS
 62
     7
 10
4.0
 20
256.27621056814058
 30
0.0
 11
56.5
 21
256.27621056814058
 31
0.0
  0
LINE
  5
193
  8
DATA
  6
CONTINUOUS
 62
     7
 10
11.38076053454952
 20
259.9737894318593
 30
0.0
 11
49.481027013780853
 21
259.9737894318593
 31
0.0
  0
CIRCLE
  5
194
  8
DATA
  6
CONTINUOUS
 62
     7
 10
49.25
 20
248.5262105681407
 30
0.0
 40
7.25
  0
CIRCLE
  5
195
  8
DATA
  6
CONTINUOUS
 62
     7
 10
49.25
 20
248.5262105681407
 30
0.0
 40
5.25
  0
CIRCLE
  5
196
  8
DATA
  6
CONTINUOUS
 62
     7
 10
49.25
 20
248.5262105681407
 30
0.0
 40
4.25
  0
LINE
  5
197
  8
DATA
  6
CONTINUOUS
 62
     7
 10
44.394439173853428
 20
253.91007805012691
 30
0.0
 11
45.425998831200339
 21
252.12336431256381
 31
0.0
  0
LINE
  5
198
  8
DATA
  6
CONTINUOUS
 62
     7
 10
50.45322593958889
 20
243.4159515396473
 30
0.0
 11
51.4847855969359
 21
241.62923780208391
 31
0.0
  0
LINE
  5
199
  8
DATA
  6
CONTINUOUS
 62
     7
 10
46.05484713683046
 20
255.03416709695881
 30
0.0
 11
47.057976451232527
 21
253.29669615785269
 31
0.0
  0
LINE
  5
19A
  8
DATA
  6
CONTINUOUS
 62
     7
 10
52.28534993469431
 20
244.2426196943585
 30
0.0
 11
53.28847924909639
 21
242.50514875525241
 31
0.0
  0
CIRCLE
  5
19B
  8
DATA
  6
CONTINUOUS
 62
     7
 10
49.25
 20
248.5262105681407
 30
0.0
 40
0.5
  0
CIRCLE
  5
19C
  8
DATA
  6
CONTINUOUS
 62
     7
 10
46.749999999999993
 20
247.5
 30
0.0
 40
0.4999999999999998
  0
CIRCLE
  5
19D
  8
DATA
  6
CONTINUOUS
 62
     7
 10
51.75
 20
247.5
 30
0.0
 40
0.4999999999999998
  0
CIRCLE
  5
19E
  8
DATA
  6
CONTINUOUS
 62
     7
 10
49.25
 20
251.0
 30
0.0
 40
0.5000000000000086
  0
CIRCLE
  5
19F
  8
DATA
  6
CONTINUOUS
 62
     7
 10
12.75
 20
249.07621056814071
 30
0.0
 40
5.75
  0
CIRCLE
  5
1A0
  8
DATA
  6
CONTINUOUS
 62
     7
 10
12.75
 20
249.07621056814071
 30
0.0
 40
5.0
  0
CIRCLE
  5
1A1
  8
DATA
  6
CONTINUOUS
 62
     7
 10
12.75
 20
249.07621056814071
 30
0.0
 40
3.75
  0
CIRCLE
  5
1A2
  8
DATA
  6
CONTINUOUS
 62
     7
 10
12.75
 20
249.07621056814071
 30
0.0
 40
1.5
  0
ARC
  5
1A3
  8
DATA
  6
CONTINUOUS
 62
     7
 10
34.500000000000043
 20
247.77621056814061
 30
0.0
 40
1.4999999999999709
 50
90.000000000001094
 51
270.00000000000108
  0
ARC
  5
1A4
  8
DATA
  6
CONTINUOUS
 62
     7
 10
35.999999999999957
 20
247.77621056814061
 30
0.0
 40
1.500000000000028
 50
270.00000000000108
 51
89.999999999998934
  0
LINE
  5
1A5
  8
DATA
  6
CONTINUOUS
 62
     7
 10
34.5
 20
249.2762105681407
 30
0.0
 11
36.0
 21
249.2762105681407
 31
0.0
  0
LINE
  5
1A6
  8
DATA
  6
CONTINUOUS
 62
     7
 10
34.5
 20
246.2762105681407
 30
0.0
 11
36.0
 21
246.2762105681407
 31
0.0
  0
CIRCLE
  5
1A7
  8
DATA
  6
CONTINUOUS
 62
     7
 10
34.500000000000043
 20
247.77621056814061
 30
0.0
 40
0.9999999999999715
  0
ARC
  5
1A8
  8
DATA
  6
CONTINUOUS
 62
     7
 10
35.499999999999993
 20
247.77621056814061
 30
0.0
 40
1.000000000000028
 50
270.0
 51
90.0
  0
LINE
  5
1A9
  8
DATA
  6
CONTINUOUS
 62
     7
 10
34.5
 20
248.7762105681407
 30
0.0
 11
35.5
 21
248.7762105681407
 31
0.0
  0
LINE
  5
1AA
  8
DATA
  6
CONTINUOUS
 62
     7
 10
34.500000000000043
 20
246.77621056814081
 30
0.0
 11
35.5
 21
246.7762105681407
 31
0.0
  0
TEXT
  5
1AB
  8
DATA
 62
     7
 10
31.5
 20
244.34909945702961
 30
0.0
 40
2.1717881944444439
  1
on
 41
0.7
 11
31.5
 21
246.520887651474
 31
0.0
 73
     3
  0
TEXT
  5
1AC
  8
DATA
 62
     7
 10
36.5
 20
244.34909945702961
 30
0.0
 40
2.1717881944444439
  1
off
 41
0.7
 11
36.5
 21
246.520887651474
 31
0.0
 73
     3
  0
CIRCLE
  5
1AD
  8
DATA
  6
CONTINUOUS
 62
     7
 10
27.999999999999972
 20
247.77621056814061
 30
0.0
 40
1.5
  0
ARC
  5
1AE
  8
DATA
  6
CONTINUOUS
 62
     7
 10
56.5
 20
252.2762105681407
 30
0.0
 40
4.0
 50
0.0
 51
90.0
  0
ARC
  5
1AF
  8
DATA
  6
CONTINUOUS
 62
     7
 10
56.5
 20
243.2762105681407
 30
0.0
 40
4.0
 50
270.0
 51
0.0
  0
ARC
  5
1B0
  8
DATA
  6
CONTINUOUS
 62
     7
 10
4.0
 20
252.2762105681407
 30
0.0
 40
4.0
 50
90.0
 51
180.0
  0
ARC
  5
1B1
  8
DATA
  6
CONTINUOUS
 62
     7
 10
4.0
 20
243.2762105681407
 30
0.0
 40
4.0
 50
180.0
 51
270.0
  0
ARC
  5
1B2
  8
DATA
  6
CONTINUOUS
 62
     7
 10
4.0
 20
252.2762105681407
 30
0.0
 40
5.5
 50
90.0
 51
180.0
  0
LINE
  5
1B3
  8
DATA
  6
CONTINUOUS
 62
     7
 10
4.0
 20
257.7762105681407
 30
0.0
 11
13.96004719486608
 21
257.7762105681407
 31
0.0
  0
LINE
  5
1B4
  8
DATA
  6
CONTINUOUS
 62
     7
 10
11.5490107657974
 20
257.7762105681407
 30
0.0
 11
11.5296322744233
 21
257.85655533731608
 31
0.0
  0
LINE
  5
1B5
  8
DATA
  6
CONTINUOUS
 62
     7
 10
11.029058250915019
 20
259.93197512090899
 30
0.0
 11
11.01897298621914
 21
259.9737894318593
 31
0.0
  0
LINE
  5
1B6
  8
DATA
  6
CONTINUOUS
 62
     7
 10
10.00599740547713
 20
257.7762105681407
 30
0.0
 11
9.9225748455202591
 21
258.1220871482297
 31
0.0
  0
ARC
  5
1B7
  8
DATA
  6
CONTINUOUS
 62
     7
 10
11.38076053454952
 20
258.4737894318593
 30
0.0
 40
1.5
 50
90.0
 51
193.5602764237145
  0
LINE
  5
1B8
  8
DATA
  6
CONTINUOUS
 62
     7
 10
12.015694170766389
 20
258.4737894318593
 30
0.0
 11
48.48430582923362
 21
258.4737894318593
 31
0.0
  0
ARC
  5
1B9
  8
DATA
  6
CONTINUOUS
 62
     7
 10
12.01569417076638
 20
257.97378943185942
 30
0.0
 40
0.4999999999999716
 50
89.99999999999838
 51
193.5602764237191
  0
ARC
  5
1BA
  8
DATA
  6
CONTINUOUS
 62
     7
 10
13.9600459960224
 20
257.0262105681407
 30
0.0
 40
0.75
 50
269.99999999999892
 51
90.000000000001094
  0
ARC
  5
1BB
  8
DATA
  6
CONTINUOUS
 62
     7
 10
-0.7499999999999858
 20
248.97621056814069
 30
0.0
 40
0.75
 50
180.0
 51
0.0
  0
ARC
  5
1BC
  8
DATA
  6
CONTINUOUS
 62
     7
 10
-1.25
 20
248.97621056814069
 30
0.0
 40
0.749999999999969
 50
164.33078141323369
 51
291.03946978121849
  0
LINE
  5
1BD
  8
DATA
  6
CONTINUOUS
 62
     7
 10
-1.9999999999999849
 20
248.97621056814069
 30
0.0
 11
-1.408326913195977
 21
253.2762105681407
 31
0.0
  0
LINE
  5
1BE
  8
DATA
  6
CONTINUOUS
 62
     7
 10
-1.5
 20
252.2762105681407
 30
0.0
 11
-1.4999999999999849
 21
248.97621056814069
 31
0.0
  0
ARC
  5
1BF
  8
DATA
  6
CONTINUOUS
 62
     7
 10
56.5
 20
252.2762105681407
 30
0.0
 40
4.0
 50
0.0
 51
90.0
  0
ARC
  5
1C0
  8
DATA
  6
CONTINUOUS
 62
     7
 10
56.5
 20
252.2762105681407
 30
0.0
 40
5.5
 50
0.0
 51
90.0
  0
ARC
  5
1C1
  8
DATA
  6
CONTINUOUS
 62
     7
 10
61.25
 20
248.97621056814069
 30
0.0
 40
0.7499999999999716
 50
180.0
 51
0.0
  0
ARC
  5
1C2
  8
DATA
  6
CONTINUOUS
 62
     7
 10
61.75
 20
248.97621056814069
 30
0.0
 40
0.7499999999999784
 50
248.96053021878129
 51
15.6692185867663
  0
LINE
  5
1C3
  8
DATA
  6
CONTINUOUS
 62
     7
 10
62.5
 20
248.97621056814069
 30
0.0
 11
61.908326913195971
 21
253.2762105681407
 31
0.0
  0
LINE
  5
1C4
  8
DATA
  6
CONTINUOUS
 62
     7
 10
62.0
 20
252.2762105681407
 30
0.0
 11
61.999999999999993
 21
248.97621056814069
 31
0.0
  0
LINE
  5
1C5
  8
DATA
  6
CONTINUOUS
 62
     7
 10
48.950989234202602
 20
257.7762105681407
 30
0.0
 11
48.970367725576693
 21
257.85655533731608
 31
0.0
  0
LINE
  5
1C6
  8
DATA
  6
CONTINUOUS
 62
     7
 10
49.470941749084972
 20
259.93197512090899
 30
0.0
 11
49.48102701378086
 21
259.9737894318593
 31
0.0
  0
LINE
  5
1C7
  8
DATA
  6
CONTINUOUS
 62
     7
 10
50.494002594522868
 20
257.7762105681407
 30
0.0
 11
50.577425154479741
 21
258.1220871482297
 31
0.0
  0
ARC
  5
1C8
  8
DATA
  6
CONTINUOUS
 62
     7
 10
49.119239465450477
 20
258.4737894318593
 30
0.0
 40
1.499999999999996
 50
346.43972357628559
 51
90.0
  0
ARC
  5
1C9
  8
DATA
  6
CONTINUOUS
 62
     7
 10
48.48430582923362
 20
257.97378943185942
 30
0.0
 40
0.499999999999994
 50
346.43972357628098
 51
90.000000000001606
  0
ARC
  5
1CA
  8
DATA
  6
CONTINUOUS
 62
     7
 10
46.539954003977599
 20
257.0262105681407
 30
0.0
 40
0.75
 50
89.999999999998906
 51
270.00000000000102
  0
LINE
  5
1CB
  8
DATA
  6
CONTINUOUS
 62
     7
 10
46.539954003977613
 20
257.7762105681407
 30
0.0
 11
56.5
 21
257.7762105681407
 31
0.0
  0
LINE
  5
1CC
  8
DATA
  6
CONTINUOUS
 62
     7
 10
4.0
 20
241.7762105681407
 30
0.0
 11
44.506583509747529
 21
241.7762105681407
 31
0.0
  0
LINE
  5
1CD
  8
DATA
  6
CONTINUOUS
 62
     7
 10
53.993416490252493
 20
241.7762105681407
 30
0.0
 11
56.5
 21
241.7762105681407
 31
0.0
  0
ARC
  5
1CE
  8
DATA
  6
CONTINUOUS
 62
     7
 10
4.0
 20
243.2762105681407
 30
0.0
 40
1.5
 50
180.0
 51
270.0
  0
ARC
  5
1CF
  8
DATA
  6
CONTINUOUS
 62
     7
 10
56.5
 20
243.2762105681407
 30
0.0
 40
1.5
 50
270.0
 51
0.0
  0
ARC
  5
1D0
  8
DATA
  6
CONTINUOUS
 62
     7
 10
56.5
 20
243.2762105681407
 30
0.0
 40
4.0
 50
270.0
 51
0.0
  0
LINE
  5
1D1
  8
DATA
  6
CONTINUOUS
 62
     7
 10
58.0
 20
243.2762105681407
 30
0.0
 11
58.0
 21
248.2762105681407
 31
0.0
  0
LINE
  5
1D2
  8
DATA
  6
CONTINUOUS
 62
     7
 10
2.5
 20
243.2762105681407
 30
0.0
 11
2.5
 21
248.2762105681407
 31
0.0
  0
LINE
  5
1D3
  8
DATA
  6
CONTINUOUS
 62
     7
 10
2.5
 20
248.2762105681407
 30
0.0
 11
0.0
 21
248.2762105681407
 31
0.0
  0
LINE
  5
1D4
  8
DATA
  6
CONTINUOUS
 62
     7
 10
58.0
 20
248.2762105681407
 30
0.0
 11
60.5
 21
248.2762105681407
 31
0.0
  0
ARC
  5
1D5
  8
DATA
  6
CONTINUOUS
 62
     7
 10
49.250000000000021
 20
248.5262105681407
 30
0.0
 40
8.2500000000000071
 50
234.90319877241569
 51
305.09680122758402
  0
ARC
  5
1D6
  8
DATA
  6
CONTINUOUS
 62
     7
 10
166.0
 20
57.750000000000021
 30
0.0
 40
1.0000000000000131
 50
228.59037789073071
 51
131.4096221092714
  0
LINE
  5
1D7
  8
DATA
  6
CONTINUOUS
 62
     7
 10
225.5
 20
57.0
 30
0.0
 11
225.96808867948329
 21
57.0
 31
0.0
  0
LINE
  5
1D8
  8
DATA
  6
CONTINUOUS
 62
     7
 10
225.9996613740573
 20
57.000332315102241
 30
0.0
 11
226.0003122723048
 21
56.969394128006222
 31
0.0
  0
LINE
  5
1D9
  8
DATA
  6
CONTINUOUS
 62
     7
 10
223.83856217223391
 20
58.5
 30
0.0
 11
225.96811036349129
 21
58.5
 31
0.0
  0
LINE
  5
1DA
  8
DATA
  6
CONTINUOUS
 62
     7
 10
227.4680886794828
 20
58.5
 30
0.0
 11
227.5
 21
58.5
 31
0.0
  0
ARC
  5
1DB
  8
DATA
  6
CONTINUOUS
 62
     7
 10
225.96808867948329
 20
58.5
 30
0.0
 40
1.5
 50
269.99999999999937
 51
1.206048779220225
  0
LINE
  5
1DC
  8
DATA
  6
CONTINUOUS
 62
     7
 10
223.83856217223359
 20
57.0
 30
0.0
 11
225.9996683655244
 21
57.0
 31
0.0
  0
ARC
  5
1DD
  8
DATA
  6
CONTINUOUS
 62
     7
 10
224.5
 20
57.750000000000021
 30
0.0
 40
0.9999999999999708
 50
48.590377890728561
 51
311.40962210926932
  0
LINE
  5
1DE
  8
DATA
  6
CONTINUOUS
 62
     7
 10
171.75
 20
5.0
 30
0.0
 11
219.75
 21
5.0
 31
0.0
  0
LINE
  5
1DF
  8
DATA
  6
CONTINUOUS
 62
     7
 10
171.75
 20
5.0
 30
0.0
 11
171.75
 21
0.0
 31
0.0
  0
LINE
  5
1E0
  8
DATA
  6
CONTINUOUS
 62
     7
 10
219.75
 20
5.0
 30
0.0
 11
219.75
 21
0.0
 31
0.0
  0
CIRCLE
  5
1E1
  8
DATA
  6
CONTINUOUS
 62
     7
 10
169.0
 20
67.0
 30
0.0
 40
2.0
  0
ARC
  5
1E2
  8
DATA
  6
CONTINUOUS
 62
     7
 10
169.0
 20
67.0
 30
0.0
 40
2.5
 50
270.0
 51
90.0
  0
LINE
  5
1E3
  8
DATA
  6
CONTINUOUS
 62
     7
 10
169.0
 20
69.5
 30
0.0
 11
165.5
 21
69.5
 31
0.0
  0
LINE
  5
1E4
  8
DATA
  6
CONTINUOUS
 62
     7
 10
169.0
 20
64.5
 30
0.0
 11
165.5
 21
64.5
 31
0.0
  0
LINE
  5
1E5
  8
DATA
  6
CONTINUOUS
 62
     7
 10
165.5
 20
64.5
 30
0.0
 11
165.5
 21
69.5
 31
0.0
  0
LINE
  5
1E6
  8
DATA
  6
CONTINUOUS
 62
     7
 10
169.0
 20
68.0
 30
0.0
 11
169.0
 21
66.0
 31
0.0
  0
LINE
  5
1E7
  8
DATA
  6
CONTINUOUS
 62
     7
 10
168.1339745962155
 20
67.5
 30
0.0
 11
169.86602540378439
 21
66.5
 31
0.0
  0
LINE
  5
1E8
  8
DATA
  6
CONTINUOUS
 62
     7
 10
168.1339745962155
 20
66.5
 30
0.0
 11
169.8660254037845
 21
67.5
 31
0.0
  0
CIRCLE
  5
1E9
  8
DATA
  6
CONTINUOUS
 62
     7
 10
221.5
 20
67.0
 30
0.0
 40
2.0
  0
ARC
  5
1EA
  8
DATA
  6
CONTINUOUS
 62
     7
 10
221.5
 20
67.0
 30
0.0
 40
2.5
 50
90.0
 51
270.0
  0
LINE
  5
1EB
  8
DATA
  6
CONTINUOUS
 62
     7
 10
221.5
 20
69.5
 30
0.0
 11
225.0
 21
69.5
 31
0.0
  0
LINE
  5
1EC
  8
DATA
  6
CONTINUOUS
 62
     7
 10
221.5
 20
64.5
 30
0.0
 11
225.0
 21
64.5
 31
0.0
  0
LINE
  5
1ED
  8
DATA
  6
CONTINUOUS
 62
     7
 10
225.0
 20
64.5
 30
0.0
 11
225.0
 21
69.5
 31
0.0
  0
LINE
  5
1EE
  8
DATA
  6
CONTINUOUS
 62
     7
 10
221.5
 20
68.0
 30
0.0
 11
221.5
 21
66.0
 31
0.0
  0
LINE
  5
1EF
  8
DATA
  6
CONTINUOUS
 62
     7
 10
222.36602540378439
 20
67.5
 30
0.0
 11
220.63397459621561
 21
66.5
 31
0.0
  0
LINE
  5
1F0
  8
DATA
  6
CONTINUOUS
 62
     7
 10
222.36602540378439
 20
66.5
 30
0.0
 11
220.6339745962155
 21
67.5
 31
0.0
  0
TEXT
  5
1F1
  8
DATA
 62
     7
 10
-51.750009999999989
 20
-87.992174999999975
 30
0.0
 40
3.2576822916666659
  1
仕様および外観は予告なく変更されることがありますので、ご了承ください。
 41
0.7
 11
-51.750009999999989
 21
-84.734492708333306
 31
0.0
 73
     3
  0
ENDSEC
  0
EOF
