  0
SECTION
  2
HEADER
  9
$ACADVER
  1
AC1009
  9
$INSBASE
 10
0.0
 20
0.0
 30
0.0
  9
$EXTMIN
 10
-152.51647823400589
 20
-278.36571085595318
 30
-0.0006797775351437
  9
$EXTMAX
 10
387.51645074857652
 20
524.52445227010935
 30
0.0000000155594684
  9
$LIMMIN
 10
0.0
 20
0.0
  9
$LIMMAX
 10
0.0
 20
0.0
  9
$ORTHOMODE
 70
     0
  9
$REGENMODE
 70
     1
  9
$FILLMODE
 70
     1
  9
$QTEXTMODE
 70
     0
  9
$MIRRTEXT
 70
     1
  9
$DRAGMODE
 70
     2
  9
$LTSCALE
 40
15.24
  9
$OSMODE
 70
   231
  9
$ATTMODE
 70
     1
  9
$TEXTSIZE
 40
0.0
  9
$TRACEWID
 40
1.0
  9
$TEXTSTYLE
  7
STANDARD
  9
$CLAYER
  8
DATA
  9
$CELTYPE
  6
BYLAYER
  9
$CECOLOR
 62
   256
  9
$DIMSCALE
 40
1.0
  9
$DIMASZ
 40
0.18
  9
$DIMEXO
 40
0.0625
  9
$DIMDLI
 40
0.38
  9
$DIMRND
 40
0.0
  9
$DIMDLE
 40
0.0
  9
$DIMEXE
 40
0.18
  9
$DIMTP
 40
0.0
  9
$DIMTM
 40
0.0
  9
$DIMTXT
 40
0.18
  9
$DIMCEN
 40
0.09
  9
$DIMTSZ
 40
0.0
  9
$DIMTOL
 70
     0
  9
$DIMLIM
 70
     0
  9
$DIMTIH
 70
     1
  9
$DIMTOH
 70
     1
  9
$DIMSE1
 70
     0
  9
$DIMSE2
 70
     0
  9
$DIMTAD
 70
     0
  9
$DIMZIN
 70
     0
  9
$DIMBLK
  1

  9
$DIMASO
 70
     1
  9
$DIMSHO
 70
     1
  9
$DIMPOST
  1

  9
$DIMAPOST
  1

  9
$DIMALT
 70
     0
  9
$DIMALTD
 70
     2
  9
$DIMALTF
 40
25.399999999999999
  9
$DIMLFAC
 40
1.0
  9
$DIMTOFL
 70
     0
  9
$DIMTVP
 40
0.0
  9
$DIMTIX
 70
     0
  9
$DIMSOXD
 70
     0
  9
$DIMSAH
 70
     0
  9
$DIMBLK1
  1

  9
$DIMBLK2
  1

  9
$DIMSTYLE
  2
STANDARD
  9
$DIMCLRD
 70
     0
  9
$DIMCLRE
 70
     0
  9
$DIMCLRT
 70
     0
  9
$DIMTFAC
 40
1.0
  9
$DIMGAP
 40
0.09
  9
$LUNITS
 70
     2
  9
$LUPREC
 70
     4
  9
$SKETCHINC
 40
0.1
  9
$FILLETRAD
 40
0.0
  9
$AUNITS
 70
     0
  9
$AUPREC
 70
     0
  9
$MENU
  1
acad
  9
$ELEVATION
 40
0.0
  9
$PELEVATION
 40
0.0
  9
$THICKNESS
 40
0.0
  9
$LIMCHECK
 70
     0
  9
$BLIPMODE
 70
     0
  9
$CHAMFERA
 40
0.0
  9
$CHAMFERB
 40
0.0
  9
$SKPOLY
 70
     0
  9
$TDCREATE
 40
2454952.770763889
  9
$TDUPDATE
 40
2454952.782827917
  9
$TDINDWG
 40
0.0002897454
  9
$TDUSRTIMER
 40
0.0002895602
  9
$USRTIMER
 70
     1
  9
$ANGBASE
 50
0.0
  9
$ANGDIR
 70
     0
  9
$PDMODE
 70
     1
  9
$PDSIZE
 40
-2.0
  9
$PLINEWID
 40
0.0
  9
$COORDS
 70
     1
  9
$SPLFRAME
 70
     0
  9
$SPLINETYPE
 70
     6
  9
$SPLINESEGS
 70
     8
  9
$ATTDIA
 70
     0
  9
$ATTREQ
 70
     1
  9
$HANDLING
 70
     1
  9
$HANDSEED
  5
3C7
  9
$SURFTAB1
 70
     6
  9
$SURFTAB2
 70
     6
  9
$SURFTYPE
 70
     6
  9
$SURFU
 70
     6
  9
$SURFV
 70
     6
  9
$UCSNAME
  2

  9
$UCSORG
 10
0.0
 20
0.0
 30
0.0
  9
$UCSXDIR
 10
1.0
 20
0.0
 30
0.0
  9
$UCSYDIR
 10
0.0
 20
1.0
 30
0.0
  9
$PUCSNAME
  2

  9
$PUCSORG
 10
0.0
 20
0.0
 30
0.0
  9
$PUCSXDIR
 10
1.0
 20
0.0
 30
0.0
  9
$PUCSYDIR
 10
0.0
 20
1.0
 30
0.0
  9
$USERI1
 70
     0
  9
$USERI2
 70
     0
  9
$USERI3
 70
     0
  9
$USERI4
 70
     0
  9
$USERI5
 70
     0
  9
$USERR1
 40
0.0
  9
$USERR2
 40
0.0
  9
$USERR3
 40
0.0
  9
$USERR4
 40
0.0
  9
$USERR5
 40
0.0
  9
$WORLDVIEW
 70
     1
  9
$SHADEDGE
 70
     3
  9
$SHADEDIF
 70
    70
  9
$TILEMODE
 70
     1
  9
$MAXACTVP
 70
    64
  9
$PLIMCHECK
 70
     0
  9
$PEXTMIN
 10
1.0000000000000000E+020
 20
1.0000000000000000E+020
 30
1.0000000000000000E+020
  9
$PEXTMAX
 10
-1.0000000000000000E+020
 20
-1.0000000000000000E+020
 30
-1.0000000000000000E+020
  9
$PLIMMIN
 10
0.0
 20
0.0
  9
$PLIMMAX
 10
12.0
 20
9.0
  9
$UNITMODE
 70
     0
  9
$VISRETAIN
 70
     0
  9
$PLINEGEN
 70
     1
  9
$PSLTSCALE
 70
     0
  0
ENDSEC
  0
SECTION
  2
TABLES
  0
TABLE
  2
VPORT
 70
     1
  0
VPORT
  2
*ACTIVE
 70
     0
 10
0.0
 20
0.0
 11
1.0
 21
1.0
 12
117.4999862572853
 22
123.079370707078
 13
0.0
 23
0.0
 14
1.0
 24
1.0
 15
0.0
 25
0.0
 16
0.0
 26
0.0
 36
1.0
 17
0.0
 27
0.0
 37
0.0
 40
809.62770295649113
 41
1.6596638655462179
 42
50.0
 43
0.0
 44
0.0
 50
0.0
 51
0.0
 71
     0
 72
  2000
 73
     1
 74
     1
 75
     0
 76
     0
 77
     0
 78
     0
  0
ENDTAB
  0
TABLE
  2
LTYPE
 70
    11
  0
LTYPE
  2
CONTINUOUS
 70
     0
  3
Solid line
 72
    65
 73
     0
 40
0.0
  0
ENDTAB
  0
TABLE
  2
LAYER
 70
     6
  0
LAYER
  2
0
 70
     0
 62
     7
  6
CONTINUOUS
  0
LAYER
  2
DATA
 70
     0
 62
     7
  6
CONTINUOUS
  0
LAYER
  2
HIBINO-BASE
 70
     0
 62
     7
  6
CONTINUOUS
  0
LAYER
  2
PATTERN_FILL
 70
     0
 62
     7
  6
CONTINUOUS
  0
LAYER
  2
SPEC
 70
     0
 62
     7
  6
CONTINUOUS
  0
LAYER
  2
DIMNSIONS
 70
     0
 62
     7
  6
CONTINUOUS
  0
ENDTAB
  0
TABLE
  2
STYLE
 70
     3
  0
STYLE
  2
STANDARD
 70
     0
 40
0.0
 41
1.0
 50
0.0
 71
     0
 42
0.0
  3
txt
  4
BIGFONT.SHX
  0
ENDTAB
  0
TABLE
  2
VIEW
 70
     0
  0
ENDTAB
  0
TABLE
  2
UCS
 70
     0
  0
ENDTAB
  0
TABLE
  2
APPID
 70
     3
  0
APPID
  2
ACAD
 70
     0
  0
APPID
  2
ACADANNOTATIVE
 70
     0
  0
APPID
  2
ACAD_MLEADERVER
 70
     0
  0
ENDTAB
  0
TABLE
  2
DIMSTYLE
 70
     2
  0
DIMSTYLE
  2
STANDARD
 70
     0
  3

  4

  5

  6

  7

 40
1.0
 41
0.18
 42
0.0625
 43
0.38
 44
0.18
 45
0.0
 46
0.0
 47
0.0
 48
0.0
140
0.18
141
0.09
142
0.0
143
25.399999999999999
144
1.0
145
0.0
146
1.0
147
0.09
 71
     0
 72
     0
 73
     1
 74
     1
 75
     0
 76
     0
 77
     0
 78
     0
170
     0
171
     2
172
     0
173
     0
174
     0
175
     0
176
     0
177
     0
178
     0
  0
ENDTAB
  0
ENDSEC
  0
SECTION
  2
BLOCKS
  0
BLOCK
  8
0
  2
$MODEL_SPACE
 70
     0
 10
0.0
 20
0.0
 30
0.0
  3
$MODEL_SPACE
  1

  0
ENDBLK
  5
364
  8
0
  0
BLOCK
 67
     1
  8
0
  2
$PAPER_SPACE
 70
     0
 10
0.0
 20
0.0
 30
0.0
  3
$PAPER_SPACE
  1

  0
ENDBLK
  5
360
 67
     1
  8
0
  0
BLOCK
  8
PATTERN_FILL
  2
____
 70
     0
 10
0.0
 20
0.0
 30
0.0
  3
____
  1

  0
ARC
  5
2F
  8
0
  6
CONTINUOUS
 62
     7
 10
-117.499985
 20
-237.1284182096943
 30
0.0
 40
21.999999999999972
 50
149.8800904263301
 51
158.67631373650201
  0
ARC
  5
30
  8
0
  6
CONTINUOUS
 62
     7
 10
-117.499985
 20
-237.1284182096943
 30
0.0
 40
23.999999999999961
 50
134.93020578540629
 51
160.52877936550931
  0
ARC
  5
31
  8
0
  6
CONTINUOUS
 62
     7
 10
-117.499985
 20
-237.1284182096943
 30
0.0
 40
25.999999999999989
 50
115.39001657831081
 51
149.39717933085191
  0
ARC
  5
32
  8
0
  6
CONTINUOUS
 62
     7
 10
-117.499985
 20
-237.1284182096943
 30
0.0
 40
27.999999999999972
 50
45.728353920330399
 51
134.27164607966969
  0
ARC
  5
33
  8
0
  6
CONTINUOUS
 62
     7
 10
-117.499985
 20
-237.1284182096943
 30
0.0
 40
29.999999999999972
 50
65.814073631362476
 51
114.18592636863779
  0
LINE
  5
34
  8
0
  6
CONTINUOUS
 62
     7
 10
-117.499985
 20
-206.20227
 30
0.0
 11
-117.499985
 21
-210.12737146130641
 31
0.0
  0
ARC
  5
35
  8
0
  6
CONTINUOUS
 62
     7
 10
-744.74998500000061
 20
-231.12841820969439
 30
0.0
 40
625.25000000000102
 50
1.912349155139871
 51
2.2723387098093779
  0
ARC
  5
36
  8
0
  6
CONTINUOUS
 62
     7
 10
-744.6550989606377
 20
-242.00128137646459
 30
0.0
 40
623.25000000000102
 50
2.8794719000980762
 51
3.2441405321321688
  0
ARC
  5
37
  8
0
  6
CONTINUOUS
 62
     7
 10
-744.37148458417755
 20
-252.83299568963739
 30
0.0
 40
621.2500000000008
 50
3.8220227072864952
 51
4.1950949352682887
  0
ARC
  5
38
  8
0
  6
CONTINUOUS
 62
     7
 10
-743.90043073234494
 20
-263.62195863877469
 30
0.0
 40
619.25000000000068
 50
4.7381781922335193
 51
5.1242403083650867
  0
ARC
  5
39
  8
0
  6
CONTINUOUS
 62
     7
 10
-743.24328635383381
 20
-274.36617425436162
 30
0.0
 40
617.2500000000008
 50
5.6247360054188498
 51
6.0299442902286042
  0
ARC
  5
3A
  8
0
  6
CONTINUOUS
 62
     7
 10
-742.40146615807032
 20
-285.06251401278013
 30
0.0
 40
615.25000000000068
 50
6.4760994169397037
 51
6.9095461795590989
  0
ARC
  5
3B
  8
0
  6
CONTINUOUS
 62
     7
 10
-741.37644023677785
 20
-295.70781522283971
 30
0.0
 40
613.2500000000008
 50
7.28206497386837
 51
7.7588923837271251
  0
ARC
  5
3C
  8
0
  6
CONTINUOUS
 62
     7
 10
-740.16973263606019
 20
-306.29895190701569
 30
0.0
 40
611.25000000000068
 50
8.0207145207973962
 51
8.5711432192349104
  0
ARC
  5
3D
  8
0
  6
CONTINUOUS
 62
     7
 10
-738.78292052303425
 20
-316.83283571810881
 30
0.0
 40
609.25000000000125
 50
8.6218022805520835
 51
9.3337972158209954
  0
ARC
  5
3E
  8
0
  6
CONTINUOUS
 62
     7
 10
-737.21763333695424
 20
-327.30641683800633
 30
0.0
 40
607.25000000000068
 50
9.3042143299878077
 51
10.01902477928089
  0
ARC
  5
3F
  8
0
  6
CONTINUOUS
 62
     7
 10
-735.47555192520463
 20
-337.7166848582811
 30
0.0
 40
605.25000000000091
 50
10.33543090944351
 51
10.525119331335411
  0
ARC
  5
40
  8
0
  6
CONTINUOUS
 62
     7
 10
-117.499985
 20
-237.1284182096943
 30
0.0
 40
21.999999999999972
 50
21.323686263497962
 51
30.11990957366984
  0
ARC
  5
41
  8
0
  6
CONTINUOUS
 62
     7
 10
-117.499985
 20
-237.1284182096943
 30
0.0
 40
23.999999999999961
 50
19.471220634490731
 51
45.069794214593713
  0
ARC
  5
42
  8
0
  6
CONTINUOUS
 62
     7
 10
-117.499985
 20
-237.1284182096943
 30
0.0
 40
26.0
 50
30.602820669148119
 51
64.609983421689108
  0
ARC
  5
43
  8
0
  6
CONTINUOUS
 62
     7
 10
509.75001500000081
 20
-231.12841820969439
 30
0.0
 40
625.2500000000008
 50
177.72766129019061
 51
178.08765084486009
  0
ARC
  5
44
  8
0
  6
CONTINUOUS
 62
     7
 10
509.65512896063763
 20
-242.00128137646459
 30
0.0
 40
623.25000000000068
 50
176.75585946786779
 51
177.12052809990189
  0
ARC
  5
45
  8
0
  6
CONTINUOUS
 62
     7
 10
509.37151458417742
 20
-252.83299568963739
 30
0.0
 40
621.2500000000008
 50
175.80490506473171
 51
176.17797729271351
  0
ARC
  5
46
  8
0
  6
CONTINUOUS
 62
     7
 10
508.90046073234498
 20
-263.62195863877469
 30
0.0
 40
619.25000000000068
 50
174.8757596916349
 51
175.26182180776641
  0
ARC
  5
47
  8
0
  6
CONTINUOUS
 62
     7
 10
508.24331635383402
 20
-274.36617425436162
 30
0.0
 40
617.25000000000045
 50
173.9700557097714
 51
174.37526399458119
  0
ARC
  5
48
  8
0
  6
CONTINUOUS
 62
     7
 10
507.4014961580703
 20
-285.06251401278013
 30
0.0
 40
615.25000000000068
 50
173.0904538204409
 51
173.5239005830602
  0
ARC
  5
49
  8
0
  6
CONTINUOUS
 62
     7
 10
506.37647023677772
 20
-295.70781522283971
 30
0.0
 40
613.2500000000008
 50
172.2411076162729
 51
172.71793502613161
  0
ARC
  5
4A
  8
0
  6
CONTINUOUS
 62
     7
 10
505.16976263606011
 20
-306.29895190701569
 30
0.0
 40
611.25000000000068
 50
171.4288567807651
 51
171.97928547920259
  0
ARC
  5
4B
  8
0
  6
CONTINUOUS
 62
     7
 10
503.78295052303429
 20
-316.83283571810881
 30
0.0
 40
609.25000000000125
 50
170.66620278417901
 51
171.37819771944791
  0
ARC
  5
4C
  8
0
  6
CONTINUOUS
 62
     7
 10
502.21766333695399
 20
-327.30641683800633
 30
0.0
 40
607.25000000000068
 50
169.9809752207191
 51
170.69578567001221
  0
ARC
  5
4D
  8
0
  6
CONTINUOUS
 62
     7
 10
500.47558192520461
 20
-337.7166848582811
 30
0.0
 40
605.25000000000091
 50
169.47488066866461
 51
169.66456909055651
  0
ARC
  5
4E
  8
0
  6
CONTINUOUS
 62
     7
 10
-117.499985
 20
-221.27612179030569
 30
0.0
 40
21.999999999999972
 50
201.3236862634979
 51
210.1199095736699
  0
ARC
  5
4F
  8
0
  6
CONTINUOUS
 62
     7
 10
-117.499985
 20
-221.27612179030569
 30
0.0
 40
23.999999999999961
 50
199.47122063449069
 51
225.06979421459371
  0
ARC
  5
50
  8
0
  6
CONTINUOUS
 62
     7
 10
-117.499985
 20
-221.27612179030569
 30
0.0
 40
26.0
 50
210.60282066914809
 51
244.60998342168909
  0
ARC
  5
51
  8
0
  6
CONTINUOUS
 62
     7
 10
-117.499985
 20
-221.27612179030569
 30
0.0
 40
27.999999999999972
 50
225.72835392033039
 51
314.27164607966961
  0
ARC
  5
52
  8
0
  6
CONTINUOUS
 62
     7
 10
-117.499985
 20
-221.27612179030569
 30
0.0
 40
29.999999999999961
 50
245.81407363136231
 51
294.18592636863752
  0
LINE
  5
53
  8
0
  6
CONTINUOUS
 62
     7
 10
-117.499985
 20
-252.20227
 30
0.0
 11
-117.499985
 21
-248.27716853869359
 31
0.0
  0
ARC
  5
54
  8
0
  6
CONTINUOUS
 62
     7
 10
-744.74998500000061
 20
-227.27612179030561
 30
0.0
 40
625.25000000000102
 50
357.72766129019072
 51
358.08765084486009
  0
ARC
  5
55
  8
0
  6
CONTINUOUS
 62
     7
 10
-744.6550989606377
 20
-216.40325862353541
 30
0.0
 40
623.25000000000102
 50
356.75585946786782
 51
357.12052809990189
  0
ARC
  5
56
  8
0
  6
CONTINUOUS
 62
     7
 10
-744.37148458417755
 20
-205.57154431036261
 30
0.0
 40
621.2500000000008
 50
355.80490506473171
 51
356.17797729271348
  0
ARC
  5
57
  8
0
  6
CONTINUOUS
 62
     7
 10
-743.90043073234494
 20
-194.78258136122531
 30
0.0
 40
619.25000000000068
 50
354.87575969163493
 51
355.26182180776652
  0
ARC
  5
58
  8
0
  6
CONTINUOUS
 62
     7
 10
-743.24328635383381
 20
-184.0383657456384
 30
0.0
 40
617.2500000000008
 50
353.97005570977137
 51
354.37526399458119
  0
ARC
  5
59
  8
0
  6
CONTINUOUS
 62
     7
 10
-742.40146615807032
 20
-173.3420259872199
 30
0.0
 40
615.25000000000068
 50
353.09045382044093
 51
353.5239005830602
  0
ARC
  5
5A
  8
0
  6
CONTINUOUS
 62
     7
 10
-741.37644023677785
 20
-162.69672477716031
 30
0.0
 40
613.2500000000008
 50
352.24110761627293
 51
352.71793502613161
  0
ARC
  5
5B
  8
0
  6
CONTINUOUS
 62
     7
 10
-740.16973263606019
 20
-152.10558809298431
 30
0.0
 40
611.25000000000068
 50
351.42885678076522
 51
351.97928547920259
  0
ARC
  5
5C
  8
0
  6
CONTINUOUS
 62
     7
 10
-738.78292052303425
 20
-141.57170428189119
 30
0.0
 40
609.25000000000125
 50
350.66620278417901
 51
351.37819771944788
  0
ARC
  5
5D
  8
0
  6
CONTINUOUS
 62
     7
 10
-737.21763333695424
 20
-131.0981231619937
 30
0.0
 40
607.25000000000068
 50
349.98097522071919
 51
350.6957856700123
  0
ARC
  5
5E
  8
0
  6
CONTINUOUS
 62
     7
 10
-735.47555192520463
 20
-120.6878551417189
 30
0.0
 40
605.25000000000091
 50
349.47488066866458
 51
349.66456909055648
  0
ARC
  5
5F
  8
0
  6
CONTINUOUS
 62
     7
 10
-117.499985
 20
-221.27612179030569
 30
0.0
 40
21.999999999999972
 50
329.88009042633013
 51
338.67631373650198
  0
ARC
  5
60
  8
0
  6
CONTINUOUS
 62
     7
 10
-117.499985
 20
-221.27612179030569
 30
0.0
 40
23.999999999999961
 50
314.93020578540632
 51
340.52877936550931
  0
ARC
  5
61
  8
0
  6
CONTINUOUS
 62
     7
 10
-117.499985
 20
-221.27612179030569
 30
0.0
 40
26.0
 50
295.39001657831091
 51
329.39717933085183
  0
ARC
  5
62
  8
0
  6
CONTINUOUS
 62
     7
 10
509.75001500000081
 20
-227.27612179030561
 30
0.0
 40
625.25000000000102
 50
181.91234915513979
 51
182.2723387098093
  0
ARC
  5
63
  8
0
  6
CONTINUOUS
 62
     7
 10
509.65512896063763
 20
-216.40325862353541
 30
0.0
 40
623.25000000000068
 50
182.879471900098
 51
183.24414053213209
  0
ARC
  5
64
  8
0
  6
CONTINUOUS
 62
     7
 10
509.37151458417742
 20
-205.57154431036261
 30
0.0
 40
621.2500000000008
 50
183.82202270728649
 51
184.19509493526829
  0
ARC
  5
65
  8
0
  6
CONTINUOUS
 62
     7
 10
508.90046073234498
 20
-194.78258136122531
 30
0.0
 40
619.25000000000068
 50
184.73817819223359
 51
185.1242403083651
  0
ARC
  5
66
  8
0
  6
CONTINUOUS
 62
     7
 10
508.24331635383402
 20
-184.0383657456384
 30
0.0
 40
617.2500000000008
 50
185.62473600541881
 51
186.0299442902286
  0
ARC
  5
67
  8
0
  6
CONTINUOUS
 62
     7
 10
507.4014961580703
 20
-173.3420259872199
 30
0.0
 40
615.25000000000068
 50
186.47609941693969
 51
186.90954617955899
  0
ARC
  5
68
  8
0
  6
CONTINUOUS
 62
     7
 10
506.37647023677772
 20
-162.69672477716031
 30
0.0
 40
613.25000000000045
 50
187.28206497386839
 51
187.7588923837271
  0
ARC
  5
69
  8
0
  6
CONTINUOUS
 62
     7
 10
505.16976263606011
 20
-152.10558809298431
 30
0.0
 40
611.25000000000068
 50
188.02071452079741
 51
188.5711432192349
  0
ARC
  5
6A
  8
0
  6
CONTINUOUS
 62
     7
 10
503.78295052303429
 20
-141.57170428189119
 30
0.0
 40
609.25000000000114
 50
188.62180228055209
 51
189.33379721582099
  0
ARC
  5
6B
  8
0
  6
CONTINUOUS
 62
     7
 10
502.21766333695399
 20
-131.0981231619937
 30
0.0
 40
607.25000000000068
 50
189.30421432998779
 51
190.0190247792809
  0
ARC
  5
6C
  8
0
  6
CONTINUOUS
 62
     7
 10
500.47558192520461
 20
-120.6878551417189
 30
0.0
 40
605.25000000000091
 50
190.33543090944349
 51
190.52511933133539
  0
ENDBLK
  5
6D
  8
PATTERN_FILL
  0
ENDSEC
  0
SECTION
  2
ENTITIES
  0
LINE
  5
6E
  8
HIBINO-BASE
  6
CONTINUOUS
 62
     7
 10
-152.5
 20
524.5
 30
0.0
 11
387.49997000000002
 21
524.5
 31
0.0
  0
LINE
  5
6F
  8
HIBINO-BASE
  6
CONTINUOUS
 62
     7
 10
387.49997000000002
 20
-255.49998500000001
 30
0.0
 11
-152.5
 21
-255.49998500000001
 31
0.0
  0
LINE
  5
70
  8
HIBINO-BASE
  6
CONTINUOUS
 62
     7
 10
-152.5
 20
-255.49998500000001
 30
0.0
 11
-152.5
 21
524.5
 31
0.0
  0
TEXT
  5
71
  8
HIBINO-BASE
 62
     7
 10
-130.94799999999989
 20
-274.72600549999999
 30
0.0
 40
10.800120996093741
  1
Hibino Corporation
 41
0.7
 11
-130.94799999999989
 21
-263.92588450390627
 31
0.0
 73
     3
  0
LINE
  5
72
  8
HIBINO-BASE
  6
CONTINUOUS
 62
     7
 10
387.49997000000002
 20
524.5
 30
0.0
 11
387.49997000000002
 21
-255.49998500000001
 31
0.0
  0
LINE
  5
73
  8
HIBINO-BASE
  6
CONTINUOUS
 62
     7
 10
117.499985
 20
-188.0
 30
0.0
 11
387.49997000000002
 21
-188.0
 31
0.0
  0
LINE
  5
74
  8
HIBINO-BASE
  6
CONTINUOUS
 62
     7
 10
117.499985
 20
-255.49998500000001
 30
0.0
 11
117.499985
 21
-188.0
 31
0.0
  0
TEXT
  5
75
  8
HIBINO-BASE
 62
     7
 10
120.19996999999999
 20
-196.10000959999999
 30
0.0
 40
5.4000778125000002
  1
NOTE
 41
0.7
 11
120.19996999999999
 21
-190.69993178749999
 31
0.0
 73
     3
  0
LINE
  5
76
  8
HIBINO-BASE
  6
CONTINUOUS
 62
     7
 10
222.49998500000001
 20
-255.49998500000001
 30
0.0
 11
222.49998500000001
 21
-188.0
 31
0.0
  0
TEXT
  5
77
  8
HIBINO-BASE
 62
     7
 10
225.199985
 20
-196.10000959999999
 30
0.0
 40
5.4000778125000002
  1
TITLE
 41
0.7
 11
225.199985
 21
-190.69993178749999
 31
0.0
 73
     3
  0
TEXT
  5
78
  8
HIBINO-BASE
 62
     7
 10
267.70513999999997
 20
-274.72600549999999
 30
0.0
 40
10.800120996093741
  1
ヒビノ株式会社
 41
0.7
 11
267.70513999999997
 21
-263.92588450390627
 31
0.0
 73
     3
  0
LINE
  5
79
  8
HIBINO-BASE
  6
CONTINUOUS
 62
     7
 10
117.499985
 20
-225.5
 30
0.0
 11
387.49997000000002
 21
-225.5
 31
0.0
  0
TEXT
  5
7A
  8
HIBINO-BASE
 62
     7
 10
262.69998500000003
 20
-233.43103459999989
 30
0.0
 40
5.4000778125000002
  1
DRAWN
 41
0.7
 11
262.69998500000003
 21
-228.03095678749989
 31
0.0
 73
     3
  0
TEXT
  5
7B
  8
HIBINO-BASE
 62
     7
 10
187.699985
 20
-233.43103459999989
 30
0.0
 40
5.4000778125000002
  1
DATE
 41
0.7
 11
187.699985
 21
-228.03095678749989
 31
0.0
 73
     3
  0
TEXT
  5
7C
  8
HIBINO-BASE
 62
     7
 10
120.7999699999999
 20
-233.3583406999999
 30
0.0
 40
4.8865195898437506
  1
図面サイズ
 41
0.7
 11
120.7999699999999
 21
-228.47182111015621
 31
0.0
 73
     3
  0
TEXT
  5
7D
  8
HIBINO-BASE
 62
     7
 10
157.69996999999989
 20
-233.43103459999989
 30
0.0
 40
5.4000778125000002
  1
SCALE
 41
0.7
 11
157.69996999999989
 21
-228.03095678749989
 31
0.0
 73
     3
  0
TEXT
  5
7E
  8
HIBINO-BASE
 62
     7
 10
225.199985
 20
-233.43103459999989
 30
0.0
 40
5.4000778125000002
  1
DESIGN
 41
0.7
 11
225.199985
 21
-228.03095678749989
 31
0.0
 73
     3
  0
TEXT
  5
7F
  8
HIBINO-BASE
 62
     7
 10
337.69996999999989
 20
-233.43103459999989
 30
0.0
 40
5.4000778125000002
  1
DRAWING NO.
 41
0.7
 11
337.69996999999989
 21
-228.03095678749989
 31
0.0
 73
     3
  0
TEXT
  5
80
  8
HIBINO-BASE
 62
     7
 10
300.19997000000001
 20
-233.43103459999989
 30
0.0
 40
5.4000778125000002
  1
CHECK
 41
0.7
 11
300.19997000000001
 21
-228.03095678749989
 31
0.0
 73
     3
  0
LINE
  5
81
  8
HIBINO-BASE
  6
CONTINUOUS
 62
     7
 10
160.62496999999991
 20
-251.75
 30
0.0
 11
171.8749849999999
 21
-240.5
 31
0.0
  0
TEXT
  5
82
  8
HIBINO-BASE
 62
     7
 10
158.74996999999991
 20
-245.6471426
 30
0.0
 40
6.515359453124999
  1
1
 41
0.7
 11
158.74996999999991
 21
-239.13178314687499
 31
0.0
 73
     3
  0
LINE
  5
83
  8
HIBINO-BASE
  6
CONTINUOUS
 62
     7
 10
154.99996999999991
 20
-255.49998500000001
 30
0.0
 11
154.99996999999991
 21
-225.5
 31
0.0
  0
LINE
  5
84
  8
HIBINO-BASE
  6
CONTINUOUS
 62
     7
 10
184.99996999999999
 20
-255.49998500000001
 30
0.0
 11
184.99996999999999
 21
-225.5
 31
0.0
  0
LINE
  5
85
  8
HIBINO-BASE
  6
CONTINUOUS
 62
     7
 10
259.99997000000002
 20
-225.5
 30
0.0
 11
259.99997000000002
 21
-255.49998500000001
 31
0.0
  0
LINE
  5
86
  8
HIBINO-BASE
  6
CONTINUOUS
 62
     7
 10
334.99998499999998
 20
-225.5
 30
0.0
 11
334.99998499999998
 21
-255.49998500000001
 31
0.0
  0
LINE
  5
87
  8
HIBINO-BASE
  6
CONTINUOUS
 62
     7
 10
297.49997000000002
 20
-255.49998500000001
 30
0.0
 11
297.49997000000002
 21
-225.5
 31
0.0
  0
TEXT
  5
88
  8
HIBINO-BASE
 62
     7
 10
129.23265499999991
 20
-248.00460349999989
 30
0.0
 40
9.7730276367187496
  1
A4
 41
0.7
 11
129.23265499999991
 21
-238.23157586328119
 31
0.0
 73
     3
  0
TEXT
  5
89
  8
HIBINO-BASE
 62
     7
 10
187.569605
 20
-247.48297460000001
 30
0.0
 40
5.4000778125000002
  1
'06.2.
 41
0.7
 11
187.569605
 21
-242.0828967875
 31
0.0
 73
     3
  0
TEXT
  5
8A
  8
HIBINO-BASE
 62
     7
 10
169.9999849999999
 20
-251.2721426
 30
0.0
 40
6.515359453124999
  1
3
 41
0.7
 11
169.9999849999999
 21
-244.75678314687499
 31
0.0
 73
     3
  0
TEXT
  5
8B
  8
HIBINO-BASE
 62
     7
 10
264.51740003310391
 20
-246.9090525
 30
0.0
 40
4.8865234374999993
  1
N.Sasaki
 41
0.7
 11
264.51740003310391
 21
-242.02252906250001
 31
0.0
 73
     3
  0
INSERT
  5
8C
  8
PATTERN_FILL
 62
     7
  2
____
 10
117.499985
 20
129.20227
 30
0.0
  0
ARC
  5
8D
  8
PATTERN_FILL
  6
CONTINUOUS
 62
     7
 10
0.0000000000000284
 20
219.5
 30
0.0
 40
10.0
 50
44.427004000805688
 51
135.57299599919421
  0
ARC
  5
8E
  8
PATTERN_FILL
  6
CONTINUOUS
 62
     7
 10
0.0000000000000284
 20
219.5
 30
0.0
 40
11.99999999999998
 50
35.6853347126521
 51
144.31466528734791
  0
ARC
  5
8F
  8
PATTERN_FILL
  6
CONTINUOUS
 62
     7
 10
0.0000000000000284
 20
219.5
 30
0.0
 40
14.000000000000011
 50
30.00000000000038
 51
150.0
  0
ARC
  5
90
  8
PATTERN_FILL
  6
CONTINUOUS
 62
     7
 10
0.0000000000000284
 20
219.5
 30
0.0
 40
15.999999999999989
 50
25.944479772373921
 51
154.0555202276299
  0
ARC
  5
91
  8
PATTERN_FILL
  6
CONTINUOUS
 62
     7
 10
0.0000000000000284
 20
219.5
 30
0.0
 40
18.0
 50
22.885380476156119
 51
157.11461952384141
  0
ARC
  5
92
  8
PATTERN_FILL
  6
CONTINUOUS
 62
     7
 10
0.0000000000000284
 20
219.5
 30
0.0
 40
20.0
 50
20.487315114723149
 51
159.51268488527731
  0
ARC
  5
93
  8
PATTERN_FILL
  6
CONTINUOUS
 62
     7
 10
0.0000000000000284
 20
219.5
 30
0.0
 40
21.999999999999989
 50
18.55300453504093
 51
161.46984582378951
  0
ARC
  5
94
  8
PATTERN_FILL
  6
CONTINUOUS
 62
     7
 10
0.0000000000000284
 20
219.5
 30
0.0
 40
23.99999999999995
 50
16.940727594531591
 51
163.05927240546839
  0
ARC
  5
95
  8
PATTERN_FILL
  6
CONTINUOUS
 62
     7
 10
0.0000000000000284
 20
219.5
 30
0.0
 40
26.0
 50
16.191351638617029
 51
163.8086483613834
  0
ARC
  5
96
  8
PATTERN_FILL
  6
CONTINUOUS
 62
     7
 10
0.0000000000000284
 20
219.5
 30
0.0
 40
27.999999999999972
 50
35.475666086133728
 51
144.5243339138662
  0
ARC
  5
97
  8
PATTERN_FILL
  6
CONTINUOUS
 62
     7
 10
0.0000000000000284
 20
219.5
 30
0.0
 40
29.999999999999979
 50
59.756072044010331
 51
120.24392795598961
  0
LINE
  5
98
  8
PATTERN_FILL
  6
CONTINUOUS
 62
     7
 10
0.0000000000000284
 20
250.5
 30
0.0
 11
0.0000000000000284
 21
226.5
 31
0.0
  0
ARC
  5
99
  8
PATTERN_FILL
  6
CONTINUOUS
 62
     7
 10
627.25000000000102
 20
225.5
 30
0.0
 40
625.25000000000125
 50
177.71992094845569
 51
179.90836348555121
  0
ARC
  5
9A
  8
PATTERN_FILL
  6
CONTINUOUS
 62
     7
 10
627.15511396063755
 20
214.6271368332298
 30
0.0
 40
623.25000000000102
 50
176.74520391614229
 51
178.9084553142732
  0
ARC
  5
9B
  8
PATTERN_FILL
  6
CONTINUOUS
 62
     7
 10
626.87149958417774
 20
203.79542252005689
 30
0.0
 40
621.2500000000008
 50
175.7892465267945
 51
177.90544145148741
  0
ARC
  5
9C
  8
PATTERN_FILL
  6
CONTINUOUS
 62
     7
 10
626.40044573234525
 20
193.0064595709197
 30
0.0
 40
619.25000000000068
 50
174.8526984021124
 51
176.8995189384097
  0
ARC
  5
9D
  8
PATTERN_FILL
  6
CONTINUOUS
 62
     7
 10
625.74330135383423
 20
182.26224395533271
 30
0.0
 40
617.2500000000008
 50
173.9366644335438
 51
175.8901446122625
  0
ARC
  5
9E
  8
PATTERN_FILL
  6
CONTINUOUS
 62
     7
 10
624.90148115807051
 20
171.5659041969142
 30
0.0
 40
615.25000000000068
 50
173.04292504797331
 51
174.87663243155129
  0
ARC
  5
9F
  8
PATTERN_FILL
  6
CONTINUOUS
 62
     7
 10
623.8764552367777
 20
160.92060298685459
 30
0.0
 40
613.25000000000045
 50
172.17410924840749
 51
173.8612048870709
  0
ARC
  5
A0
  8
PATTERN_FILL
  6
CONTINUOUS
 62
     7
 10
622.66974763606026
 20
150.3294663026787
 30
0.0
 40
611.25000000000068
 50
171.334201161739
 51
172.84152309440961
  0
ARC
  5
A1
  8
PATTERN_FILL
  6
CONTINUOUS
 62
     7
 10
621.28293552303433
 20
139.79558249158549
 30
0.0
 40
609.2500000000008
 50
170.5295968170378
 51
171.81826710974079
  0
ARC
  5
A2
  8
PATTERN_FILL
  6
CONTINUOUS
 62
     7
 10
619.71764833695431
 20
129.322001371688
 30
0.0
 40
607.25000000000102
 50
169.77162307628089
 51
170.79138338854639
  0
ARC
  5
A3
  8
PATTERN_FILL
  6
CONTINUOUS
 62
     7
 10
617.97556692520448
 20
118.9117333514132
 30
0.0
 40
605.2500000000008
 50
169.08417762807241
 51
169.76078039007089
  0
ARC
  5
A4
  8
PATTERN_FILL
  6
CONTINUOUS
 62
     7
 10
616.05842266453362
 20
108.56774856731521
 30
0.0
 40
603.25000000000102
 50
168.5419918620411
 51
168.72638516189761
  0
ARC
  5
A5
  8
PATTERN_FILL
  6
CONTINUOUS
 62
     7
 10
0.0000000000000284
 20
217.5
 30
0.0
 40
10.0
 50
64.15806723683211
 51
115.8419327631678
  0
ARC
  5
A6
  8
PATTERN_FILL
  6
CONTINUOUS
 62
     7
 10
-627.25000000000068
 20
225.5
 30
0.0
 40
625.25000000000102
 50
0.091636514448776
 51
2.2800790515442699
  0
ARC
  5
A7
  8
PATTERN_FILL
  6
CONTINUOUS
 62
     7
 10
-627.15511396063755
 20
214.6271368332298
 30
0.0
 40
623.25000000000068
 50
1.0915446857268221
 51
3.254796083857681
  0
ARC
  5
A8
  8
PATTERN_FILL
  6
CONTINUOUS
 62
     7
 10
-626.87149958417763
 20
203.79542252005689
 30
0.0
 40
621.2500000000008
 50
2.094558548512667
 51
4.2107534732055187
  0
ARC
  5
A9
  8
PATTERN_FILL
  6
CONTINUOUS
 62
     7
 10
-626.40044573234513
 20
193.0064595709197
 30
0.0
 40
619.25000000000068
 50
3.1004810615902869
 51
5.1473015978875196
  0
ARC
  5
AA
  8
PATTERN_FILL
  6
CONTINUOUS
 62
     7
 10
-625.743301353834
 20
182.26224395533271
 30
0.0
 40
617.2500000000008
 50
4.1098553877374604
 51
6.0633355664561481
  0
ARC
  5
AB
  8
PATTERN_FILL
  6
CONTINUOUS
 62
     7
 10
-624.90148115807051
 20
171.5659041969142
 30
0.0
 40
615.25000000000068
 50
5.1233675684486339
 51
6.9570749520266437
  0
ARC
  5
AC
  8
PATTERN_FILL
  6
CONTINUOUS
 62
     7
 10
-623.8764552367777
 20
160.92060298685459
 30
0.0
 40
613.25000000000045
 50
6.138795112929091
 51
7.8258907515925147
  0
ARC
  5
AD
  8
PATTERN_FILL
  6
CONTINUOUS
 62
     7
 10
-622.66974763606026
 20
150.3294663026787
 30
0.0
 40
611.25000000000068
 50
7.1584769055903283
 51
8.6657988382610398
  0
ARC
  5
AE
  8
PATTERN_FILL
  6
CONTINUOUS
 62
     7
 10
-621.28293552303433
 20
139.79558249158549
 30
0.0
 40
609.2500000000008
 50
8.1817328902591822
 51
9.4704031829621673
  0
ARC
  5
AF
  8
PATTERN_FILL
  6
CONTINUOUS
 62
     7
 10
-619.71764833695431
 20
129.322001371688
 30
0.0
 40
607.25000000000068
 50
9.2086166114535555
 51
10.22837692371905
  0
ARC
  5
B0
  8
PATTERN_FILL
  6
CONTINUOUS
 62
     7
 10
-617.97556692520448
 20
118.9117333514132
 30
0.0
 40
605.2500000000008
 50
10.239219609929179
 51
10.915822371927661
  0
ARC
  5
B1
  8
PATTERN_FILL
  6
CONTINUOUS
 62
     7
 10
-616.05842266453351
 20
108.56774856731521
 30
0.0
 40
603.25000000000068
 50
11.27361483810231
 51
11.45800813795884
  0
ARC
  5
B2
  8
PATTERN_FILL
  6
CONTINUOUS
 62
     7
 10
0.0000000000000284
 20
229.5
 30
0.0
 40
10.0
 50
224.42700400080571
 51
315.57299599919418
  0
ARC
  5
B3
  8
PATTERN_FILL
  6
CONTINUOUS
 62
     7
 10
0.0000000000000284
 20
229.5
 30
0.0
 40
11.99999999999998
 50
215.68533471265209
 51
324.31466528734802
  0
ARC
  5
B4
  8
PATTERN_FILL
  6
CONTINUOUS
 62
     7
 10
0.0000000000000284
 20
229.5
 30
0.0
 40
13.999999999999989
 50
210.00000000000011
 51
329.99999999999972
  0
ARC
  5
B5
  8
PATTERN_FILL
  6
CONTINUOUS
 62
     7
 10
0.0000000000000284
 20
229.5
 30
0.0
 40
15.999999999999989
 50
205.94447977236999
 51
334.05552022762612
  0
ARC
  5
B6
  8
PATTERN_FILL
  6
CONTINUOUS
 62
     7
 10
0.0000000000000284
 20
229.5
 30
0.0
 40
18.0
 50
202.88538047615859
 51
337.11461952384388
  0
ARC
  5
B7
  8
PATTERN_FILL
  6
CONTINUOUS
 62
     7
 10
0.0000000000000284
 20
229.5
 30
0.0
 40
20.0
 50
200.48731511472269
 51
339.51268488527683
  0
ARC
  5
B8
  8
PATTERN_FILL
  6
CONTINUOUS
 62
     7
 10
0.0000000000000284
 20
229.5
 30
0.0
 40
21.999999999999972
 50
198.53015417621049
 51
341.446995464959
  0
ARC
  5
B9
  8
PATTERN_FILL
  6
CONTINUOUS
 62
     7
 10
0.0000000000000284
 20
229.5
 30
0.0
 40
23.99999999999995
 50
196.9407275945315
 51
253.46894670679441
  0
ARC
  5
BA
  8
PATTERN_FILL
  6
CONTINUOUS
 62
     7
 10
0.0000000000000284
 20
229.5
 30
0.0
 40
23.999999999999961
 50
286.53105329320613
 51
343.05927240546839
  0
ARC
  5
BB
  8
PATTERN_FILL
  6
CONTINUOUS
 62
     7
 10
0.0000000000000284
 20
229.5
 30
0.0
 40
26.0
 50
196.614303122248
 51
242.20422750397231
  0
ARC
  5
BC
  8
PATTERN_FILL
  6
CONTINUOUS
 62
     7
 10
0.0000000000000284
 20
229.5
 30
0.0
 40
26.0
 50
297.79577249602812
 51
343.38569687775208
  0
ARC
  5
BD
  8
PATTERN_FILL
  6
CONTINUOUS
 62
     7
 10
0.0000000000000284
 20
229.5
 30
0.0
 40
27.999999999999961
 50
213.90717311924169
 51
235.22805596805159
  0
ARC
  5
BE
  8
PATTERN_FILL
  6
CONTINUOUS
 62
     7
 10
0.0000000000000284
 20
229.5
 30
0.0
 40
27.999999999999972
 50
304.77194403194829
 51
326.00716260293279
  0
LINE
  5
BF
  8
PATTERN_FILL
  6
CONTINUOUS
 62
     7
 10
0.0000000000000284
 20
206.5
 30
0.0
 11
0.0000000000000284
 21
222.5
 31
0.0
  0
ARC
  5
C0
  8
PATTERN_FILL
  6
CONTINUOUS
 62
     7
 10
627.25000000000102
 20
223.5
 30
0.0
 40
625.25000000000125
 50
180.09163651444871
 51
181.55801407407199
  0
ARC
  5
C1
  8
PATTERN_FILL
  6
CONTINUOUS
 62
     7
 10
627.15511396063755
 20
234.37286316677029
 30
0.0
 40
623.25000000000102
 50
181.0915446857268
 51
182.56322542334681
  0
ARC
  5
C2
  8
PATTERN_FILL
  6
CONTINUOUS
 62
     7
 10
626.87149958417774
 20
245.204577479943
 30
0.0
 40
621.2500000000008
 50
182.09455854851259
 51
183.5719050810259
  0
ARC
  5
C3
  8
PATTERN_FILL
  6
CONTINUOUS
 62
     7
 10
626.40044573234525
 20
255.9935404290803
 30
0.0
 40
619.25000000000102
 50
183.1004810615903
 51
184.5842532794687
  0
ARC
  5
C4
  8
PATTERN_FILL
  6
CONTINUOUS
 62
     7
 10
625.74330135383423
 20
266.73775604466732
 30
0.0
 40
617.2500000000008
 50
184.10985538773741
 51
185.60043940803601
  0
ARC
  5
C5
  8
PATTERN_FILL
  6
CONTINUOUS
 62
     7
 10
624.90148115807051
 20
277.43409580308588
 30
0.0
 40
615.25000000000068
 50
185.1233675684486
 51
186.6205323933809
  0
ARC
  5
C6
  8
PATTERN_FILL
  6
CONTINUOUS
 62
     7
 10
623.8764552367777
 20
288.0793970131453
 30
0.0
 40
613.25000000000045
 50
186.1387951129291
 51
187.64460184417081
  0
ARC
  5
C7
  8
PATTERN_FILL
  6
CONTINUOUS
 62
     7
 10
622.66974763606026
 20
298.67053369732122
 30
0.0
 40
611.25000000000068
 50
187.15847690559031
 51
188.6727248406977
  0
ARC
  5
C8
  8
PATTERN_FILL
  6
CONTINUOUS
 62
     7
 10
621.28293552303433
 20
309.20441750841451
 30
0.0
 40
609.2500000000008
 50
188.18173289025921
 51
189.5056402057586
  0
ARC
  5
C9
  8
PATTERN_FILL
  6
CONTINUOUS
 62
     7
 10
619.71764833695431
 20
319.67799862831191
 30
0.0
 40
607.25000000000068
 50
189.20861661145349
 51
190.25934627179279
  0
ARC
  5
CA
  8
PATTERN_FILL
  6
CONTINUOUS
 62
     7
 10
617.97556692520448
 20
330.08826664858668
 30
0.0
 40
605.2500000000008
 50
190.23921960992919
 51
190.93855274996881
  0
ARC
  5
CB
  8
PATTERN_FILL
  6
CONTINUOUS
 62
     7
 10
616.05842266453362
 20
340.43225143268478
 30
0.0
 40
603.25000000000068
 50
191.27361483810239
 51
191.45800813795881
  0
ARC
  5
CC
  8
PATTERN_FILL
  6
CONTINUOUS
 62
     7
 10
0.0000000000000284
 20
231.5
 30
0.0
 40
10.0
 50
244.1580672368321
 51
295.84193276316779
  0
ARC
  5
CD
  8
PATTERN_FILL
  6
CONTINUOUS
 62
     7
 10
-627.25000000000068
 20
223.5
 30
0.0
 40
625.25000000000102
 50
358.44198592592761
 51
359.90836348555092
  0
ARC
  5
CE
  8
PATTERN_FILL
  6
CONTINUOUS
 62
     7
 10
-627.15511396063755
 20
234.37286316677029
 30
0.0
 40
623.25000000000068
 50
357.43677457665183
 51
358.90845531427323
  0
ARC
  5
CF
  8
PATTERN_FILL
  6
CONTINUOUS
 62
     7
 10
-626.87149958417763
 20
245.204577479943
 30
0.0
 40
621.2500000000008
 50
356.42735789610208
 51
357.90544145148749
  0
ARC
  5
D0
  8
PATTERN_FILL
  6
CONTINUOUS
 62
     7
 10
-626.40044573234513
 20
255.9935404290803
 30
0.0
 40
619.25000000000068
 50
355.41574672053139
 51
356.89951893840959
  0
ARC
  5
D1
  8
PATTERN_FILL
  6
CONTINUOUS
 62
     7
 10
-625.743301353834
 20
266.73775604466732
 30
0.0
 40
617.25000000000045
 50
354.39956059194952
 51
355.89014461226247
  0
ARC
  5
D2
  8
PATTERN_FILL
  6
CONTINUOUS
 62
     7
 10
-624.90148115807051
 20
277.43409580308588
 30
0.0
 40
615.25000000000068
 50
353.3794676066197
 51
354.87663243155117
  0
ARC
  5
D3
  8
PATTERN_FILL
  6
CONTINUOUS
 62
     7
 10
-623.8764552367777
 20
288.0793970131453
 30
0.0
 40
613.25000000000045
 50
352.35539815582882
 51
353.86120488707093
  0
ARC
  5
D4
  8
PATTERN_FILL
  6
CONTINUOUS
 62
     7
 10
-622.66974763606026
 20
298.67053369732122
 30
0.0
 40
611.25000000000068
 50
351.33420116173897
 51
352.84152309440969
  0
ARC
  5
D5
  8
PATTERN_FILL
  6
CONTINUOUS
 62
     7
 10
-621.28293552303433
 20
309.20441750841451
 30
0.0
 40
609.2500000000008
 50
350.49435979427039
 51
351.81826710974099
  0
ARC
  5
D6
  8
PATTERN_FILL
  6
CONTINUOUS
 62
     7
 10
-619.71764833695431
 20
319.67799862831191
 30
0.0
 40
607.25000000000068
 50
349.74065372820638
 51
350.79138338854659
  0
ARC
  5
D7
  8
PATTERN_FILL
  6
CONTINUOUS
 62
     7
 10
-617.97556692520448
 20
330.08826664858668
 30
0.0
 40
605.2500000000008
 50
349.06144725001388
 51
349.76078039007092
  0
ARC
  5
D8
  8
PATTERN_FILL
  6
CONTINUOUS
 62
     7
 10
-616.05842266453351
 20
340.43225143268478
 30
0.0
 40
603.25000000000068
 50
348.54199186204119
 51
348.72638516189772
  0
ARC
  5
D9
  8
PATTERN_FILL
  6
CONTINUOUS
 62
     7
 10
120.0
 20
219.5
 30
0.0
 40
10.0
 50
44.427004000805688
 51
135.57299599919421
  0
ARC
  5
DA
  8
PATTERN_FILL
  6
CONTINUOUS
 62
     7
 10
120.0
 20
219.5
 30
0.0
 40
11.99999999999998
 50
35.6853347126521
 51
144.31466528734791
  0
ARC
  5
DB
  8
PATTERN_FILL
  6
CONTINUOUS
 62
     7
 10
120.0
 20
219.5
 30
0.0
 40
14.000000000000011
 50
30.00000000000038
 51
150.0
  0
ARC
  5
DC
  8
PATTERN_FILL
  6
CONTINUOUS
 62
     7
 10
120.0
 20
219.5
 30
0.0
 40
15.999999999999989
 50
25.944479772373921
 51
154.0555202276299
  0
ARC
  5
DD
  8
PATTERN_FILL
  6
CONTINUOUS
 62
     7
 10
120.0
 20
219.5
 30
0.0
 40
18.0
 50
22.885380476156119
 51
157.11461952384141
  0
ARC
  5
DE
  8
PATTERN_FILL
  6
CONTINUOUS
 62
     7
 10
120.0
 20
219.5
 30
0.0
 40
20.0
 50
20.487315114723149
 51
159.51268488527731
  0
ARC
  5
DF
  8
PATTERN_FILL
  6
CONTINUOUS
 62
     7
 10
120.0
 20
219.5
 30
0.0
 40
21.999999999999989
 50
18.55300453504093
 51
161.46984582378951
  0
ARC
  5
E0
  8
PATTERN_FILL
  6
CONTINUOUS
 62
     7
 10
120.0
 20
219.5
 30
0.0
 40
23.99999999999995
 50
16.940727594531591
 51
163.05927240546839
  0
ARC
  5
E1
  8
PATTERN_FILL
  6
CONTINUOUS
 62
     7
 10
120.0
 20
219.5
 30
0.0
 40
26.0
 50
16.191351638617029
 51
163.8086483613834
  0
ARC
  5
E2
  8
PATTERN_FILL
  6
CONTINUOUS
 62
     7
 10
120.0
 20
219.5
 30
0.0
 40
27.999999999999972
 50
35.475666086133728
 51
144.5243339138662
  0
ARC
  5
E3
  8
PATTERN_FILL
  6
CONTINUOUS
 62
     7
 10
120.0
 20
219.5
 30
0.0
 40
29.999999999999979
 50
59.756072044010331
 51
120.24392795598961
  0
LINE
  5
E4
  8
PATTERN_FILL
  6
CONTINUOUS
 62
     7
 10
120.0
 20
250.5
 30
0.0
 11
120.0
 21
226.5
 31
0.0
  0
ARC
  5
E5
  8
PATTERN_FILL
  6
CONTINUOUS
 62
     7
 10
747.25000000000102
 20
225.5
 30
0.0
 40
625.25000000000125
 50
177.71992094845569
 51
179.90836348555121
  0
ARC
  5
E6
  8
PATTERN_FILL
  6
CONTINUOUS
 62
     7
 10
747.15511396063755
 20
214.6271368332298
 30
0.0
 40
623.25000000000102
 50
176.74520391614229
 51
178.9084553142732
  0
ARC
  5
E7
  8
PATTERN_FILL
  6
CONTINUOUS
 62
     7
 10
746.87149958417751
 20
203.79542252005689
 30
0.0
 40
621.2500000000008
 50
175.7892465267945
 51
177.90544145148741
  0
ARC
  5
E8
  8
PATTERN_FILL
  6
CONTINUOUS
 62
     7
 10
746.40044573234513
 20
193.0064595709197
 30
0.0
 40
619.25000000000068
 50
174.8526984021124
 51
176.8995189384097
  0
ARC
  5
E9
  8
PATTERN_FILL
  6
CONTINUOUS
 62
     7
 10
745.74330135383411
 20
182.26224395533271
 30
0.0
 40
617.2500000000008
 50
173.9366644335438
 51
175.8901446122625
  0
ARC
  5
EA
  8
PATTERN_FILL
  6
CONTINUOUS
 62
     7
 10
744.9014811580704
 20
171.5659041969142
 30
0.0
 40
615.25000000000068
 50
173.04292504797331
 51
174.87663243155129
  0
ARC
  5
EB
  8
PATTERN_FILL
  6
CONTINUOUS
 62
     7
 10
743.87645523677782
 20
160.92060298685459
 30
0.0
 40
613.25000000000045
 50
172.17410924840749
 51
173.8612048870709
  0
ARC
  5
EC
  8
PATTERN_FILL
  6
CONTINUOUS
 62
     7
 10
742.66974763606015
 20
150.3294663026787
 30
0.0
 40
611.25000000000068
 50
171.334201161739
 51
172.84152309440961
  0
ARC
  5
ED
  8
PATTERN_FILL
  6
CONTINUOUS
 62
     7
 10
741.28293552303421
 20
139.79558249158549
 30
0.0
 40
609.2500000000008
 50
170.5295968170378
 51
171.81826710974079
  0
ARC
  5
EE
  8
PATTERN_FILL
  6
CONTINUOUS
 62
     7
 10
739.71764833695408
 20
129.322001371688
 30
0.0
 40
607.25000000000102
 50
169.77162307628089
 51
170.79138338854639
  0
ARC
  5
EF
  8
PATTERN_FILL
  6
CONTINUOUS
 62
     7
 10
737.97556692520448
 20
118.9117333514132
 30
0.0
 40
605.2500000000008
 50
169.08417762807241
 51
169.76078039007089
  0
ARC
  5
F0
  8
PATTERN_FILL
  6
CONTINUOUS
 62
     7
 10
736.05842266453351
 20
108.56774856731521
 30
0.0
 40
603.25000000000102
 50
168.5419918620411
 51
168.72638516189761
  0
ARC
  5
F1
  8
PATTERN_FILL
  6
CONTINUOUS
 62
     7
 10
120.0
 20
217.5
 30
0.0
 40
10.0
 50
64.15806723683211
 51
115.8419327631678
  0
ARC
  5
F2
  8
PATTERN_FILL
  6
CONTINUOUS
 62
     7
 10
-507.2500000000008
 20
225.5
 30
0.0
 40
625.25000000000102
 50
0.091636514448776
 51
2.2800790515442699
  0
ARC
  5
F3
  8
PATTERN_FILL
  6
CONTINUOUS
 62
     7
 10
-507.15511396063732
 20
214.6271368332298
 30
0.0
 40
623.25000000000068
 50
1.0915446857268221
 51
3.254796083857681
  0
ARC
  5
F4
  8
PATTERN_FILL
  6
CONTINUOUS
 62
     7
 10
-506.87149958417763
 20
203.79542252005689
 30
0.0
 40
621.2500000000008
 50
2.094558548512667
 51
4.2107534732055187
  0
ARC
  5
F5
  8
PATTERN_FILL
  6
CONTINUOUS
 62
     7
 10
-506.40044573234491
 20
193.0064595709197
 30
0.0
 40
619.25000000000068
 50
3.1004810615902869
 51
5.1473015978875196
  0
ARC
  5
F6
  8
PATTERN_FILL
  6
CONTINUOUS
 62
     7
 10
-505.743301353834
 20
182.26224395533271
 30
0.0
 40
617.2500000000008
 50
4.1098553877374604
 51
6.0633355664561481
  0
ARC
  5
F7
  8
PATTERN_FILL
  6
CONTINUOUS
 62
     7
 10
-504.90148115807051
 20
171.5659041969142
 30
0.0
 40
615.25000000000068
 50
5.1233675684486339
 51
6.9570749520266437
  0
ARC
  5
F8
  8
PATTERN_FILL
  6
CONTINUOUS
 62
     7
 10
-503.87645523677759
 20
160.92060298685459
 30
0.0
 40
613.25000000000045
 50
6.138795112929091
 51
7.8258907515925147
  0
ARC
  5
F9
  8
PATTERN_FILL
  6
CONTINUOUS
 62
     7
 10
-502.66974763606021
 20
150.3294663026787
 30
0.0
 40
611.25000000000068
 50
7.1584769055903283
 51
8.6657988382610398
  0
ARC
  5
FA
  8
PATTERN_FILL
  6
CONTINUOUS
 62
     7
 10
-501.28293552303421
 20
139.79558249158549
 30
0.0
 40
609.2500000000008
 50
8.1817328902591822
 51
9.4704031829621673
  0
ARC
  5
FB
  8
PATTERN_FILL
  6
CONTINUOUS
 62
     7
 10
-499.71764833695403
 20
129.322001371688
 30
0.0
 40
607.25000000000068
 50
9.2086166114535555
 51
10.22837692371905
  0
ARC
  5
FC
  8
PATTERN_FILL
  6
CONTINUOUS
 62
     7
 10
-497.9755669252043
 20
118.9117333514132
 30
0.0
 40
605.2500000000008
 50
10.239219609929179
 51
10.915822371927661
  0
ARC
  5
FD
  8
PATTERN_FILL
  6
CONTINUOUS
 62
     7
 10
-496.0584226645334
 20
108.56774856731521
 30
0.0
 40
603.25000000000068
 50
11.27361483810231
 51
11.45800813795884
  0
ARC
  5
FE
  8
PATTERN_FILL
  6
CONTINUOUS
 62
     7
 10
120.0
 20
229.5
 30
0.0
 40
10.0
 50
224.42700400080571
 51
315.57299599919418
  0
ARC
  5
FF
  8
PATTERN_FILL
  6
CONTINUOUS
 62
     7
 10
120.0
 20
229.5
 30
0.0
 40
11.99999999999998
 50
215.68533471265209
 51
324.31466528734802
  0
ARC
  5
100
  8
PATTERN_FILL
  6
CONTINUOUS
 62
     7
 10
120.0
 20
229.5
 30
0.0
 40
13.999999999999989
 50
210.00000000000011
 51
329.99999999999972
  0
ARC
  5
101
  8
PATTERN_FILL
  6
CONTINUOUS
 62
     7
 10
120.0
 20
229.5
 30
0.0
 40
15.999999999999989
 50
205.94447977236999
 51
334.05552022762612
  0
ARC
  5
102
  8
PATTERN_FILL
  6
CONTINUOUS
 62
     7
 10
120.0
 20
229.5
 30
0.0
 40
18.0
 50
202.88538047615859
 51
337.11461952384388
  0
ARC
  5
103
  8
PATTERN_FILL
  6
CONTINUOUS
 62
     7
 10
120.0
 20
229.5
 30
0.0
 40
20.0
 50
200.48731511472269
 51
339.51268488527683
  0
ARC
  5
104
  8
PATTERN_FILL
  6
CONTINUOUS
 62
     7
 10
120.0
 20
229.5
 30
0.0
 40
21.999999999999972
 50
198.53015417621049
 51
341.446995464959
  0
ARC
  5
105
  8
PATTERN_FILL
  6
CONTINUOUS
 62
     7
 10
120.0
 20
229.5
 30
0.0
 40
23.99999999999995
 50
196.9407275945315
 51
253.46894670679441
  0
ARC
  5
106
  8
PATTERN_FILL
  6
CONTINUOUS
 62
     7
 10
120.0
 20
229.5
 30
0.0
 40
23.999999999999961
 50
286.53105329320613
 51
343.05927240546839
  0
ARC
  5
107
  8
PATTERN_FILL
  6
CONTINUOUS
 62
     7
 10
120.0
 20
229.5
 30
0.0
 40
26.0
 50
196.614303122248
 51
242.20422750397231
  0
ARC
  5
108
  8
PATTERN_FILL
  6
CONTINUOUS
 62
     7
 10
120.0
 20
229.5
 30
0.0
 40
26.0
 50
297.79577249602812
 51
343.38569687775208
  0
ARC
  5
109
  8
PATTERN_FILL
  6
CONTINUOUS
 62
     7
 10
120.0
 20
229.5
 30
0.0
 40
27.999999999999961
 50
213.90717311924169
 51
235.22805596805159
  0
ARC
  5
10A
  8
PATTERN_FILL
  6
CONTINUOUS
 62
     7
 10
120.0
 20
229.5
 30
0.0
 40
27.999999999999972
 50
304.77194403194829
 51
326.00716260293279
  0
LINE
  5
10B
  8
PATTERN_FILL
  6
CONTINUOUS
 62
     7
 10
120.0
 20
206.5
 30
0.0
 11
120.0
 21
222.5
 31
0.0
  0
ARC
  5
10C
  8
PATTERN_FILL
  6
CONTINUOUS
 62
     7
 10
747.25000000000102
 20
223.5
 30
0.0
 40
625.25000000000125
 50
180.09163651444871
 51
181.55801407407199
  0
ARC
  5
10D
  8
PATTERN_FILL
  6
CONTINUOUS
 62
     7
 10
747.15511396063755
 20
234.37286316677029
 30
0.0
 40
623.25000000000102
 50
181.0915446857268
 51
182.56322542334681
  0
ARC
  5
10E
  8
PATTERN_FILL
  6
CONTINUOUS
 62
     7
 10
746.87149958417751
 20
245.204577479943
 30
0.0
 40
621.2500000000008
 50
182.09455854851259
 51
183.5719050810259
  0
ARC
  5
10F
  8
PATTERN_FILL
  6
CONTINUOUS
 62
     7
 10
746.40044573234513
 20
255.9935404290803
 30
0.0
 40
619.25000000000102
 50
183.1004810615903
 51
184.5842532794687
  0
ARC
  5
110
  8
PATTERN_FILL
  6
CONTINUOUS
 62
     7
 10
745.74330135383411
 20
266.73775604466732
 30
0.0
 40
617.2500000000008
 50
184.10985538773741
 51
185.60043940803601
  0
ARC
  5
111
  8
PATTERN_FILL
  6
CONTINUOUS
 62
     7
 10
744.9014811580704
 20
277.43409580308588
 30
0.0
 40
615.25000000000068
 50
185.1233675684486
 51
186.6205323933809
  0
ARC
  5
112
  8
PATTERN_FILL
  6
CONTINUOUS
 62
     7
 10
743.87645523677782
 20
288.0793970131453
 30
0.0
 40
613.25000000000045
 50
186.1387951129291
 51
187.64460184417081
  0
ARC
  5
113
  8
PATTERN_FILL
  6
CONTINUOUS
 62
     7
 10
742.66974763606015
 20
298.67053369732122
 30
0.0
 40
611.25000000000068
 50
187.15847690559031
 51
188.6727248406977
  0
ARC
  5
114
  8
PATTERN_FILL
  6
CONTINUOUS
 62
     7
 10
741.28293552303421
 20
309.20441750841451
 30
0.0
 40
609.2500000000008
 50
188.18173289025921
 51
189.5056402057586
  0
ARC
  5
115
  8
PATTERN_FILL
  6
CONTINUOUS
 62
     7
 10
739.71764833695408
 20
319.67799862831191
 30
0.0
 40
607.25000000000068
 50
189.20861661145349
 51
190.25934627179279
  0
ARC
  5
116
  8
PATTERN_FILL
  6
CONTINUOUS
 62
     7
 10
737.97556692520448
 20
330.08826664858668
 30
0.0
 40
605.2500000000008
 50
190.23921960992919
 51
190.93855274996881
  0
ARC
  5
117
  8
PATTERN_FILL
  6
CONTINUOUS
 62
     7
 10
736.05842266453351
 20
340.43225143268478
 30
0.0
 40
603.25000000000068
 50
191.27361483810239
 51
191.45800813795881
  0
ARC
  5
118
  8
PATTERN_FILL
  6
CONTINUOUS
 62
     7
 10
120.0
 20
231.5
 30
0.0
 40
10.0
 50
244.1580672368321
 51
295.84193276316779
  0
ARC
  5
119
  8
PATTERN_FILL
  6
CONTINUOUS
 62
     7
 10
-507.2500000000008
 20
223.5
 30
0.0
 40
625.25000000000102
 50
358.44198592592761
 51
359.90836348555092
  0
ARC
  5
11A
  8
PATTERN_FILL
  6
CONTINUOUS
 62
     7
 10
-507.15511396063732
 20
234.37286316677029
 30
0.0
 40
623.25000000000068
 50
357.43677457665183
 51
358.90845531427323
  0
ARC
  5
11B
  8
PATTERN_FILL
  6
CONTINUOUS
 62
     7
 10
-506.87149958417763
 20
245.204577479943
 30
0.0
 40
621.2500000000008
 50
356.42735789610208
 51
357.90544145148749
  0
ARC
  5
11C
  8
PATTERN_FILL
  6
CONTINUOUS
 62
     7
 10
-506.40044573234491
 20
255.9935404290803
 30
0.0
 40
619.25000000000068
 50
355.41574672053139
 51
356.89951893840959
  0
ARC
  5
11D
  8
PATTERN_FILL
  6
CONTINUOUS
 62
     7
 10
-505.743301353834
 20
266.73775604466732
 30
0.0
 40
617.25000000000045
 50
354.39956059194952
 51
355.89014461226247
  0
ARC
  5
11E
  8
PATTERN_FILL
  6
CONTINUOUS
 62
     7
 10
-504.90148115807051
 20
277.43409580308588
 30
0.0
 40
615.25000000000068
 50
353.3794676066197
 51
354.87663243155117
  0
ARC
  5
11F
  8
PATTERN_FILL
  6
CONTINUOUS
 62
     7
 10
-503.87645523677759
 20
288.0793970131453
 30
0.0
 40
613.25000000000045
 50
352.35539815582882
 51
353.86120488707093
  0
ARC
  5
120
  8
PATTERN_FILL
  6
CONTINUOUS
 62
     7
 10
-502.66974763606021
 20
298.67053369732122
 30
0.0
 40
611.25000000000068
 50
351.33420116173897
 51
352.84152309440969
  0
ARC
  5
121
  8
PATTERN_FILL
  6
CONTINUOUS
 62
     7
 10
-501.28293552303421
 20
309.20441750841451
 30
0.0
 40
609.2500000000008
 50
350.49435979427039
 51
351.81826710974099
  0
ARC
  5
122
  8
PATTERN_FILL
  6
CONTINUOUS
 62
     7
 10
-499.71764833695403
 20
319.67799862831191
 30
0.0
 40
607.25000000000068
 50
349.74065372820638
 51
350.79138338854659
  0
ARC
  5
123
  8
PATTERN_FILL
  6
CONTINUOUS
 62
     7
 10
-497.9755669252043
 20
330.08826664858668
 30
0.0
 40
605.2500000000008
 50
349.06144725001388
 51
349.76078039007092
  0
ARC
  5
124
  8
PATTERN_FILL
  6
CONTINUOUS
 62
     7
 10
-496.0584226645334
 20
340.43225143268478
 30
0.0
 40
603.25000000000068
 50
348.54199186204119
 51
348.72638516189772
  0
ARC
  5
125
  8
PATTERN_FILL
  6
CONTINUOUS
 62
     7
 10
240.0
 20
219.5
 30
0.0
 40
10.000000000000011
 50
44.427004000805638
 51
135.57299599919429
  0
ARC
  5
126
  8
PATTERN_FILL
  6
CONTINUOUS
 62
     7
 10
240.0
 20
219.5
 30
0.0
 40
11.99999999999997
 50
35.685334712652143
 51
144.31466528734791
  0
ARC
  5
127
  8
PATTERN_FILL
  6
CONTINUOUS
 62
     7
 10
240.0
 20
219.5
 30
0.0
 40
14.000000000000011
 50
30.00000000000038
 51
150.0
  0
ARC
  5
128
  8
PATTERN_FILL
  6
CONTINUOUS
 62
     7
 10
240.0
 20
219.5
 30
0.0
 40
15.999999999999989
 50
25.944479772373921
 51
154.0555202276299
  0
ARC
  5
129
  8
PATTERN_FILL
  6
CONTINUOUS
 62
     7
 10
240.0
 20
219.5
 30
0.0
 40
18.000000000000011
 50
22.885380476156101
 51
157.11461952384141
  0
ARC
  5
12A
  8
PATTERN_FILL
  6
CONTINUOUS
 62
     7
 10
240.0
 20
219.5
 30
0.0
 40
20.0
 50
20.487315114723138
 51
159.51268488527731
  0
ARC
  5
12B
  8
PATTERN_FILL
  6
CONTINUOUS
 62
     7
 10
240.0
 20
219.5
 30
0.0
 40
21.999999999999972
 50
18.553004535040952
 51
161.46984582378951
  0
ARC
  5
12C
  8
PATTERN_FILL
  6
CONTINUOUS
 62
     7
 10
240.0
 20
219.5
 30
0.0
 40
23.99999999999995
 50
16.940727594531591
 51
163.05927240546839
  0
ARC
  5
12D
  8
PATTERN_FILL
  6
CONTINUOUS
 62
     7
 10
240.0
 20
219.5
 30
0.0
 40
26.0
 50
16.191351638617029
 51
163.8086483613834
  0
ARC
  5
12E
  8
PATTERN_FILL
  6
CONTINUOUS
 62
     7
 10
240.0
 20
219.5
 30
0.0
 40
27.999999999999972
 50
35.475666086133728
 51
144.5243339138662
  0
ARC
  5
12F
  8
PATTERN_FILL
  6
CONTINUOUS
 62
     7
 10
240.0
 20
219.5
 30
0.0
 40
29.999999999999979
 50
59.756072044010331
 51
120.24392795598961
  0
LINE
  5
130
  8
PATTERN_FILL
  6
CONTINUOUS
 62
     7
 10
240.0
 20
250.5
 30
0.0
 11
240.0
 21
226.5
 31
0.0
  0
ARC
  5
131
  8
PATTERN_FILL
  6
CONTINUOUS
 62
     7
 10
867.25000000000102
 20
225.5
 30
0.0
 40
625.25000000000125
 50
177.71992094845569
 51
179.90836348555121
  0
ARC
  5
132
  8
PATTERN_FILL
  6
CONTINUOUS
 62
     7
 10
867.15511396063755
 20
214.6271368332298
 30
0.0
 40
623.25000000000102
 50
176.74520391614229
 51
178.9084553142732
  0
ARC
  5
133
  8
PATTERN_FILL
  6
CONTINUOUS
 62
     7
 10
866.8714995841774
 20
203.79542252005689
 30
0.0
 40
621.2500000000008
 50
175.7892465267945
 51
177.90544145148741
  0
ARC
  5
134
  8
PATTERN_FILL
  6
CONTINUOUS
 62
     7
 10
866.40044573234525
 20
193.0064595709197
 30
0.0
 40
619.25000000000068
 50
174.8526984021124
 51
176.8995189384097
  0
ARC
  5
135
  8
PATTERN_FILL
  6
CONTINUOUS
 62
     7
 10
865.74330135383411
 20
182.26224395533271
 30
0.0
 40
617.2500000000008
 50
173.9366644335438
 51
175.8901446122625
  0
ARC
  5
136
  8
PATTERN_FILL
  6
CONTINUOUS
 62
     7
 10
864.90148115807051
 20
171.5659041969142
 30
0.0
 40
615.25000000000068
 50
173.04292504797331
 51
174.87663243155129
  0
ARC
  5
137
  8
PATTERN_FILL
  6
CONTINUOUS
 62
     7
 10
863.87645523677782
 20
160.92060298685459
 30
0.0
 40
613.25000000000045
 50
172.17410924840749
 51
173.8612048870709
  0
ARC
  5
138
  8
PATTERN_FILL
  6
CONTINUOUS
 62
     7
 10
862.66974763606015
 20
150.3294663026787
 30
0.0
 40
611.25000000000068
 50
171.334201161739
 51
172.84152309440961
  0
ARC
  5
139
  8
PATTERN_FILL
  6
CONTINUOUS
 62
     7
 10
861.28293552303421
 20
139.79558249158549
 30
0.0
 40
609.2500000000008
 50
170.5295968170378
 51
171.81826710974079
  0
ARC
  5
13A
  8
PATTERN_FILL
  6
CONTINUOUS
 62
     7
 10
859.7176483369542
 20
129.322001371688
 30
0.0
 40
607.25000000000102
 50
169.77162307628089
 51
170.79138338854639
  0
ARC
  5
13B
  8
PATTERN_FILL
  6
CONTINUOUS
 62
     7
 10
857.97556692520436
 20
118.9117333514132
 30
0.0
 40
605.2500000000008
 50
169.08417762807241
 51
169.76078039007089
  0
ARC
  5
13C
  8
PATTERN_FILL
  6
CONTINUOUS
 62
     7
 10
856.05842266453351
 20
108.56774856731521
 30
0.0
 40
603.25000000000102
 50
168.5419918620411
 51
168.72638516189761
  0
ARC
  5
13D
  8
PATTERN_FILL
  6
CONTINUOUS
 62
     7
 10
240.0
 20
217.5
 30
0.0
 40
10.0
 50
64.15806723683211
 51
115.8419327631678
  0
ARC
  5
13E
  8
PATTERN_FILL
  6
CONTINUOUS
 62
     7
 10
-387.25000000000091
 20
225.5
 30
0.0
 40
625.25000000000102
 50
0.091636514448776
 51
2.2800790515442699
  0
ARC
  5
13F
  8
PATTERN_FILL
  6
CONTINUOUS
 62
     7
 10
-387.15511396063738
 20
214.6271368332298
 30
0.0
 40
623.25000000000068
 50
1.0915446857268221
 51
3.254796083857681
  0
ARC
  5
140
  8
PATTERN_FILL
  6
CONTINUOUS
 62
     7
 10
-386.87149958417763
 20
203.79542252005689
 30
0.0
 40
621.2500000000008
 50
2.094558548512667
 51
4.2107534732055187
  0
ARC
  5
141
  8
PATTERN_FILL
  6
CONTINUOUS
 62
     7
 10
-386.40044573234502
 20
193.0064595709197
 30
0.0
 40
619.25000000000068
 50
3.1004810615902869
 51
5.1473015978875196
  0
ARC
  5
142
  8
PATTERN_FILL
  6
CONTINUOUS
 62
     7
 10
-385.743301353834
 20
182.26224395533271
 30
0.0
 40
617.2500000000008
 50
4.1098553877374604
 51
6.0633355664561481
  0
ARC
  5
143
  8
PATTERN_FILL
  6
CONTINUOUS
 62
     7
 10
-384.90148115807051
 20
171.5659041969142
 30
0.0
 40
615.25000000000068
 50
5.1233675684486339
 51
6.9570749520266437
  0
ARC
  5
144
  8
PATTERN_FILL
  6
CONTINUOUS
 62
     7
 10
-383.8764552367777
 20
160.92060298685459
 30
0.0
 40
613.25000000000045
 50
6.138795112929091
 51
7.8258907515925147
  0
ARC
  5
145
  8
PATTERN_FILL
  6
CONTINUOUS
 62
     7
 10
-382.66974763606021
 20
150.3294663026787
 30
0.0
 40
611.25000000000068
 50
7.1584769055903283
 51
8.6657988382610398
  0
ARC
  5
146
  8
PATTERN_FILL
  6
CONTINUOUS
 62
     7
 10
-381.28293552303421
 20
139.79558249158549
 30
0.0
 40
609.2500000000008
 50
8.1817328902591822
 51
9.4704031829621673
  0
ARC
  5
147
  8
PATTERN_FILL
  6
CONTINUOUS
 62
     7
 10
-379.71764833695403
 20
129.322001371688
 30
0.0
 40
607.25000000000068
 50
9.2086166114535555
 51
10.22837692371905
  0
ARC
  5
148
  8
PATTERN_FILL
  6
CONTINUOUS
 62
     7
 10
-377.97556692520442
 20
118.9117333514132
 30
0.0
 40
605.2500000000008
 50
10.239219609929179
 51
10.915822371927661
  0
ARC
  5
149
  8
PATTERN_FILL
  6
CONTINUOUS
 62
     7
 10
-376.05842266453351
 20
108.56774856731521
 30
0.0
 40
603.25000000000068
 50
11.27361483810231
 51
11.45800813795884
  0
ARC
  5
14A
  8
PATTERN_FILL
  6
CONTINUOUS
 62
     7
 10
240.0
 20
229.5
 30
0.0
 40
10.0
 50
224.42700400080571
 51
315.57299599919418
  0
ARC
  5
14B
  8
PATTERN_FILL
  6
CONTINUOUS
 62
     7
 10
240.0
 20
229.5
 30
0.0
 40
11.99999999999998
 50
215.68533471265209
 51
324.31466528734802
  0
ARC
  5
14C
  8
PATTERN_FILL
  6
CONTINUOUS
 62
     7
 10
240.0
 20
229.5
 30
0.0
 40
13.999999999999989
 50
210.00000000000011
 51
329.99999999999972
  0
ARC
  5
14D
  8
PATTERN_FILL
  6
CONTINUOUS
 62
     7
 10
240.0
 20
229.5
 30
0.0
 40
15.999999999999989
 50
205.94447977236999
 51
334.05552022762612
  0
ARC
  5
14E
  8
PATTERN_FILL
  6
CONTINUOUS
 62
     7
 10
240.0
 20
229.5
 30
0.0
 40
18.0
 50
202.88538047615859
 51
337.11461952384388
  0
ARC
  5
14F
  8
PATTERN_FILL
  6
CONTINUOUS
 62
     7
 10
240.0
 20
229.5
 30
0.0
 40
20.0
 50
200.48731511472269
 51
339.51268488527683
  0
ARC
  5
150
  8
PATTERN_FILL
  6
CONTINUOUS
 62
     7
 10
240.0
 20
229.5
 30
0.0
 40
21.999999999999972
 50
198.53015417621049
 51
341.446995464959
  0
ARC
  5
151
  8
PATTERN_FILL
  6
CONTINUOUS
 62
     7
 10
240.0
 20
229.5
 30
0.0
 40
23.99999999999995
 50
196.9407275945315
 51
253.46894670679441
  0
ARC
  5
152
  8
PATTERN_FILL
  6
CONTINUOUS
 62
     7
 10
240.0
 20
229.5
 30
0.0
 40
23.999999999999961
 50
286.53105329320613
 51
343.05927240546839
  0
ARC
  5
153
  8
PATTERN_FILL
  6
CONTINUOUS
 62
     7
 10
240.0
 20
229.5
 30
0.0
 40
26.0
 50
196.614303122248
 51
242.20422750397231
  0
ARC
  5
154
  8
PATTERN_FILL
  6
CONTINUOUS
 62
     7
 10
240.0
 20
229.5
 30
0.0
 40
26.0
 50
297.79577249602812
 51
343.38569687775208
  0
ARC
  5
155
  8
PATTERN_FILL
  6
CONTINUOUS
 62
     7
 10
240.0
 20
229.5
 30
0.0
 40
27.999999999999961
 50
213.90717311924169
 51
235.22805596805159
  0
ARC
  5
156
  8
PATTERN_FILL
  6
CONTINUOUS
 62
     7
 10
240.0
 20
229.5
 30
0.0
 40
27.999999999999972
 50
304.77194403194829
 51
326.00716260293279
  0
LINE
  5
157
  8
PATTERN_FILL
  6
CONTINUOUS
 62
     7
 10
240.0
 20
206.5
 30
0.0
 11
240.0
 21
222.5
 31
0.0
  0
ARC
  5
158
  8
PATTERN_FILL
  6
CONTINUOUS
 62
     7
 10
867.25000000000102
 20
223.5
 30
0.0
 40
625.25000000000125
 50
180.09163651444871
 51
181.55801407407199
  0
ARC
  5
159
  8
PATTERN_FILL
  6
CONTINUOUS
 62
     7
 10
867.15511396063755
 20
234.37286316677029
 30
0.0
 40
623.25000000000102
 50
181.0915446857268
 51
182.56322542334681
  0
ARC
  5
15A
  8
PATTERN_FILL
  6
CONTINUOUS
 62
     7
 10
866.8714995841774
 20
245.204577479943
 30
0.0
 40
621.2500000000008
 50
182.09455854851259
 51
183.5719050810259
  0
ARC
  5
15B
  8
PATTERN_FILL
  6
CONTINUOUS
 62
     7
 10
866.40044573234525
 20
255.9935404290803
 30
0.0
 40
619.25000000000102
 50
183.1004810615903
 51
184.5842532794687
  0
ARC
  5
15C
  8
PATTERN_FILL
  6
CONTINUOUS
 62
     7
 10
865.74330135383411
 20
266.73775604466732
 30
0.0
 40
617.2500000000008
 50
184.10985538773741
 51
185.60043940803601
  0
ARC
  5
15D
  8
PATTERN_FILL
  6
CONTINUOUS
 62
     7
 10
864.90148115807051
 20
277.43409580308588
 30
0.0
 40
615.25000000000068
 50
185.1233675684486
 51
186.6205323933809
  0
ARC
  5
15E
  8
PATTERN_FILL
  6
CONTINUOUS
 62
     7
 10
863.87645523677782
 20
288.0793970131453
 30
0.0
 40
613.25000000000045
 50
186.1387951129291
 51
187.64460184417081
  0
ARC
  5
15F
  8
PATTERN_FILL
  6
CONTINUOUS
 62
     7
 10
862.66974763606015
 20
298.67053369732122
 30
0.0
 40
611.25000000000068
 50
187.15847690559031
 51
188.6727248406977
  0
ARC
  5
160
  8
PATTERN_FILL
  6
CONTINUOUS
 62
     7
 10
861.28293552303421
 20
309.20441750841451
 30
0.0
 40
609.2500000000008
 50
188.18173289025921
 51
189.5056402057586
  0
ARC
  5
161
  8
PATTERN_FILL
  6
CONTINUOUS
 62
     7
 10
859.7176483369542
 20
319.67799862831191
 30
0.0
 40
607.25000000000068
 50
189.20861661145349
 51
190.25934627179279
  0
ARC
  5
162
  8
PATTERN_FILL
  6
CONTINUOUS
 62
     7
 10
857.97556692520436
 20
330.08826664858668
 30
0.0
 40
605.2500000000008
 50
190.23921960992919
 51
190.93855274996881
  0
ARC
  5
163
  8
PATTERN_FILL
  6
CONTINUOUS
 62
     7
 10
856.05842266453351
 20
340.43225143268478
 30
0.0
 40
603.25000000000068
 50
191.27361483810239
 51
191.45800813795881
  0
ARC
  5
164
  8
PATTERN_FILL
  6
CONTINUOUS
 62
     7
 10
240.0
 20
231.5
 30
0.0
 40
10.0
 50
244.1580672368321
 51
295.84193276316779
  0
ARC
  5
165
  8
PATTERN_FILL
  6
CONTINUOUS
 62
     7
 10
-387.25000000000091
 20
223.5
 30
0.0
 40
625.25000000000102
 50
358.44198592592761
 51
359.90836348555092
  0
ARC
  5
166
  8
PATTERN_FILL
  6
CONTINUOUS
 62
     7
 10
-387.15511396063738
 20
234.37286316677029
 30
0.0
 40
623.25000000000068
 50
357.43677457665183
 51
358.90845531427323
  0
ARC
  5
167
  8
PATTERN_FILL
  6
CONTINUOUS
 62
     7
 10
-386.87149958417763
 20
245.204577479943
 30
0.0
 40
621.2500000000008
 50
356.42735789610208
 51
357.90544145148749
  0
ARC
  5
168
  8
PATTERN_FILL
  6
CONTINUOUS
 62
     7
 10
-386.40044573234502
 20
255.9935404290803
 30
0.0
 40
619.25000000000068
 50
355.41574672053139
 51
356.89951893840959
  0
ARC
  5
169
  8
PATTERN_FILL
  6
CONTINUOUS
 62
     7
 10
-385.743301353834
 20
266.73775604466732
 30
0.0
 40
617.25000000000045
 50
354.39956059194952
 51
355.89014461226247
  0
ARC
  5
16A
  8
PATTERN_FILL
  6
CONTINUOUS
 62
     7
 10
-384.90148115807051
 20
277.43409580308588
 30
0.0
 40
615.25000000000068
 50
353.3794676066197
 51
354.87663243155117
  0
ARC
  5
16B
  8
PATTERN_FILL
  6
CONTINUOUS
 62
     7
 10
-383.8764552367777
 20
288.0793970131453
 30
0.0
 40
613.25000000000045
 50
352.35539815582882
 51
353.86120488707093
  0
ARC
  5
16C
  8
PATTERN_FILL
  6
CONTINUOUS
 62
     7
 10
-382.66974763606021
 20
298.67053369732122
 30
0.0
 40
611.25000000000068
 50
351.33420116173897
 51
352.84152309440969
  0
ARC
  5
16D
  8
PATTERN_FILL
  6
CONTINUOUS
 62
     7
 10
-381.28293552303421
 20
309.20441750841451
 30
0.0
 40
609.2500000000008
 50
350.49435979427039
 51
351.81826710974099
  0
ARC
  5
16E
  8
PATTERN_FILL
  6
CONTINUOUS
 62
     7
 10
-379.71764833695403
 20
319.67799862831191
 30
0.0
 40
607.25000000000068
 50
349.74065372820638
 51
350.79138338854659
  0
ARC
  5
16F
  8
PATTERN_FILL
  6
CONTINUOUS
 62
     7
 10
-377.97556692520442
 20
330.08826664858668
 30
0.0
 40
605.2500000000008
 50
349.06144725001388
 51
349.76078039007092
  0
ARC
  5
170
  8
PATTERN_FILL
  6
CONTINUOUS
 62
     7
 10
-376.05842266453351
 20
340.43225143268478
 30
0.0
 40
603.25000000000068
 50
348.54199186204119
 51
348.72638516189772
  0
ARC
  5
171
  8
PATTERN_FILL
  6
CONTINUOUS
 62
     7
 10
0.0
 20
-107.9261482096943
 30
0.0
 40
21.999999999999972
 50
21.11735985747195
 51
30.35976514168425
  0
ARC
  5
172
  8
PATTERN_FILL
  6
CONTINUOUS
 62
     7
 10
0.0
 20
-107.9261482096943
 30
0.0
 40
23.999999999999972
 50
19.284325027965309
 51
44.838138377126491
  0
ARC
  5
173
  8
PATTERN_FILL
  6
CONTINUOUS
 62
     7
 10
623.8764552367777
 20
-166.50554522283969
 30
0.0
 40
613.2500000000008
 50
172.01194765859
 51
172.71076855907111
  0
ARC
  5
174
  8
PATTERN_FILL
  6
CONTINUOUS
 62
     7
 10
622.66974763606015
 20
-177.09668190701561
 30
0.0
 40
611.25000000000068
 50
171.17785922683811
 51
171.97605915166201
  0
ARC
  5
175
  8
PATTERN_FILL
  6
CONTINUOUS
 62
     7
 10
621.28293552303433
 20
-187.63056571810881
 30
0.0
 40
609.25000000000114
 50
170.3812365926569
 51
171.38572827999889
  0
ARC
  5
176
  8
PATTERN_FILL
  6
CONTINUOUS
 62
     7
 10
619.71764833695397
 20
-198.1041468380063
 30
0.0
 40
607.25000000000068
 50
169.6352312875961
 51
170.7028466230787
  0
ARC
  5
177
  8
PATTERN_FILL
  6
CONTINUOUS
 62
     7
 10
617.97556692520448
 20
-208.51441485828099
 30
0.0
 40
605.2500000000008
 50
168.96801662507141
 51
169.67167547154281
  0
ARC
  5
178
  8
PATTERN_FILL
  6
CONTINUOUS
 62
     7
 10
616.05842266453328
 20
-218.85839964237911
 30
0.0
 40
603.25000000000068
 50
168.48477727827441
 51
168.6366599455913
  0
ARC
  5
179
  8
PATTERN_FILL
  6
CONTINUOUS
 62
     7
 10
0.0
 20
-92.073851790305724
 30
0.0
 40
21.999999999999972
 50
329.64023485831569
 51
338.88264014252809
  0
ARC
  5
17A
  8
PATTERN_FILL
  6
CONTINUOUS
 62
     7
 10
0.0
 20
-92.073851790305724
 30
0.0
 40
23.999999999999972
 50
315.16186162287352
 51
340.71567497203461
  0
ARC
  5
17B
  8
PATTERN_FILL
  6
CONTINUOUS
 62
     7
 10
623.8764552367777
 20
-33.494454777160293
 30
0.0
 40
613.2500000000008
 50
187.28923144092889
 51
187.98805234141
  0
ARC
  5
17C
  8
PATTERN_FILL
  6
CONTINUOUS
 62
     7
 10
622.66974763606015
 20
-22.90331809298436
 30
0.0
 40
611.25000000000068
 50
188.02394084833799
 51
188.82214077316181
  0
ARC
  5
17D
  8
PATTERN_FILL
  6
CONTINUOUS
 62
     7
 10
621.28293552303433
 20
-12.369434281891239
 30
0.0
 40
609.25000000000114
 50
188.61427172000111
 51
189.6187634073431
  0
ARC
  5
17E
  8
PATTERN_FILL
  6
CONTINUOUS
 62
     7
 10
619.71764833695397
 20
-1.8958531619937271
 30
0.0
 40
607.25000000000068
 50
189.29715337692139
 51
190.36476871240399
  0
ARC
  5
17F
  8
PATTERN_FILL
  6
CONTINUOUS
 62
     7
 10
617.97556692520448
 20
8.5144148582810431
 30
0.0
 40
605.25000000000091
 50
190.32832452845719
 51
191.0319833749287
  0
ARC
  5
180
  8
PATTERN_FILL
  6
CONTINUOUS
 62
     7
 10
616.05842266453328
 20
18.85839964237914
 30
0.0
 40
603.25000000000068
 50
191.3633400544087
 51
191.51522272172559
  0
LINE
  5
181
  8
PATTERN_FILL
  6
CONTINUOUS
 62
     7
 10
0.0
 20
-75.0
 30
0.0
 11
0.0
 21
-80.750000000000014
 31
0.0
  0
ARC
  5
182
  8
PATTERN_FILL
  6
CONTINUOUS
 62
     7
 10
627.25000000000068
 20
-101.9261482096943
 30
0.0
 40
625.25000000000102
 50
177.54474535891799
 51
178.07236328708191
  0
ARC
  5
183
  8
PATTERN_FILL
  6
CONTINUOUS
 62
     7
 10
627.15511396063755
 20
-112.79901137646451
 30
0.0
 40
623.25000000000102
 50
176.56844905993211
 51
177.10603918884411
  0
ARC
  5
184
  8
PATTERN_FILL
  6
CONTINUOUS
 62
     7
 10
626.87149958417751
 20
-123.6307256896374
 30
0.0
 40
621.2500000000008
 50
175.61212480624059
 51
176.16440140997861
  0
ARC
  5
185
  8
PATTERN_FILL
  6
CONTINUOUS
 62
     7
 10
626.40044573234502
 20
-134.41968863877469
 30
0.0
 40
619.25000000000057
 50
174.6803231384614
 51
175.24931768033181
  0
ARC
  5
186
  8
PATTERN_FILL
  6
CONTINUOUS
 62
     7
 10
625.743301353834
 20
-145.1639042543616
 30
0.0
 40
617.25000000000045
 50
173.76678532326341
 51
174.36406450510981
  0
ARC
  5
187
  8
PATTERN_FILL
  6
CONTINUOUS
 62
     7
 10
624.90148115807028
 20
-155.8602440127801
 30
0.0
 40
615.25000000000068
 50
172.8765067326768
 51
173.5143776862555
  0
ARC
  5
188
  8
PATTERN_FILL
  6
CONTINUOUS
 62
     7
 10
-627.25000000000068
 20
-101.9261482096943
 30
0.0
 40
625.25000000000102
 50
1.927636712918156
 51
2.4552546410819831
  0
ARC
  5
189
  8
PATTERN_FILL
  6
CONTINUOUS
 62
     7
 10
-627.15511396063755
 20
-112.79901137646451
 30
0.0
 40
623.25000000000102
 50
2.8939608111559059
 51
3.4315509400679391
  0
ARC
  5
18A
  8
PATTERN_FILL
  6
CONTINUOUS
 62
     7
 10
-626.87149958417763
 20
-123.6307256896374
 30
0.0
 40
621.2500000000008
 50
3.8355985900213092
 51
4.3878751937593723
  0
ARC
  5
18B
  8
PATTERN_FILL
  6
CONTINUOUS
 62
     7
 10
-626.40044573234513
 20
-134.41968863877469
 30
0.0
 40
619.25000000000068
 50
4.7506823196681527
 51
5.319676861538575
  0
ARC
  5
18C
  8
PATTERN_FILL
  6
CONTINUOUS
 62
     7
 10
-625.743301353834
 20
-145.1639042543616
 30
0.0
 40
617.2500000000008
 50
5.6359354948901528
 51
6.233214676736579
  0
ARC
  5
18D
  8
PATTERN_FILL
  6
CONTINUOUS
 62
     7
 10
-624.90148115807051
 20
-155.8602440127801
 30
0.0
 40
615.25000000000057
 50
6.4856223137444946
 51
7.1234932673232461
  0
ARC
  5
18E
  8
PATTERN_FILL
  6
CONTINUOUS
 62
     7
 10
0.0
 20
-107.9261482096943
 30
0.0
 40
31.999999999999972
 50
65.561245320537409
 51
114.4387546794626
  0
LINE
  5
18F
  8
PATTERN_FILL
  6
CONTINUOUS
 62
     7
 10
0.0
 20
-125.0
 30
0.0
 11
0.0
 21
-119.25
 31
0.0
  0
ARC
  5
190
  8
PATTERN_FILL
  6
CONTINUOUS
 62
     7
 10
627.25000000000068
 20
-98.073851790305653
 30
0.0
 40
625.25000000000102
 50
181.92763671291809
 51
182.45525464108201
  0
ARC
  5
191
  8
PATTERN_FILL
  6
CONTINUOUS
 62
     7
 10
627.15511396063755
 20
-87.200988623535423
 30
0.0
 40
623.25000000000068
 50
182.89396081115589
 51
183.43155094006789
  0
ARC
  5
192
  8
PATTERN_FILL
  6
CONTINUOUS
 62
     7
 10
626.87149958417751
 20
-76.369274310362613
 30
0.0
 40
621.2500000000008
 50
183.83559859002131
 51
184.38787519375941
  0
ARC
  5
193
  8
PATTERN_FILL
  6
CONTINUOUS
 62
     7
 10
626.40044573234502
 20
-65.580311361225341
 30
0.0
 40
619.25000000000057
 50
184.7506823196681
 51
185.31967686153851
  0
ARC
  5
194
  8
PATTERN_FILL
  6
CONTINUOUS
 62
     7
 10
625.743301353834
 20
-54.83609574563836
 30
0.0
 40
617.25000000000045
 50
185.63593549489011
 51
186.23321467673651
  0
ARC
  5
195
  8
PATTERN_FILL
  6
CONTINUOUS
 62
     7
 10
624.90148115807028
 20
-44.139755987219871
 30
0.0
 40
615.25000000000057
 50
186.4856223137445
 51
187.1234932673232
  0
ARC
  5
196
  8
PATTERN_FILL
  6
CONTINUOUS
 62
     7
 10
-627.25000000000068
 20
-98.073851790305653
 30
0.0
 40
625.25000000000102
 50
357.54474535891802
 51
358.07236328708183
  0
ARC
  5
197
  8
PATTERN_FILL
  6
CONTINUOUS
 62
     7
 10
-627.15511396063755
 20
-87.200988623535423
 30
0.0
 40
623.25000000000102
 50
356.56844905993211
 51
357.10603918884408
  0
ARC
  5
198
  8
PATTERN_FILL
  6
CONTINUOUS
 62
     7
 10
-626.87149958417763
 20
-76.369274310362613
 30
0.0
 40
621.2500000000008
 50
355.61212480624062
 51
356.16440140997872
  0
ARC
  5
199
  8
PATTERN_FILL
  6
CONTINUOUS
 62
     7
 10
-626.40044573234513
 20
-65.580311361225341
 30
0.0
 40
619.25000000000068
 50
354.68032313846152
 51
355.2493176803319
  0
ARC
  5
19A
  8
PATTERN_FILL
  6
CONTINUOUS
 62
     7
 10
-625.743301353834
 20
-54.83609574563836
 30
0.0
 40
617.2500000000008
 50
353.76678532326349
 51
354.36406450510981
  0
ARC
  5
19B
  8
PATTERN_FILL
  6
CONTINUOUS
 62
     7
 10
-624.90148115807051
 20
-44.139755987219871
 30
0.0
 40
615.25000000000068
 50
352.87650673267677
 51
353.51437768625539
  0
ARC
  5
19C
  8
PATTERN_FILL
  6
CONTINUOUS
 62
     7
 10
0.0
 20
-92.073851790305724
 30
0.0
 40
31.999999999999989
 50
245.56124532053741
 51
294.43875467946248
  0
ARC
  5
19D
  8
PATTERN_FILL
  6
CONTINUOUS
 62
     7
 10
0.0
 20
-107.9261482096943
 30
0.0
 40
21.999999999999972
 50
149.64023485831569
 51
158.882640142528
  0
ARC
  5
19E
  8
PATTERN_FILL
  6
CONTINUOUS
 62
     7
 10
0.0
 20
-107.9261482096943
 30
0.0
 40
23.999999999999961
 50
135.16186162287349
 51
160.71567497203469
  0
ARC
  5
19F
  8
PATTERN_FILL
  6
CONTINUOUS
 62
     7
 10
0.0
 20
-107.9261482096943
 30
0.0
 40
26.0
 50
116.684639203082
 51
162.25074867354689
  0
ARC
  5
1A0
  8
PATTERN_FILL
  6
CONTINUOUS
 62
     7
 10
-623.87645523677793
 20
-166.50554522283969
 30
0.0
 40
613.2500000000008
 50
7.2892314409288943
 51
7.9880523414100493
  0
ARC
  5
1A1
  8
PATTERN_FILL
  6
CONTINUOUS
 62
     7
 10
-622.66974763606026
 20
-177.09668190701561
 30
0.0
 40
611.25000000000068
 50
8.0239408483380021
 51
8.8221407731618307
  0
ARC
  5
1A2
  8
PATTERN_FILL
  6
CONTINUOUS
 62
     7
 10
-621.28293552303433
 20
-187.63056571810881
 30
0.0
 40
609.25000000000125
 50
8.6142717200010885
 51
9.6187634073431383
  0
ARC
  5
1A3
  8
PATTERN_FILL
  6
CONTINUOUS
 62
     7
 10
-619.71764833695431
 20
-198.1041468380063
 30
0.0
 40
607.25000000000068
 50
9.2971533769213544
 51
10.36476871240389
  0
ARC
  5
1A4
  8
PATTERN_FILL
  6
CONTINUOUS
 62
     7
 10
-617.97556692520482
 20
-208.51441485828099
 30
0.0
 40
605.25000000000091
 50
10.328324528457211
 51
11.03198337492865
  0
ARC
  5
1A5
  8
PATTERN_FILL
  6
CONTINUOUS
 62
     7
 10
-616.05842266453351
 20
-218.85839964237911
 30
0.0
 40
603.25000000000068
 50
11.36334005440874
 51
11.51522272172565
  0
ARC
  5
1A6
  8
PATTERN_FILL
  6
CONTINUOUS
 62
     7
 10
0.0
 20
-92.073851790305724
 30
0.0
 40
21.99999999999995
 50
201.11735985747191
 51
210.35976514168419
  0
ARC
  5
1A7
  8
PATTERN_FILL
  6
CONTINUOUS
 62
     7
 10
0.0
 20
-92.073851790305724
 30
0.0
 40
23.999999999999972
 50
199.28432502796531
 51
224.83813837712651
  0
ARC
  5
1A8
  8
PATTERN_FILL
  6
CONTINUOUS
 62
     7
 10
0.0
 20
-92.073851790305724
 30
0.0
 40
26.0
 50
197.74925132645299
 51
243.31536079691799
  0
ARC
  5
1A9
  8
PATTERN_FILL
  6
CONTINUOUS
 62
     7
 10
-623.87645523677793
 20
-33.494454777160293
 30
0.0
 40
613.2500000000008
 50
352.01194765858997
 51
352.7107685590712
  0
ARC
  5
1AA
  8
PATTERN_FILL
  6
CONTINUOUS
 62
     7
 10
-622.66974763606026
 20
-22.90331809298436
 30
0.0
 40
611.25000000000068
 50
351.17785922683811
 51
351.97605915166201
  0
ARC
  5
1AB
  8
PATTERN_FILL
  6
CONTINUOUS
 62
     7
 10
-621.28293552303433
 20
-12.369434281891239
 30
0.0
 40
609.25000000000125
 50
350.38123659265682
 51
351.385728279999
  0
ARC
  5
1AC
  8
PATTERN_FILL
  6
CONTINUOUS
 62
     7
 10
-619.71764833695431
 20
-1.8958531619937271
 30
0.0
 40
607.25000000000068
 50
349.63523128759613
 51
350.70284662307859
  0
ARC
  5
1AD
  8
PATTERN_FILL
  6
CONTINUOUS
 62
     7
 10
-617.97556692520482
 20
8.5144148582810431
 30
0.0
 40
605.25000000000091
 50
348.9680166250713
 51
349.67167547154281
  0
ARC
  5
1AE
  8
PATTERN_FILL
  6
CONTINUOUS
 62
     7
 10
-616.05842266453351
 20
18.85839964237914
 30
0.0
 40
603.25000000000068
 50
348.48477727827441
 51
348.6366599455913
  0
ARC
  5
1AF
  8
PATTERN_FILL
  6
CONTINUOUS
 62
     7
 10
0.0
 20
-107.9261482096943
 30
0.0
 40
27.999999999999961
 50
29.983855192344851
 51
150.0016185681479
  0
ARC
  5
1B0
  8
PATTERN_FILL
  6
CONTINUOUS
 62
     7
 10
0.0
 20
-107.9261482096943
 30
0.0
 40
29.999999999999989
 50
45.277662991887993
 51
135.17201981309989
  0
ARC
  5
1B1
  8
PATTERN_FILL
  6
CONTINUOUS
 62
     7
 10
0.0
 20
-107.9261482096943
 30
0.0
 40
26.0
 50
17.749251326453042
 51
63.315360796917993
  0
ARC
  5
1B2
  8
PATTERN_FILL
  6
CONTINUOUS
 62
     7
 10
0.0
 20
-92.073851790305724
 30
0.0
 40
27.999999999999972
 50
209.9983814318521
 51
330.01614480765511
  0
ARC
  5
1B3
  8
PATTERN_FILL
  6
CONTINUOUS
 62
     7
 10
0.0
 20
-92.073851790305724
 30
0.0
 40
29.999999999999989
 50
224.82798018690019
 51
314.72233700811199
  0
ARC
  5
1B4
  8
PATTERN_FILL
  6
CONTINUOUS
 62
     7
 10
0.0
 20
-92.073851790305724
 30
0.0
 40
26.0
 50
296.68463920308199
 51
342.25074867354692
  0
LINE
  5
1B5
  8
SPEC
  6
CONTINUOUS
 62
     7
 10
-130.0
 20
494.5
 30
0.0
 11
300.0
 21
494.5
 31
0.0
  0
LINE
  5
1B6
  8
SPEC
  6
CONTINUOUS
 62
     7
 10
-130.0
 20
483.25
 30
0.0
 11
300.0
 21
483.25
 31
0.0
  0
LINE
  5
1B7
  8
SPEC
  6
CONTINUOUS
 62
     7
 10
-130.0
 20
415.74999999999989
 30
0.0
 11
300.0
 21
415.74999999999989
 31
0.0
  0
LINE
  5
1B8
  8
SPEC
  6
CONTINUOUS
 62
     7
 10
-130.0
 20
427.0
 30
0.0
 11
300.0
 21
427.0
 31
0.0
  0
LINE
  5
1B9
  8
SPEC
  6
CONTINUOUS
 62
     7
 10
-130.0
 20
438.25
 30
0.0
 11
300.0
 21
438.25
 31
0.0
  0
LINE
  5
1BA
  8
SPEC
  6
CONTINUOUS
 62
     7
 10
-130.0
 20
404.49999999999989
 30
0.0
 11
300.0
 21
404.49999999999989
 31
0.0
  0
LINE
  5
1BB
  8
SPEC
  6
CONTINUOUS
 62
     7
 10
-130.0
 20
382.0
 30
0.0
 11
300.0
 21
382.0
 31
0.0
  0
LINE
  5
1BC
  8
SPEC
  6
CONTINUOUS
 62
     7
 10
-130.0
 20
393.25
 30
0.0
 11
300.0
 21
393.25
 31
0.0
  0
LINE
  5
1BD
  8
SPEC
  6
CONTINUOUS
 62
     7
 10
-130.0
 20
449.5
 30
0.0
 11
300.0
 21
449.5
 31
0.0
  0
TEXT
  5
1BE
  8
SPEC
 62
     7
 10
-29.800000000000011
 20
485.61373833333329
 30
0.0
 40
5.7009440104166647
  1
F8W
 41
0.7
 11
-29.800000000000011
 21
491.31468234374989
 31
0.0
 73
     3
  0
LINE
  5
1BF
  8
SPEC
  6
CONTINUOUS
 62
     7
 10
-130.0
 20
494.5
 30
0.0
 11
-130.0
 21
325.74999999999989
 31
0.0
  0
TEXT
  5
1C0
  8
SPEC
 62
     7
 10
-126.25
 20
498.67979499999979
 30
0.0
 40
7.3297851562499989
  1
仕様
 41
0.7
 11
-126.25
 21
506.00958015624991
 31
0.0
 73
     3
  0
LINE
  5
1C1
  8
SPEC
  6
CONTINUOUS
 62
     7
 10
-32.5
 20
494.5
 30
0.0
 11
-32.5
 21
325.74999999999989
 31
0.0
  0
LINE
  5
1C2
  8
SPEC
  6
CONTINUOUS
 62
     7
 10
300.0
 20
494.5
 30
0.0
 11
300.0
 21
325.75
 31
0.0
  0
TEXT
  5
1C3
  8
SPEC
 62
     7
 10
-29.800000000000011
 20
373.11375333333342
 30
0.0
 40
5.7009440104166647
  1
0.5dBV(1kHz、ゲイン最小、1%%%THD、パッド無し)
 41
0.7
 11
-29.800000000000011
 21
378.81469734375003
 31
0.0
 73
     3
  0
TEXT
  5
1C4
  8
SPEC
 62
     7
 10
-127.3
 20
418.11375333333331
 30
0.0
 40
5.7009440104166647
  1
アンテナ形式
 41
0.7
 11
-127.3
 21
423.81469734374991
 31
0.0
 73
     3
  0
TEXT
  5
1C5
  8
SPEC
 62
     7
 10
-127.3
 20
485.61373833333329
 30
0.0
 40
5.7009440104166647
  1
電波型式
 41
0.7
 11
-127.3
 21
491.31468234374989
 31
0.0
 73
     3
  0
TEXT
  5
1C6
  8
SPEC
 62
     7
 10
-127.3
 20
395.61375333333331
 30
0.0
 40
5.7009440104166647
  1
トーン信号周波数
 41
0.7
 11
-127.3
 21
401.31469734375003
 31
0.0
 73
     3
  0
TEXT
  5
1C7
  8
SPEC
 62
     7
 10
-127.3
 20
384.36375333333342
 30
0.0
 40
5.7009440104166647
  1
周波数特性
 41
0.7
 11
-127.3
 21
390.06469734375003
 31
0.0
 73
     3
  0
TEXT
  5
1C8
  8
SPEC
 62
     7
 10
-127.3
 20
429.36375333333331
 30
0.0
 40
5.7009440104166647
  1
空中線電力
 41
0.7
 11
-127.3
 21
435.06469734375003
 31
0.0
 73
     3
  0
TEXT
  5
1C9
  8
SPEC
 62
     7
 10
-127.3
 20
406.86375333333331
 30
0.0
 40
5.7009440104166647
  1
到達距離
 41
0.7
 11
-127.3
 21
412.56469734375003
 31
0.0
 73
     3
  0
TEXT
  5
1CA
  8
SPEC
 62
     7
 10
-127.3
 20
474.36375333333331
 30
0.0
 40
5.7009440104166647
  1
送信周波数
 41
0.7
 11
-127.3
 21
480.06469734375003
 31
0.0
 73
     3
  0
TEXT
  5
1CB
  8
SPEC
 62
     7
 10
-127.3
 20
440.61375333333342
 30
0.0
 40
5.7009440104166647
  1
発振方式
 41
0.7
 11
-127.3
 21
446.31469734375003
 31
0.0
 73
     3
  0
TEXT
  5
1CC
  8
SPEC
 62
     7
 10
-127.3
 20
373.11375333333342
 30
0.0
 40
5.7009440104166647
  1
最大入力レベル
 41
0.7
 11
-127.3
 21
378.81469734375003
 31
0.0
 73
     3
  0
TEXT
  5
1CD
  8
SPEC
 62
     7
 10
-29.800000000000011
 20
418.11375333333331
 30
0.0
 40
5.7009440104166647
  1
1/4波長ヘリカル、50\U+03A9
 41
0.7
 11
-29.800000000000011
 21
423.81469734374991
 31
0.0
 73
     3
  0
TEXT
  5
1CE
  8
SPEC
 62
     7
 10
-29.800000000000011
 20
395.61375333333331
 30
0.0
 40
5.7009440104166647
  1
32.768kHz
 41
0.7
 11
-29.800000000000011
 21
401.31469734375003
 31
0.0
 73
     3
  0
TEXT
  5
1CF
  8
SPEC
 62
     7
 10
-29.800000000000011
 20
384.36375333333342
 30
0.0
 40
5.7009440104166647
  1
40Hz～15kHz \U+00B11dB（システム全体の帯域幅はマイクヘッドにより変動）
 41
0.7
 11
-29.800000000000011
 21
390.06469734375003
 31
0.0
 73
     3
  0
TEXT
  5
1D0
  8
SPEC
 62
     7
 10
-29.800000000000011
 20
429.36375333333331
 30
0.0
 40
5.7009440104166647
  1
10mW
 41
0.7
 11
-29.800000000000011
 21
435.06469734375003
 31
0.0
 73
     3
  0
TEXT
  5
1D1
  8
SPEC
 62
     7
 10
-29.800000000000011
 20
406.86375333333331
 30
0.0
 40
5.7009440104166647
  1
約100m(標準環境における最大値)
 41
0.7
 11
-29.800000000000011
 21
412.56469734375003
 31
0.0
 73
     3
  0
TEXT
  5
1D2
  8
SPEC
 62
     7
 10
-29.800000000000011
 20
440.61375333333342
 30
0.0
 40
5.7009440104166647
  1
水晶制御PLLシンセサイザー方式
 41
0.7
 11
-29.800000000000011
 21
446.31469734375003
 31
0.0
 73
     3
  0
TEXT
  5
1D3
  8
SPEC
 62
     7
 10
-29.800000000000011
 20
474.36375333333331
 30
0.0
 40
5.7009440104166647
  1
UR2/BETA 58A-JBX:B型(806～810MHz)30チャンネルのうち任意の1チャンネル
 41
0.7
 11
-29.800000000000011
 21
480.06469734375003
 31
0.0
 73
     3
  0
LINE
  5
1D4
  8
SPEC
  6
CONTINUOUS
 62
     7
 10
-130.0
 20
348.25
 30
0.0
 11
300.0
 21
348.25
 31
0.0
  0
LINE
  5
1D5
  8
SPEC
  6
CONTINUOUS
 62
     7
 10
-130.0
 20
337.0
 30
0.0
 11
300.0
 21
337.0
 31
0.0
  0
TEXT
  5
1D6
  8
SPEC
 62
     7
 10
-29.800000000000011
 20
350.61375333333342
 30
0.0
 40
5.7009440104166647
  1
単3形アルカリ乾電池\U+00D72
 41
0.7
 11
-29.800000000000011
 21
356.31469734375008
 31
0.0
 73
     3
  0
TEXT
  5
1D7
  8
SPEC
 62
     7
 10
-127.3
 20
350.61375333333342
 30
0.0
 40
5.7009440104166647
  1
電源
 41
0.7
 11
-127.3
 21
356.31469734375008
 31
0.0
 73
     3
  0
LINE
  5
1D8
  8
SPEC
  6
CONTINUOUS
 62
     7
 10
-130.0
 20
325.75
 30
0.0
 11
300.0
 21
325.75
 31
0.0
  0
TEXT
  5
1D9
  8
SPEC
 62
     7
 10
-29.800000000000011
 20
339.36375333333342
 30
0.0
 40
5.7009440104166647
  1
\U+03C653\U+00D7251mm
 41
0.7
 11
-29.800000000000011
 21
345.06469734375008
 31
0.0
 73
     3
  0
TEXT
  5
1DA
  8
SPEC
 62
     7
 10
-127.3
 20
339.36375333333342
 30
0.0
 40
5.7009440104166647
  1
寸法(W\U+00D7H\U+00D7D)
 41
0.7
 11
-127.3
 21
345.06469734375008
 31
0.0
 73
     3
  0
TEXT
  5
1DB
  8
SPEC
 62
     7
 10
-29.800000000000011
 20
328.11375333333342
 30
0.0
 40
5.7009440104166647
  1
約314g(電池除く)
 41
0.7
 11
-29.800000000000011
 21
333.81469734375008
 31
0.0
 73
     3
  0
TEXT
  5
1DC
  8
SPEC
 62
     7
 10
-127.3
 20
328.11375333333342
 30
0.0
 40
5.7009440104166647
  1
質量
 41
0.7
 11
-127.3
 21
333.81469734375008
 31
0.0
 73
     3
  0
TEXT
  5
1DD
  8
SPEC
 62
     7
 10
-29.800000000000011
 20
361.86375333333342
 30
0.0
 40
5.7009440104166647
  1
-10～+20dB
 41
0.7
 11
-29.800000000000011
 21
367.56469734375003
 31
0.0
 73
     3
  0
TEXT
  5
1DE
  8
SPEC
 62
     7
 10
-127.3
 20
361.86375333333342
 30
0.0
 40
5.7009440104166647
  1
ゲイン調整範囲
 41
0.7
 11
-127.3
 21
367.56469734375003
 31
0.0
 73
     3
  0
LINE
  5
1DF
  8
SPEC
  6
CONTINUOUS
 62
     7
 10
-130.0
 20
370.75
 30
0.0
 11
300.0
 21
370.75
 31
0.0
  0
TEXT
  5
1E0
  8
SPEC
 62
     7
 10
-29.800000000000011
 20
463.11375333333331
 30
0.0
 40
5.7009440104166647
  1
UR2/BETA 58A-A24:A型(797～806MHz)71チャンネルとA2型 (779～788MHz)71チャンネル
 41
0.7
 11
-29.800000000000011
 21
468.81469734375003
 31
0.0
 73
     3
  0
TEXT
  5
1E1
  8
SPEC
 62
     7
 10
25.199999999999999
 20
451.86375333333331
 30
0.0
 40
5.7009440104166647
  1
合計142チャンネルのうち任意の1チャンネル
 41
0.7
 11
25.199999999999999
 21
457.56469734375003
 31
0.0
 73
     3
  0
LINE
  5
1E2
  8
SPEC
  6
CONTINUOUS
 62
     7
 10
-130.0
 20
359.5
 30
0.0
 11
300.0
 21
359.5
 31
0.0
  0
TEXT
  5
1E3
  8
DIMNSIONS
 62
     7
 10
57.499984999999981
 20
-218.69151500000001
 30
0.0
 40
7.3297851562499989
  1
(単位：mm)
 41
0.7
 11
57.499984999999981
 21
-211.36172984375
 31
0.0
 73
     3
  0
LINE
  5
1E4
  8
DIMNSIONS
  6
CONTINUOUS
 62
     7
 10
-24.5
 20
176.0
 30
0.0
 11
-66.0
 21
176.0
 31
0.0
  0
LINE
  5
1E5
  8
DIMNSIONS
  6
CONTINUOUS
 62
     7
 10
-15.0530931503699
 20
0.0
 30
0.0
 11
-66.0
 21
0.0
 31
0.0
  0
LINE
  5
1E6
  8
DIMNSIONS
  6
CONTINUOUS
 62
     7
 10
-60.0
 20
176.0
 30
0.0
 11
-60.0
 21
0.0
 31
0.0
  0
LINE
  5
1E7
  8
DIMNSIONS
  6
CONTINUOUS
 62
     7
 10
-60.0
 20
176.0
 30
0.0
 11
-57.989880614549257
 21
168.49813232421869
 31
0.0
  0
LINE
  5
1E8
  8
DIMNSIONS
  6
CONTINUOUS
 62
     7
 10
-60.0
 20
176.0
 30
0.0
 11
-62.010119385450743
 21
168.49813232421869
 31
0.0
  0
LINE
  5
1E9
  8
DIMNSIONS
  6
CONTINUOUS
 62
     7
 10
-60.0
 20
0.0
 30
0.0
 11
-62.010119385450743
 21
7.5018676757812539
 31
0.0
  0
LINE
  5
1EA
  8
DIMNSIONS
  6
CONTINUOUS
 62
     7
 10
-60.0
 20
0.0
 30
0.0
 11
-57.989880614549257
 21
7.5018676757812539
 31
0.0
  0
TEXT
  5
1EB
  8
DIMNSIONS
 62
     7
 10
-62.981666666666648
 20
80.062499999999986
 30
0.0
 40
8.1442057291666661
  1
176
 50
90.0
 41
0.7
 11
-71.125872395833312
 21
80.062499999999986
 31
0.0
 73
     3
  0
LINE
  5
1EC
  8
DIMNSIONS
  6
CONTINUOUS
 62
     7
 10
-5.9999999999999707
 20
250.5
 30
0.0
 11
-96.0
 21
250.5
 31
0.0
  0
LINE
  5
1ED
  8
DIMNSIONS
  6
CONTINUOUS
 62
     7
 10
-15.0530931503699
 20
0.0
 30
0.0
 11
-96.0
 21
0.0
 31
0.0
  0
LINE
  5
1EE
  8
DIMNSIONS
  6
CONTINUOUS
 62
     7
 10
-90.0
 20
250.5
 30
0.0
 11
-90.0
 21
0.0
 31
0.0
  0
LINE
  5
1EF
  8
DIMNSIONS
  6
CONTINUOUS
 62
     7
 10
-90.0
 20
250.5
 30
0.0
 11
-87.989880614549264
 21
242.99813232421869
 31
0.0
  0
LINE
  5
1F0
  8
DIMNSIONS
  6
CONTINUOUS
 62
     7
 10
-90.0
 20
250.5
 30
0.0
 11
-92.010119385450722
 21
242.99813232421869
 31
0.0
  0
LINE
  5
1F1
  8
DIMNSIONS
  6
CONTINUOUS
 62
     7
 10
-90.0
 20
0.0
 30
0.0
 11
-92.010119385450722
 21
7.5018676757812539
 31
0.0
  0
LINE
  5
1F2
  8
DIMNSIONS
  6
CONTINUOUS
 62
     7
 10
-90.0
 20
0.0
 30
0.0
 11
-87.989880614549264
 21
7.5018676757812539
 31
0.0
  0
TEXT
  5
1F3
  8
DIMNSIONS
 62
     7
 10
-92.981666666666655
 20
117.3125
 30
0.0
 40
8.1442057291666661
  1
251
 50
90.0
 41
0.7
 11
-101.1258723958333
 21
117.3125
 31
0.0
 73
     3
  0
LINE
  5
1F4
  8
DIMNSIONS
  6
CONTINUOUS
 62
     7
 10
-24.5
 20
176.0
 30
0.0
 11
-66.0
 21
176.0
 31
0.0
  0
LINE
  5
1F5
  8
DIMNSIONS
  6
CONTINUOUS
 62
     7
 10
-5.9999999999999707
 20
250.5
 30
0.0
 11
-66.0
 21
250.5
 31
0.0
  0
LINE
  5
1F6
  8
DIMNSIONS
  6
CONTINUOUS
 62
     7
 10
-60.0
 20
176.0
 30
0.0
 11
-60.0
 21
250.5
 31
0.0
  0
LINE
  5
1F7
  8
DIMNSIONS
  6
CONTINUOUS
 62
     7
 10
-60.0
 20
176.0
 30
0.0
 11
-62.010119385450743
 21
183.50186767578131
 31
0.0
  0
LINE
  5
1F8
  8
DIMNSIONS
  6
CONTINUOUS
 62
     7
 10
-60.0
 20
176.0
 30
0.0
 11
-57.989880614549257
 21
183.50186767578131
 31
0.0
  0
LINE
  5
1F9
  8
DIMNSIONS
  6
CONTINUOUS
 62
     7
 10
-60.0
 20
250.5
 30
0.0
 11
-57.989880614549257
 21
242.99813232421869
 31
0.0
  0
LINE
  5
1FA
  8
DIMNSIONS
  6
CONTINUOUS
 62
     7
 10
-60.0
 20
250.5
 30
0.0
 11
-62.010119385450743
 21
242.99813232421869
 31
0.0
  0
TEXT
  5
1FB
  8
DIMNSIONS
 62
     7
 10
-62.981666666666648
 20
207.95833333333329
 30
0.0
 40
8.1442057291666661
  1
75
 50
90.0
 41
0.7
 11
-71.125872395833312
 21
207.95833333333329
 31
0.0
 73
     3
  0
LINE
  5
1FC
  8
DIMNSIONS
  6
CONTINUOUS
 62
     7
 10
-26.25
 20
-94.0
 30
0.0
 11
-26.25
 21
-34.0
 31
0.0
  0
LINE
  5
1FD
  8
DIMNSIONS
  6
CONTINUOUS
 62
     7
 10
26.25
 20
-94.0
 30
0.0
 11
26.25
 21
-34.0
 31
0.0
  0
LINE
  5
1FE
  8
DIMNSIONS
  6
CONTINUOUS
 62
     7
 10
-26.25
 20
-40.0
 30
0.0
 11
26.25
 21
-40.0
 31
0.0
  0
LINE
  5
1FF
  8
DIMNSIONS
  6
CONTINUOUS
 62
     7
 10
-26.25
 20
-40.0
 30
0.0
 11
-18.748132324218741
 21
-37.989880614549257
 31
0.0
  0
LINE
  5
200
  8
DIMNSIONS
  6
CONTINUOUS
 62
     7
 10
-26.25
 20
-40.0
 30
0.0
 11
-18.748132324218741
 21
-42.010119385450729
 31
0.0
  0
LINE
  5
201
  8
DIMNSIONS
  6
CONTINUOUS
 62
     7
 10
26.25
 20
-40.0
 30
0.0
 11
18.748132324218741
 21
-42.010119385450729
 31
0.0
  0
LINE
  5
202
  8
DIMNSIONS
  6
CONTINUOUS
 62
     7
 10
26.25
 20
-40.0
 30
0.0
 11
18.748132324218741
 21
-37.989880614549257
 31
0.0
  0
TEXT
  5
203
  8
DIMNSIONS
 62
     7
 10
-5.2916666666666732
 20
-37.018333333333331
 30
0.0
 40
8.1442057291666661
  1
53
 41
0.7
 11
-5.2916666666666723
 21
-28.874127604166659
 31
0.0
 73
     3
  0
TEXT
  5
204
  8
DATA
 62
     7
 10
226.99996999999999
 20
-221.19716333333329
 30
0.0
 40
6.5153645833333318
  1
UR2/BETA 58A-JBX 、 UR2/BETA 58A-A24
 41
0.7
 11
226.99996999999999
 21
-214.68179875000001
 31
0.0
 73
     3
  0
TEXT
  5
205
  8
DATA
 62
     7
 10
259.99997000000002
 20
-200.35732999999999
 30
0.0
 40
7.3297851562499989
  1
SHURE
 41
0.7
 11
259.99997000000002
 21
-193.02754484375001
 31
0.0
 73
     3
  0
TEXT
  5
206
  8
DATA
 62
     7
 10
226.99996999999999
 20
-210.3581574561403
 30
0.0
 40
6.5153645833333318
  1
ハンドヘルド型送信機
 41
0.7
 11
226.99996999999999
 21
-203.84279287280691
 31
0.0
 73
     3
  0
LINE
  5
207
  8
DATA
  6
CONTINUOUS
 62
     7
 10
-18.5
 20
176.0
 30
0.0
 11
18.5
 21
176.0
 31
0.0
  0
LINE
  5
208
  8
DATA
  6
CONTINUOUS
 62
     7
 10
-17.5
 20
102.0
 30
0.0
 11
17.5
 21
102.0
 31
0.0
  0
LINE
  5
209
  8
DATA
  6
CONTINUOUS
 62
     7
 10
-17.5
 20
136.0
 30
0.0
 11
-17.5
 21
102.0
 31
0.0
  0
LINE
  5
20A
  8
DATA
  6
CONTINUOUS
 62
     7
 10
17.5
 20
136.0
 30
0.0
 11
17.5
 21
102.0
 31
0.0
  0
ARC
  5
20B
  8
DATA
  6
CONTINUOUS
 62
     7
 10
151.17307692307691
 20
171.88461538461539
 30
0.0
 40
169.72297847691971
 50
178.61057540006649
 51
187.0513242185213
  0
LINE
  5
20C
  8
DATA
  6
CONTINUOUS
 62
     7
 10
17.5
 20
136.0
 30
0.0
 11
17.5
 21
102.0
 31
0.0
  0
ARC
  5
20D
  8
DATA
  6
CONTINUOUS
 62
     7
 10
-91.204948301329424
 20
138.32865583456419
 30
0.0
 40
108.7298874421865
 50
358.77280887296558
 51
4.5740453520401161
  0
LINE
  5
20E
  8
DATA
  6
CONTINUOUS
 62
     7
 10
-17.5
 20
176.5
 30
0.0
 11
-17.5
 21
176.0
 31
0.0
  0
LINE
  5
20F
  8
DATA
  6
CONTINUOUS
 62
     7
 10
17.5
 20
176.5
 30
0.0
 11
17.5
 21
176.0
 31
0.0
  0
LINE
  5
210
  8
DATA
  6
CONTINUOUS
 62
     7
 10
-17.5
 20
102.5
 30
0.0
 11
17.5
 21
102.5
 31
0.0
  0
LINE
  5
211
  8
DATA
  6
CONTINUOUS
 62
     7
 10
-17.0
 20
37.0
 30
0.0
 11
17.0
 21
37.0
 31
0.0
  0
LINE
  5
212
  8
DATA
  6
CONTINUOUS
 62
     7
 10
-16.0
 20
28.0
 30
0.0
 11
16.0
 21
28.0
 31
0.0
  0
LINE
  5
213
  8
DATA
  6
CONTINUOUS
 62
     7
 10
-17.0
 20
29.0
 30
0.0
 11
-17.0
 21
37.0
 31
0.0
  0
LINE
  5
214
  8
DATA
  6
CONTINUOUS
 62
     7
 10
17.0
 20
29.0
 30
0.0
 11
17.0
 21
37.0
 31
0.0
  0
LINE
  5
215
  8
DATA
  6
CONTINUOUS
 62
     7
 10
-17.0
 20
37.5
 30
0.0
 11
17.0
 21
37.5
 31
0.0
  0
LINE
  5
216
  8
DATA
  6
CONTINUOUS
 62
     7
 10
-17.5
 20
102.0
 30
0.0
 11
-17.0
 21
37.5
 31
0.0
  0
LINE
  5
217
  8
DATA
  6
CONTINUOUS
 62
     7
 10
17.5
 20
102.0
 30
0.0
 11
17.0
 21
37.5
 31
0.0
  0
LINE
  5
218
  8
DATA
  6
CONTINUOUS
 62
     7
 10
-17.0
 20
37.5
 30
0.0
 11
-16.5
 21
37.25
 31
0.0
  0
LINE
  5
219
  8
DATA
  6
CONTINUOUS
 62
     7
 10
-16.5
 20
37.25
 30
0.0
 11
-17.0
 21
37.0
 31
0.0
  0
LINE
  5
21A
  8
DATA
  6
CONTINUOUS
 62
     7
 10
17.0
 20
37.5
 30
0.0
 11
16.5
 21
37.25
 31
0.0
  0
LINE
  5
21B
  8
DATA
  6
CONTINUOUS
 62
     7
 10
16.5
 20
37.25
 30
0.0
 11
17.0
 21
37.0
 31
0.0
  0
LINE
  5
21C
  8
DATA
  6
CONTINUOUS
 62
     7
 10
-16.5
 20
37.25
 30
0.0
 11
16.5
 21
37.25
 31
0.0
  0
ARC
  5
21D
  8
DATA
  6
CONTINUOUS
 62
     7
 10
-16.0
 20
29.0
 30
0.0
 40
1.0
 50
180.0
 51
270.0
  0
ARC
  5
21E
  8
DATA
  6
CONTINUOUS
 62
     7
 10
16.0
 20
29.0
 30
0.0
 40
1.0
 50
270.0
 51
0.0
  0
LINE
  5
21F
  8
DATA
  6
CONTINUOUS
 62
     7
 10
-9.0530931503699037
 20
0.0
 30
0.0
 11
9.0530931503699037
 21
0.0
 31
0.0
  0
LINE
  5
220
  8
DATA
  6
CONTINUOUS
 62
     7
 10
-12.5
 20
28.0
 30
0.0
 11
-12.052614948406241
 21
2.9464371107493572
 31
0.0
  0
LINE
  5
221
  8
DATA
  6
CONTINUOUS
 62
     7
 10
12.5
 20
28.0
 30
0.0
 11
12.052614948406241
 21
2.9464371107493572
 31
0.0
  0
ARC
  5
222
  8
DATA
  6
CONTINUOUS
 62
     7
 10
-9.0530931503699037
 20
3.0
 30
0.0
 40
3.0000000000000062
 50
181.0230301886676
 51
270.0
  0
ARC
  5
223
  8
DATA
  6
CONTINUOUS
 62
     7
 10
9.0530931503699037
 20
2.9999999999999849
 30
0.0
 40
2.9999999999999849
 50
270.0
 51
358.97696981133248
  0
LINE
  5
224
  8
DATA
  6
CONTINUOUS
 62
     7
 10
-9.5
 20
104.5
 30
0.0
 11
9.5
 21
104.5
 31
0.0
  0
LINE
  5
225
  8
DATA
  6
CONTINUOUS
 62
     7
 10
-9.5
 20
128.5
 30
0.0
 11
9.5
 21
128.5
 31
0.0
  0
LINE
  5
226
  8
DATA
  6
CONTINUOUS
 62
     7
 10
-11.0
 20
127.0
 30
0.0
 11
-11.0
 21
106.0
 31
0.0
  0
LINE
  5
227
  8
DATA
  6
CONTINUOUS
 62
     7
 10
11.0
 20
127.0
 30
0.0
 11
11.0
 21
106.0
 31
0.0
  0
LINE
  5
228
  8
DATA
  6
CONTINUOUS
 62
     7
 10
-8.5
 20
108.5
 30
0.0
 11
8.5
 21
108.5
 31
0.0
  0
LINE
  5
229
  8
DATA
  6
CONTINUOUS
 62
     7
 10
-8.5
 20
125.5
 30
0.0
 11
8.5
 21
125.5
 31
0.0
  0
LINE
  5
22A
  8
DATA
  6
CONTINUOUS
 62
     7
 10
-8.5
 20
108.5
 30
0.0
 11
-8.5
 21
125.5
 31
0.0
  0
LINE
  5
22B
  8
DATA
  6
CONTINUOUS
 62
     7
 10
8.5
 20
108.5
 30
0.0
 11
8.5
 21
125.5
 31
0.0
  0
ARC
  5
22C
  8
DATA
  6
CONTINUOUS
 62
     7
 10
-9.5
 20
127.0
 30
0.0
 40
1.5
 50
90.0
 51
180.0
  0
ARC
  5
22D
  8
DATA
  6
CONTINUOUS
 62
     7
 10
-9.5
 20
106.0
 30
0.0
 40
1.5
 50
180.0
 51
270.0
  0
ARC
  5
22E
  8
DATA
  6
CONTINUOUS
 62
     7
 10
9.5
 20
106.0
 30
0.0
 40
1.5
 50
270.0
 51
0.0
  0
ARC
  5
22F
  8
DATA
  6
CONTINUOUS
 62
     7
 10
9.5
 20
127.0
 30
0.0
 40
1.5
 50
0.0
 51
90.0
  0
TEXT
  5
230
  8
DATA
 62
     7
 10
-2.785662895322957
 20
30.659518004825529
 30
0.0
 40
3.2576822916666659
  1
UR2
 41
0.7
 11
-2.785662895322957
 21
33.917200296492197
 31
0.0
 73
     3
  0
LINE
  5
231
  8
DATA
  6
CONTINUOUS
 62
     7
 10
101.5
 20
176.0
 30
0.0
 11
138.5
 21
176.0
 31
0.0
  0
LINE
  5
232
  8
DATA
  6
CONTINUOUS
 62
     7
 10
102.5
 20
102.0
 30
0.0
 11
137.5
 21
102.0
 31
0.0
  0
LINE
  5
233
  8
DATA
  6
CONTINUOUS
 62
     7
 10
102.5
 20
136.0
 30
0.0
 11
102.5
 21
102.0
 31
0.0
  0
LINE
  5
234
  8
DATA
  6
CONTINUOUS
 62
     7
 10
137.5
 20
136.0
 30
0.0
 11
137.5
 21
102.0
 31
0.0
  0
ARC
  5
235
  8
DATA
  6
CONTINUOUS
 62
     7
 10
271.17307692307691
 20
171.88461538461539
 30
0.0
 40
169.72297847691971
 50
178.61057540006649
 51
187.0513242185213
  0
LINE
  5
236
  8
DATA
  6
CONTINUOUS
 62
     7
 10
137.5
 20
136.0
 30
0.0
 11
137.5
 21
102.0
 31
0.0
  0
ARC
  5
237
  8
DATA
  6
CONTINUOUS
 62
     7
 10
28.795051698670591
 20
138.32865583456419
 30
0.0
 40
108.7298874421865
 50
358.77280887296558
 51
4.5740453520388646
  0
LINE
  5
238
  8
DATA
  6
CONTINUOUS
 62
     7
 10
102.5
 20
176.5
 30
0.0
 11
102.5
 21
176.0
 31
0.0
  0
LINE
  5
239
  8
DATA
  6
CONTINUOUS
 62
     7
 10
137.5
 20
176.5
 30
0.0
 11
137.5
 21
176.0
 31
0.0
  0
LINE
  5
23A
  8
DATA
  6
CONTINUOUS
 62
     7
 10
102.5
 20
102.5
 30
0.0
 11
137.5
 21
102.5
 31
0.0
  0
LINE
  5
23B
  8
DATA
  6
CONTINUOUS
 62
     7
 10
103.0
 20
37.0
 30
0.0
 11
137.0
 21
37.0
 31
0.0
  0
LINE
  5
23C
  8
DATA
  6
CONTINUOUS
 62
     7
 10
104.0
 20
28.0
 30
0.0
 11
136.0
 21
28.0
 31
0.0
  0
LINE
  5
23D
  8
DATA
  6
CONTINUOUS
 62
     7
 10
103.0
 20
29.0
 30
0.0
 11
103.0
 21
37.0
 31
0.0
  0
LINE
  5
23E
  8
DATA
  6
CONTINUOUS
 62
     7
 10
137.0
 20
29.0
 30
0.0
 11
137.0
 21
37.0
 31
0.0
  0
LINE
  5
23F
  8
DATA
  6
CONTINUOUS
 62
     7
 10
103.0
 20
37.5
 30
0.0
 11
137.0
 21
37.5
 31
0.0
  0
LINE
  5
240
  8
DATA
  6
CONTINUOUS
 62
     7
 10
102.5
 20
102.0
 30
0.0
 11
103.0
 21
37.5
 31
0.0
  0
LINE
  5
241
  8
DATA
  6
CONTINUOUS
 62
     7
 10
137.5
 20
102.0
 30
0.0
 11
137.0
 21
37.5
 31
0.0
  0
LINE
  5
242
  8
DATA
  6
CONTINUOUS
 62
     7
 10
103.0
 20
37.5
 30
0.0
 11
103.5
 21
37.25
 31
0.0
  0
LINE
  5
243
  8
DATA
  6
CONTINUOUS
 62
     7
 10
103.5
 20
37.25
 30
0.0
 11
103.0
 21
37.0
 31
0.0
  0
LINE
  5
244
  8
DATA
  6
CONTINUOUS
 62
     7
 10
137.0
 20
37.5
 30
0.0
 11
136.5
 21
37.25
 31
0.0
  0
LINE
  5
245
  8
DATA
  6
CONTINUOUS
 62
     7
 10
136.5
 20
37.25
 30
0.0
 11
137.0
 21
37.0
 31
0.0
  0
LINE
  5
246
  8
DATA
  6
CONTINUOUS
 62
     7
 10
103.5
 20
37.25
 30
0.0
 11
136.5
 21
37.25
 31
0.0
  0
ARC
  5
247
  8
DATA
  6
CONTINUOUS
 62
     7
 10
104.0
 20
29.0
 30
0.0
 40
1.0
 50
180.0
 51
270.0
  0
ARC
  5
248
  8
DATA
  6
CONTINUOUS
 62
     7
 10
136.0
 20
29.0
 30
0.0
 40
1.0
 50
270.0
 51
0.0
  0
LINE
  5
249
  8
DATA
  6
CONTINUOUS
 62
     7
 10
110.9469068496301
 20
0.0
 30
0.0
 11
129.0530931503699
 21
0.0
 31
0.0
  0
LINE
  5
24A
  8
DATA
  6
CONTINUOUS
 62
     7
 10
107.5
 20
28.0
 30
0.0
 11
107.9473850515937
 21
2.9464371107493572
 31
0.0
  0
LINE
  5
24B
  8
DATA
  6
CONTINUOUS
 62
     7
 10
132.5
 20
28.0
 30
0.0
 11
132.05261494840619
 21
2.9464371107493572
 31
0.0
  0
ARC
  5
24C
  8
DATA
  6
CONTINUOUS
 62
     7
 10
110.9469068496301
 20
3.0
 30
0.0
 40
3.0000000000000062
 50
181.0230301886676
 51
270.0
  0
ARC
  5
24D
  8
DATA
  6
CONTINUOUS
 62
     7
 10
129.0530931503699
 20
2.9999999999999849
 30
0.0
 40
2.9999999999999849
 50
270.0
 51
358.97696981133248
  0
LINE
  5
24E
  8
DATA
  6
CONTINUOUS
 62
     7
 10
102.5
 20
104.5
 30
0.0
 11
104.5
 21
104.5
 31
0.0
  0
LINE
  5
24F
  8
DATA
  6
CONTINUOUS
 62
     7
 10
102.5
 20
128.5
 30
0.0
 11
104.5
 21
128.5
 31
0.0
  0
LINE
  5
250
  8
DATA
  6
CONTINUOUS
 62
     7
 10
107.5
 20
125.5
 30
0.0
 11
107.5
 21
107.5
 31
0.0
  0
LINE
  5
251
  8
DATA
  6
CONTINUOUS
 62
     7
 10
102.5
 20
108.5
 30
0.0
 11
105.5
 21
108.5
 31
0.0
  0
LINE
  5
252
  8
DATA
  6
CONTINUOUS
 62
     7
 10
102.5
 20
125.5
 30
0.0
 11
105.5
 21
125.5
 31
0.0
  0
ARC
  5
253
  8
DATA
  6
CONTINUOUS
 62
     7
 10
104.5
 20
125.5
 30
0.0
 40
3.0
 50
0.0
 51
90.0
  0
ARC
  5
254
  8
DATA
  6
CONTINUOUS
 62
     7
 10
104.5
 20
107.5
 30
0.0
 40
3.0
 50
270.0
 51
0.0
  0
LINE
  5
255
  8
DATA
  6
CONTINUOUS
 62
     7
 10
105.5
 20
125.5
 30
0.0
 11
105.5
 21
108.5
 31
0.0
  0
LINE
  5
256
  8
DATA
  6
CONTINUOUS
 62
     7
 10
221.5
 20
176.0
 30
0.0
 11
258.5
 21
176.0
 31
0.0
  0
LINE
  5
257
  8
DATA
  6
CONTINUOUS
 62
     7
 10
222.5
 20
102.0
 30
0.0
 11
257.5
 21
102.0
 31
0.0
  0
LINE
  5
258
  8
DATA
  6
CONTINUOUS
 62
     7
 10
222.5
 20
136.0
 30
0.0
 11
222.5
 21
102.0
 31
0.0
  0
LINE
  5
259
  8
DATA
  6
CONTINUOUS
 62
     7
 10
257.5
 20
136.0
 30
0.0
 11
257.5
 21
102.0
 31
0.0
  0
ARC
  5
25A
  8
DATA
  6
CONTINUOUS
 62
     7
 10
391.17307692307702
 20
171.88461538461539
 30
0.0
 40
169.72297847691971
 50
178.61057540006649
 51
187.0513242185211
  0
LINE
  5
25B
  8
DATA
  6
CONTINUOUS
 62
     7
 10
257.5
 20
136.0
 30
0.0
 11
257.5
 21
102.0
 31
0.0
  0
ARC
  5
25C
  8
DATA
  6
CONTINUOUS
 62
     7
 10
148.79505169867059
 20
138.32865583456419
 30
0.0
 40
108.7298874421865
 50
358.77280887296558
 51
4.5740453520401161
  0
LINE
  5
25D
  8
DATA
  6
CONTINUOUS
 62
     7
 10
222.5
 20
176.5
 30
0.0
 11
222.5
 21
176.0
 31
0.0
  0
LINE
  5
25E
  8
DATA
  6
CONTINUOUS
 62
     7
 10
257.5
 20
176.5
 30
0.0
 11
257.5
 21
176.0
 31
0.0
  0
LINE
  5
25F
  8
DATA
  6
CONTINUOUS
 62
     7
 10
222.5
 20
102.5
 30
0.0
 11
257.5
 21
102.5
 31
0.0
  0
LINE
  5
260
  8
DATA
  6
CONTINUOUS
 62
     7
 10
223.0
 20
37.0
 30
0.0
 11
257.0
 21
37.0
 31
0.0
  0
LINE
  5
261
  8
DATA
  6
CONTINUOUS
 62
     7
 10
224.0
 20
28.0
 30
0.0
 11
256.0
 21
28.0
 31
0.0
  0
LINE
  5
262
  8
DATA
  6
CONTINUOUS
 62
     7
 10
223.0
 20
29.0
 30
0.0
 11
223.0
 21
37.0
 31
0.0
  0
LINE
  5
263
  8
DATA
  6
CONTINUOUS
 62
     7
 10
257.0
 20
29.0
 30
0.0
 11
257.0
 21
37.0
 31
0.0
  0
LINE
  5
264
  8
DATA
  6
CONTINUOUS
 62
     7
 10
223.0
 20
37.5
 30
0.0
 11
257.0
 21
37.5
 31
0.0
  0
LINE
  5
265
  8
DATA
  6
CONTINUOUS
 62
     7
 10
222.5
 20
102.0
 30
0.0
 11
223.0
 21
37.5
 31
0.0
  0
LINE
  5
266
  8
DATA
  6
CONTINUOUS
 62
     7
 10
257.5
 20
102.0
 30
0.0
 11
257.0
 21
37.5
 31
0.0
  0
LINE
  5
267
  8
DATA
  6
CONTINUOUS
 62
     7
 10
223.0
 20
37.5
 30
0.0
 11
223.5
 21
37.25
 31
0.0
  0
LINE
  5
268
  8
DATA
  6
CONTINUOUS
 62
     7
 10
223.5
 20
37.25
 30
0.0
 11
223.0
 21
37.0
 31
0.0
  0
LINE
  5
269
  8
DATA
  6
CONTINUOUS
 62
     7
 10
257.0
 20
37.5
 30
0.0
 11
256.5
 21
37.25
 31
0.0
  0
LINE
  5
26A
  8
DATA
  6
CONTINUOUS
 62
     7
 10
256.5
 20
37.25
 30
0.0
 11
257.0
 21
37.0
 31
0.0
  0
LINE
  5
26B
  8
DATA
  6
CONTINUOUS
 62
     7
 10
223.5
 20
37.25
 30
0.0
 11
256.5
 21
37.25
 31
0.0
  0
ARC
  5
26C
  8
DATA
  6
CONTINUOUS
 62
     7
 10
224.0
 20
29.0
 30
0.0
 40
1.0
 50
180.0
 51
270.0
  0
ARC
  5
26D
  8
DATA
  6
CONTINUOUS
 62
     7
 10
256.0
 20
29.0
 30
0.0
 40
1.0
 50
270.0
 51
0.0
  0
LINE
  5
26E
  8
DATA
  6
CONTINUOUS
 62
     7
 10
230.9469068496301
 20
0.0
 30
0.0
 11
249.0530931503699
 21
0.0
 31
0.0
  0
LINE
  5
26F
  8
DATA
  6
CONTINUOUS
 62
     7
 10
227.5
 20
28.0
 30
0.0
 11
227.9473850515937
 21
2.9464371107493572
 31
0.0
  0
LINE
  5
270
  8
DATA
  6
CONTINUOUS
 62
     7
 10
252.5
 20
28.0
 30
0.0
 11
252.05261494840619
 21
2.9464371107493572
 31
0.0
  0
ARC
  5
271
  8
DATA
  6
CONTINUOUS
 62
     7
 10
230.9469068496301
 20
3.0
 30
0.0
 40
3.0000000000000062
 50
181.0230301886676
 51
270.0
  0
ARC
  5
272
  8
DATA
  6
CONTINUOUS
 62
     7
 10
249.0530931503699
 20
2.9999999999999849
 30
0.0
 40
2.9999999999999849
 50
270.0
 51
358.97696981133248
  0
TEXT
  5
273
  8
DATA
 62
     7
 10
237.21433710467701
 20
30.659518004825529
 30
0.0
 40
3.2576822916666659
  1
UR2
 41
0.7
 11
237.21433710467701
 21
33.917200296492197
 31
0.0
 73
     3
  0
LINE
  5
274
  8
DATA
  6
CONTINUOUS
 62
     7
 10
232.5
 20
21.0
 30
0.0
 11
247.5
 21
21.0
 31
0.0
  0
LINE
  5
275
  8
DATA
  6
CONTINUOUS
 62
     7
 10
232.5
 20
21.0
 30
0.0
 11
232.5
 21
28.0
 31
0.0
  0
LINE
  5
276
  8
DATA
  6
CONTINUOUS
 62
     7
 10
247.5
 20
21.0
 30
0.0
 11
247.5
 21
28.0
 31
0.0
  0
LINE
  5
277
  8
DATA
  6
CONTINUOUS
 62
     7
 10
234.5
 20
23.0
 30
0.0
 11
245.5
 21
23.0
 31
0.0
  0
LINE
  5
278
  8
DATA
  6
CONTINUOUS
 62
     7
 10
234.5
 20
23.0
 30
0.0
 11
234.5
 21
28.0
 31
0.0
  0
LINE
  5
279
  8
DATA
  6
CONTINUOUS
 62
     7
 10
245.5
 20
23.0
 30
0.0
 11
245.5
 21
28.0
 31
0.0
  0
LINE
  5
27A
  8
DATA
  6
CONTINUOUS
 62
     7
 10
235.0
 20
26.5
 30
0.0
 11
245.0
 21
26.5
 31
0.0
  0
LINE
  5
27B
  8
DATA
  6
CONTINUOUS
 62
     7
 10
245.0
 20
26.5
 30
0.0
 11
245.0
 21
24.5
 31
0.0
  0
LINE
  5
27C
  8
DATA
  6
CONTINUOUS
 62
     7
 10
235.0
 20
26.5
 30
0.0
 11
235.0
 21
24.5
 31
0.0
  0
LINE
  5
27D
  8
DATA
  6
CONTINUOUS
 62
     7
 10
235.0
 20
24.5
 30
0.0
 11
245.0
 21
24.5
 31
0.0
  0
LINE
  5
27E
  8
DATA
  6
CONTINUOUS
 62
     7
 10
237.0
 20
26.5
 30
0.0
 11
237.0
 21
24.5
 31
0.0
  0
LINE
  5
27F
  8
DATA
  6
CONTINUOUS
 62
     7
 10
240.0
 20
26.5
 30
0.0
 11
240.5
 21
25.5
 31
0.0
  0
LINE
  5
280
  8
DATA
  6
CONTINUOUS
 62
     7
 10
240.5
 20
25.5
 30
0.0
 11
240.0
 21
24.5
 31
0.0
  0
LINE
  5
281
  8
DATA
  6
CONTINUOUS
 62
     7
 10
242.0
 20
26.5
 30
0.0
 11
241.5
 21
25.5
 31
0.0
  0
LINE
  5
282
  8
DATA
  6
CONTINUOUS
 62
     7
 10
241.5
 20
25.5
 30
0.0
 11
242.0
 21
24.5
 31
0.0
  0
TEXT
  5
283
  8
DATA
 62
     7
 10
237.550000025332
 20
24.866235380116962
 30
0.0
 40
1.154296875
  1
OFF
 41
0.7
 11
237.550000025332
 21
26.020532255116962
 31
0.0
 73
     3
  0
TEXT
  5
284
  8
DATA
 62
     7
 10
242.550000025332
 20
24.866235380116962
 30
0.0
 40
1.154296875
  1
ON
 41
0.7
 11
242.550000025332
 21
26.020532255116962
 31
0.0
 73
     3
  0
CIRCLE
  5
285
  8
DATA
  6
CONTINUOUS
 62
     7
 10
236.0
 20
25.5
 30
0.0
 40
0.5
  0
ARC
  5
286
  8
DATA
  6
CONTINUOUS
 62
     7
 10
-37.1149480715763
 20
148.5945272404534
 30
0.0
 40
19.99999999999018
 50
355.42595464795721
 51
7.0513242185242007
  0
ARC
  5
287
  8
DATA
  6
CONTINUOUS
 62
     7
 10
91.204948301329395
 20
138.32865583456419
 30
0.0
 40
108.7298874421865
 50
175.42595464796011
 51
181.22719112703439
  0
ARC
  5
288
  8
DATA
  6
CONTINUOUS
 62
     7
 10
37.114948071586241
 20
148.59452724045369
 30
0.0
 40
20.000000000000021
 50
172.9486757814791
 51
184.5740453520404
  0
ARC
  5
289
  8
DATA
  6
CONTINUOUS
 62
     7
 10
-151.17307692307691
 20
171.88461538461539
 30
0.0
 40
169.72297847691971
 50
352.94867578147881
 51
1.3894245999334769
  0
ARC
  5
28A
  8
DATA
  6
CONTINUOUS
 62
     7
 10
82.885051928413802
 20
148.59452724045309
 30
0.0
 40
20.00000000000005
 50
355.42595464796022
 51
7.0513242185213016
  0
ARC
  5
28B
  8
DATA
  6
CONTINUOUS
 62
     7
 10
211.20494830132941
 20
138.32865583456419
 30
0.0
 40
108.7298874421865
 50
175.42595464796011
 51
181.22719112703439
  0
ARC
  5
28C
  8
DATA
  6
CONTINUOUS
 62
     7
 10
157.1149480715857
 20
148.59452724045079
 30
0.0
 40
19.99999999999984
 50
172.94867578147779
 51
184.57404535203881
  0
ARC
  5
28D
  8
DATA
  6
CONTINUOUS
 62
     7
 10
-31.173076923076959
 20
171.88461538461539
 30
0.0
 40
169.72297847691971
 50
352.94867578147802
 51
1.3894245999334769
  0
ARC
  5
28E
  8
DATA
  6
CONTINUOUS
 62
     7
 10
202.8850519284137
 20
148.59452724045349
 30
0.0
 40
20.0
 50
355.42595464796011
 51
7.0513242185213576
  0
ARC
  5
28F
  8
DATA
  6
CONTINUOUS
 62
     7
 10
331.20494830132941
 20
138.32865583456419
 30
0.0
 40
108.7298874421865
 50
175.4259546479598
 51
181.22719112703439
  0
ARC
  5
290
  8
DATA
  6
CONTINUOUS
 62
     7
 10
277.11494807157231
 20
148.5945272404538
 30
0.0
 40
19.999999999986109
 50
172.94867578147461
 51
184.5740453520439
  0
ARC
  5
291
  8
DATA
  6
CONTINUOUS
 62
     7
 10
88.826923076923052
 20
171.88461538461539
 30
0.0
 40
169.72297847691971
 50
352.94867578147881
 51
1.3894245999334769
  0
CIRCLE
  5
292
  8
DATA
  6
CONTINUOUS
 62
     7
 10
0.0
 20
-100.0
 30
0.0
 40
12.5
  0
CIRCLE
  5
293
  8
DATA
  6
CONTINUOUS
 62
     7
 10
0.0
 20
-100.0
 30
0.0
 40
9.0
  0
LINE
  5
294
  8
DATA
  6
CONTINUOUS
 62
     7
 10
-26.0
 20
225.5
 30
0.0
 11
26.0
 21
225.5
 31
0.0
  0
LINE
  5
295
  8
DATA
  6
CONTINUOUS
 62
     7
 10
-26.0
 20
223.5
 30
0.0
 11
26.0
 21
223.5
 31
0.0
  0
LINE
  5
296
  8
DATA
  6
CONTINUOUS
 62
     7
 10
19.25
 20
206.5
 30
0.0
 11
-19.25
 21
206.5
 31
0.0
  0
LINE
  5
297
  8
DATA
  6
CONTINUOUS
 62
     7
 10
-26.0
 20
226.5
 30
0.0
 11
26.0
 21
226.5
 31
0.0
  0
LINE
  5
298
  8
DATA
  6
CONTINUOUS
 62
     7
 10
-26.0
 20
222.5
 30
0.0
 11
26.0
 21
222.5
 31
0.0
  0
TEXT
  5
299
  8
DATA
 62
     7
 10
-9.8542543859649196
 20
191.97802144249511
 30
0.0
 40
4.072102864583333
  1
BETA 58A
 41
0.7
 11
-9.8542543859649196
 21
196.05012430707839
 31
0.0
 73
     3
  0
LINE
  5
29A
  8
DATA
  6
CONTINUOUS
 62
     7
 10
-26.0
 20
226.5
 30
0.0
 11
-26.0
 21
225.5
 31
0.0
  0
LINE
  5
29B
  8
DATA
  6
CONTINUOUS
 62
     7
 10
-26.0
 20
223.5
 30
0.0
 11
-26.0
 21
222.5
 31
0.0
  0
LINE
  5
29C
  8
DATA
  6
CONTINUOUS
 62
     7
 10
26.0
 20
226.5
 30
0.0
 11
26.0
 21
225.5
 31
0.0
  0
LINE
  5
29D
  8
DATA
  6
CONTINUOUS
 62
     7
 10
26.0
 20
223.5
 30
0.0
 11
26.0
 21
222.5
 31
0.0
  0
ARC
  5
29E
  8
DATA
  6
CONTINUOUS
 62
     7
 10
-24.125
 20
224.5
 30
0.0
 40
2.125
 50
151.92751306414701
 51
208.07248693585291
  0
ARC
  5
29F
  8
DATA
  6
CONTINUOUS
 62
     7
 10
24.125
 20
224.5
 30
0.0
 40
2.125
 50
331.92751306414709
 51
28.072486935852972
  0
ARC
  5
2A0
  8
DATA
  6
CONTINUOUS
 62
     7
 10
-0.1361761277610327
 20
222.8752094575448
 30
0.0
 40
24.791569613987701
 50
180.86717942713969
 51
221.33917947172139
  0
ARC
  5
2A1
  8
DATA
  6
CONTINUOUS
 62
     7
 10
0.0
 20
225.5
 30
0.0
 40
25.0
 50
2.2905982518369119
 51
177.70571565708039
  0
ARC
  5
2A2
  8
DATA
  6
CONTINUOUS
 62
     7
 10
0.1361761277610327
 20
222.8752094575448
 30
0.0
 40
24.791569613987711
 50
318.66082052827858
 51
359.13282057286028
  0
LINE
  5
2A3
  8
DATA
  6
CONTINUOUS
 62
     7
 10
-18.5
 20
198.5
 30
0.0
 11
18.5
 21
198.5
 31
0.0
  0
LINE
  5
2A4
  8
DATA
  6
CONTINUOUS
 62
     7
 10
-17.5
 20
202.0
 30
0.0
 11
17.5
 21
202.0
 31
0.0
  0
LINE
  5
2A5
  8
DATA
  6
CONTINUOUS
 62
     7
 10
-18.5
 20
198.5
 30
0.0
 11
-17.5
 21
202.0
 31
0.0
  0
LINE
  5
2A6
  8
DATA
  6
CONTINUOUS
 62
     7
 10
-17.75
 20
202.5
 30
0.0
 11
17.75
 21
202.5
 31
0.0
  0
LINE
  5
2A7
  8
DATA
  6
CONTINUOUS
 62
     7
 10
-19.25
 20
206.5
 30
0.0
 11
-17.75
 21
202.5
 31
0.0
  0
LINE
  5
2A8
  8
DATA
  6
CONTINUOUS
 62
     7
 10
-17.75
 20
202.5
 30
0.0
 11
-16.5
 21
202.0
 31
0.0
  0
LINE
  5
2A9
  8
DATA
  6
CONTINUOUS
 62
     7
 10
18.5
 20
198.5
 30
0.0
 11
17.5
 21
202.0
 31
0.0
  0
LINE
  5
2AA
  8
DATA
  6
CONTINUOUS
 62
     7
 10
19.25
 20
206.5
 30
0.0
 11
17.75
 21
202.5
 31
0.0
  0
LINE
  5
2AB
  8
DATA
  6
CONTINUOUS
 62
     7
 10
17.75
 20
202.5
 30
0.0
 11
16.5
 21
202.0
 31
0.0
  0
LINE
  5
2AC
  8
DATA
  6
CONTINUOUS
 62
     7
 10
-18.5
 20
198.5
 30
0.0
 11
-18.5
 21
176.5
 31
0.0
  0
LINE
  5
2AD
  8
DATA
  6
CONTINUOUS
 62
     7
 10
-18.5
 20
176.5
 30
0.0
 11
18.5
 21
176.5
 31
0.0
  0
LINE
  5
2AE
  8
DATA
  6
CONTINUOUS
 62
     7
 10
18.5
 20
176.5
 30
0.0
 11
18.5
 21
198.5
 31
0.0
  0
LINE
  5
2AF
  8
DATA
  6
CONTINUOUS
 62
     7
 10
94.0
 20
225.5
 30
0.0
 11
146.0
 21
225.5
 31
0.0
  0
LINE
  5
2B0
  8
DATA
  6
CONTINUOUS
 62
     7
 10
94.0
 20
223.5
 30
0.0
 11
146.0
 21
223.5
 31
0.0
  0
LINE
  5
2B1
  8
DATA
  6
CONTINUOUS
 62
     7
 10
139.25
 20
206.5
 30
0.0
 11
100.75
 21
206.5
 31
0.0
  0
LINE
  5
2B2
  8
DATA
  6
CONTINUOUS
 62
     7
 10
94.0
 20
226.5
 30
0.0
 11
146.0
 21
226.5
 31
0.0
  0
LINE
  5
2B3
  8
DATA
  6
CONTINUOUS
 62
     7
 10
94.0
 20
222.5
 30
0.0
 11
146.0
 21
222.5
 31
0.0
  0
LINE
  5
2B4
  8
DATA
  6
CONTINUOUS
 62
     7
 10
94.0
 20
226.5
 30
0.0
 11
94.0
 21
225.5
 31
0.0
  0
LINE
  5
2B5
  8
DATA
  6
CONTINUOUS
 62
     7
 10
94.0
 20
223.5
 30
0.0
 11
94.0
 21
222.5
 31
0.0
  0
LINE
  5
2B6
  8
DATA
  6
CONTINUOUS
 62
     7
 10
146.0
 20
226.5
 30
0.0
 11
146.0
 21
225.5
 31
0.0
  0
LINE
  5
2B7
  8
DATA
  6
CONTINUOUS
 62
     7
 10
146.0
 20
223.5
 30
0.0
 11
146.0
 21
222.5
 31
0.0
  0
ARC
  5
2B8
  8
DATA
  6
CONTINUOUS
 62
     7
 10
95.875
 20
224.5
 30
0.0
 40
2.125
 50
151.92751306414701
 51
208.07248693585291
  0
ARC
  5
2B9
  8
DATA
  6
CONTINUOUS
 62
     7
 10
144.125
 20
224.5
 30
0.0
 40
2.125
 50
331.92751306414709
 51
28.072486935852972
  0
ARC
  5
2BA
  8
DATA
  6
CONTINUOUS
 62
     7
 10
119.8638238722389
 20
222.8752094575448
 30
0.0
 40
24.791569613987701
 50
180.86717942713969
 51
221.33917947172139
  0
ARC
  5
2BB
  8
DATA
  6
CONTINUOUS
 62
     7
 10
120.0
 20
225.5
 30
0.0
 40
25.0
 50
2.2905982518369119
 51
177.70571565708039
  0
ARC
  5
2BC
  8
DATA
  6
CONTINUOUS
 62
     7
 10
120.136176127761
 20
222.8752094575448
 30
0.0
 40
24.791569613987711
 50
318.66082052827858
 51
359.13282057286028
  0
LINE
  5
2BD
  8
DATA
  6
CONTINUOUS
 62
     7
 10
101.5
 20
198.5
 30
0.0
 11
138.5
 21
198.5
 31
0.0
  0
LINE
  5
2BE
  8
DATA
  6
CONTINUOUS
 62
     7
 10
102.5
 20
202.0
 30
0.0
 11
137.5
 21
202.0
 31
0.0
  0
LINE
  5
2BF
  8
DATA
  6
CONTINUOUS
 62
     7
 10
101.5
 20
198.5
 30
0.0
 11
102.5
 21
202.0
 31
0.0
  0
LINE
  5
2C0
  8
DATA
  6
CONTINUOUS
 62
     7
 10
102.25
 20
202.5
 30
0.0
 11
137.75
 21
202.5
 31
0.0
  0
LINE
  5
2C1
  8
DATA
  6
CONTINUOUS
 62
     7
 10
100.75
 20
206.5
 30
0.0
 11
102.25
 21
202.5
 31
0.0
  0
LINE
  5
2C2
  8
DATA
  6
CONTINUOUS
 62
     7
 10
102.25
 20
202.5
 30
0.0
 11
103.5
 21
202.0
 31
0.0
  0
LINE
  5
2C3
  8
DATA
  6
CONTINUOUS
 62
     7
 10
138.5
 20
198.5
 30
0.0
 11
137.5
 21
202.0
 31
0.0
  0
LINE
  5
2C4
  8
DATA
  6
CONTINUOUS
 62
     7
 10
139.25
 20
206.5
 30
0.0
 11
137.75
 21
202.5
 31
0.0
  0
LINE
  5
2C5
  8
DATA
  6
CONTINUOUS
 62
     7
 10
137.75
 20
202.5
 30
0.0
 11
136.5
 21
202.0
 31
0.0
  0
LINE
  5
2C6
  8
DATA
  6
CONTINUOUS
 62
     7
 10
101.5
 20
198.5
 30
0.0
 11
101.5
 21
176.5
 31
0.0
  0
LINE
  5
2C7
  8
DATA
  6
CONTINUOUS
 62
     7
 10
101.5
 20
176.5
 30
0.0
 11
138.5
 21
176.5
 31
0.0
  0
LINE
  5
2C8
  8
DATA
  6
CONTINUOUS
 62
     7
 10
138.5
 20
176.5
 30
0.0
 11
138.5
 21
198.5
 31
0.0
  0
LINE
  5
2C9
  8
DATA
  6
CONTINUOUS
 62
     7
 10
214.0
 20
225.5
 30
0.0
 11
266.0
 21
225.5
 31
0.0
  0
LINE
  5
2CA
  8
DATA
  6
CONTINUOUS
 62
     7
 10
214.0
 20
223.5
 30
0.0
 11
266.0
 21
223.5
 31
0.0
  0
LINE
  5
2CB
  8
DATA
  6
CONTINUOUS
 62
     7
 10
259.25
 20
206.5
 30
0.0
 11
220.75
 21
206.5
 31
0.0
  0
LINE
  5
2CC
  8
DATA
  6
CONTINUOUS
 62
     7
 10
214.0
 20
226.5
 30
0.0
 11
266.0
 21
226.5
 31
0.0
  0
LINE
  5
2CD
  8
DATA
  6
CONTINUOUS
 62
     7
 10
214.0
 20
222.5
 30
0.0
 11
266.0
 21
222.5
 31
0.0
  0
TEXT
  5
2CE
  8
DATA
 62
     7
 10
230.14574561403509
 20
191.97802144249511
 30
0.0
 40
4.072102864583333
  1
BETA 58A
 41
0.7
 11
230.14574561403509
 21
196.05012430707839
 31
0.0
 73
     3
  0
LINE
  5
2CF
  8
DATA
  6
CONTINUOUS
 62
     7
 10
214.0
 20
226.5
 30
0.0
 11
214.0
 21
225.5
 31
0.0
  0
LINE
  5
2D0
  8
DATA
  6
CONTINUOUS
 62
     7
 10
214.0
 20
223.5
 30
0.0
 11
214.0
 21
222.5
 31
0.0
  0
LINE
  5
2D1
  8
DATA
  6
CONTINUOUS
 62
     7
 10
266.0
 20
226.5
 30
0.0
 11
266.0
 21
225.5
 31
0.0
  0
LINE
  5
2D2
  8
DATA
  6
CONTINUOUS
 62
     7
 10
266.0
 20
223.5
 30
0.0
 11
266.0
 21
222.5
 31
0.0
  0
ARC
  5
2D3
  8
DATA
  6
CONTINUOUS
 62
     7
 10
215.875
 20
224.5
 30
0.0
 40
2.125
 50
151.92751306414701
 51
208.07248693585291
  0
ARC
  5
2D4
  8
DATA
  6
CONTINUOUS
 62
     7
 10
264.125
 20
224.5
 30
0.0
 40
2.125
 50
331.92751306414709
 51
28.072486935852972
  0
ARC
  5
2D5
  8
DATA
  6
CONTINUOUS
 62
     7
 10
239.8638238722389
 20
222.8752094575448
 30
0.0
 40
24.791569613987701
 50
180.86717942713969
 51
221.33917947172139
  0
ARC
  5
2D6
  8
DATA
  6
CONTINUOUS
 62
     7
 10
240.0
 20
225.5
 30
0.0
 40
25.0
 50
2.2905982518369119
 51
177.70571565708039
  0
ARC
  5
2D7
  8
DATA
  6
CONTINUOUS
 62
     7
 10
240.13617612776099
 20
222.8752094575448
 30
0.0
 40
24.791569613987711
 50
318.66082052827858
 51
359.13282057286028
  0
LINE
  5
2D8
  8
DATA
  6
CONTINUOUS
 62
     7
 10
221.5
 20
198.5
 30
0.0
 11
258.5
 21
198.5
 31
0.0
  0
LINE
  5
2D9
  8
DATA
  6
CONTINUOUS
 62
     7
 10
222.5
 20
202.0
 30
0.0
 11
257.5
 21
202.0
 31
0.0
  0
LINE
  5
2DA
  8
DATA
  6
CONTINUOUS
 62
     7
 10
221.5
 20
198.5
 30
0.0
 11
222.5
 21
202.0
 31
0.0
  0
LINE
  5
2DB
  8
DATA
  6
CONTINUOUS
 62
     7
 10
222.25
 20
202.5
 30
0.0
 11
257.75
 21
202.5
 31
0.0
  0
LINE
  5
2DC
  8
DATA
  6
CONTINUOUS
 62
     7
 10
220.75
 20
206.5
 30
0.0
 11
222.25
 21
202.5
 31
0.0
  0
LINE
  5
2DD
  8
DATA
  6
CONTINUOUS
 62
     7
 10
222.25
 20
202.5
 30
0.0
 11
223.5
 21
202.0
 31
0.0
  0
LINE
  5
2DE
  8
DATA
  6
CONTINUOUS
 62
     7
 10
258.5
 20
198.5
 30
0.0
 11
257.5
 21
202.0
 31
0.0
  0
LINE
  5
2DF
  8
DATA
  6
CONTINUOUS
 62
     7
 10
259.25
 20
206.5
 30
0.0
 11
257.75
 21
202.5
 31
0.0
  0
LINE
  5
2E0
  8
DATA
  6
CONTINUOUS
 62
     7
 10
257.75
 20
202.5
 30
0.0
 11
256.5
 21
202.0
 31
0.0
  0
LINE
  5
2E1
  8
DATA
  6
CONTINUOUS
 62
     7
 10
221.5
 20
198.5
 30
0.0
 11
221.5
 21
176.5
 31
0.0
  0
LINE
  5
2E2
  8
DATA
  6
CONTINUOUS
 62
     7
 10
221.5
 20
176.5
 30
0.0
 11
258.5
 21
176.5
 31
0.0
  0
LINE
  5
2E3
  8
DATA
  6
CONTINUOUS
 62
     7
 10
258.5
 20
176.5
 30
0.0
 11
258.5
 21
198.5
 31
0.0
  0
CIRCLE
  5
2E4
  8
DATA
  6
CONTINUOUS
 62
     7
 10
0.0
 20
-100.0
 30
0.0
 40
26.25
  0
CIRCLE
  5
2E5
  8
DATA
  6
CONTINUOUS
 62
     7
 10
0.0
 20
-100.0
 30
0.0
 40
25.0
  0
CIRCLE
  5
2E6
  8
DATA
  6
CONTINUOUS
 62
     7
 10
0.0
 20
-100.0
 30
0.0
 40
18.5
  0
CIRCLE
  5
2E7
  8
DATA
  6
CONTINUOUS
 62
     7
 10
0.0
 20
-100.0
 30
0.0
 40
19.25
  0
CIRCLE
  5
2E8
  8
DATA
  6
CONTINUOUS
 62
     7
 10
0.0
 20
-100.0
 30
0.0
 40
17.0
  0
CIRCLE
  5
2E9
  8
DATA
  6
CONTINUOUS
 62
     7
 10
0.0
 20
-100.0
 30
0.0
 40
26.0
  0
TEXT
  5
2EA
  8
DATA
 62
     7
 10
-122.5000299999999
 20
-242.78599249999999
 30
0.0
 40
4.8865234374999993
  1
仕様および外観は予告なく変更されることがありますので、ご了承ください。
 41
0.7
 11
-122.5000299999999
 21
-237.8994690625
 31
0.0
 73
     3
  0
ENDSEC
  0
EOF
