  0
SECTION
  2
HEADER
  9
$ACADVER
  1
AC1009
  9
$INSBASE
 10
0.0
 20
0.0
 30
0.0
  9
$EXTMIN
 10
-152.51647823400589
 20
-178.36571085595321
 30
-0.0015258207003583
  9
$EXTMAX
 10
387.51645074857652
 20
624.52445227010935
 30
0.0000000349246037
  9
$LIMMIN
 10
0.0
 20
0.0
  9
$LIMMAX
 10
0.0
 20
0.0
  9
$ORTHOMODE
 70
     0
  9
$REGENMODE
 70
     1
  9
$FILLMODE
 70
     1
  9
$QTEXTMODE
 70
     0
  9
$MIRRTEXT
 70
     1
  9
$DRAGMODE
 70
     2
  9
$LTSCALE
 40
15.24
  9
$OSMODE
 70
   231
  9
$ATTMODE
 70
     1
  9
$TEXTSIZE
 40
0.0
  9
$TRACEWID
 40
1.0
  9
$TEXTSTYLE
  7
STANDARD
  9
$CLAYER
  8
DATA
  9
$CELTYPE
  6
BYLAYER
  9
$CECOLOR
 62
   256
  9
$DIMSCALE
 40
1.0
  9
$DIMASZ
 40
0.18
  9
$DIMEXO
 40
0.0625
  9
$DIMDLI
 40
0.38
  9
$DIMRND
 40
0.0
  9
$DIMDLE
 40
0.0
  9
$DIMEXE
 40
0.18
  9
$DIMTP
 40
0.0
  9
$DIMTM
 40
0.0
  9
$DIMTXT
 40
0.18
  9
$DIMCEN
 40
0.09
  9
$DIMTSZ
 40
0.0
  9
$DIMTOL
 70
     0
  9
$DIMLIM
 70
     0
  9
$DIMTIH
 70
     1
  9
$DIMTOH
 70
     1
  9
$DIMSE1
 70
     0
  9
$DIMSE2
 70
     0
  9
$DIMTAD
 70
     0
  9
$DIMZIN
 70
     0
  9
$DIMBLK
  1

  9
$DIMASO
 70
     1
  9
$DIMSHO
 70
     1
  9
$DIMPOST
  1

  9
$DIMAPOST
  1

  9
$DIMALT
 70
     0
  9
$DIMALTD
 70
     2
  9
$DIMALTF
 40
25.399999999999999
  9
$DIMLFAC
 40
1.0
  9
$DIMTOFL
 70
     0
  9
$DIMTVP
 40
0.0
  9
$DIMTIX
 70
     0
  9
$DIMSOXD
 70
     0
  9
$DIMSAH
 70
     0
  9
$DIMBLK1
  1

  9
$DIMBLK2
  1

  9
$DIMSTYLE
  2
STANDARD
  9
$DIMCLRD
 70
     0
  9
$DIMCLRE
 70
     0
  9
$DIMCLRT
 70
     0
  9
$DIMTFAC
 40
1.0
  9
$DIMGAP
 40
0.09
  9
$LUNITS
 70
     2
  9
$LUPREC
 70
     4
  9
$SKETCHINC
 40
0.1
  9
$FILLETRAD
 40
0.0
  9
$AUNITS
 70
     0
  9
$AUPREC
 70
     0
  9
$MENU
  1
acad
  9
$ELEVATION
 40
0.0
  9
$PELEVATION
 40
0.0
  9
$THICKNESS
 40
0.0
  9
$LIMCHECK
 70
     0
  9
$BLIPMODE
 70
     0
  9
$CHAMFERA
 40
0.0
  9
$CHAMFERB
 40
0.0
  9
$SKPOLY
 70
     0
  9
$TDCREATE
 40
2454952.7853819439
  9
$TDUPDATE
 40
2454952.7905359138
  9
$TDINDWG
 40
0.0002774769
  9
$TDUSRTIMER
 40
0.0002772917
  9
$USRTIMER
 70
     1
  9
$ANGBASE
 50
0.0
  9
$ANGDIR
 70
     0
  9
$PDMODE
 70
     1
  9
$PDSIZE
 40
-2.0
  9
$PLINEWID
 40
0.0
  9
$COORDS
 70
     1
  9
$SPLFRAME
 70
     0
  9
$SPLINETYPE
 70
     6
  9
$SPLINESEGS
 70
     8
  9
$ATTDIA
 70
     0
  9
$ATTREQ
 70
     1
  9
$HANDLING
 70
     1
  9
$HANDSEED
  5
399
  9
$SURFTAB1
 70
     6
  9
$SURFTAB2
 70
     6
  9
$SURFTYPE
 70
     6
  9
$SURFU
 70
     6
  9
$SURFV
 70
     6
  9
$UCSNAME
  2

  9
$UCSORG
 10
0.0
 20
0.0
 30
0.0
  9
$UCSXDIR
 10
1.0
 20
0.0
 30
0.0
  9
$UCSYDIR
 10
0.0
 20
1.0
 30
0.0
  9
$PUCSNAME
  2

  9
$PUCSORG
 10
0.0
 20
0.0
 30
0.0
  9
$PUCSXDIR
 10
1.0
 20
0.0
 30
0.0
  9
$PUCSYDIR
 10
0.0
 20
1.0
 30
0.0
  9
$USERI1
 70
     0
  9
$USERI2
 70
     0
  9
$USERI3
 70
     0
  9
$USERI4
 70
     0
  9
$USERI5
 70
     0
  9
$USERR1
 40
0.0
  9
$USERR2
 40
0.0
  9
$USERR3
 40
0.0
  9
$USERR4
 40
0.0
  9
$USERR5
 40
0.0
  9
$WORLDVIEW
 70
     1
  9
$SHADEDGE
 70
     3
  9
$SHADEDIF
 70
    70
  9
$TILEMODE
 70
     1
  9
$MAXACTVP
 70
    64
  9
$PLIMCHECK
 70
     0
  9
$PEXTMIN
 10
1.0000000000000000E+020
 20
1.0000000000000000E+020
 30
1.0000000000000000E+020
  9
$PEXTMAX
 10
-1.0000000000000000E+020
 20
-1.0000000000000000E+020
 30
-1.0000000000000000E+020
  9
$PLIMMIN
 10
0.0
 20
0.0
  9
$PLIMMAX
 10
12.0
 20
9.0
  9
$UNITMODE
 70
     0
  9
$VISRETAIN
 70
     0
  9
$PLINEGEN
 70
     1
  9
$PSLTSCALE
 70
     0
  0
ENDSEC
  0
SECTION
  2
TABLES
  0
TABLE
  2
VPORT
 70
     1
  0
VPORT
  2
*ACTIVE
 70
     0
 10
0.0
 20
0.0
 11
1.0
 21
1.0
 12
117.4999862572853
 22
223.079370707078
 13
0.0
 23
0.0
 14
1.0
 24
1.0
 15
0.0
 25
0.0
 16
0.0
 26
0.0
 36
1.0
 17
0.0
 27
0.0
 37
0.0
 40
809.62770295649113
 41
1.6596638655462179
 42
50.0
 43
0.0
 44
0.0
 50
0.0
 51
0.0
 71
     0
 72
  2000
 73
     1
 74
     1
 75
     0
 76
     0
 77
     0
 78
     0
  0
ENDTAB
  0
TABLE
  2
LTYPE
 70
    11
  0
LTYPE
  2
CONTINUOUS
 70
     0
  3
Solid line
 72
    65
 73
     0
 40
0.0
  0
ENDTAB
  0
TABLE
  2
LAYER
 70
     6
  0
LAYER
  2
0
 70
     0
 62
     7
  6
CONTINUOUS
  0
LAYER
  2
DATA
 70
     0
 62
     7
  6
CONTINUOUS
  0
LAYER
  2
HIBINO-BASE
 70
     0
 62
     7
  6
CONTINUOUS
  0
LAYER
  2
PATTERN_FILL
 70
     0
 62
     7
  6
CONTINUOUS
  0
LAYER
  2
SPEC
 70
     0
 62
     7
  6
CONTINUOUS
  0
LAYER
  2
DIMNSIONS
 70
     0
 62
     7
  6
CONTINUOUS
  0
ENDTAB
  0
TABLE
  2
STYLE
 70
     3
  0
STYLE
  2
STANDARD
 70
     0
 40
0.0
 41
1.0
 50
0.0
 71
     0
 42
0.0
  3
txt
  4
BIGFONT.SHX
  0
ENDTAB
  0
TABLE
  2
VIEW
 70
     0
  0
ENDTAB
  0
TABLE
  2
UCS
 70
     0
  0
ENDTAB
  0
TABLE
  2
APPID
 70
     3
  0
APPID
  2
ACAD
 70
     0
  0
APPID
  2
ACADANNOTATIVE
 70
     0
  0
APPID
  2
ACAD_MLEADERVER
 70
     0
  0
ENDTAB
  0
TABLE
  2
DIMSTYLE
 70
     2
  0
DIMSTYLE
  2
STANDARD
 70
     0
  3

  4

  5

  6

  7

 40
1.0
 41
0.18
 42
0.0625
 43
0.38
 44
0.18
 45
0.0
 46
0.0
 47
0.0
 48
0.0
140
0.18
141
0.09
142
0.0
143
25.399999999999999
144
1.0
145
0.0
146
1.0
147
0.09
 71
     0
 72
     0
 73
     1
 74
     1
 75
     0
 76
     0
 77
     0
 78
     0
170
     0
171
     2
172
     0
173
     0
174
     0
175
     0
176
     0
177
     0
178
     0
  0
ENDTAB
  0
ENDSEC
  0
SECTION
  2
BLOCKS
  0
BLOCK
  8
0
  2
$MODEL_SPACE
 70
     0
 10
0.0
 20
0.0
 30
0.0
  3
$MODEL_SPACE
  1

  0
ENDBLK
  5
337
  8
0
  0
BLOCK
 67
     1
  8
0
  2
$PAPER_SPACE
 70
     0
 10
0.0
 20
0.0
 30
0.0
  3
$PAPER_SPACE
  1

  0
ENDBLK
  5
333
 67
     1
  8
0
  0
ENDSEC
  0
SECTION
  2
ENTITIES
  0
LINE
  5
2D
  8
HIBINO-BASE
  6
CONTINUOUS
 62
     7
 10
-152.5
 20
624.5
 30
0.0
 11
387.49997000000002
 21
624.5
 31
0.0
  0
LINE
  5
2E
  8
HIBINO-BASE
  6
CONTINUOUS
 62
     7
 10
387.49997000000002
 20
-155.4999849999999
 30
0.0
 11
-152.5
 21
-155.4999849999999
 31
0.0
  0
LINE
  5
2F
  8
HIBINO-BASE
  6
CONTINUOUS
 62
     7
 10
-152.5
 20
-155.4999849999999
 30
0.0
 11
-152.5
 21
624.5
 31
0.0
  0
TEXT
  5
30
  8
HIBINO-BASE
 62
     7
 10
-130.94799999999989
 20
-174.7260054999999
 30
0.0
 40
10.800120996093741
  1
Hibino Corporation
 41
0.7
 11
-130.94799999999989
 21
-163.92588450390619
 31
0.0
 73
     3
  0
LINE
  5
31
  8
HIBINO-BASE
  6
CONTINUOUS
 62
     7
 10
387.49997000000002
 20
624.5
 30
0.0
 11
387.49997000000002
 21
-155.4999849999999
 31
0.0
  0
LINE
  5
32
  8
HIBINO-BASE
  6
CONTINUOUS
 62
     7
 10
117.499985
 20
-88.0
 30
0.0
 11
387.49997000000002
 21
-88.0
 31
0.0
  0
LINE
  5
33
  8
HIBINO-BASE
  6
CONTINUOUS
 62
     7
 10
117.499985
 20
-155.4999849999999
 30
0.0
 11
117.499985
 21
-88.0
 31
0.0
  0
TEXT
  5
34
  8
HIBINO-BASE
 62
     7
 10
120.19996999999999
 20
-96.100009599999964
 30
0.0
 40
5.4000778125000002
  1
NOTE
 41
0.7
 11
120.19996999999999
 21
-90.699931787499963
 31
0.0
 73
     3
  0
LINE
  5
35
  8
HIBINO-BASE
  6
CONTINUOUS
 62
     7
 10
222.49998500000001
 20
-155.4999849999999
 30
0.0
 11
222.49998500000001
 21
-88.0
 31
0.0
  0
TEXT
  5
36
  8
HIBINO-BASE
 62
     7
 10
225.199985
 20
-96.100009599999964
 30
0.0
 40
5.4000778125000002
  1
TITLE
 41
0.7
 11
225.199985
 21
-90.699931787499963
 31
0.0
 73
     3
  0
TEXT
  5
37
  8
HIBINO-BASE
 62
     7
 10
267.70513999999997
 20
-174.7260054999999
 30
0.0
 40
10.800120996093741
  1
ヒビノ株式会社
 41
0.7
 11
267.70513999999997
 21
-163.92588450390619
 31
0.0
 73
     3
  0
LINE
  5
38
  8
HIBINO-BASE
  6
CONTINUOUS
 62
     7
 10
117.499985
 20
-125.5
 30
0.0
 11
387.49997000000002
 21
-125.5
 31
0.0
  0
TEXT
  5
39
  8
HIBINO-BASE
 62
     7
 10
262.69998500000003
 20
-133.43103459999989
 30
0.0
 40
5.4000778125000002
  1
DRAWN
 41
0.7
 11
262.69998500000003
 21
-128.03095678749989
 31
0.0
 73
     3
  0
TEXT
  5
3A
  8
HIBINO-BASE
 62
     7
 10
187.699985
 20
-133.43103459999989
 30
0.0
 40
5.4000778125000002
  1
DATE
 41
0.7
 11
187.699985
 21
-128.03095678749989
 31
0.0
 73
     3
  0
TEXT
  5
3B
  8
HIBINO-BASE
 62
     7
 10
120.7999699999999
 20
-133.3583406999999
 30
0.0
 40
4.8865195898437506
  1
図面サイズ
 41
0.7
 11
120.7999699999999
 21
-128.47182111015621
 31
0.0
 73
     3
  0
TEXT
  5
3C
  8
HIBINO-BASE
 62
     7
 10
157.69996999999989
 20
-133.43103459999989
 30
0.0
 40
5.4000778125000002
  1
SCALE
 41
0.7
 11
157.69996999999989
 21
-128.03095678749989
 31
0.0
 73
     3
  0
TEXT
  5
3D
  8
HIBINO-BASE
 62
     7
 10
225.199985
 20
-133.43103459999989
 30
0.0
 40
5.4000778125000002
  1
DESIGN
 41
0.7
 11
225.199985
 21
-128.03095678749989
 31
0.0
 73
     3
  0
TEXT
  5
3E
  8
HIBINO-BASE
 62
     7
 10
337.69996999999989
 20
-133.43103459999989
 30
0.0
 40
5.4000778125000002
  1
DRAWING NO.
 41
0.7
 11
337.69996999999989
 21
-128.03095678749989
 31
0.0
 73
     3
  0
TEXT
  5
3F
  8
HIBINO-BASE
 62
     7
 10
300.19997000000001
 20
-133.43103459999989
 30
0.0
 40
5.4000778125000002
  1
CHECK
 41
0.7
 11
300.19997000000001
 21
-128.03095678749989
 31
0.0
 73
     3
  0
LINE
  5
40
  8
HIBINO-BASE
  6
CONTINUOUS
 62
     7
 10
160.62496999999991
 20
-151.75
 30
0.0
 11
171.8749849999999
 21
-140.5
 31
0.0
  0
TEXT
  5
41
  8
HIBINO-BASE
 62
     7
 10
158.74996999999991
 20
-145.6471426
 30
0.0
 40
6.515359453124999
  1
1
 41
0.7
 11
158.74996999999991
 21
-139.13178314687491
 31
0.0
 73
     3
  0
LINE
  5
42
  8
HIBINO-BASE
  6
CONTINUOUS
 62
     7
 10
154.99996999999991
 20
-155.4999849999999
 30
0.0
 11
154.99996999999991
 21
-125.5
 31
0.0
  0
LINE
  5
43
  8
HIBINO-BASE
  6
CONTINUOUS
 62
     7
 10
184.99996999999999
 20
-155.4999849999999
 30
0.0
 11
184.99996999999999
 21
-125.5
 31
0.0
  0
LINE
  5
44
  8
HIBINO-BASE
  6
CONTINUOUS
 62
     7
 10
259.99997000000002
 20
-125.5
 30
0.0
 11
259.99997000000002
 21
-155.4999849999999
 31
0.0
  0
LINE
  5
45
  8
HIBINO-BASE
  6
CONTINUOUS
 62
     7
 10
334.99998499999998
 20
-125.5
 30
0.0
 11
334.99998499999998
 21
-155.4999849999999
 31
0.0
  0
LINE
  5
46
  8
HIBINO-BASE
  6
CONTINUOUS
 62
     7
 10
297.49997000000002
 20
-155.4999849999999
 30
0.0
 11
297.49997000000002
 21
-125.5
 31
0.0
  0
TEXT
  5
47
  8
HIBINO-BASE
 62
     7
 10
129.23265499999991
 20
-148.00460349999989
 30
0.0
 40
9.7730276367187496
  1
A4
 41
0.7
 11
129.23265499999991
 21
-138.23157586328119
 31
0.0
 73
     3
  0
TEXT
  5
48
  8
HIBINO-BASE
 62
     7
 10
187.569605
 20
-147.48297459999989
 30
0.0
 40
5.4000778125000002
  1
'06.2.
 41
0.7
 11
187.569605
 21
-142.08289678749989
 31
0.0
 73
     3
  0
TEXT
  5
49
  8
HIBINO-BASE
 62
     7
 10
169.9999849999999
 20
-151.27214259999991
 30
0.0
 40
6.515359453124999
  1
3
 41
0.7
 11
169.9999849999999
 21
-144.75678314687491
 31
0.0
 73
     3
  0
TEXT
  5
4A
  8
HIBINO-BASE
 62
     7
 10
264.51740003310391
 20
-146.9090525
 30
0.0
 40
4.8865234374999993
  1
N.Sasaki
 41
0.7
 11
264.51740003310391
 21
-142.02252906250001
 31
0.0
 73
     3
  0
ARC
  5
4B
  8
PATTERN_FILL
  6
CONTINUOUS
 62
     7
 10
0.0000000000013785
 20
312.9738517901651
 30
0.0
 40
10.000000000000011
 50
53.380529869726502
 51
126.61947013027149
  0
ARC
  5
4C
  8
PATTERN_FILL
  6
CONTINUOUS
 62
     7
 10
0.0000000000013785
 20
312.9738517901651
 30
0.0
 40
12.0
 50
41.978036550102679
 51
138.02196344989599
  0
ARC
  5
4D
  8
PATTERN_FILL
  6
CONTINUOUS
 62
     7
 10
0.0000000000013785
 20
312.9738517901651
 30
0.0
 40
13.999999999999989
 50
34.980408191510818
 51
145.01959180848829
  0
ARC
  5
4E
  8
PATTERN_FILL
  6
CONTINUOUS
 62
     7
 10
0.0000000000013785
 20
312.9738517901651
 30
0.0
 40
16.000000000000021
 50
30.10818100526086
 51
149.89181899473161
  0
ARC
  5
4F
  8
PATTERN_FILL
  6
CONTINUOUS
 62
     7
 10
0.0000000000013785
 20
312.9738517901651
 30
0.0
 40
18.0
 50
26.480750716242731
 51
153.51924928375681
  0
ARC
  5
50
  8
PATTERN_FILL
  6
CONTINUOUS
 62
     7
 10
0.0000000000013785
 20
312.9738517901651
 30
0.0
 40
20.0
 50
23.659936496119109
 51
156.34006350388009
  0
ARC
  5
51
  8
PATTERN_FILL
  6
CONTINUOUS
 62
     7
 10
0.0000000000013785
 20
312.9738517901651
 30
0.0
 40
21.999999999999989
 50
21.396808296465281
 51
158.603191703541
  0
ARC
  5
52
  8
PATTERN_FILL
  6
CONTINUOUS
 62
     7
 10
0.0000000000013785
 20
312.9738517901651
 30
0.0
 40
23.999999999999972
 50
19.53744509878786
 51
160.4625549012118
  0
ARC
  5
53
  8
PATTERN_FILL
  6
CONTINUOUS
 62
     7
 10
0.0000000000013785
 20
312.9738517901651
 30
0.0
 40
26.0
 50
26.27342213849969
 51
153.72657786151419
  0
ARC
  5
54
  8
PATTERN_FILL
  6
CONTINUOUS
 62
     7
 10
0.0000000000013785
 20
312.9738517901651
 30
0.0
 40
27.999999999999972
 50
35.26374363946551
 51
144.73625636052671
  0
LINE
  5
55
  8
PATTERN_FILL
  6
CONTINUOUS
 62
     7
 10
0.0000000000013785
 20
346.99999999985948
 30
0.0
 11
0.0000000000013785
 21
320.9738517901651
 31
0.0
  0
ARC
  5
56
  8
PATTERN_FILL
  6
CONTINUOUS
 62
     7
 10
627.25000000000227
 20
318.9738517901651
 30
0.0
 40
625.25000000000102
 50
177.43091849221719
 51
179.8143303570364
  0
ARC
  5
57
  8
PATTERN_FILL
  6
CONTINUOUS
 62
     7
 10
627.15511396063891
 20
308.10098862339493
 30
0.0
 40
623.25000000000068
 50
176.4216627334753
 51
178.81410078891639
  0
ARC
  5
58
  8
PATTERN_FILL
  6
CONTINUOUS
 62
     7
 10
626.87149958417911
 20
297.26927431022222
 30
0.0
 40
621.2500000000008
 50
175.40859142077261
 51
177.81086310428731
  0
ARC
  5
59
  8
PATTERN_FILL
  6
CONTINUOUS
 62
     7
 10
626.4004457323465
 20
286.48031136108489
 30
0.0
 40
619.25000000000068
 50
174.3914953990521
 51
176.80442755867421
  0
ARC
  5
5A
  8
PATTERN_FILL
  6
CONTINUOUS
 62
     7
 10
625.74330135383559
 20
275.73609574549778
 30
0.0
 40
617.2500000000008
 50
173.37019546087191
 51
175.79463638621979
  0
ARC
  5
5B
  8
PATTERN_FILL
  6
CONTINUOUS
 62
     7
 10
624.90148115807187
 20
265.03975598707939
 30
0.0
 40
615.25000000000057
 50
172.3446121221065
 51
174.78143323256069
  0
ARC
  5
5C
  8
PATTERN_FILL
  6
CONTINUOUS
 62
     7
 10
623.87645523677929
 20
254.3944547770198
 30
0.0
 40
613.2500000000008
 50
171.3655831741824
 51
173.76476214715041
  0
ARC
  5
5D
  8
PATTERN_FILL
  6
CONTINUOUS
 62
     7
 10
622.66974763606174
 20
243.80331809284399
 30
0.0
 40
611.25000000000102
 50
170.5941300110841
 51
172.74456088062021
  0
ARC
  5
5E
  8
PATTERN_FILL
  6
CONTINUOUS
 62
     7
 10
621.28293552303569
 20
233.26943428175079
 30
0.0
 40
609.2500000000008
 50
170.0708234699882
 51
171.72076060684969
  0
ARC
  5
5F
  8
PATTERN_FILL
  6
CONTINUOUS
 62
     7
 10
619.71764833695556
 20
222.7958531618533
 30
0.0
 40
607.25000000000102
 50
169.61753968622691
 51
170.69328561139409
  0
ARC
  5
60
  8
PATTERN_FILL
  6
CONTINUOUS
 62
     7
 10
617.97556692520595
 20
212.3855851415785
 30
0.0
 40
605.2500000000008
 50
169.28324397585041
 51
169.66205294322091
  0
ARC
  5
61
  8
PATTERN_FILL
  6
CONTINUOUS
 62
     7
 10
0.0000000000013785
 20
312.9738517901651
 30
0.0
 40
29.999999999999972
 50
42.082742589689168
 51
137.91725741031391
  0
ARC
  5
62
  8
PATTERN_FILL
  6
CONTINUOUS
 62
     7
 10
0.0000000000013785
 20
312.9738517901651
 30
0.0
 40
31.999999999999961
 50
47.649690532571732
 51
132.11121881360791
  0
ARC
  5
63
  8
PATTERN_FILL
  6
CONTINUOUS
 62
     7
 10
0.0000000000013785
 20
312.9738517901651
 30
0.0
 40
33.999999999999979
 50
52.384916499729052
 51
127.4767181662519
  0
ARC
  5
64
  8
PATTERN_FILL
  6
CONTINUOUS
 62
     7
 10
0.0000000000013785
 20
312.9738517901651
 30
0.0
 40
35.999999999999957
 50
56.523331261749497
 51
70.938887752911413
  0
ARC
  5
65
  8
PATTERN_FILL
  6
CONTINUOUS
 62
     7
 10
-627.24999999999955
 20
318.9738517901651
 30
0.0
 40
625.2500000000008
 50
0.1856696429635519
 51
2.5690815077827618
  0
ARC
  5
66
  8
PATTERN_FILL
  6
CONTINUOUS
 62
     7
 10
-627.15511396063607
 20
308.10098862339493
 30
0.0
 40
623.25000000000068
 50
1.1858992110835951
 51
3.5783372665247088
  0
ARC
  5
67
  8
PATTERN_FILL
  6
CONTINUOUS
 62
     7
 10
-626.87149958417615
 20
297.26927431022222
 30
0.0
 40
621.2500000000008
 50
2.189136895712688
 51
4.5914085792273758
  0
ARC
  5
68
  8
PATTERN_FILL
  6
CONTINUOUS
 62
     7
 10
-626.40044573234366
 20
286.48031136108489
 30
0.0
 40
619.25000000000068
 50
3.195572441325762
 51
5.608504600947847
  0
ARC
  5
69
  8
PATTERN_FILL
  6
CONTINUOUS
 62
     7
 10
-625.74330135383275
 20
275.73609574549778
 30
0.0
 40
617.2500000000008
 50
4.2053636137802206
 51
6.6298045391281049
  0
ARC
  5
6A
  8
PATTERN_FILL
  6
CONTINUOUS
 62
     7
 10
-624.90148115806926
 20
265.03975598707939
 30
0.0
 40
615.25000000000057
 50
5.218566767439313
 51
7.6553878778935411
  0
ARC
  5
6B
  8
PATTERN_FILL
  6
CONTINUOUS
 62
     7
 10
-623.87645523677634
 20
254.3944547770198
 30
0.0
 40
613.2500000000008
 50
6.2352378528496031
 51
8.6344168258175493
  0
ARC
  5
6C
  8
PATTERN_FILL
  6
CONTINUOUS
 62
     7
 10
-622.66974763605879
 20
243.80331809284399
 30
0.0
 40
611.25000000000068
 50
7.255439119379802
 51
9.4058699889158568
  0
ARC
  5
6D
  8
PATTERN_FILL
  6
CONTINUOUS
 62
     7
 10
-621.28293552303285
 20
233.26943428175079
 30
0.0
 40
609.2500000000008
 50
8.2792393931503199
 51
9.9291765300117572
  0
ARC
  5
6E
  8
PATTERN_FILL
  6
CONTINUOUS
 62
     7
 10
-619.71764833695272
 20
222.7958531618533
 30
0.0
 40
607.25000000000068
 50
9.3067143886058954
 51
10.38246031377315
  0
ARC
  5
6F
  8
PATTERN_FILL
  6
CONTINUOUS
 62
     7
 10
-617.97556692520311
 20
212.3855851415785
 30
0.0
 40
605.2500000000008
 50
10.337947056779131
 51
10.716756024149589
  0
ARC
  5
70
  8
PATTERN_FILL
  6
CONTINUOUS
 62
     7
 10
0.0000000000013785
 20
312.9738517901651
 30
0.0
 40
35.999999999999957
 50
109.0611122470886
 51
123.4766687382505
  0
ARC
  5
71
  8
PATTERN_FILL
  6
CONTINUOUS
 62
     7
 10
0.0000000000013927
 20
325.048477308923
 30
0.0
 40
9.9999999999999964
 50
233.38052986972849
 51
306.61947013027338
  0
ARC
  5
72
  8
PATTERN_FILL
  6
CONTINUOUS
 62
     7
 10
0.0000000000013927
 20
325.048477308923
 30
0.0
 40
12.0
 50
221.97803655010401
 51
318.02196344989733
  0
ARC
  5
73
  8
PATTERN_FILL
  6
CONTINUOUS
 62
     7
 10
0.0000000000013927
 20
325.048477308923
 30
0.0
 40
14.0
 50
214.98040819151171
 51
325.01959180848922
  0
ARC
  5
74
  8
PATTERN_FILL
  6
CONTINUOUS
 62
     7
 10
0.0000000000013927
 20
325.048477308923
 30
0.0
 40
16.0
 50
210.10818100526839
 51
329.8918189947392
  0
ARC
  5
75
  8
PATTERN_FILL
  6
CONTINUOUS
 62
     7
 10
0.0000000000013927
 20
325.048477308923
 30
0.0
 40
18.000000000000021
 50
206.48075071624319
 51
333.51924928375718
  0
ARC
  5
76
  8
PATTERN_FILL
  6
CONTINUOUS
 62
     7
 10
0.0000000000013927
 20
325.048477308923
 30
0.0
 40
20.0
 50
203.6599364961198
 51
336.34006350388091
  0
ARC
  5
77
  8
PATTERN_FILL
  6
CONTINUOUS
 62
     7
 10
0.0000000000013927
 20
325.048477308923
 30
0.0
 40
21.999999999999989
 50
201.396808296459
 51
338.60319170353461
  0
ARC
  5
78
  8
PATTERN_FILL
  6
CONTINUOUS
 62
     7
 10
0.0000000000013927
 20
325.048477308923
 30
0.0
 40
23.999999999999972
 50
199.53744509878811
 51
340.462554901212
  0
ARC
  5
79
  8
PATTERN_FILL
  6
CONTINUOUS
 62
     7
 10
0.0000000000013927
 20
325.048477308923
 30
0.0
 40
26.000000000000011
 50
206.27342213848581
 51
333.72657786150029
  0
ARC
  5
7A
  8
PATTERN_FILL
  6
CONTINUOUS
 62
     7
 10
0.0000000000013927
 20
325.048477308923
 30
0.0
 40
27.999999999999972
 50
217.6302638057937
 51
322.3697361942061
  0
LINE
  5
7B
  8
PATTERN_FILL
  6
CONTINUOUS
 62
     7
 10
0.0000000000013927
 20
292.99999999985948
 30
0.0
 11
0.0000000000013927
 21
317.048477308923
 31
0.0
  0
ARC
  5
7C
  8
PATTERN_FILL
  6
CONTINUOUS
 62
     7
 10
627.25000000000227
 20
319.048477308923
 30
0.0
 40
625.25000000000102
 50
180.18566964296349
 51
182.38768473231389
  0
ARC
  5
7D
  8
PATTERN_FILL
  6
CONTINUOUS
 62
     7
 10
627.15511396063891
 20
329.92134047569323
 30
0.0
 40
623.25000000000102
 50
181.18589921108361
 51
183.39619134088559
  0
ARC
  5
7E
  8
PATTERN_FILL
  6
CONTINUOUS
 62
     7
 10
626.87149958417911
 20
340.75305478886611
 30
0.0
 40
621.2500000000008
 50
182.18913689571269
 51
184.40845064446299
  0
ARC
  5
7F
  8
PATTERN_FILL
  6
CONTINUOUS
 62
     7
 10
626.4004457323465
 20
351.54201773800321
 30
0.0
 40
619.25000000000068
 50
183.19557244132571
 51
185.4246701197066
  0
ARC
  5
80
  8
PATTERN_FILL
  6
CONTINUOUS
 62
     7
 10
625.74330135383559
 20
362.28623335359032
 30
0.0
 40
617.2500000000008
 50
184.20536361378009
 51
186.4450271309166
  0
ARC
  5
81
  8
PATTERN_FILL
  6
CONTINUOUS
 62
     7
 10
624.90148115807187
 20
372.98257311200882
 30
0.0
 40
615.25000000000057
 50
185.2185667674392
 51
187.46959918333249
  0
ARC
  5
82
  8
PATTERN_FILL
  6
CONTINUOUS
 62
     7
 10
623.87645523677929
 20
383.62787432206841
 30
0.0
 40
613.2500000000008
 50
186.23523785284951
 51
188.49846518672601
  0
ARC
  5
83
  8
PATTERN_FILL
  6
CONTINUOUS
 62
     7
 10
622.66974763606174
 20
394.21901100624427
 30
0.0
 40
611.25000000000102
 50
187.25543911937979
 51
189.1740024782768
  0
ARC
  5
84
  8
PATTERN_FILL
  6
CONTINUOUS
 62
     7
 10
621.28293552303569
 20
404.75289481733751
 30
0.0
 40
609.25000000000102
 50
188.27923939315031
 51
189.6770638443727
  0
ARC
  5
85
  8
PATTERN_FILL
  6
CONTINUOUS
 62
     7
 10
619.71764833695556
 20
415.2264759372348
 30
0.0
 40
607.25000000000102
 50
189.3067143886058
 51
190.209039367896
  0
ARC
  5
86
  8
PATTERN_FILL
  6
CONTINUOUS
 62
     7
 10
617.97556692520595
 20
425.63674395750979
 30
0.0
 40
605.2500000000008
 50
190.33794705677909
 51
190.71675602414959
  0
ARC
  5
87
  8
PATTERN_FILL
  6
CONTINUOUS
 62
     7
 10
0.0000000000013927
 20
325.048477308923
 30
0.0
 40
29.999999999999989
 50
225.43281486382551
 51
314.56718513617437
  0
ARC
  5
88
  8
PATTERN_FILL
  6
CONTINUOUS
 62
     7
 10
0.0000000000013927
 20
325.048477308923
 30
0.0
 40
31.999999999999961
 50
231.0103952500022
 51
308.98960474999791
  0
ARC
  5
89
  8
PATTERN_FILL
  6
CONTINUOUS
 62
     7
 10
0.0000000000013927
 20
325.048477308923
 30
0.0
 40
33.999999999999972
 50
235.37612986763239
 51
250.49326972204409
  0
ARC
  5
8A
  8
PATTERN_FILL
  6
CONTINUOUS
 62
     7
 10
0.0000000000013927
 20
325.048477308923
 30
0.0
 40
33.999999999999972
 50
289.50673027795568
 51
304.62387013236747
  0
ARC
  5
8B
  8
PATTERN_FILL
  6
CONTINUOUS
 62
     7
 10
0.0000000000013927
 20
325.048477308923
 30
0.0
 40
35.99999999999995
 50
297.0971477816658
 51
301.04658543988057
  0
ARC
  5
8C
  8
PATTERN_FILL
  6
CONTINUOUS
 62
     7
 10
-627.24999999999955
 20
319.048477308923
 30
0.0
 40
625.2500000000008
 50
357.61231526768461
 51
359.81433035703651
  0
ARC
  5
8D
  8
PATTERN_FILL
  6
CONTINUOUS
 62
     7
 10
-627.15511396063607
 20
329.92134047569323
 30
0.0
 40
623.25000000000068
 50
356.60380865911111
 51
358.81410078891639
  0
ARC
  5
8E
  8
PATTERN_FILL
  6
CONTINUOUS
 62
     7
 10
-626.87149958417615
 20
340.75305478886611
 30
0.0
 40
621.2500000000008
 50
355.59154935553681
 51
357.81086310428719
  0
ARC
  5
8F
  8
PATTERN_FILL
  6
CONTINUOUS
 62
     7
 10
-626.40044573234366
 20
351.54201773800321
 30
0.0
 40
619.25000000000068
 50
354.57532988029573
 51
356.80442755867432
  0
ARC
  5
90
  8
PATTERN_FILL
  6
CONTINUOUS
 62
     7
 10
-625.74330135383275
 20
362.28623335359032
 30
0.0
 40
617.2500000000008
 50
353.55497286908439
 51
355.79463638621979
  0
ARC
  5
91
  8
PATTERN_FILL
  6
CONTINUOUS
 62
     7
 10
-624.90148115806926
 20
372.98257311200882
 30
0.0
 40
615.25000000000034
 50
352.5304008166608
 51
354.78143323256057
  0
ARC
  5
92
  8
PATTERN_FILL
  6
CONTINUOUS
 62
     7
 10
-623.87645523677634
 20
383.62787432206841
 30
0.0
 40
613.2500000000008
 50
351.50153481327112
 51
353.76476214715029
  0
ARC
  5
93
  8
PATTERN_FILL
  6
CONTINUOUS
 62
     7
 10
-622.66974763605879
 20
394.21901100624427
 30
0.0
 40
611.25000000000068
 50
350.82599752172177
 51
352.74456088062021
  0
ARC
  5
94
  8
PATTERN_FILL
  6
CONTINUOUS
 62
     7
 10
-621.28293552303285
 20
404.75289481733751
 30
0.0
 40
609.2500000000008
 50
350.32293615562548
 51
351.72076060684969
  0
ARC
  5
95
  8
PATTERN_FILL
  6
CONTINUOUS
 62
     7
 10
-619.71764833695272
 20
415.2264759372348
 30
0.0
 40
607.25000000000068
 50
349.79096063210358
 51
350.693285611394
  0
ARC
  5
96
  8
PATTERN_FILL
  6
CONTINUOUS
 62
     7
 10
-617.97556692520311
 20
425.63674395750979
 30
0.0
 40
605.2500000000008
 50
349.28324397585038
 51
349.66205294322077
  0
ARC
  5
97
  8
PATTERN_FILL
  6
CONTINUOUS
 62
     7
 10
0.0000000000013785
 20
325.048477308923
 30
0.0
 40
35.999999999999979
 50
238.9534145601194
 51
242.90285221833409
  0
ARC
  5
98
  8
PATTERN_FILL
  6
CONTINUOUS
 62
     7
 10
120.00000000000129
 20
312.9738517901651
 30
0.0
 40
10.000000000000011
 50
53.380529869726502
 51
126.61947013027149
  0
ARC
  5
99
  8
PATTERN_FILL
  6
CONTINUOUS
 62
     7
 10
120.00000000000129
 20
312.9738517901651
 30
0.0
 40
12.0
 50
41.978036550102679
 51
138.02196344989599
  0
ARC
  5
9A
  8
PATTERN_FILL
  6
CONTINUOUS
 62
     7
 10
120.00000000000129
 20
312.9738517901651
 30
0.0
 40
13.999999999999989
 50
34.980408191510818
 51
145.01959180848829
  0
ARC
  5
9B
  8
PATTERN_FILL
  6
CONTINUOUS
 62
     7
 10
120.00000000000129
 20
312.9738517901651
 30
0.0
 40
16.000000000000021
 50
30.10818100526086
 51
149.89181899473161
  0
ARC
  5
9C
  8
PATTERN_FILL
  6
CONTINUOUS
 62
     7
 10
120.00000000000129
 20
312.9738517901651
 30
0.0
 40
18.0
 50
26.480750716242731
 51
153.51924928375681
  0
ARC
  5
9D
  8
PATTERN_FILL
  6
CONTINUOUS
 62
     7
 10
120.00000000000129
 20
312.9738517901651
 30
0.0
 40
20.0
 50
23.659936496119109
 51
156.34006350388009
  0
ARC
  5
9E
  8
PATTERN_FILL
  6
CONTINUOUS
 62
     7
 10
120.00000000000129
 20
312.9738517901651
 30
0.0
 40
21.999999999999989
 50
21.396808296465281
 51
158.603191703541
  0
ARC
  5
9F
  8
PATTERN_FILL
  6
CONTINUOUS
 62
     7
 10
120.00000000000129
 20
312.9738517901651
 30
0.0
 40
23.999999999999972
 50
19.53744509878786
 51
160.4625549012118
  0
ARC
  5
A0
  8
PATTERN_FILL
  6
CONTINUOUS
 62
     7
 10
120.00000000000129
 20
312.9738517901651
 30
0.0
 40
26.0
 50
26.27342213849969
 51
153.72657786151419
  0
ARC
  5
A1
  8
PATTERN_FILL
  6
CONTINUOUS
 62
     7
 10
120.00000000000129
 20
312.9738517901651
 30
0.0
 40
27.999999999999972
 50
35.26374363946551
 51
144.73625636052671
  0
LINE
  5
A2
  8
PATTERN_FILL
  6
CONTINUOUS
 62
     7
 10
120.00000000000129
 20
346.99999999985948
 30
0.0
 11
120.00000000000129
 21
320.9738517901651
 31
0.0
  0
ARC
  5
A3
  8
PATTERN_FILL
  6
CONTINUOUS
 62
     7
 10
747.25000000000227
 20
318.9738517901651
 30
0.0
 40
625.25000000000102
 50
177.43091849221719
 51
179.8143303570364
  0
ARC
  5
A4
  8
PATTERN_FILL
  6
CONTINUOUS
 62
     7
 10
747.15511396063857
 20
308.10098862339493
 30
0.0
 40
623.25000000000068
 50
176.4216627334753
 51
178.81410078891639
  0
ARC
  5
A5
  8
PATTERN_FILL
  6
CONTINUOUS
 62
     7
 10
746.87149958417876
 20
297.26927431022222
 30
0.0
 40
621.2500000000008
 50
175.40859142077261
 51
177.81086310428731
  0
ARC
  5
A6
  8
PATTERN_FILL
  6
CONTINUOUS
 62
     7
 10
746.4004457323465
 20
286.48031136108489
 30
0.0
 40
619.25000000000068
 50
174.3914953990521
 51
176.80442755867421
  0
ARC
  5
A7
  8
PATTERN_FILL
  6
CONTINUOUS
 62
     7
 10
745.74330135383548
 20
275.73609574549778
 30
0.0
 40
617.2500000000008
 50
173.37019546087191
 51
175.79463638621979
  0
ARC
  5
A8
  8
PATTERN_FILL
  6
CONTINUOUS
 62
     7
 10
744.90148115807187
 20
265.03975598707939
 30
0.0
 40
615.25000000000057
 50
172.3446121221065
 51
174.78143323256069
  0
ARC
  5
A9
  8
PATTERN_FILL
  6
CONTINUOUS
 62
     7
 10
743.87645523677895
 20
254.3944547770198
 30
0.0
 40
613.2500000000008
 50
171.3655831741824
 51
173.76476214715041
  0
ARC
  5
AA
  8
PATTERN_FILL
  6
CONTINUOUS
 62
     7
 10
742.66974763606152
 20
243.80331809284399
 30
0.0
 40
611.25000000000102
 50
170.5941300110841
 51
172.74456088062021
  0
ARC
  5
AB
  8
PATTERN_FILL
  6
CONTINUOUS
 62
     7
 10
741.28293552303535
 20
233.26943428175079
 30
0.0
 40
609.2500000000008
 50
170.0708234699882
 51
171.72076060684969
  0
ARC
  5
AC
  8
PATTERN_FILL
  6
CONTINUOUS
 62
     7
 10
739.71764833695545
 20
222.7958531618533
 30
0.0
 40
607.25000000000102
 50
169.61753968622691
 51
170.69328561139409
  0
ARC
  5
AD
  8
PATTERN_FILL
  6
CONTINUOUS
 62
     7
 10
737.97556692520573
 20
212.3855851415785
 30
0.0
 40
605.2500000000008
 50
169.28324397585041
 51
169.66205294322091
  0
ARC
  5
AE
  8
PATTERN_FILL
  6
CONTINUOUS
 62
     7
 10
120.00000000000129
 20
312.9738517901651
 30
0.0
 40
29.999999999999972
 50
42.082742589689168
 51
137.91725741031391
  0
ARC
  5
AF
  8
PATTERN_FILL
  6
CONTINUOUS
 62
     7
 10
120.00000000000129
 20
312.9738517901651
 30
0.0
 40
31.999999999999961
 50
47.649690532571732
 51
132.11121881360791
  0
ARC
  5
B0
  8
PATTERN_FILL
  6
CONTINUOUS
 62
     7
 10
120.00000000000129
 20
312.9738517901651
 30
0.0
 40
33.999999999999979
 50
52.384916499729052
 51
127.4767181662519
  0
ARC
  5
B1
  8
PATTERN_FILL
  6
CONTINUOUS
 62
     7
 10
120.00000000000129
 20
312.9738517901651
 30
0.0
 40
35.999999999999957
 50
56.523331261749497
 51
70.938887752911413
  0
ARC
  5
B2
  8
PATTERN_FILL
  6
CONTINUOUS
 62
     7
 10
-507.24999999999949
 20
318.9738517901651
 30
0.0
 40
625.2500000000008
 50
0.1856696429635519
 51
2.5690815077827618
  0
ARC
  5
B3
  8
PATTERN_FILL
  6
CONTINUOUS
 62
     7
 10
-507.1551139606359
 20
308.10098862339493
 30
0.0
 40
623.25000000000068
 50
1.1858992110835951
 51
3.5783372665247088
  0
ARC
  5
B4
  8
PATTERN_FILL
  6
CONTINUOUS
 62
     7
 10
-506.87149958417609
 20
297.26927431022222
 30
0.0
 40
621.2500000000008
 50
2.189136895712688
 51
4.5914085792273758
  0
ARC
  5
B5
  8
PATTERN_FILL
  6
CONTINUOUS
 62
     7
 10
-506.4004457323436
 20
286.48031136108489
 30
0.0
 40
619.25000000000068
 50
3.195572441325762
 51
5.608504600947847
  0
ARC
  5
B6
  8
PATTERN_FILL
  6
CONTINUOUS
 62
     7
 10
-505.74330135383281
 20
275.73609574549778
 30
0.0
 40
617.2500000000008
 50
4.2053636137802206
 51
6.6298045391281049
  0
ARC
  5
B7
  8
PATTERN_FILL
  6
CONTINUOUS
 62
     7
 10
-504.90148115806909
 20
265.03975598707939
 30
0.0
 40
615.25000000000057
 50
5.218566767439313
 51
7.6553878778935411
  0
ARC
  5
B8
  8
PATTERN_FILL
  6
CONTINUOUS
 62
     7
 10
-503.87645523677622
 20
254.3944547770198
 30
0.0
 40
613.2500000000008
 50
6.2352378528496031
 51
8.6344168258175493
  0
ARC
  5
B9
  8
PATTERN_FILL
  6
CONTINUOUS
 62
     7
 10
-502.66974763605879
 20
243.80331809284399
 30
0.0
 40
611.25000000000068
 50
7.255439119379802
 51
9.4058699889158568
  0
ARC
  5
BA
  8
PATTERN_FILL
  6
CONTINUOUS
 62
     7
 10
-501.28293552303279
 20
233.26943428175079
 30
0.0
 40
609.2500000000008
 50
8.2792393931503199
 51
9.9291765300117572
  0
ARC
  5
BB
  8
PATTERN_FILL
  6
CONTINUOUS
 62
     7
 10
-499.71764833695278
 20
222.7958531618533
 30
0.0
 40
607.25000000000068
 50
9.3067143886058954
 51
10.38246031377315
  0
ARC
  5
BC
  8
PATTERN_FILL
  6
CONTINUOUS
 62
     7
 10
-497.97556692520311
 20
212.3855851415785
 30
0.0
 40
605.2500000000008
 50
10.337947056779131
 51
10.716756024149589
  0
ARC
  5
BD
  8
PATTERN_FILL
  6
CONTINUOUS
 62
     7
 10
120.00000000000129
 20
312.9738517901651
 30
0.0
 40
35.999999999999957
 50
109.0611122470886
 51
123.4766687382505
  0
ARC
  5
BE
  8
PATTERN_FILL
  6
CONTINUOUS
 62
     7
 10
120.00000000000141
 20
325.048477308923
 30
0.0
 40
9.9999999999999964
 50
233.38052986972849
 51
306.61947013027338
  0
ARC
  5
BF
  8
PATTERN_FILL
  6
CONTINUOUS
 62
     7
 10
120.00000000000141
 20
325.048477308923
 30
0.0
 40
12.0
 50
221.97803655010401
 51
318.02196344989733
  0
ARC
  5
C0
  8
PATTERN_FILL
  6
CONTINUOUS
 62
     7
 10
120.00000000000141
 20
325.048477308923
 30
0.0
 40
14.0
 50
214.98040819151171
 51
325.01959180848922
  0
ARC
  5
C1
  8
PATTERN_FILL
  6
CONTINUOUS
 62
     7
 10
120.00000000000141
 20
325.048477308923
 30
0.0
 40
16.0
 50
210.10818100526839
 51
329.8918189947392
  0
ARC
  5
C2
  8
PATTERN_FILL
  6
CONTINUOUS
 62
     7
 10
120.00000000000141
 20
325.048477308923
 30
0.0
 40
18.000000000000021
 50
206.48075071624319
 51
333.51924928375718
  0
ARC
  5
C3
  8
PATTERN_FILL
  6
CONTINUOUS
 62
     7
 10
120.00000000000141
 20
325.048477308923
 30
0.0
 40
20.0
 50
203.6599364961198
 51
336.34006350388091
  0
ARC
  5
C4
  8
PATTERN_FILL
  6
CONTINUOUS
 62
     7
 10
120.00000000000141
 20
325.048477308923
 30
0.0
 40
21.999999999999989
 50
201.396808296459
 51
338.60319170353461
  0
ARC
  5
C5
  8
PATTERN_FILL
  6
CONTINUOUS
 62
     7
 10
120.00000000000141
 20
325.048477308923
 30
0.0
 40
23.999999999999972
 50
199.53744509878811
 51
340.462554901212
  0
ARC
  5
C6
  8
PATTERN_FILL
  6
CONTINUOUS
 62
     7
 10
120.00000000000141
 20
325.048477308923
 30
0.0
 40
26.000000000000011
 50
206.27342213848581
 51
333.72657786150029
  0
ARC
  5
C7
  8
PATTERN_FILL
  6
CONTINUOUS
 62
     7
 10
120.00000000000141
 20
325.048477308923
 30
0.0
 40
27.999999999999972
 50
217.6302638057937
 51
322.3697361942061
  0
LINE
  5
C8
  8
PATTERN_FILL
  6
CONTINUOUS
 62
     7
 10
120.00000000000141
 20
292.99999999985948
 30
0.0
 11
120.00000000000141
 21
317.048477308923
 31
0.0
  0
ARC
  5
C9
  8
PATTERN_FILL
  6
CONTINUOUS
 62
     7
 10
747.25000000000227
 20
319.048477308923
 30
0.0
 40
625.25000000000102
 50
180.18566964296349
 51
182.38768473231389
  0
ARC
  5
CA
  8
PATTERN_FILL
  6
CONTINUOUS
 62
     7
 10
747.15511396063857
 20
329.92134047569323
 30
0.0
 40
623.25000000000102
 50
181.18589921108361
 51
183.39619134088559
  0
ARC
  5
CB
  8
PATTERN_FILL
  6
CONTINUOUS
 62
     7
 10
746.87149958417876
 20
340.75305478886611
 30
0.0
 40
621.2500000000008
 50
182.18913689571269
 51
184.40845064446299
  0
ARC
  5
CC
  8
PATTERN_FILL
  6
CONTINUOUS
 62
     7
 10
746.4004457323465
 20
351.54201773800321
 30
0.0
 40
619.25000000000068
 50
183.19557244132571
 51
185.4246701197066
  0
ARC
  5
CD
  8
PATTERN_FILL
  6
CONTINUOUS
 62
     7
 10
745.74330135383548
 20
362.28623335359032
 30
0.0
 40
617.2500000000008
 50
184.20536361378009
 51
186.4450271309166
  0
ARC
  5
CE
  8
PATTERN_FILL
  6
CONTINUOUS
 62
     7
 10
744.90148115807187
 20
372.98257311200882
 30
0.0
 40
615.25000000000057
 50
185.2185667674392
 51
187.46959918333249
  0
ARC
  5
CF
  8
PATTERN_FILL
  6
CONTINUOUS
 62
     7
 10
743.87645523677895
 20
383.62787432206841
 30
0.0
 40
613.2500000000008
 50
186.23523785284951
 51
188.49846518672601
  0
ARC
  5
D0
  8
PATTERN_FILL
  6
CONTINUOUS
 62
     7
 10
742.66974763606152
 20
394.21901100624427
 30
0.0
 40
611.25000000000102
 50
187.25543911937979
 51
189.1740024782768
  0
ARC
  5
D1
  8
PATTERN_FILL
  6
CONTINUOUS
 62
     7
 10
741.28293552303535
 20
404.75289481733751
 30
0.0
 40
609.25000000000102
 50
188.27923939315031
 51
189.6770638443727
  0
ARC
  5
D2
  8
PATTERN_FILL
  6
CONTINUOUS
 62
     7
 10
739.71764833695545
 20
415.2264759372348
 30
0.0
 40
607.25000000000102
 50
189.3067143886058
 51
190.209039367896
  0
ARC
  5
D3
  8
PATTERN_FILL
  6
CONTINUOUS
 62
     7
 10
737.97556692520573
 20
425.63674395750979
 30
0.0
 40
605.2500000000008
 50
190.33794705677909
 51
190.71675602414959
  0
ARC
  5
D4
  8
PATTERN_FILL
  6
CONTINUOUS
 62
     7
 10
120.00000000000141
 20
325.048477308923
 30
0.0
 40
29.999999999999989
 50
225.43281486382551
 51
314.56718513617437
  0
ARC
  5
D5
  8
PATTERN_FILL
  6
CONTINUOUS
 62
     7
 10
120.00000000000141
 20
325.048477308923
 30
0.0
 40
31.999999999999961
 50
231.0103952500022
 51
308.98960474999791
  0
ARC
  5
D6
  8
PATTERN_FILL
  6
CONTINUOUS
 62
     7
 10
120.00000000000141
 20
325.048477308923
 30
0.0
 40
33.999999999999972
 50
235.37612986763239
 51
250.49326972204409
  0
ARC
  5
D7
  8
PATTERN_FILL
  6
CONTINUOUS
 62
     7
 10
120.00000000000141
 20
325.048477308923
 30
0.0
 40
33.999999999999972
 50
289.50673027795568
 51
304.62387013236747
  0
ARC
  5
D8
  8
PATTERN_FILL
  6
CONTINUOUS
 62
     7
 10
120.00000000000141
 20
325.048477308923
 30
0.0
 40
35.99999999999995
 50
297.0971477816658
 51
301.04658543988057
  0
ARC
  5
D9
  8
PATTERN_FILL
  6
CONTINUOUS
 62
     7
 10
-507.24999999999949
 20
319.048477308923
 30
0.0
 40
625.2500000000008
 50
357.61231526768461
 51
359.81433035703651
  0
ARC
  5
DA
  8
PATTERN_FILL
  6
CONTINUOUS
 62
     7
 10
-507.1551139606359
 20
329.92134047569323
 30
0.0
 40
623.25000000000068
 50
356.60380865911111
 51
358.81410078891639
  0
ARC
  5
DB
  8
PATTERN_FILL
  6
CONTINUOUS
 62
     7
 10
-506.87149958417609
 20
340.75305478886611
 30
0.0
 40
621.2500000000008
 50
355.59154935553681
 51
357.81086310428719
  0
ARC
  5
DC
  8
PATTERN_FILL
  6
CONTINUOUS
 62
     7
 10
-506.4004457323436
 20
351.54201773800321
 30
0.0
 40
619.25000000000068
 50
354.57532988029573
 51
356.80442755867432
  0
ARC
  5
DD
  8
PATTERN_FILL
  6
CONTINUOUS
 62
     7
 10
-505.74330135383281
 20
362.28623335359032
 30
0.0
 40
617.2500000000008
 50
353.55497286908439
 51
355.79463638621979
  0
ARC
  5
DE
  8
PATTERN_FILL
  6
CONTINUOUS
 62
     7
 10
-504.90148115806909
 20
372.98257311200882
 30
0.0
 40
615.25000000000034
 50
352.5304008166608
 51
354.78143323256057
  0
ARC
  5
DF
  8
PATTERN_FILL
  6
CONTINUOUS
 62
     7
 10
-503.87645523677622
 20
383.62787432206841
 30
0.0
 40
613.2500000000008
 50
351.50153481327112
 51
353.76476214715029
  0
ARC
  5
E0
  8
PATTERN_FILL
  6
CONTINUOUS
 62
     7
 10
-502.66974763605879
 20
394.21901100624427
 30
0.0
 40
611.25000000000068
 50
350.82599752172177
 51
352.74456088062021
  0
ARC
  5
E1
  8
PATTERN_FILL
  6
CONTINUOUS
 62
     7
 10
-501.28293552303279
 20
404.75289481733751
 30
0.0
 40
609.2500000000008
 50
350.32293615562548
 51
351.72076060684969
  0
ARC
  5
E2
  8
PATTERN_FILL
  6
CONTINUOUS
 62
     7
 10
-499.71764833695278
 20
415.2264759372348
 30
0.0
 40
607.25000000000068
 50
349.79096063210358
 51
350.693285611394
  0
ARC
  5
E3
  8
PATTERN_FILL
  6
CONTINUOUS
 62
     7
 10
-497.97556692520311
 20
425.63674395750979
 30
0.0
 40
605.2500000000008
 50
349.28324397585038
 51
349.66205294322077
  0
ARC
  5
E4
  8
PATTERN_FILL
  6
CONTINUOUS
 62
     7
 10
120.00000000000129
 20
325.048477308923
 30
0.0
 40
35.999999999999979
 50
238.9534145601194
 51
242.90285221833409
  0
ARC
  5
E5
  8
PATTERN_FILL
  6
CONTINUOUS
 62
     7
 10
240.00000000000139
 20
312.9738517901651
 30
0.0
 40
10.000000000000011
 50
53.380529869726502
 51
126.61947013027149
  0
ARC
  5
E6
  8
PATTERN_FILL
  6
CONTINUOUS
 62
     7
 10
240.00000000000139
 20
312.9738517901651
 30
0.0
 40
12.0
 50
41.978036550102679
 51
138.02196344989599
  0
ARC
  5
E7
  8
PATTERN_FILL
  6
CONTINUOUS
 62
     7
 10
240.00000000000139
 20
312.9738517901651
 30
0.0
 40
14.000000000000011
 50
34.980408191510811
 51
145.01959180848829
  0
ARC
  5
E8
  8
PATTERN_FILL
  6
CONTINUOUS
 62
     7
 10
240.00000000000139
 20
312.9738517901651
 30
0.0
 40
16.000000000000021
 50
30.10818100526086
 51
149.89181899473161
  0
ARC
  5
E9
  8
PATTERN_FILL
  6
CONTINUOUS
 62
     7
 10
240.00000000000139
 20
312.9738517901651
 30
0.0
 40
18.0
 50
26.480750716242731
 51
153.51924928375681
  0
ARC
  5
EA
  8
PATTERN_FILL
  6
CONTINUOUS
 62
     7
 10
240.00000000000139
 20
312.9738517901651
 30
0.0
 40
20.0
 50
23.659936496119109
 51
156.34006350388009
  0
ARC
  5
EB
  8
PATTERN_FILL
  6
CONTINUOUS
 62
     7
 10
240.00000000000139
 20
312.9738517901651
 30
0.0
 40
22.0
 50
21.39680829646527
 51
158.603191703541
  0
ARC
  5
EC
  8
PATTERN_FILL
  6
CONTINUOUS
 62
     7
 10
240.00000000000139
 20
312.9738517901651
 30
0.0
 40
23.99999999999995
 50
19.537445098787881
 51
160.46255490121189
  0
ARC
  5
ED
  8
PATTERN_FILL
  6
CONTINUOUS
 62
     7
 10
240.00000000000139
 20
312.9738517901651
 30
0.0
 40
25.999999999999979
 50
26.27342213849969
 51
153.72657786151419
  0
ARC
  5
EE
  8
PATTERN_FILL
  6
CONTINUOUS
 62
     7
 10
240.00000000000139
 20
312.9738517901651
 30
0.0
 40
27.999999999999961
 50
35.263743639465531
 51
144.73625636052671
  0
LINE
  5
EF
  8
PATTERN_FILL
  6
CONTINUOUS
 62
     7
 10
240.00000000000139
 20
346.99999999985948
 30
0.0
 11
240.00000000000139
 21
320.9738517901651
 31
0.0
  0
ARC
  5
F0
  8
PATTERN_FILL
  6
CONTINUOUS
 62
     7
 10
867.25000000000216
 20
318.9738517901651
 30
0.0
 40
625.25000000000102
 50
177.43091849221719
 51
179.8143303570364
  0
ARC
  5
F1
  8
PATTERN_FILL
  6
CONTINUOUS
 62
     7
 10
867.15511396063869
 20
308.10098862339493
 30
0.0
 40
623.25000000000068
 50
176.4216627334753
 51
178.81410078891639
  0
ARC
  5
F2
  8
PATTERN_FILL
  6
CONTINUOUS
 62
     7
 10
866.87149958417888
 20
297.26927431022222
 30
0.0
 40
621.2500000000008
 50
175.40859142077261
 51
177.81086310428731
  0
ARC
  5
F3
  8
PATTERN_FILL
  6
CONTINUOUS
 62
     7
 10
866.40044573234638
 20
286.48031136108489
 30
0.0
 40
619.25000000000068
 50
174.3914953990521
 51
176.80442755867421
  0
ARC
  5
F4
  8
PATTERN_FILL
  6
CONTINUOUS
 62
     7
 10
865.74330135383548
 20
275.73609574549778
 30
0.0
 40
617.2500000000008
 50
173.37019546087191
 51
175.79463638621979
  0
ARC
  5
F5
  8
PATTERN_FILL
  6
CONTINUOUS
 62
     7
 10
864.90148115807176
 20
265.03975598707939
 30
0.0
 40
615.25000000000057
 50
172.3446121221065
 51
174.78143323256069
  0
ARC
  5
F6
  8
PATTERN_FILL
  6
CONTINUOUS
 62
     7
 10
863.87645523677895
 20
254.3944547770198
 30
0.0
 40
613.2500000000008
 50
171.3655831741824
 51
173.76476214715041
  0
ARC
  5
F7
  8
PATTERN_FILL
  6
CONTINUOUS
 62
     7
 10
862.66974763606152
 20
243.80331809284399
 30
0.0
 40
611.25000000000102
 50
170.5941300110841
 51
172.74456088062021
  0
ARC
  5
F8
  8
PATTERN_FILL
  6
CONTINUOUS
 62
     7
 10
861.28293552303535
 20
233.26943428175079
 30
0.0
 40
609.2500000000008
 50
170.0708234699882
 51
171.72076060684969
  0
ARC
  5
F9
  8
PATTERN_FILL
  6
CONTINUOUS
 62
     7
 10
859.71764833695545
 20
222.7958531618533
 30
0.0
 40
607.25000000000102
 50
169.61753968622691
 51
170.69328561139409
  0
ARC
  5
FA
  8
PATTERN_FILL
  6
CONTINUOUS
 62
     7
 10
857.97556692520561
 20
212.3855851415785
 30
0.0
 40
605.2500000000008
 50
169.28324397585041
 51
169.66205294322091
  0
ARC
  5
FB
  8
PATTERN_FILL
  6
CONTINUOUS
 62
     7
 10
240.00000000000139
 20
312.9738517901651
 30
0.0
 40
29.999999999999972
 50
42.082742589689168
 51
137.91725741031391
  0
ARC
  5
FC
  8
PATTERN_FILL
  6
CONTINUOUS
 62
     7
 10
240.00000000000139
 20
312.9738517901651
 30
0.0
 40
31.999999999999961
 50
47.649690532571732
 51
132.11121881360791
  0
ARC
  5
FD
  8
PATTERN_FILL
  6
CONTINUOUS
 62
     7
 10
240.00000000000139
 20
312.9738517901651
 30
0.0
 40
33.999999999999979
 50
52.384916499729052
 51
127.4767181662519
  0
ARC
  5
FE
  8
PATTERN_FILL
  6
CONTINUOUS
 62
     7
 10
240.00000000000139
 20
312.9738517901651
 30
0.0
 40
35.999999999999957
 50
56.523331261749497
 51
70.938887752911413
  0
ARC
  5
FF
  8
PATTERN_FILL
  6
CONTINUOUS
 62
     7
 10
-387.24999999999949
 20
318.9738517901651
 30
0.0
 40
625.2500000000008
 50
0.1856696429635519
 51
2.5690815077827618
  0
ARC
  5
100
  8
PATTERN_FILL
  6
CONTINUOUS
 62
     7
 10
-387.15511396063602
 20
308.10098862339493
 30
0.0
 40
623.25000000000068
 50
1.1858992110835951
 51
3.5783372665247088
  0
ARC
  5
101
  8
PATTERN_FILL
  6
CONTINUOUS
 62
     7
 10
-386.87149958417621
 20
297.26927431022222
 30
0.0
 40
621.2500000000008
 50
2.189136895712688
 51
4.5914085792273758
  0
ARC
  5
102
  8
PATTERN_FILL
  6
CONTINUOUS
 62
     7
 10
-386.4004457323436
 20
286.48031136108489
 30
0.0
 40
619.25000000000068
 50
3.195572441325762
 51
5.608504600947847
  0
ARC
  5
103
  8
PATTERN_FILL
  6
CONTINUOUS
 62
     7
 10
-385.74330135383281
 20
275.73609574549778
 30
0.0
 40
617.2500000000008
 50
4.2053636137802206
 51
6.6298045391281049
  0
ARC
  5
104
  8
PATTERN_FILL
  6
CONTINUOUS
 62
     7
 10
-384.90148115806909
 20
265.03975598707939
 30
0.0
 40
615.25000000000057
 50
5.218566767439313
 51
7.6553878778935411
  0
ARC
  5
105
  8
PATTERN_FILL
  6
CONTINUOUS
 62
     7
 10
-383.87645523677628
 20
254.3944547770198
 30
0.0
 40
613.2500000000008
 50
6.2352378528496031
 51
8.6344168258175493
  0
ARC
  5
106
  8
PATTERN_FILL
  6
CONTINUOUS
 62
     7
 10
-382.6697476360589
 20
243.80331809284399
 30
0.0
 40
611.25000000000068
 50
7.255439119379802
 51
9.4058699889158568
  0
ARC
  5
107
  8
PATTERN_FILL
  6
CONTINUOUS
 62
     7
 10
-381.2829355230329
 20
233.26943428175079
 30
0.0
 40
609.2500000000008
 50
8.2792393931503199
 51
9.9291765300117572
  0
ARC
  5
108
  8
PATTERN_FILL
  6
CONTINUOUS
 62
     7
 10
-379.71764833695278
 20
222.7958531618533
 30
0.0
 40
607.25000000000068
 50
9.3067143886058954
 51
10.38246031377315
  0
ARC
  5
109
  8
PATTERN_FILL
  6
CONTINUOUS
 62
     7
 10
-377.97556692520311
 20
212.3855851415785
 30
0.0
 40
605.2500000000008
 50
10.337947056779131
 51
10.716756024149589
  0
ARC
  5
10A
  8
PATTERN_FILL
  6
CONTINUOUS
 62
     7
 10
240.00000000000139
 20
312.9738517901651
 30
0.0
 40
35.999999999999957
 50
109.0611122470886
 51
123.4766687382505
  0
ARC
  5
10B
  8
PATTERN_FILL
  6
CONTINUOUS
 62
     7
 10
240.00000000000139
 20
325.048477308923
 30
0.0
 40
9.9999999999999964
 50
233.38052986972849
 51
306.61947013027338
  0
ARC
  5
10C
  8
PATTERN_FILL
  6
CONTINUOUS
 62
     7
 10
240.00000000000139
 20
325.048477308923
 30
0.0
 40
12.0
 50
221.97803655010401
 51
318.02196344989721
  0
ARC
  5
10D
  8
PATTERN_FILL
  6
CONTINUOUS
 62
     7
 10
240.00000000000139
 20
325.048477308923
 30
0.0
 40
14.0
 50
214.98040819151171
 51
325.01959180848922
  0
ARC
  5
10E
  8
PATTERN_FILL
  6
CONTINUOUS
 62
     7
 10
240.00000000000139
 20
325.048477308923
 30
0.0
 40
16.0
 50
210.10818100526839
 51
329.8918189947392
  0
ARC
  5
10F
  8
PATTERN_FILL
  6
CONTINUOUS
 62
     7
 10
240.00000000000139
 20
325.048477308923
 30
0.0
 40
18.000000000000021
 50
206.48075071624319
 51
333.51924928375718
  0
ARC
  5
110
  8
PATTERN_FILL
  6
CONTINUOUS
 62
     7
 10
240.00000000000139
 20
325.048477308923
 30
0.0
 40
20.0
 50
203.6599364961198
 51
336.34006350388091
  0
ARC
  5
111
  8
PATTERN_FILL
  6
CONTINUOUS
 62
     7
 10
240.00000000000139
 20
325.048477308923
 30
0.0
 40
21.999999999999989
 50
201.396808296459
 51
338.60319170353461
  0
ARC
  5
112
  8
PATTERN_FILL
  6
CONTINUOUS
 62
     7
 10
240.00000000000139
 20
325.048477308923
 30
0.0
 40
23.999999999999972
 50
199.53744509878811
 51
340.462554901212
  0
ARC
  5
113
  8
PATTERN_FILL
  6
CONTINUOUS
 62
     7
 10
240.00000000000139
 20
325.048477308923
 30
0.0
 40
26.000000000000011
 50
206.27342213848581
 51
333.72657786150029
  0
ARC
  5
114
  8
PATTERN_FILL
  6
CONTINUOUS
 62
     7
 10
240.00000000000139
 20
325.048477308923
 30
0.0
 40
27.999999999999972
 50
217.6302638057937
 51
322.3697361942061
  0
LINE
  5
115
  8
PATTERN_FILL
  6
CONTINUOUS
 62
     7
 10
240.00000000000139
 20
292.99999999985948
 30
0.0
 11
240.00000000000139
 21
317.048477308923
 31
0.0
  0
ARC
  5
116
  8
PATTERN_FILL
  6
CONTINUOUS
 62
     7
 10
867.25000000000216
 20
319.048477308923
 30
0.0
 40
625.25000000000102
 50
180.18566964296349
 51
182.38768473231389
  0
ARC
  5
117
  8
PATTERN_FILL
  6
CONTINUOUS
 62
     7
 10
867.15511396063869
 20
329.92134047569323
 30
0.0
 40
623.25000000000102
 50
181.18589921108361
 51
183.39619134088559
  0
ARC
  5
118
  8
PATTERN_FILL
  6
CONTINUOUS
 62
     7
 10
866.87149958417888
 20
340.75305478886611
 30
0.0
 40
621.2500000000008
 50
182.18913689571269
 51
184.40845064446299
  0
ARC
  5
119
  8
PATTERN_FILL
  6
CONTINUOUS
 62
     7
 10
866.40044573234638
 20
351.54201773800321
 30
0.0
 40
619.25000000000068
 50
183.19557244132571
 51
185.4246701197066
  0
ARC
  5
11A
  8
PATTERN_FILL
  6
CONTINUOUS
 62
     7
 10
865.74330135383548
 20
362.28623335359032
 30
0.0
 40
617.2500000000008
 50
184.20536361378009
 51
186.4450271309166
  0
ARC
  5
11B
  8
PATTERN_FILL
  6
CONTINUOUS
 62
     7
 10
864.90148115807176
 20
372.98257311200882
 30
0.0
 40
615.25000000000057
 50
185.2185667674392
 51
187.46959918333249
  0
ARC
  5
11C
  8
PATTERN_FILL
  6
CONTINUOUS
 62
     7
 10
863.87645523677895
 20
383.62787432206841
 30
0.0
 40
613.2500000000008
 50
186.23523785284951
 51
188.49846518672601
  0
ARC
  5
11D
  8
PATTERN_FILL
  6
CONTINUOUS
 62
     7
 10
862.66974763606152
 20
394.21901100624427
 30
0.0
 40
611.25000000000102
 50
187.25543911937979
 51
189.1740024782768
  0
ARC
  5
11E
  8
PATTERN_FILL
  6
CONTINUOUS
 62
     7
 10
861.28293552303535
 20
404.75289481733751
 30
0.0
 40
609.25000000000102
 50
188.27923939315031
 51
189.6770638443727
  0
ARC
  5
11F
  8
PATTERN_FILL
  6
CONTINUOUS
 62
     7
 10
859.71764833695545
 20
415.2264759372348
 30
0.0
 40
607.25000000000102
 50
189.3067143886058
 51
190.209039367896
  0
ARC
  5
120
  8
PATTERN_FILL
  6
CONTINUOUS
 62
     7
 10
857.97556692520561
 20
425.63674395750979
 30
0.0
 40
605.2500000000008
 50
190.33794705677909
 51
190.71675602414959
  0
ARC
  5
121
  8
PATTERN_FILL
  6
CONTINUOUS
 62
     7
 10
240.00000000000139
 20
325.048477308923
 30
0.0
 40
29.999999999999989
 50
225.43281486382551
 51
314.56718513617437
  0
ARC
  5
122
  8
PATTERN_FILL
  6
CONTINUOUS
 62
     7
 10
240.00000000000139
 20
325.048477308923
 30
0.0
 40
31.999999999999961
 50
231.0103952500022
 51
308.98960474999791
  0
ARC
  5
123
  8
PATTERN_FILL
  6
CONTINUOUS
 62
     7
 10
240.00000000000139
 20
325.048477308923
 30
0.0
 40
33.999999999999972
 50
235.37612986763239
 51
250.49326972204409
  0
ARC
  5
124
  8
PATTERN_FILL
  6
CONTINUOUS
 62
     7
 10
240.00000000000139
 20
325.048477308923
 30
0.0
 40
33.999999999999972
 50
289.50673027795568
 51
304.62387013236747
  0
ARC
  5
125
  8
PATTERN_FILL
  6
CONTINUOUS
 62
     7
 10
240.00000000000139
 20
325.048477308923
 30
0.0
 40
35.99999999999995
 50
297.0971477816658
 51
301.04658543988057
  0
ARC
  5
126
  8
PATTERN_FILL
  6
CONTINUOUS
 62
     7
 10
-387.24999999999949
 20
319.048477308923
 30
0.0
 40
625.2500000000008
 50
357.61231526768461
 51
359.81433035703651
  0
ARC
  5
127
  8
PATTERN_FILL
  6
CONTINUOUS
 62
     7
 10
-387.15511396063602
 20
329.92134047569323
 30
0.0
 40
623.25000000000068
 50
356.60380865911111
 51
358.81410078891639
  0
ARC
  5
128
  8
PATTERN_FILL
  6
CONTINUOUS
 62
     7
 10
-386.87149958417621
 20
340.75305478886611
 30
0.0
 40
621.2500000000008
 50
355.59154935553681
 51
357.81086310428719
  0
ARC
  5
129
  8
PATTERN_FILL
  6
CONTINUOUS
 62
     7
 10
-386.4004457323436
 20
351.54201773800321
 30
0.0
 40
619.25000000000068
 50
354.57532988029573
 51
356.80442755867432
  0
ARC
  5
12A
  8
PATTERN_FILL
  6
CONTINUOUS
 62
     7
 10
-385.74330135383281
 20
362.28623335359032
 30
0.0
 40
617.2500000000008
 50
353.55497286908439
 51
355.79463638621979
  0
ARC
  5
12B
  8
PATTERN_FILL
  6
CONTINUOUS
 62
     7
 10
-384.90148115806909
 20
372.98257311200882
 30
0.0
 40
615.25000000000034
 50
352.5304008166608
 51
354.78143323256057
  0
ARC
  5
12C
  8
PATTERN_FILL
  6
CONTINUOUS
 62
     7
 10
-383.87645523677628
 20
383.62787432206841
 30
0.0
 40
613.2500000000008
 50
351.50153481327112
 51
353.76476214715029
  0
ARC
  5
12D
  8
PATTERN_FILL
  6
CONTINUOUS
 62
     7
 10
-382.6697476360589
 20
394.21901100624427
 30
0.0
 40
611.25000000000068
 50
350.82599752172177
 51
352.74456088062021
  0
ARC
  5
12E
  8
PATTERN_FILL
  6
CONTINUOUS
 62
     7
 10
-381.2829355230329
 20
404.75289481733751
 30
0.0
 40
609.2500000000008
 50
350.32293615562548
 51
351.72076060684969
  0
ARC
  5
12F
  8
PATTERN_FILL
  6
CONTINUOUS
 62
     7
 10
-379.71764833695278
 20
415.2264759372348
 30
0.0
 40
607.25000000000068
 50
349.79096063210358
 51
350.693285611394
  0
ARC
  5
130
  8
PATTERN_FILL
  6
CONTINUOUS
 62
     7
 10
-377.97556692520311
 20
425.63674395750979
 30
0.0
 40
605.2500000000008
 50
349.28324397585038
 51
349.66205294322077
  0
ARC
  5
131
  8
PATTERN_FILL
  6
CONTINUOUS
 62
     7
 10
240.00000000000139
 20
325.048477308923
 30
0.0
 40
35.999999999999979
 50
238.9534145601194
 51
242.90285221833409
  0
ARC
  5
132
  8
PATTERN_FILL
  6
CONTINUOUS
 62
     7
 10
0.0000000000000284
 20
-7.9261482096942739
 30
0.0
 40
27.99999999999995
 50
41.579406753593332
 51
138.4205932464067
  0
ARC
  5
133
  8
PATTERN_FILL
  6
CONTINUOUS
 62
     7
 10
0.0000000000000284
 20
-7.9261482096942739
 30
0.0
 40
29.999999999999961
 50
59.692779533865462
 51
120.79568572898221
  0
LINE
  5
134
  8
PATTERN_FILL
  6
CONTINUOUS
 62
     7
 10
0.0000000000000284
 20
23.5
 30
0.0
 11
0.0000000000000284
 21
19.25
 31
0.0
  0
ARC
  5
135
  8
PATTERN_FILL
  6
CONTINUOUS
 62
     7
 10
627.25000000000068
 20
-1.9261482096943321
 30
0.0
 40
625.25000000000102
 50
177.68173763036759
 51
178.0723632870781
  0
ARC
  5
136
  8
PATTERN_FILL
  6
CONTINUOUS
 62
     7
 10
627.15511396063755
 20
-12.799011376464559
 30
0.0
 40
623.25000000000102
 50
176.70932812921549
 51
177.10603918884439
  0
ARC
  5
137
  8
PATTERN_FILL
  6
CONTINUOUS
 62
     7
 10
626.87149958417763
 20
-23.630725689637391
 30
0.0
 40
621.2500000000008
 50
175.75736054394139
 51
176.16440140998051
  0
ARC
  5
138
  8
PATTERN_FILL
  6
CONTINUOUS
 62
     7
 10
626.40044573234513
 20
-34.419688638774687
 30
0.0
 40
619.25000000000057
 50
174.8267208371494
 51
175.24931768033071
  0
ARC
  5
139
  8
PATTERN_FILL
  6
CONTINUOUS
 62
     7
 10
625.743301353834
 20
-45.163904254361618
 30
0.0
 40
617.25000000000045
 50
173.918912058947
 51
174.3640645051108
  0
ARC
  5
13A
  8
PATTERN_FILL
  6
CONTINUOUS
 62
     7
 10
624.90148115807051
 20
-55.860244012780129
 30
0.0
 40
615.25000000000068
 50
173.03637418671519
 51
173.51437768625459
  0
ARC
  5
13B
  8
PATTERN_FILL
  6
CONTINUOUS
 62
     7
 10
623.87645523677793
 20
-66.505545222839714
 30
0.0
 40
613.2500000000008
 50
172.18286536026079
 51
172.7107685590733
  0
ARC
  5
13C
  8
PATTERN_FILL
  6
CONTINUOUS
 62
     7
 10
622.66974763606026
 20
-77.096681907015622
 30
0.0
 40
611.25000000000068
 50
171.36444740483759
 51
171.97605915166329
  0
ARC
  5
13D
  8
PATTERN_FILL
  6
CONTINUOUS
 62
     7
 10
621.28293552303433
 20
-87.630565718108755
 30
0.0
 40
609.25000000000125
 50
170.59183234412581
 51
171.38572968021211
  0
ARC
  5
13E
  8
PATTERN_FILL
  6
CONTINUOUS
 62
     7
 10
619.71764833695431
 20
-98.104146838006301
 30
0.0
 40
607.25000000000068
 50
169.88738536136421
 51
170.7028466230789
  0
ARC
  5
13F
  8
PATTERN_FILL
  6
CONTINUOUS
 62
     7
 10
617.97556692520482
 20
-108.514414858281
 30
0.0
 40
605.2500000000008
 50
169.31877415663641
 51
169.6716754715427
  0
ARC
  5
140
  8
PATTERN_FILL
  6
CONTINUOUS
 62
     7
 10
0.0000000000000284
 20
-7.9261482096942739
 30
0.0
 40
25.999999999999961
 50
26.915350291053429
 51
63.31536079691746
  0
ARC
  5
141
  8
PATTERN_FILL
  6
CONTINUOUS
 62
     7
 10
0.0000000000000284
 20
-7.9261482096942739
 30
0.0
 40
25.999999999999979
 50
116.6846392030822
 51
153.08464970894639
  0
ARC
  5
142
  8
PATTERN_FILL
  6
CONTINUOUS
 62
     7
 10
0.0000000000000284
 20
-7.9261482096942739
 30
0.0
 40
23.99999999999995
 50
19.284325027965181
 51
44.83813837712642
  0
ARC
  5
143
  8
PATTERN_FILL
  6
CONTINUOUS
 62
     7
 10
0.0000000000000284
 20
-7.9261482096942739
 30
0.0
 40
23.999999999999961
 50
135.1618616228736
 51
160.7156749720348
  0
ARC
  5
144
  8
PATTERN_FILL
  6
CONTINUOUS
 62
     7
 10
0.0000000000000284
 20
-7.9261482096942739
 30
0.0
 40
21.99999999999995
 50
21.117359857471961
 51
30.358444247691679
  0
ARC
  5
145
  8
PATTERN_FILL
  6
CONTINUOUS
 62
     7
 10
0.0000000000000284
 20
-7.9261482096942739
 30
0.0
 40
21.99999999999995
 50
149.64155575230839
 51
158.882640142528
  0
ARC
  5
146
  8
PATTERN_FILL
  6
CONTINUOUS
 62
     7
 10
-627.25000000000068
 20
-1.9261482096943321
 30
0.0
 40
625.25000000000114
 50
1.927636712921869
 51
2.3182623696323481
  0
ARC
  5
147
  8
PATTERN_FILL
  6
CONTINUOUS
 62
     7
 10
-627.15511396063755
 20
-12.799011376464559
 30
0.0
 40
623.25000000000102
 50
2.8939608111556279
 51
3.2906718707844358
  0
ARC
  5
148
  8
PATTERN_FILL
  6
CONTINUOUS
 62
     7
 10
-626.87149958417763
 20
-23.630725689637391
 30
0.0
 40
621.2500000000008
 50
3.8355985900194791
 51
4.2426394560586402
  0
ARC
  5
149
  8
PATTERN_FILL
  6
CONTINUOUS
 62
     7
 10
-626.40044573234513
 20
-34.419688638774687
 30
0.0
 40
619.25000000000057
 50
4.7506823196693526
 51
5.173279162850565
  0
ARC
  5
14A
  8
PATTERN_FILL
  6
CONTINUOUS
 62
     7
 10
-625.743301353834
 20
-45.163904254361618
 30
0.0
 40
617.25000000000045
 50
5.6359354948891882
 51
6.0810879410529841
  0
ARC
  5
14B
  8
PATTERN_FILL
  6
CONTINUOUS
 62
     7
 10
-624.90148115807051
 20
-55.860244012780129
 30
0.0
 40
615.25000000000068
 50
6.4856223137454663
 51
6.963625813284767
  0
ARC
  5
14C
  8
PATTERN_FILL
  6
CONTINUOUS
 62
     7
 10
-623.87645523677793
 20
-66.505545222839714
 30
0.0
 40
613.2500000000008
 50
7.2892314409267316
 51
7.8171346397391801
  0
ARC
  5
14D
  8
PATTERN_FILL
  6
CONTINUOUS
 62
     7
 10
-622.66974763606026
 20
-77.096681907015622
 30
0.0
 40
611.25000000000068
 50
8.0239408483367303
 51
8.6355525951623342
  0
ARC
  5
14E
  8
PATTERN_FILL
  6
CONTINUOUS
 62
     7
 10
-621.28293552303433
 20
-87.630565718108755
 30
0.0
 40
609.25000000000125
 50
8.6142703197878951
 51
9.4081676558742267
  0
ARC
  5
14F
  8
PATTERN_FILL
  6
CONTINUOUS
 62
     7
 10
-619.71764833695431
 20
-98.104146838006301
 30
0.0
 40
607.25000000000068
 50
9.2971533769211252
 51
10.11261463863578
  0
ARC
  5
150
  8
PATTERN_FILL
  6
CONTINUOUS
 62
     7
 10
-617.97556692520482
 20
-108.514414858281
 30
0.0
 40
605.2500000000008
 50
10.32832452845726
 51
10.681225843363629
  0
ARC
  5
151
  8
PATTERN_FILL
  6
CONTINUOUS
 62
     7
 10
0.0000000000000284
 20
7.9261482096942739
 30
0.0
 40
27.99999999999995
 50
221.5794067535933
 51
318.42059324640672
  0
ARC
  5
152
  8
PATTERN_FILL
  6
CONTINUOUS
 62
     7
 10
0.0000000000000284
 20
7.9261482096942739
 30
0.0
 40
29.99999999999995
 50
239.20431427101769
 51
300.30722046613448
  0
LINE
  5
153
  8
PATTERN_FILL
  6
CONTINUOUS
 62
     7
 10
0.0000000000000284
 20
-23.5
 30
0.0
 11
0.0000000000000284
 21
-19.25
 31
0.0
  0
ARC
  5
154
  8
PATTERN_FILL
  6
CONTINUOUS
 62
     7
 10
627.25000000000068
 20
1.9261482096943321
 30
0.0
 40
625.25000000000114
 50
181.92763671292181
 51
182.31826236963241
  0
ARC
  5
155
  8
PATTERN_FILL
  6
CONTINUOUS
 62
     7
 10
627.15511396063755
 20
12.799011376464559
 30
0.0
 40
623.25000000000102
 50
182.89396081115561
 51
183.29067187078439
  0
ARC
  5
156
  8
PATTERN_FILL
  6
CONTINUOUS
 62
     7
 10
626.87149958417763
 20
23.630725689637391
 30
0.0
 40
621.2500000000008
 50
183.8355985900194
 51
184.24263945605861
  0
ARC
  5
157
  8
PATTERN_FILL
  6
CONTINUOUS
 62
     7
 10
626.40044573234513
 20
34.419688638774659
 30
0.0
 40
619.25000000000057
 50
184.75068231966941
 51
185.1732791628506
  0
ARC
  5
158
  8
PATTERN_FILL
  6
CONTINUOUS
 62
     7
 10
625.743301353834
 20
45.163904254361618
 30
0.0
 40
617.25000000000045
 50
185.6359354948892
 51
186.081087941053
  0
ARC
  5
159
  8
PATTERN_FILL
  6
CONTINUOUS
 62
     7
 10
624.90148115807051
 20
55.860244012780129
 30
0.0
 40
615.25000000000068
 50
186.48562231374541
 51
186.96362581328481
  0
ARC
  5
15A
  8
PATTERN_FILL
  6
CONTINUOUS
 62
     7
 10
623.87645523677793
 20
66.505545222839714
 30
0.0
 40
613.2500000000008
 50
187.2892314409267
 51
187.81713463973921
  0
ARC
  5
15B
  8
PATTERN_FILL
  6
CONTINUOUS
 62
     7
 10
622.66974763606026
 20
77.096681907015622
 30
0.0
 40
611.25000000000068
 50
188.02394084833671
 51
188.6355525951623
  0
ARC
  5
15C
  8
PATTERN_FILL
  6
CONTINUOUS
 62
     7
 10
621.28293552303433
 20
87.630565718108755
 30
0.0
 40
609.25000000000125
 50
188.61427031978781
 51
189.40816765587419
  0
ARC
  5
15D
  8
PATTERN_FILL
  6
CONTINUOUS
 62
     7
 10
619.71764833695431
 20
98.104146838006301
 30
0.0
 40
607.25000000000068
 50
189.2971533769211
 51
190.1126146386357
  0
ARC
  5
15E
  8
PATTERN_FILL
  6
CONTINUOUS
 62
     7
 10
617.97556692520482
 20
108.514414858281
 30
0.0
 40
605.2500000000008
 50
190.3283245284573
 51
190.68122584336359
  0
ARC
  5
15F
  8
PATTERN_FILL
  6
CONTINUOUS
 62
     7
 10
0.0000000000000284
 20
7.9261482096942739
 30
0.0
 40
25.99999999999995
 50
296.6846392030825
 51
333.08464970894659
  0
ARC
  5
160
  8
PATTERN_FILL
  6
CONTINUOUS
 62
     7
 10
0.0000000000000284
 20
7.9261482096942739
 30
0.0
 40
25.999999999999972
 50
206.91535029105361
 51
243.31536079691779
  0
ARC
  5
161
  8
PATTERN_FILL
  6
CONTINUOUS
 62
     7
 10
0.0000000000000284
 20
7.9261482096942739
 30
0.0
 40
23.99999999999995
 50
315.16186162287357
 51
340.71567497203478
  0
ARC
  5
162
  8
PATTERN_FILL
  6
CONTINUOUS
 62
     7
 10
0.0000000000000284
 20
7.9261482096942739
 30
0.0
 40
23.99999999999995
 50
199.28432502796511
 51
224.83813837712651
  0
ARC
  5
163
  8
PATTERN_FILL
  6
CONTINUOUS
 62
     7
 10
0.0000000000000284
 20
7.9261482096942739
 30
0.0
 40
21.99999999999995
 50
329.64155575230831
 51
338.88264014252809
  0
ARC
  5
164
  8
PATTERN_FILL
  6
CONTINUOUS
 62
     7
 10
0.0000000000000284
 20
7.9261482096942739
 30
0.0
 40
21.99999999999995
 50
201.11735985747191
 51
210.35844424769161
  0
ARC
  5
165
  8
PATTERN_FILL
  6
CONTINUOUS
 62
     7
 10
-627.25000000000068
 20
1.9261482096943321
 30
0.0
 40
625.25000000000102
 50
357.68173763036759
 51
358.07236328707819
  0
ARC
  5
166
  8
PATTERN_FILL
  6
CONTINUOUS
 62
     7
 10
-627.15511396063755
 20
12.799011376464559
 30
0.0
 40
623.25000000000102
 50
356.70932812921552
 51
357.10603918884431
  0
ARC
  5
167
  8
PATTERN_FILL
  6
CONTINUOUS
 62
     7
 10
-626.87149958417763
 20
23.630725689637391
 30
0.0
 40
621.2500000000008
 50
355.7573605439415
 51
356.16440140998048
  0
ARC
  5
168
  8
PATTERN_FILL
  6
CONTINUOUS
 62
     7
 10
-626.40044573234513
 20
34.419688638774659
 30
0.0
 40
619.25000000000057
 50
354.82672083714948
 51
355.24931768033059
  0
ARC
  5
169
  8
PATTERN_FILL
  6
CONTINUOUS
 62
     7
 10
-625.743301353834
 20
45.163904254361618
 30
0.0
 40
617.25000000000045
 50
353.918912058947
 51
354.36406450511078
  0
ARC
  5
16A
  8
PATTERN_FILL
  6
CONTINUOUS
 62
     7
 10
-624.90148115807051
 20
55.860244012780129
 30
0.0
 40
615.25000000000068
 50
353.03637418671519
 51
353.51437768625448
  0
ARC
  5
16B
  8
PATTERN_FILL
  6
CONTINUOUS
 62
     7
 10
-623.87645523677793
 20
66.505545222839714
 30
0.0
 40
613.2500000000008
 50
352.18286536026091
 51
352.7107685590733
  0
ARC
  5
16C
  8
PATTERN_FILL
  6
CONTINUOUS
 62
     7
 10
-622.66974763606026
 20
77.096681907015622
 30
0.0
 40
611.25000000000068
 50
351.36444740483768
 51
351.97605915166332
  0
ARC
  5
16D
  8
PATTERN_FILL
  6
CONTINUOUS
 62
     7
 10
-621.28293552303433
 20
87.630565718108755
 30
0.0
 40
609.25000000000125
 50
350.59183234412581
 51
351.38572968021208
  0
ARC
  5
16E
  8
PATTERN_FILL
  6
CONTINUOUS
 62
     7
 10
-619.71764833695431
 20
98.104146838006301
 30
0.0
 40
607.25000000000068
 50
349.8873853613643
 51
350.70284662307893
  0
ARC
  5
16F
  8
PATTERN_FILL
  6
CONTINUOUS
 62
     7
 10
-617.97556692520482
 20
108.514414858281
 30
0.0
 40
605.2500000000008
 50
349.31877415663638
 51
349.67167547154281
  0
LINE
  5
170
  8
SPEC
  6
CONTINUOUS
 62
     7
 10
-130.0
 20
594.5
 30
0.0
 11
250.0
 21
594.5
 31
0.0
  0
LINE
  5
171
  8
SPEC
  6
CONTINUOUS
 62
     7
 10
-130.0
 20
583.25
 30
0.0
 11
250.0
 21
583.25
 31
0.0
  0
LINE
  5
172
  8
SPEC
  6
CONTINUOUS
 62
     7
 10
-130.0
 20
515.74999999999989
 30
0.0
 11
250.0
 21
515.74999999999989
 31
0.0
  0
LINE
  5
173
  8
SPEC
  6
CONTINUOUS
 62
     7
 10
-130.0
 20
527.0
 30
0.0
 11
250.0
 21
527.0
 31
0.0
  0
LINE
  5
174
  8
SPEC
  6
CONTINUOUS
 62
     7
 10
-130.0
 20
538.25
 30
0.0
 11
250.0
 21
538.25
 31
0.0
  0
LINE
  5
175
  8
SPEC
  6
CONTINUOUS
 62
     7
 10
-130.0
 20
504.49999999999989
 30
0.0
 11
250.0
 21
504.49999999999989
 31
0.0
  0
LINE
  5
176
  8
SPEC
  6
CONTINUOUS
 62
     7
 10
-130.0
 20
482.0
 30
0.0
 11
250.0
 21
482.0
 31
0.0
  0
LINE
  5
177
  8
SPEC
  6
CONTINUOUS
 62
     7
 10
-130.0
 20
493.25
 30
0.0
 11
250.0
 21
493.25
 31
0.0
  0
LINE
  5
178
  8
SPEC
  6
CONTINUOUS
 62
     7
 10
-130.0
 20
549.5
 30
0.0
 11
250.0
 21
549.5
 31
0.0
  0
TEXT
  5
179
  8
SPEC
 62
     7
 10
-29.800000000000011
 20
585.61373833333323
 30
0.0
 40
5.7009440104166647
  1
F8W
 41
0.7
 11
-29.800000000000011
 21
591.31468234374995
 31
0.0
 73
     3
  0
LINE
  5
17A
  8
SPEC
  6
CONTINUOUS
 62
     7
 10
-130.0
 20
594.5
 30
0.0
 11
-130.0
 21
425.75
 31
0.0
  0
TEXT
  5
17B
  8
SPEC
 62
     7
 10
-126.25
 20
598.67979500000001
 30
0.0
 40
7.3297851562499989
  1
仕様
 41
0.7
 11
-126.25
 21
606.00958015624985
 31
0.0
 73
     3
  0
LINE
  5
17C
  8
SPEC
  6
CONTINUOUS
 62
     7
 10
-32.5
 20
594.5
 30
0.0
 11
-32.5
 21
425.75
 31
0.0
  0
LINE
  5
17D
  8
SPEC
  6
CONTINUOUS
 62
     7
 10
250.0
 20
594.5
 30
0.0
 11
250.0
 21
425.75
 31
0.0
  0
TEXT
  5
17E
  8
SPEC
 62
     7
 10
-29.800000000000011
 20
473.11375333333331
 30
0.0
 40
5.7009440104166647
  1
0.5dBV(1kHz、ゲイン最小、1%%%THD、パッド無し)
 41
0.7
 11
-29.800000000000011
 21
478.81469734375003
 31
0.0
 73
     3
  0
TEXT
  5
17F
  8
SPEC
 62
     7
 10
-127.3
 20
518.11375333333308
 30
0.0
 40
5.7009440104166647
  1
アンテナ形式
 41
0.7
 11
-127.3
 21
523.81469734374991
 31
0.0
 73
     3
  0
TEXT
  5
180
  8
SPEC
 62
     7
 10
-127.3
 20
585.61373833333323
 30
0.0
 40
5.7009440104166647
  1
電波型式
 41
0.7
 11
-127.3
 21
591.31468234374995
 31
0.0
 73
     3
  0
TEXT
  5
181
  8
SPEC
 62
     7
 10
-127.3
 20
495.61375333333331
 30
0.0
 40
5.7009440104166647
  1
トーン信号周波数
 41
0.7
 11
-127.3
 21
501.31469734375003
 31
0.0
 73
     3
  0
TEXT
  5
182
  8
SPEC
 62
     7
 10
-127.3
 20
484.36375333333342
 30
0.0
 40
5.7009440104166647
  1
周波数特性
 41
0.7
 11
-127.3
 21
490.06469734375003
 31
0.0
 73
     3
  0
TEXT
  5
183
  8
SPEC
 62
     7
 10
-127.3
 20
529.36375333333308
 30
0.0
 40
5.7009440104166647
  1
空中線電力
 41
0.7
 11
-127.3
 21
535.0646973437498
 31
0.0
 73
     3
  0
TEXT
  5
184
  8
SPEC
 62
     7
 10
-127.3
 20
506.86375333333319
 30
0.0
 40
5.7009440104166647
  1
到達距離
 41
0.7
 11
-127.3
 21
512.56469734374991
 31
0.0
 73
     3
  0
TEXT
  5
185
  8
SPEC
 62
     7
 10
-127.3
 20
574.36375333333297
 30
0.0
 40
5.7009440104166647
  1
送信周波数
 41
0.7
 11
-127.3
 21
580.0646973437498
 31
0.0
 73
     3
  0
TEXT
  5
186
  8
SPEC
 62
     7
 10
-127.3
 20
540.61375333333319
 30
0.0
 40
5.7009440104166647
  1
発振方式
 41
0.7
 11
-127.3
 21
546.31469734374991
 31
0.0
 73
     3
  0
TEXT
  5
187
  8
SPEC
 62
     7
 10
-127.3
 20
473.11375333333331
 30
0.0
 40
5.7009440104166647
  1
最大入力レベル
 41
0.7
 11
-127.3
 21
478.81469734375003
 31
0.0
 73
     3
  0
TEXT
  5
188
  8
SPEC
 62
     7
 10
-29.800000000000011
 20
518.11375333333308
 30
0.0
 40
5.7009440104166647
  1
1/4波長ヘリカル、50\U+03A9
 41
0.7
 11
-29.800000000000011
 21
523.81469734374991
 31
0.0
 73
     3
  0
TEXT
  5
189
  8
SPEC
 62
     7
 10
-29.800000000000011
 20
495.61375333333331
 30
0.0
 40
5.7009440104166647
  1
32.768kHz
 41
0.7
 11
-29.800000000000011
 21
501.31469734375003
 31
0.0
 73
     3
  0
TEXT
  5
18A
  8
SPEC
 62
     7
 10
-29.800000000000011
 20
484.36375333333342
 30
0.0
 40
5.7009440104166647
  1
40Hz～15kHz \U+00B11dB（システム全体の帯域幅はマイクヘッドにより変動）
 41
0.7
 11
-29.800000000000011
 21
490.06469734375003
 31
0.0
 73
     3
  0
TEXT
  5
18B
  8
SPEC
 62
     7
 10
-29.800000000000011
 20
529.36375333333308
 30
0.0
 40
5.7009440104166647
  1
10mW
 41
0.7
 11
-29.800000000000011
 21
535.0646973437498
 31
0.0
 73
     3
  0
TEXT
  5
18C
  8
SPEC
 62
     7
 10
-29.800000000000011
 20
506.86375333333319
 30
0.0
 40
5.7009440104166647
  1
約100m(標準環境における最大値)
 41
0.7
 11
-29.800000000000011
 21
512.56469734374991
 31
0.0
 73
     3
  0
TEXT
  5
18D
  8
SPEC
 62
     7
 10
-29.800000000000011
 20
540.61375333333319
 30
0.0
 40
5.7009440104166647
  1
水晶制御PLLシンセサイザー方式
 41
0.7
 11
-29.800000000000011
 21
546.31469734374991
 31
0.0
 73
     3
  0
TEXT
  5
18E
  8
SPEC
 62
     7
 10
-29.800000000000011
 20
574.36375333333297
 30
0.0
 40
5.7009440104166647
  1
UR2/BETA 87C-JBX:B型(806～810MHz)30チャンネルのうち任意の1チャンネル
 41
0.7
 11
-29.800000000000011
 21
580.0646973437498
 31
0.0
 73
     3
  0
LINE
  5
18F
  8
SPEC
  6
CONTINUOUS
 62
     7
 10
-130.0
 20
448.24999999999989
 30
0.0
 11
250.0
 21
448.24999999999989
 31
0.0
  0
LINE
  5
190
  8
SPEC
  6
CONTINUOUS
 62
     7
 10
-130.0
 20
437.0
 30
0.0
 11
250.0
 21
437.0
 31
0.0
  0
TEXT
  5
191
  8
SPEC
 62
     7
 10
-29.800000000000011
 20
450.61375333333331
 30
0.0
 40
5.7009440104166647
  1
単3形アルカリ乾電池\U+00D72
 41
0.7
 11
-29.800000000000011
 21
456.31469734375003
 31
0.0
 73
     3
  0
TEXT
  5
192
  8
SPEC
 62
     7
 10
-127.3
 20
450.61375333333331
 30
0.0
 40
5.7009440104166647
  1
電源
 41
0.7
 11
-127.3
 21
456.31469734375003
 31
0.0
 73
     3
  0
LINE
  5
193
  8
SPEC
  6
CONTINUOUS
 62
     7
 10
-130.0
 20
425.75
 30
0.0
 11
250.0
 21
425.75
 31
0.0
  0
TEXT
  5
194
  8
SPEC
 62
     7
 10
-29.800000000000011
 20
439.36375333333331
 30
0.0
 40
5.7009440104166647
  1
\U+03C651\U+00D7247mm
 41
0.7
 11
-29.800000000000011
 21
445.06469734375003
 31
0.0
 73
     3
  0
TEXT
  5
195
  8
SPEC
 62
     7
 10
-127.3
 20
439.36375333333331
 30
0.0
 40
5.7009440104166647
  1
寸法(W\U+00D7H\U+00D7D)
 41
0.7
 11
-127.3
 21
445.06469734375003
 31
0.0
 73
     3
  0
TEXT
  5
196
  8
SPEC
 62
     7
 10
-29.800000000000011
 20
428.11375333333342
 30
0.0
 40
5.7009440104166647
  1
約325g(電池除く)
 41
0.7
 11
-29.800000000000011
 21
433.81469734375003
 31
0.0
 73
     3
  0
TEXT
  5
197
  8
SPEC
 62
     7
 10
-127.3
 20
428.11375333333342
 30
0.0
 40
5.7009440104166647
  1
質量
 41
0.7
 11
-127.3
 21
433.81469734375003
 31
0.0
 73
     3
  0
TEXT
  5
198
  8
SPEC
 62
     7
 10
-29.800000000000011
 20
461.86375333333331
 30
0.0
 40
5.7009440104166647
  1
-10～+20dB
 41
0.7
 11
-29.800000000000011
 21
467.56469734375003
 31
0.0
 73
     3
  0
TEXT
  5
199
  8
SPEC
 62
     7
 10
-127.3
 20
461.86375333333331
 30
0.0
 40
5.7009440104166647
  1
ゲイン調整範囲
 41
0.7
 11
-127.3
 21
467.56469734375003
 31
0.0
 73
     3
  0
LINE
  5
19A
  8
SPEC
  6
CONTINUOUS
 62
     7
 10
-130.0
 20
470.75
 30
0.0
 11
250.0
 21
470.75
 31
0.0
  0
TEXT
  5
19B
  8
SPEC
 62
     7
 10
-29.800000000000011
 20
563.11375333333308
 30
0.0
 40
5.7009440104166647
  1
UR2/BETA 87C-A24:A型(797～806MHz)71チャンネルとA2型 (779～788MHz)71チャンネル
 41
0.7
 11
-29.800000000000011
 21
568.8146973437498
 31
0.0
 73
     3
  0
TEXT
  5
19C
  8
SPEC
 62
     7
 10
32.199999999999989
 20
551.86375333333319
 30
0.0
 40
5.7009440104166647
  1
合計142チャンネルのうち任意の1チャンネル
 41
0.7
 11
32.199999999999989
 21
557.56469734374991
 31
0.0
 73
     3
  0
LINE
  5
19D
  8
SPEC
  6
CONTINUOUS
 62
     7
 10
-130.0
 20
459.49999999999989
 30
0.0
 11
250.0
 21
459.49999999999989
 31
0.0
  0
TEXT
  5
19E
  8
DIMNSIONS
 62
     7
 10
57.499984999999981
 20
-118.6915149999999
 30
0.0
 40
7.3297851562499989
  1
(単位：mm)
 41
0.7
 11
57.499984999999981
 21
-111.3617298437499
 31
0.0
 73
     3
  0
LINE
  5
19F
  8
DIMNSIONS
  6
CONTINUOUS
 62
     7
 10
-24.499999977648251
 20
276.0
 30
0.0
 11
-65.999999977648244
 21
276.0
 31
0.0
  0
LINE
  5
1A0
  8
DIMNSIONS
  6
CONTINUOUS
 62
     7
 10
-15.05309312801816
 20
100.0
 30
0.0
 11
-65.999999977648244
 21
100.0
 31
0.0
  0
LINE
  5
1A1
  8
DIMNSIONS
  6
CONTINUOUS
 62
     7
 10
-60.0
 20
276.0
 30
0.0
 11
-60.0
 21
100.0
 31
0.0
  0
LINE
  5
1A2
  8
DIMNSIONS
  6
CONTINUOUS
 62
     7
 10
-60.0
 20
276.0
 30
0.0
 11
-57.447783942093572
 21
266.47500000000002
 31
0.0
  0
LINE
  5
1A3
  8
DIMNSIONS
  6
CONTINUOUS
 62
     7
 10
-60.0
 20
276.0
 30
0.0
 11
-62.552216057906442
 21
266.47500000000002
 31
0.0
  0
LINE
  5
1A4
  8
DIMNSIONS
  6
CONTINUOUS
 62
     7
 10
-60.0
 20
100.0
 30
0.0
 11
-62.552216057906442
 21
109.52500000000001
 31
0.0
  0
LINE
  5
1A5
  8
DIMNSIONS
  6
CONTINUOUS
 62
     7
 10
-60.0
 20
100.0
 30
0.0
 11
-57.447783942093572
 21
109.52500000000001
 31
0.0
  0
TEXT
  5
1A6
  8
DIMNSIONS
 62
     7
 10
-64.48166665549077
 20
180.0625
 30
0.0
 40
8.1442057291666661
  1
176
 50
90.0
 41
0.7
 11
-72.625872384657441
 21
180.0625
 31
0.0
 73
     3
  0
LINE
  5
1A7
  8
DIMNSIONS
  6
CONTINUOUS
 62
     7
 10
-21.658948779283801
 20
347.0
 30
0.0
 11
-95.999999977648244
 21
347.0
 31
0.0
  0
LINE
  5
1A8
  8
DIMNSIONS
  6
CONTINUOUS
 62
     7
 10
-15.05309312801816
 20
100.0
 30
0.0
 11
-95.999999977648244
 21
100.0
 31
0.0
  0
LINE
  5
1A9
  8
DIMNSIONS
  6
CONTINUOUS
 62
     7
 10
-90.0
 20
347.0
 30
0.0
 11
-90.0
 21
100.0
 31
0.0
  0
LINE
  5
1AA
  8
DIMNSIONS
  6
CONTINUOUS
 62
     7
 10
-90.0
 20
347.0
 30
0.0
 11
-87.447783942093565
 21
337.47500000000002
 31
0.0
  0
LINE
  5
1AB
  8
DIMNSIONS
  6
CONTINUOUS
 62
     7
 10
-90.0
 20
347.0
 30
0.0
 11
-92.552216057906435
 21
337.47500000000002
 31
0.0
  0
LINE
  5
1AC
  8
DIMNSIONS
  6
CONTINUOUS
 62
     7
 10
-90.0
 20
100.0
 30
0.0
 11
-92.552216057906435
 21
109.52500000000001
 31
0.0
  0
LINE
  5
1AD
  8
DIMNSIONS
  6
CONTINUOUS
 62
     7
 10
-90.0
 20
100.0
 30
0.0
 11
-87.447783942093565
 21
109.52500000000001
 31
0.0
  0
TEXT
  5
1AE
  8
DIMNSIONS
 62
     7
 10
-94.48166665549077
 20
215.5625
 30
0.0
 40
8.1442057291666661
  1
247
 50
90.0
 41
0.7
 11
-102.6258723846574
 21
215.5625
 31
0.0
 73
     3
  0
LINE
  5
1AF
  8
DIMNSIONS
  6
CONTINUOUS
 62
     7
 10
-24.499999977648251
 20
276.0
 30
0.0
 11
-65.999999977648244
 21
276.0
 31
0.0
  0
LINE
  5
1B0
  8
DIMNSIONS
  6
CONTINUOUS
 62
     7
 10
-21.658948779283801
 20
347.0
 30
0.0
 11
-65.999999977648244
 21
347.0
 31
0.0
  0
LINE
  5
1B1
  8
DIMNSIONS
  6
CONTINUOUS
 62
     7
 10
-60.0
 20
276.0
 30
0.0
 11
-60.0
 21
347.0
 31
0.0
  0
LINE
  5
1B2
  8
DIMNSIONS
  6
CONTINUOUS
 62
     7
 10
-60.0
 20
276.0
 30
0.0
 11
-62.552216057906442
 21
285.52499999999998
 31
0.0
  0
LINE
  5
1B3
  8
DIMNSIONS
  6
CONTINUOUS
 62
     7
 10
-60.0
 20
276.0
 30
0.0
 11
-57.447783942093572
 21
285.52499999999998
 31
0.0
  0
LINE
  5
1B4
  8
DIMNSIONS
  6
CONTINUOUS
 62
     7
 10
-60.0
 20
347.0
 30
0.0
 11
-57.447783942093572
 21
337.47500000000002
 31
0.0
  0
LINE
  5
1B5
  8
DIMNSIONS
  6
CONTINUOUS
 62
     7
 10
-60.0
 20
347.0
 30
0.0
 11
-62.552216057906442
 21
337.47500000000002
 31
0.0
  0
TEXT
  5
1B6
  8
DIMNSIONS
 62
     7
 10
-64.48166665549077
 20
306.20833333333331
 30
0.0
 40
8.1442057291666661
  1
71
 50
90.0
 41
0.7
 11
-72.625872384657441
 21
306.20833333333331
 31
0.0
 73
     3
  0
LINE
  5
1B7
  8
DIMNSIONS
  6
CONTINUOUS
 62
     7
 10
-25.5
 20
5.9999999776482573
 30
0.0
 11
-25.5
 21
65.999999977648244
 31
0.0
  0
LINE
  5
1B8
  8
DIMNSIONS
  6
CONTINUOUS
 62
     7
 10
25.5
 20
5.9999999776482573
 30
0.0
 11
25.5
 21
65.999999977648244
 31
0.0
  0
LINE
  5
1B9
  8
DIMNSIONS
  6
CONTINUOUS
 62
     7
 10
-25.5
 20
60.0
 30
0.0
 11
25.5
 21
60.0
 31
0.0
  0
LINE
  5
1BA
  8
DIMNSIONS
  6
CONTINUOUS
 62
     7
 10
-25.5
 20
60.0
 30
0.0
 11
-15.974999999999991
 21
62.552216057906442
 31
0.0
  0
LINE
  5
1BB
  8
DIMNSIONS
  6
CONTINUOUS
 62
     7
 10
-25.5
 20
60.0
 30
0.0
 11
-15.974999999999991
 21
57.447783942093572
 31
0.0
  0
LINE
  5
1BC
  8
DIMNSIONS
  6
CONTINUOUS
 62
     7
 10
25.5
 20
60.0
 30
0.0
 11
15.974999999999991
 21
57.447783942093572
 31
0.0
  0
LINE
  5
1BD
  8
DIMNSIONS
  6
CONTINUOUS
 62
     7
 10
25.5
 20
60.0
 30
0.0
 11
15.974999999999991
 21
62.552216057906442
 31
0.0
  0
TEXT
  5
1BE
  8
DIMNSIONS
 62
     7
 10
-5.2916666666666732
 20
64.481666655490798
 30
0.0
 40
8.1442057291666661
  1
51
 41
0.7
 11
-5.2916666666666723
 21
72.62587238465747
 31
0.0
 73
     3
  0
TEXT
  5
1BF
  8
DATA
 62
     7
 10
226.99996999999999
 20
-121.19716333333329
 30
0.0
 40
6.5153645833333318
  1
UR2/BETA 87C-JBX 、 UR2/BETA 87C-A24
 41
0.7
 11
226.99996999999999
 21
-114.68179875
 31
0.0
 73
     3
  0
TEXT
  5
1C0
  8
DATA
 62
     7
 10
259.99997000000002
 20
-100.35732999999991
 30
0.0
 40
7.3297851562499989
  1
SHURE
 41
0.7
 11
259.99997000000002
 21
-93.027544843749965
 31
0.0
 73
     3
  0
TEXT
  5
1C1
  8
DATA
 62
     7
 10
226.99996999999999
 20
-110.3581574561403
 30
0.0
 40
6.5153645833333318
  1
ハンドヘルド型送信機
 41
0.7
 11
226.99996999999999
 21
-103.8427928728069
 31
0.0
 73
     3
  0
LINE
  5
1C2
  8
DATA
  6
CONTINUOUS
 62
     7
 10
-18.5
 20
276.0
 30
0.0
 11
18.5
 21
276.0
 31
0.0
  0
LINE
  5
1C3
  8
DATA
  6
CONTINUOUS
 62
     7
 10
-17.5
 20
202.0
 30
0.0
 11
17.5
 21
202.0
 31
0.0
  0
LINE
  5
1C4
  8
DATA
  6
CONTINUOUS
 62
     7
 10
-17.5
 20
236.0
 30
0.0
 11
-17.5
 21
202.0
 31
0.0
  0
LINE
  5
1C5
  8
DATA
  6
CONTINUOUS
 62
     7
 10
17.5
 20
236.0
 30
0.0
 11
17.5
 21
202.0
 31
0.0
  0
ARC
  5
1C6
  8
DATA
  6
CONTINUOUS
 62
     7
 10
151.17307692307691
 20
271.88461538461542
 30
0.0
 40
169.72297847691971
 50
178.61057540006649
 51
187.0513242185213
  0
LINE
  5
1C7
  8
DATA
  6
CONTINUOUS
 62
     7
 10
17.5
 20
236.0
 30
0.0
 11
17.5
 21
202.0
 31
0.0
  0
ARC
  5
1C8
  8
DATA
  6
CONTINUOUS
 62
     7
 10
-91.204948301329424
 20
238.3286558345643
 30
0.0
 40
108.7298874421865
 50
358.77280887296558
 51
4.5740453520401161
  0
LINE
  5
1C9
  8
DATA
  6
CONTINUOUS
 62
     7
 10
-17.5
 20
276.5
 30
0.0
 11
-17.5
 21
276.0
 31
0.0
  0
LINE
  5
1CA
  8
DATA
  6
CONTINUOUS
 62
     7
 10
17.5
 20
276.5
 30
0.0
 11
17.5
 21
276.0
 31
0.0
  0
LINE
  5
1CB
  8
DATA
  6
CONTINUOUS
 62
     7
 10
-17.5
 20
202.5
 30
0.0
 11
17.5
 21
202.5
 31
0.0
  0
LINE
  5
1CC
  8
DATA
  6
CONTINUOUS
 62
     7
 10
-17.0
 20
137.0
 30
0.0
 11
17.0
 21
137.0
 31
0.0
  0
LINE
  5
1CD
  8
DATA
  6
CONTINUOUS
 62
     7
 10
-16.0
 20
128.0
 30
0.0
 11
16.0
 21
128.0
 31
0.0
  0
LINE
  5
1CE
  8
DATA
  6
CONTINUOUS
 62
     7
 10
-17.0
 20
129.0
 30
0.0
 11
-17.0
 21
137.0
 31
0.0
  0
LINE
  5
1CF
  8
DATA
  6
CONTINUOUS
 62
     7
 10
17.0
 20
129.0
 30
0.0
 11
17.0
 21
137.0
 31
0.0
  0
LINE
  5
1D0
  8
DATA
  6
CONTINUOUS
 62
     7
 10
-17.0
 20
137.5
 30
0.0
 11
17.0
 21
137.5
 31
0.0
  0
LINE
  5
1D1
  8
DATA
  6
CONTINUOUS
 62
     7
 10
-17.5
 20
202.0
 30
0.0
 11
-17.0
 21
137.5
 31
0.0
  0
LINE
  5
1D2
  8
DATA
  6
CONTINUOUS
 62
     7
 10
17.5
 20
202.0
 30
0.0
 11
17.0
 21
137.5
 31
0.0
  0
LINE
  5
1D3
  8
DATA
  6
CONTINUOUS
 62
     7
 10
-17.0
 20
137.5
 30
0.0
 11
-16.5
 21
137.25
 31
0.0
  0
LINE
  5
1D4
  8
DATA
  6
CONTINUOUS
 62
     7
 10
-16.5
 20
137.25
 30
0.0
 11
-17.0
 21
137.0
 31
0.0
  0
LINE
  5
1D5
  8
DATA
  6
CONTINUOUS
 62
     7
 10
17.0
 20
137.5
 30
0.0
 11
16.5
 21
137.25
 31
0.0
  0
LINE
  5
1D6
  8
DATA
  6
CONTINUOUS
 62
     7
 10
16.5
 20
137.25
 30
0.0
 11
17.0
 21
137.0
 31
0.0
  0
LINE
  5
1D7
  8
DATA
  6
CONTINUOUS
 62
     7
 10
-16.5
 20
137.25
 30
0.0
 11
16.5
 21
137.25
 31
0.0
  0
ARC
  5
1D8
  8
DATA
  6
CONTINUOUS
 62
     7
 10
-16.0
 20
129.0
 30
0.0
 40
1.0
 50
180.0
 51
270.0
  0
ARC
  5
1D9
  8
DATA
  6
CONTINUOUS
 62
     7
 10
16.0
 20
129.0
 30
0.0
 40
1.0
 50
270.0
 51
0.0
  0
LINE
  5
1DA
  8
DATA
  6
CONTINUOUS
 62
     7
 10
-9.0530931503699037
 20
100.0
 30
0.0
 11
9.0530931503699037
 21
100.0
 31
0.0
  0
LINE
  5
1DB
  8
DATA
  6
CONTINUOUS
 62
     7
 10
-12.5
 20
128.0
 30
0.0
 11
-12.052614948406241
 21
102.9464371107493
 31
0.0
  0
LINE
  5
1DC
  8
DATA
  6
CONTINUOUS
 62
     7
 10
12.5
 20
128.0
 30
0.0
 11
12.052614948406241
 21
102.9464371107493
 31
0.0
  0
ARC
  5
1DD
  8
DATA
  6
CONTINUOUS
 62
     7
 10
-9.0530931503699037
 20
103.0
 30
0.0
 40
3.0000000000000062
 50
181.0230301886676
 51
270.0
  0
ARC
  5
1DE
  8
DATA
  6
CONTINUOUS
 62
     7
 10
9.0530931503699037
 20
103.0
 30
0.0
 40
2.9999999999999849
 50
270.0
 51
358.97696981133248
  0
LINE
  5
1DF
  8
DATA
  6
CONTINUOUS
 62
     7
 10
-9.5
 20
204.5
 30
0.0
 11
9.5
 21
204.5
 31
0.0
  0
LINE
  5
1E0
  8
DATA
  6
CONTINUOUS
 62
     7
 10
-9.5
 20
228.5
 30
0.0
 11
9.5
 21
228.5
 31
0.0
  0
LINE
  5
1E1
  8
DATA
  6
CONTINUOUS
 62
     7
 10
-11.0
 20
227.0
 30
0.0
 11
-11.0
 21
206.0
 31
0.0
  0
LINE
  5
1E2
  8
DATA
  6
CONTINUOUS
 62
     7
 10
11.0
 20
227.0
 30
0.0
 11
11.0
 21
206.0
 31
0.0
  0
LINE
  5
1E3
  8
DATA
  6
CONTINUOUS
 62
     7
 10
-8.5
 20
208.5
 30
0.0
 11
8.5
 21
208.5
 31
0.0
  0
LINE
  5
1E4
  8
DATA
  6
CONTINUOUS
 62
     7
 10
-8.5
 20
225.5
 30
0.0
 11
8.5
 21
225.5
 31
0.0
  0
LINE
  5
1E5
  8
DATA
  6
CONTINUOUS
 62
     7
 10
-8.5
 20
208.5
 30
0.0
 11
-8.5
 21
225.5
 31
0.0
  0
LINE
  5
1E6
  8
DATA
  6
CONTINUOUS
 62
     7
 10
8.5
 20
208.5
 30
0.0
 11
8.5
 21
225.5
 31
0.0
  0
ARC
  5
1E7
  8
DATA
  6
CONTINUOUS
 62
     7
 10
-9.5
 20
227.0
 30
0.0
 40
1.5
 50
90.0
 51
180.0
  0
ARC
  5
1E8
  8
DATA
  6
CONTINUOUS
 62
     7
 10
-9.5
 20
206.0
 30
0.0
 40
1.5
 50
180.0
 51
270.0
  0
ARC
  5
1E9
  8
DATA
  6
CONTINUOUS
 62
     7
 10
9.5
 20
206.0
 30
0.0
 40
1.5
 50
270.0
 51
0.0
  0
ARC
  5
1EA
  8
DATA
  6
CONTINUOUS
 62
     7
 10
9.5
 20
227.0
 30
0.0
 40
1.5
 50
0.0
 51
90.0
  0
TEXT
  5
1EB
  8
DATA
 62
     7
 10
-2.785662895322957
 20
130.65951800482549
 30
0.0
 40
3.2576822916666659
  1
UR2
 41
0.7
 11
-2.785662895322957
 21
133.91720029649221
 31
0.0
 73
     3
  0
LINE
  5
1EC
  8
DATA
  6
CONTINUOUS
 62
     7
 10
101.5
 20
276.0
 30
0.0
 11
138.5
 21
276.0
 31
0.0
  0
LINE
  5
1ED
  8
DATA
  6
CONTINUOUS
 62
     7
 10
102.5
 20
202.0
 30
0.0
 11
137.5
 21
202.0
 31
0.0
  0
LINE
  5
1EE
  8
DATA
  6
CONTINUOUS
 62
     7
 10
102.5
 20
236.0
 30
0.0
 11
102.5
 21
202.0
 31
0.0
  0
LINE
  5
1EF
  8
DATA
  6
CONTINUOUS
 62
     7
 10
137.5
 20
236.0
 30
0.0
 11
137.5
 21
202.0
 31
0.0
  0
ARC
  5
1F0
  8
DATA
  6
CONTINUOUS
 62
     7
 10
271.17307692307691
 20
271.88461538461542
 30
0.0
 40
169.72297847691971
 50
178.61057540006649
 51
187.0513242185213
  0
LINE
  5
1F1
  8
DATA
  6
CONTINUOUS
 62
     7
 10
137.5
 20
236.0
 30
0.0
 11
137.5
 21
202.0
 31
0.0
  0
ARC
  5
1F2
  8
DATA
  6
CONTINUOUS
 62
     7
 10
28.795051698670591
 20
238.3286558345643
 30
0.0
 40
108.7298874421865
 50
358.77280887296558
 51
4.5740453520388646
  0
LINE
  5
1F3
  8
DATA
  6
CONTINUOUS
 62
     7
 10
102.5
 20
276.5
 30
0.0
 11
102.5
 21
276.0
 31
0.0
  0
LINE
  5
1F4
  8
DATA
  6
CONTINUOUS
 62
     7
 10
137.5
 20
276.5
 30
0.0
 11
137.5
 21
276.0
 31
0.0
  0
LINE
  5
1F5
  8
DATA
  6
CONTINUOUS
 62
     7
 10
102.5
 20
202.5
 30
0.0
 11
137.5
 21
202.5
 31
0.0
  0
LINE
  5
1F6
  8
DATA
  6
CONTINUOUS
 62
     7
 10
103.0
 20
137.0
 30
0.0
 11
137.0
 21
137.0
 31
0.0
  0
LINE
  5
1F7
  8
DATA
  6
CONTINUOUS
 62
     7
 10
104.0
 20
128.0
 30
0.0
 11
136.0
 21
128.0
 31
0.0
  0
LINE
  5
1F8
  8
DATA
  6
CONTINUOUS
 62
     7
 10
103.0
 20
129.0
 30
0.0
 11
103.0
 21
137.0
 31
0.0
  0
LINE
  5
1F9
  8
DATA
  6
CONTINUOUS
 62
     7
 10
137.0
 20
129.0
 30
0.0
 11
137.0
 21
137.0
 31
0.0
  0
LINE
  5
1FA
  8
DATA
  6
CONTINUOUS
 62
     7
 10
103.0
 20
137.5
 30
0.0
 11
137.0
 21
137.5
 31
0.0
  0
LINE
  5
1FB
  8
DATA
  6
CONTINUOUS
 62
     7
 10
102.5
 20
202.0
 30
0.0
 11
103.0
 21
137.5
 31
0.0
  0
LINE
  5
1FC
  8
DATA
  6
CONTINUOUS
 62
     7
 10
137.5
 20
202.0
 30
0.0
 11
137.0
 21
137.5
 31
0.0
  0
LINE
  5
1FD
  8
DATA
  6
CONTINUOUS
 62
     7
 10
103.0
 20
137.5
 30
0.0
 11
103.5
 21
137.25
 31
0.0
  0
LINE
  5
1FE
  8
DATA
  6
CONTINUOUS
 62
     7
 10
103.5
 20
137.25
 30
0.0
 11
103.0
 21
137.0
 31
0.0
  0
LINE
  5
1FF
  8
DATA
  6
CONTINUOUS
 62
     7
 10
137.0
 20
137.5
 30
0.0
 11
136.5
 21
137.25
 31
0.0
  0
LINE
  5
200
  8
DATA
  6
CONTINUOUS
 62
     7
 10
136.5
 20
137.25
 30
0.0
 11
137.0
 21
137.0
 31
0.0
  0
LINE
  5
201
  8
DATA
  6
CONTINUOUS
 62
     7
 10
103.5
 20
137.25
 30
0.0
 11
136.5
 21
137.25
 31
0.0
  0
ARC
  5
202
  8
DATA
  6
CONTINUOUS
 62
     7
 10
104.0
 20
129.0
 30
0.0
 40
1.0
 50
180.0
 51
270.0
  0
ARC
  5
203
  8
DATA
  6
CONTINUOUS
 62
     7
 10
136.0
 20
129.0
 30
0.0
 40
1.0
 50
270.0
 51
0.0
  0
LINE
  5
204
  8
DATA
  6
CONTINUOUS
 62
     7
 10
110.9469068496301
 20
100.0
 30
0.0
 11
129.0530931503699
 21
100.0
 31
0.0
  0
LINE
  5
205
  8
DATA
  6
CONTINUOUS
 62
     7
 10
107.5
 20
128.0
 30
0.0
 11
107.9473850515937
 21
102.9464371107493
 31
0.0
  0
LINE
  5
206
  8
DATA
  6
CONTINUOUS
 62
     7
 10
132.5
 20
128.0
 30
0.0
 11
132.05261494840619
 21
102.9464371107493
 31
0.0
  0
ARC
  5
207
  8
DATA
  6
CONTINUOUS
 62
     7
 10
110.9469068496301
 20
103.0
 30
0.0
 40
3.0000000000000062
 50
181.0230301886676
 51
270.0
  0
ARC
  5
208
  8
DATA
  6
CONTINUOUS
 62
     7
 10
129.0530931503699
 20
103.0
 30
0.0
 40
2.9999999999999849
 50
270.0
 51
358.97696981133248
  0
LINE
  5
209
  8
DATA
  6
CONTINUOUS
 62
     7
 10
102.5
 20
204.5
 30
0.0
 11
104.5
 21
204.5
 31
0.0
  0
LINE
  5
20A
  8
DATA
  6
CONTINUOUS
 62
     7
 10
102.5
 20
228.5
 30
0.0
 11
104.5
 21
228.5
 31
0.0
  0
LINE
  5
20B
  8
DATA
  6
CONTINUOUS
 62
     7
 10
107.5
 20
225.5
 30
0.0
 11
107.5
 21
207.5
 31
0.0
  0
LINE
  5
20C
  8
DATA
  6
CONTINUOUS
 62
     7
 10
102.5
 20
208.5
 30
0.0
 11
105.5
 21
208.5
 31
0.0
  0
LINE
  5
20D
  8
DATA
  6
CONTINUOUS
 62
     7
 10
102.5
 20
225.5
 30
0.0
 11
105.5
 21
225.5
 31
0.0
  0
ARC
  5
20E
  8
DATA
  6
CONTINUOUS
 62
     7
 10
104.5
 20
225.5
 30
0.0
 40
3.0
 50
0.0
 51
90.0
  0
ARC
  5
20F
  8
DATA
  6
CONTINUOUS
 62
     7
 10
104.5
 20
207.5
 30
0.0
 40
3.0
 50
270.0
 51
0.0
  0
LINE
  5
210
  8
DATA
  6
CONTINUOUS
 62
     7
 10
105.5
 20
225.5
 30
0.0
 11
105.5
 21
208.5
 31
0.0
  0
LINE
  5
211
  8
DATA
  6
CONTINUOUS
 62
     7
 10
221.5
 20
276.0
 30
0.0
 11
258.5
 21
276.0
 31
0.0
  0
LINE
  5
212
  8
DATA
  6
CONTINUOUS
 62
     7
 10
222.5
 20
202.0
 30
0.0
 11
257.5
 21
202.0
 31
0.0
  0
LINE
  5
213
  8
DATA
  6
CONTINUOUS
 62
     7
 10
222.5
 20
236.0
 30
0.0
 11
222.5
 21
202.0
 31
0.0
  0
LINE
  5
214
  8
DATA
  6
CONTINUOUS
 62
     7
 10
257.5
 20
236.0
 30
0.0
 11
257.5
 21
202.0
 31
0.0
  0
ARC
  5
215
  8
DATA
  6
CONTINUOUS
 62
     7
 10
391.17307692307702
 20
271.88461538461542
 30
0.0
 40
169.72297847691971
 50
178.61057540006649
 51
187.0513242185211
  0
LINE
  5
216
  8
DATA
  6
CONTINUOUS
 62
     7
 10
257.5
 20
236.0
 30
0.0
 11
257.5
 21
202.0
 31
0.0
  0
ARC
  5
217
  8
DATA
  6
CONTINUOUS
 62
     7
 10
148.79505169867059
 20
238.3286558345643
 30
0.0
 40
108.7298874421865
 50
358.77280887296558
 51
4.5740453520401161
  0
LINE
  5
218
  8
DATA
  6
CONTINUOUS
 62
     7
 10
222.5
 20
276.5
 30
0.0
 11
222.5
 21
276.0
 31
0.0
  0
LINE
  5
219
  8
DATA
  6
CONTINUOUS
 62
     7
 10
257.5
 20
276.5
 30
0.0
 11
257.5
 21
276.0
 31
0.0
  0
LINE
  5
21A
  8
DATA
  6
CONTINUOUS
 62
     7
 10
222.5
 20
202.5
 30
0.0
 11
257.5
 21
202.5
 31
0.0
  0
LINE
  5
21B
  8
DATA
  6
CONTINUOUS
 62
     7
 10
223.0
 20
137.0
 30
0.0
 11
257.0
 21
137.0
 31
0.0
  0
LINE
  5
21C
  8
DATA
  6
CONTINUOUS
 62
     7
 10
224.0
 20
128.0
 30
0.0
 11
256.0
 21
128.0
 31
0.0
  0
LINE
  5
21D
  8
DATA
  6
CONTINUOUS
 62
     7
 10
223.0
 20
129.0
 30
0.0
 11
223.0
 21
137.0
 31
0.0
  0
LINE
  5
21E
  8
DATA
  6
CONTINUOUS
 62
     7
 10
257.0
 20
129.0
 30
0.0
 11
257.0
 21
137.0
 31
0.0
  0
LINE
  5
21F
  8
DATA
  6
CONTINUOUS
 62
     7
 10
223.0
 20
137.5
 30
0.0
 11
257.0
 21
137.5
 31
0.0
  0
LINE
  5
220
  8
DATA
  6
CONTINUOUS
 62
     7
 10
222.5
 20
202.0
 30
0.0
 11
223.0
 21
137.5
 31
0.0
  0
LINE
  5
221
  8
DATA
  6
CONTINUOUS
 62
     7
 10
257.5
 20
202.0
 30
0.0
 11
257.0
 21
137.5
 31
0.0
  0
LINE
  5
222
  8
DATA
  6
CONTINUOUS
 62
     7
 10
223.0
 20
137.5
 30
0.0
 11
223.5
 21
137.25
 31
0.0
  0
LINE
  5
223
  8
DATA
  6
CONTINUOUS
 62
     7
 10
223.5
 20
137.25
 30
0.0
 11
223.0
 21
137.0
 31
0.0
  0
LINE
  5
224
  8
DATA
  6
CONTINUOUS
 62
     7
 10
257.0
 20
137.5
 30
0.0
 11
256.5
 21
137.25
 31
0.0
  0
LINE
  5
225
  8
DATA
  6
CONTINUOUS
 62
     7
 10
256.5
 20
137.25
 30
0.0
 11
257.0
 21
137.0
 31
0.0
  0
LINE
  5
226
  8
DATA
  6
CONTINUOUS
 62
     7
 10
223.5
 20
137.25
 30
0.0
 11
256.5
 21
137.25
 31
0.0
  0
ARC
  5
227
  8
DATA
  6
CONTINUOUS
 62
     7
 10
224.0
 20
129.0
 30
0.0
 40
1.0
 50
180.0
 51
270.0
  0
ARC
  5
228
  8
DATA
  6
CONTINUOUS
 62
     7
 10
256.0
 20
129.0
 30
0.0
 40
1.0
 50
270.0
 51
0.0
  0
LINE
  5
229
  8
DATA
  6
CONTINUOUS
 62
     7
 10
230.9469068496301
 20
100.0
 30
0.0
 11
249.0530931503699
 21
100.0
 31
0.0
  0
LINE
  5
22A
  8
DATA
  6
CONTINUOUS
 62
     7
 10
227.5
 20
128.0
 30
0.0
 11
227.9473850515937
 21
102.9464371107493
 31
0.0
  0
LINE
  5
22B
  8
DATA
  6
CONTINUOUS
 62
     7
 10
252.5
 20
128.0
 30
0.0
 11
252.05261494840619
 21
102.9464371107493
 31
0.0
  0
ARC
  5
22C
  8
DATA
  6
CONTINUOUS
 62
     7
 10
230.9469068496301
 20
103.0
 30
0.0
 40
3.0000000000000062
 50
181.0230301886676
 51
270.0
  0
ARC
  5
22D
  8
DATA
  6
CONTINUOUS
 62
     7
 10
249.0530931503699
 20
103.0
 30
0.0
 40
2.9999999999999849
 50
270.0
 51
358.97696981133248
  0
TEXT
  5
22E
  8
DATA
 62
     7
 10
237.21433710467701
 20
130.65951800482549
 30
0.0
 40
3.2576822916666659
  1
UR2
 41
0.7
 11
237.21433710467701
 21
133.91720029649221
 31
0.0
 73
     3
  0
LINE
  5
22F
  8
DATA
  6
CONTINUOUS
 62
     7
 10
232.5
 20
121.0
 30
0.0
 11
247.5
 21
121.0
 31
0.0
  0
LINE
  5
230
  8
DATA
  6
CONTINUOUS
 62
     7
 10
232.5
 20
121.0
 30
0.0
 11
232.5
 21
128.0
 31
0.0
  0
LINE
  5
231
  8
DATA
  6
CONTINUOUS
 62
     7
 10
247.5
 20
121.0
 30
0.0
 11
247.5
 21
128.0
 31
0.0
  0
LINE
  5
232
  8
DATA
  6
CONTINUOUS
 62
     7
 10
234.5
 20
123.0
 30
0.0
 11
245.5
 21
123.0
 31
0.0
  0
LINE
  5
233
  8
DATA
  6
CONTINUOUS
 62
     7
 10
234.5
 20
123.0
 30
0.0
 11
234.5
 21
128.0
 31
0.0
  0
LINE
  5
234
  8
DATA
  6
CONTINUOUS
 62
     7
 10
245.5
 20
123.0
 30
0.0
 11
245.5
 21
128.0
 31
0.0
  0
LINE
  5
235
  8
DATA
  6
CONTINUOUS
 62
     7
 10
235.0
 20
126.5
 30
0.0
 11
245.0
 21
126.5
 31
0.0
  0
LINE
  5
236
  8
DATA
  6
CONTINUOUS
 62
     7
 10
245.0
 20
126.5
 30
0.0
 11
245.0
 21
124.5
 31
0.0
  0
LINE
  5
237
  8
DATA
  6
CONTINUOUS
 62
     7
 10
235.0
 20
126.5
 30
0.0
 11
235.0
 21
124.5
 31
0.0
  0
LINE
  5
238
  8
DATA
  6
CONTINUOUS
 62
     7
 10
235.0
 20
124.5
 30
0.0
 11
245.0
 21
124.5
 31
0.0
  0
LINE
  5
239
  8
DATA
  6
CONTINUOUS
 62
     7
 10
237.0
 20
126.5
 30
0.0
 11
237.0
 21
124.5
 31
0.0
  0
LINE
  5
23A
  8
DATA
  6
CONTINUOUS
 62
     7
 10
240.0
 20
126.5
 30
0.0
 11
240.5
 21
125.5
 31
0.0
  0
LINE
  5
23B
  8
DATA
  6
CONTINUOUS
 62
     7
 10
240.5
 20
125.5
 30
0.0
 11
240.0
 21
124.5
 31
0.0
  0
LINE
  5
23C
  8
DATA
  6
CONTINUOUS
 62
     7
 10
242.0
 20
126.5
 30
0.0
 11
241.5
 21
125.5
 31
0.0
  0
LINE
  5
23D
  8
DATA
  6
CONTINUOUS
 62
     7
 10
241.5
 20
125.5
 30
0.0
 11
242.0
 21
124.5
 31
0.0
  0
TEXT
  5
23E
  8
DATA
 62
     7
 10
237.550000025332
 20
124.8662353801169
 30
0.0
 40
1.154296875
  1
OFF
 41
0.7
 11
237.550000025332
 21
126.0205322551169
 31
0.0
 73
     3
  0
TEXT
  5
23F
  8
DATA
 62
     7
 10
242.550000025332
 20
124.8662353801169
 30
0.0
 40
1.154296875
  1
ON
 41
0.7
 11
242.550000025332
 21
126.0205322551169
 31
0.0
 73
     3
  0
CIRCLE
  5
240
  8
DATA
  6
CONTINUOUS
 62
     7
 10
236.0
 20
125.5
 30
0.0
 40
0.5
  0
ARC
  5
241
  8
DATA
  6
CONTINUOUS
 62
     7
 10
-37.1149480715763
 20
248.5945272404534
 30
0.0
 40
19.99999999999018
 50
355.42595464795721
 51
7.0513242185242007
  0
ARC
  5
242
  8
DATA
  6
CONTINUOUS
 62
     7
 10
91.204948301329395
 20
238.3286558345643
 30
0.0
 40
108.7298874421865
 50
175.42595464796011
 51
181.22719112703439
  0
ARC
  5
243
  8
DATA
  6
CONTINUOUS
 62
     7
 10
37.114948071586241
 20
248.5945272404538
 30
0.0
 40
20.000000000000021
 50
172.9486757814791
 51
184.5740453520404
  0
ARC
  5
244
  8
DATA
  6
CONTINUOUS
 62
     7
 10
-151.17307692307691
 20
271.88461538461542
 30
0.0
 40
169.72297847691971
 50
352.94867578147881
 51
1.3894245999334769
  0
ARC
  5
245
  8
DATA
  6
CONTINUOUS
 62
     7
 10
82.885051928413802
 20
248.5945272404532
 30
0.0
 40
20.00000000000005
 50
355.42595464796022
 51
7.0513242185213016
  0
ARC
  5
246
  8
DATA
  6
CONTINUOUS
 62
     7
 10
211.20494830132941
 20
238.3286558345643
 30
0.0
 40
108.7298874421865
 50
175.42595464796011
 51
181.22719112703439
  0
ARC
  5
247
  8
DATA
  6
CONTINUOUS
 62
     7
 10
157.1149480715857
 20
248.5945272404509
 30
0.0
 40
19.99999999999984
 50
172.94867578147779
 51
184.57404535203881
  0
ARC
  5
248
  8
DATA
  6
CONTINUOUS
 62
     7
 10
-31.173076923076959
 20
271.88461538461542
 30
0.0
 40
169.72297847691971
 50
352.94867578147802
 51
1.3894245999334769
  0
ARC
  5
249
  8
DATA
  6
CONTINUOUS
 62
     7
 10
202.8850519284137
 20
248.5945272404536
 30
0.0
 40
20.0
 50
355.42595464796011
 51
7.0513242185213576
  0
ARC
  5
24A
  8
DATA
  6
CONTINUOUS
 62
     7
 10
331.20494830132941
 20
238.3286558345643
 30
0.0
 40
108.7298874421865
 50
175.4259546479598
 51
181.22719112703439
  0
ARC
  5
24B
  8
DATA
  6
CONTINUOUS
 62
     7
 10
277.11494807157231
 20
248.59452724045391
 30
0.0
 40
19.999999999986109
 50
172.94867578147461
 51
184.5740453520439
  0
ARC
  5
24C
  8
DATA
  6
CONTINUOUS
 62
     7
 10
88.826923076923052
 20
271.88461538461542
 30
0.0
 40
169.72297847691971
 50
352.94867578147881
 51
1.3894245999334769
  0
CIRCLE
  5
24D
  8
DATA
  6
CONTINUOUS
 62
     7
 10
0.0
 20
0.0
 30
0.0
 40
12.5
  0
CIRCLE
  5
24E
  8
DATA
  6
CONTINUOUS
 62
     7
 10
0.0
 20
0.0
 30
0.0
 40
9.0
  0
CIRCLE
  5
24F
  8
DATA
  6
CONTINUOUS
 62
     7
 10
0.0
 20
0.0
 30
0.0
 40
17.0
  0
LINE
  5
250
  8
DATA
  6
CONTINUOUS
 62
     7
 10
-18.5
 20
276.5
 30
0.0
 11
18.5
 21
276.5
 31
0.0
  0
LINE
  5
251
  8
DATA
  6
CONTINUOUS
 62
     7
 10
-18.5
 20
276.5
 30
0.0
 11
-18.5
 21
284.0
 31
0.0
  0
LINE
  5
252
  8
DATA
  6
CONTINUOUS
 62
     7
 10
18.5
 20
276.5
 30
0.0
 11
18.5
 21
284.0
 31
0.0
  0
LINE
  5
253
  8
DATA
  6
CONTINUOUS
 62
     7
 10
-18.5
 20
284.0
 30
0.0
 11
18.5
 21
284.0
 31
0.0
  0
LINE
  5
254
  8
DATA
  6
CONTINUOUS
 62
     7
 10
-18.0
 20
286.5
 30
0.0
 11
18.0
 21
286.5
 31
0.0
  0
LINE
  5
255
  8
DATA
  6
CONTINUOUS
 62
     7
 10
-18.0
 20
286.5
 30
0.0
 11
-18.5
 21
284.0
 31
0.0
  0
LINE
  5
256
  8
DATA
  6
CONTINUOUS
 62
     7
 10
18.0
 20
286.5
 30
0.0
 11
18.5
 21
284.0
 31
0.0
  0
LINE
  5
257
  8
DATA
  6
CONTINUOUS
 62
     7
 10
-19.25
 20
293.0
 30
0.0
 11
19.25
 21
293.0
 31
0.0
  0
LINE
  5
258
  8
DATA
  6
CONTINUOUS
 62
     7
 10
-19.25
 20
293.0
 30
0.0
 11
-18.0
 21
286.5
 31
0.0
  0
LINE
  5
259
  8
DATA
  6
CONTINUOUS
 62
     7
 10
19.25
 20
293.0
 30
0.0
 11
18.0
 21
286.5
 31
0.0
  0
LINE
  5
25A
  8
DATA
  6
CONTINUOUS
 62
     7
 10
-25.0
 20
321.0
 30
0.0
 11
25.0
 21
321.0
 31
0.0
  0
LINE
  5
25B
  8
DATA
  6
CONTINUOUS
 62
     7
 10
-25.0
 20
317.0
 30
0.0
 11
25.0
 21
317.0
 31
0.0
  0
LINE
  5
25C
  8
DATA
  6
CONTINUOUS
 62
     7
 10
-25.0
 20
320.0
 30
0.0
 11
25.0
 21
320.0
 31
0.0
  0
LINE
  5
25D
  8
DATA
  6
CONTINUOUS
 62
     7
 10
-25.0
 20
318.0
 30
0.0
 11
25.0
 21
318.0
 31
0.0
  0
LINE
  5
25E
  8
DATA
  6
CONTINUOUS
 62
     7
 10
-23.0
 20
321.0
 30
0.0
 11
23.0
 21
321.0
 31
0.0
  0
LINE
  5
25F
  8
DATA
  6
CONTINUOUS
 62
     7
 10
18.25
 20
293.0
 30
0.0
 11
22.729927686416701
 21
310.06639118634928
 31
0.0
  0
LINE
  5
260
  8
DATA
  6
CONTINUOUS
 62
     7
 10
25.0
 20
321.0
 30
0.0
 11
25.0
 21
320.0
 31
0.0
  0
LINE
  5
261
  8
DATA
  6
CONTINUOUS
 62
     7
 10
25.0
 20
318.0
 30
0.0
 11
25.0
 21
317.0
 31
0.0
  0
LINE
  5
262
  8
DATA
  6
CONTINUOUS
 62
     7
 10
-25.0
 20
321.0
 30
0.0
 11
-25.0
 21
320.0
 31
0.0
  0
LINE
  5
263
  8
DATA
  6
CONTINUOUS
 62
     7
 10
-25.0
 20
318.0
 30
0.0
 11
-25.0
 21
317.0
 31
0.0
  0
ARC
  5
264
  8
DATA
  6
CONTINUOUS
 62
     7
 10
-24.403312163512961
 20
319.01116454968462
 30
0.0
 40
1.1549164134308569
 50
121.1078229189672
 51
241.10782291896751
  0
ARC
  5
265
  8
DATA
  6
CONTINUOUS
 62
     7
 10
24.403312163512979
 20
319.01116454968462
 30
0.0
 40
1.154916413430862
 50
298.89217708103178
 51
58.892177081032663
  0
ARC
  5
266
  8
DATA
  6
CONTINUOUS
 62
     7
 10
-57.400000000000013
 20
319.0
 30
0.0
 40
80.900000000000006
 50
1.416603643380594
 51
18.185447628869341
  0
LINE
  5
267
  8
DATA
  6
CONTINUOUS
 62
     7
 10
23.5
 20
317.0
 30
0.0
 11
23.5
 21
316.03299720403368
 31
0.0
  0
ARC
  5
268
  8
DATA
  6
CONTINUOUS
 62
     7
 10
0.0
 20
316.03299720403368
 30
0.0
 40
23.5
 50
345.29169610031721
 51
0.0
  0
ARC
  5
269
  8
DATA
  6
CONTINUOUS
 62
     7
 10
15.658948801635541
 20
343.0
 30
0.0
 40
3.999999999999996
 50
18.185447628868939
 51
90.0
  0
LINE
  5
26A
  8
DATA
  6
CONTINUOUS
 62
     7
 10
-18.25
 20
293.0
 30
0.0
 11
-22.729927686416708
 21
310.06639118634928
 31
0.0
  0
ARC
  5
26B
  8
DATA
  6
CONTINUOUS
 62
     7
 10
57.399999999999991
 20
319.0
 30
0.0
 40
80.900000000000006
 50
161.81455237113059
 51
178.5833963566194
  0
LINE
  5
26C
  8
DATA
  6
CONTINUOUS
 62
     7
 10
-23.5
 20
317.0
 30
0.0
 11
-23.5
 21
316.03299720403368
 31
0.0
  0
ARC
  5
26D
  8
DATA
  6
CONTINUOUS
 62
     7
 10
0.0
 20
316.03299720403368
 30
0.0
 40
23.5
 50
180.0
 51
194.70830389968279
  0
ARC
  5
26E
  8
DATA
  6
CONTINUOUS
 62
     7
 10
-15.658948801635541
 20
343.0
 30
0.0
 40
3.9999999999999711
 50
90.0
 51
161.8145523711311
  0
LINE
  5
26F
  8
DATA
  6
CONTINUOUS
 62
     7
 10
-15.658948801635541
 20
347.0
 30
0.0
 11
15.658948801635541
 21
347.0
 31
0.0
  0
TEXT
  5
270
  8
DATA
 62
     7
 10
-8.1873830409356696
 20
278.57912499999998
 30
0.0
 40
3.2576822916666659
  1
BETA 87C
 41
0.7
 11
-8.1873830409356696
 21
281.83680729166667
 31
0.0
 73
     3
  0
LINE
  5
271
  8
DATA
  6
CONTINUOUS
 62
     7
 10
101.5
 20
276.0
 30
0.0
 11
138.5
 21
276.0
 31
0.0
  0
LINE
  5
272
  8
DATA
  6
CONTINUOUS
 62
     7
 10
102.5
 20
276.5
 30
0.0
 11
102.5
 21
276.0
 31
0.0
  0
LINE
  5
273
  8
DATA
  6
CONTINUOUS
 62
     7
 10
137.5
 20
276.5
 30
0.0
 11
137.5
 21
276.0
 31
0.0
  0
LINE
  5
274
  8
DATA
  6
CONTINUOUS
 62
     7
 10
101.5
 20
276.5
 30
0.0
 11
138.5
 21
276.5
 31
0.0
  0
LINE
  5
275
  8
DATA
  6
CONTINUOUS
 62
     7
 10
101.5
 20
276.5
 30
0.0
 11
101.5
 21
284.0
 31
0.0
  0
LINE
  5
276
  8
DATA
  6
CONTINUOUS
 62
     7
 10
138.5
 20
276.5
 30
0.0
 11
138.5
 21
284.0
 31
0.0
  0
LINE
  5
277
  8
DATA
  6
CONTINUOUS
 62
     7
 10
101.5
 20
284.0
 30
0.0
 11
138.5
 21
284.0
 31
0.0
  0
LINE
  5
278
  8
DATA
  6
CONTINUOUS
 62
     7
 10
102.0
 20
286.5
 30
0.0
 11
138.0
 21
286.5
 31
0.0
  0
LINE
  5
279
  8
DATA
  6
CONTINUOUS
 62
     7
 10
102.0
 20
286.5
 30
0.0
 11
101.5
 21
284.0
 31
0.0
  0
LINE
  5
27A
  8
DATA
  6
CONTINUOUS
 62
     7
 10
138.0
 20
286.5
 30
0.0
 11
138.5
 21
284.0
 31
0.0
  0
LINE
  5
27B
  8
DATA
  6
CONTINUOUS
 62
     7
 10
100.75
 20
293.0
 30
0.0
 11
139.25
 21
293.0
 31
0.0
  0
LINE
  5
27C
  8
DATA
  6
CONTINUOUS
 62
     7
 10
100.75
 20
293.0
 30
0.0
 11
102.0
 21
286.5
 31
0.0
  0
LINE
  5
27D
  8
DATA
  6
CONTINUOUS
 62
     7
 10
139.25
 20
293.0
 30
0.0
 11
138.0
 21
286.5
 31
0.0
  0
LINE
  5
27E
  8
DATA
  6
CONTINUOUS
 62
     7
 10
95.0
 20
321.0
 30
0.0
 11
145.0
 21
321.0
 31
0.0
  0
LINE
  5
27F
  8
DATA
  6
CONTINUOUS
 62
     7
 10
95.0
 20
317.0
 30
0.0
 11
145.0
 21
317.0
 31
0.0
  0
LINE
  5
280
  8
DATA
  6
CONTINUOUS
 62
     7
 10
95.0
 20
320.0
 30
0.0
 11
145.0
 21
320.0
 31
0.0
  0
LINE
  5
281
  8
DATA
  6
CONTINUOUS
 62
     7
 10
95.0
 20
318.0
 30
0.0
 11
145.0
 21
318.0
 31
0.0
  0
LINE
  5
282
  8
DATA
  6
CONTINUOUS
 62
     7
 10
97.0
 20
321.0
 30
0.0
 11
143.0
 21
321.0
 31
0.0
  0
LINE
  5
283
  8
DATA
  6
CONTINUOUS
 62
     7
 10
138.25
 20
293.0
 30
0.0
 11
142.72992768641669
 21
310.06639118634928
 31
0.0
  0
LINE
  5
284
  8
DATA
  6
CONTINUOUS
 62
     7
 10
145.0
 20
321.0
 30
0.0
 11
145.0
 21
320.0
 31
0.0
  0
LINE
  5
285
  8
DATA
  6
CONTINUOUS
 62
     7
 10
145.0
 20
318.0
 30
0.0
 11
145.0
 21
317.0
 31
0.0
  0
LINE
  5
286
  8
DATA
  6
CONTINUOUS
 62
     7
 10
95.0
 20
321.0
 30
0.0
 11
95.0
 21
320.0
 31
0.0
  0
LINE
  5
287
  8
DATA
  6
CONTINUOUS
 62
     7
 10
95.0
 20
318.0
 30
0.0
 11
95.0
 21
317.0
 31
0.0
  0
ARC
  5
288
  8
DATA
  6
CONTINUOUS
 62
     7
 10
95.59668783648705
 20
319.01116454968462
 30
0.0
 40
1.1549164134308569
 50
121.1078229189672
 51
241.10782291896751
  0
ARC
  5
289
  8
DATA
  6
CONTINUOUS
 62
     7
 10
144.40331216351291
 20
319.01116454968462
 30
0.0
 40
1.154916413430862
 50
298.89217708103178
 51
58.892177081032663
  0
ARC
  5
28A
  8
DATA
  6
CONTINUOUS
 62
     7
 10
62.600000000000001
 20
319.0
 30
0.0
 40
80.900000000000006
 50
1.416603643380594
 51
18.185447628869341
  0
LINE
  5
28B
  8
DATA
  6
CONTINUOUS
 62
     7
 10
143.5
 20
317.0
 30
0.0
 11
143.5
 21
316.03299720403368
 31
0.0
  0
ARC
  5
28C
  8
DATA
  6
CONTINUOUS
 62
     7
 10
120.0
 20
316.03299720403368
 30
0.0
 40
23.5
 50
345.29169610031721
 51
0.0
  0
ARC
  5
28D
  8
DATA
  6
CONTINUOUS
 62
     7
 10
135.6589488016356
 20
343.0
 30
0.0
 40
3.999999999999996
 50
18.185447628868939
 51
90.0
  0
LINE
  5
28E
  8
DATA
  6
CONTINUOUS
 62
     7
 10
101.75
 20
293.0
 30
0.0
 11
97.270072313583285
 21
310.06639118634928
 31
0.0
  0
ARC
  5
28F
  8
DATA
  6
CONTINUOUS
 62
     7
 10
177.39999999999989
 20
319.0
 30
0.0
 40
80.900000000000006
 50
161.81455237113059
 51
178.5833963566194
  0
LINE
  5
290
  8
DATA
  6
CONTINUOUS
 62
     7
 10
96.5
 20
317.0
 30
0.0
 11
96.5
 21
316.03299720403368
 31
0.0
  0
ARC
  5
291
  8
DATA
  6
CONTINUOUS
 62
     7
 10
120.0
 20
316.03299720403368
 30
0.0
 40
23.5
 50
180.0
 51
194.70830389968279
  0
ARC
  5
292
  8
DATA
  6
CONTINUOUS
 62
     7
 10
104.3410511983644
 20
343.0
 30
0.0
 40
3.9999999999999711
 50
90.0
 51
161.8145523711311
  0
LINE
  5
293
  8
DATA
  6
CONTINUOUS
 62
     7
 10
104.3410511983644
 20
347.0
 30
0.0
 11
135.6589488016356
 21
347.0
 31
0.0
  0
LINE
  5
294
  8
DATA
  6
CONTINUOUS
 62
     7
 10
221.5
 20
276.0
 30
0.0
 11
258.5
 21
276.0
 31
0.0
  0
LINE
  5
295
  8
DATA
  6
CONTINUOUS
 62
     7
 10
222.5
 20
276.5
 30
0.0
 11
222.5
 21
276.0
 31
0.0
  0
LINE
  5
296
  8
DATA
  6
CONTINUOUS
 62
     7
 10
257.5
 20
276.5
 30
0.0
 11
257.5
 21
276.0
 31
0.0
  0
LINE
  5
297
  8
DATA
  6
CONTINUOUS
 62
     7
 10
221.5
 20
276.5
 30
0.0
 11
258.5
 21
276.5
 31
0.0
  0
LINE
  5
298
  8
DATA
  6
CONTINUOUS
 62
     7
 10
221.5
 20
276.5
 30
0.0
 11
221.5
 21
284.0
 31
0.0
  0
LINE
  5
299
  8
DATA
  6
CONTINUOUS
 62
     7
 10
258.5
 20
276.5
 30
0.0
 11
258.5
 21
284.0
 31
0.0
  0
LINE
  5
29A
  8
DATA
  6
CONTINUOUS
 62
     7
 10
221.5
 20
284.0
 30
0.0
 11
258.5
 21
284.0
 31
0.0
  0
LINE
  5
29B
  8
DATA
  6
CONTINUOUS
 62
     7
 10
222.0
 20
286.5
 30
0.0
 11
258.0
 21
286.5
 31
0.0
  0
LINE
  5
29C
  8
DATA
  6
CONTINUOUS
 62
     7
 10
222.0
 20
286.5
 30
0.0
 11
221.5
 21
284.0
 31
0.0
  0
LINE
  5
29D
  8
DATA
  6
CONTINUOUS
 62
     7
 10
258.0
 20
286.5
 30
0.0
 11
258.5
 21
284.0
 31
0.0
  0
LINE
  5
29E
  8
DATA
  6
CONTINUOUS
 62
     7
 10
220.75
 20
293.0
 30
0.0
 11
259.25
 21
293.0
 31
0.0
  0
LINE
  5
29F
  8
DATA
  6
CONTINUOUS
 62
     7
 10
220.75
 20
293.0
 30
0.0
 11
222.0
 21
286.5
 31
0.0
  0
LINE
  5
2A0
  8
DATA
  6
CONTINUOUS
 62
     7
 10
259.25
 20
293.0
 30
0.0
 11
258.0
 21
286.5
 31
0.0
  0
LINE
  5
2A1
  8
DATA
  6
CONTINUOUS
 62
     7
 10
215.0
 20
321.0
 30
0.0
 11
265.0
 21
321.0
 31
0.0
  0
LINE
  5
2A2
  8
DATA
  6
CONTINUOUS
 62
     7
 10
215.0
 20
317.0
 30
0.0
 11
265.0
 21
317.0
 31
0.0
  0
LINE
  5
2A3
  8
DATA
  6
CONTINUOUS
 62
     7
 10
215.0
 20
320.0
 30
0.0
 11
265.0
 21
320.0
 31
0.0
  0
LINE
  5
2A4
  8
DATA
  6
CONTINUOUS
 62
     7
 10
215.0
 20
318.0
 30
0.0
 11
265.0
 21
318.0
 31
0.0
  0
LINE
  5
2A5
  8
DATA
  6
CONTINUOUS
 62
     7
 10
217.0
 20
321.0
 30
0.0
 11
263.0
 21
321.0
 31
0.0
  0
LINE
  5
2A6
  8
DATA
  6
CONTINUOUS
 62
     7
 10
258.25
 20
293.0
 30
0.0
 11
262.72992768641672
 21
310.06639118634928
 31
0.0
  0
LINE
  5
2A7
  8
DATA
  6
CONTINUOUS
 62
     7
 10
265.0
 20
321.0
 30
0.0
 11
265.0
 21
320.0
 31
0.0
  0
LINE
  5
2A8
  8
DATA
  6
CONTINUOUS
 62
     7
 10
265.0
 20
318.0
 30
0.0
 11
265.0
 21
317.0
 31
0.0
  0
LINE
  5
2A9
  8
DATA
  6
CONTINUOUS
 62
     7
 10
215.0
 20
321.0
 30
0.0
 11
215.0
 21
320.0
 31
0.0
  0
LINE
  5
2AA
  8
DATA
  6
CONTINUOUS
 62
     7
 10
215.0
 20
318.0
 30
0.0
 11
215.0
 21
317.0
 31
0.0
  0
ARC
  5
2AB
  8
DATA
  6
CONTINUOUS
 62
     7
 10
215.59668783648701
 20
319.01116454968462
 30
0.0
 40
1.1549164134308569
 50
121.1078229189672
 51
241.10782291896751
  0
ARC
  5
2AC
  8
DATA
  6
CONTINUOUS
 62
     7
 10
264.40331216351302
 20
319.01116454968462
 30
0.0
 40
1.154916413430862
 50
298.89217708103178
 51
58.89217708103206
  0
ARC
  5
2AD
  8
DATA
  6
CONTINUOUS
 62
     7
 10
182.59999999999999
 20
319.0
 30
0.0
 40
80.900000000000006
 50
1.416603643380594
 51
18.185447628869341
  0
LINE
  5
2AE
  8
DATA
  6
CONTINUOUS
 62
     7
 10
263.5
 20
317.0
 30
0.0
 11
263.5
 21
316.03299720403368
 31
0.0
  0
ARC
  5
2AF
  8
DATA
  6
CONTINUOUS
 62
     7
 10
240.0
 20
316.03299720403368
 30
0.0
 40
23.500000000000011
 50
345.29169610031721
 51
0.0
  0
ARC
  5
2B0
  8
DATA
  6
CONTINUOUS
 62
     7
 10
255.65894880163549
 20
343.0
 30
0.0
 40
3.999999999999996
 50
18.185447628868939
 51
90.0
  0
LINE
  5
2B1
  8
DATA
  6
CONTINUOUS
 62
     7
 10
221.75
 20
293.0
 30
0.0
 11
217.27007231358331
 21
310.06639118634928
 31
0.0
  0
ARC
  5
2B2
  8
DATA
  6
CONTINUOUS
 62
     7
 10
297.39999999999998
 20
319.0
 30
0.0
 40
80.900000000000006
 50
161.81455237113059
 51
178.5833963566194
  0
LINE
  5
2B3
  8
DATA
  6
CONTINUOUS
 62
     7
 10
216.5
 20
317.0
 30
0.0
 11
216.5
 21
316.03299720403368
 31
0.0
  0
ARC
  5
2B4
  8
DATA
  6
CONTINUOUS
 62
     7
 10
240.0
 20
316.03299720403368
 30
0.0
 40
23.5
 50
180.0
 51
194.70830389968279
  0
ARC
  5
2B5
  8
DATA
  6
CONTINUOUS
 62
     7
 10
224.34105119836451
 20
343.0
 30
0.0
 40
3.9999999999999711
 50
90.0
 51
161.8145523711311
  0
LINE
  5
2B6
  8
DATA
  6
CONTINUOUS
 62
     7
 10
224.34105119836451
 20
347.0
 30
0.0
 11
255.65894880163549
 21
347.0
 31
0.0
  0
TEXT
  5
2B7
  8
DATA
 62
     7
 10
231.8126169590644
 20
278.57912499999998
 30
0.0
 40
3.2576822916666659
  1
BETA 87C
 41
0.7
 11
231.8126169590644
 21
281.83680729166667
 31
0.0
 73
     3
  0
CIRCLE
  5
2B8
  8
DATA
  6
CONTINUOUS
 62
     7
 10
0.0
 20
0.0
 30
0.0
 40
25.0
  0
CIRCLE
  5
2B9
  8
DATA
  6
CONTINUOUS
 62
     7
 10
0.0
 20
0.0
 30
0.0
 40
23.5
  0
CIRCLE
  5
2BA
  8
DATA
  6
CONTINUOUS
 62
     7
 10
0.0
 20
0.0
 30
0.0
 40
18.5
  0
CIRCLE
  5
2BB
  8
DATA
  6
CONTINUOUS
 62
     7
 10
0.0
 20
0.0
 30
0.0
 40
19.25
  0
CIRCLE
  5
2BC
  8
DATA
  6
CONTINUOUS
 62
     7
 10
0.0
 20
0.0
 30
0.0
 40
25.5
  0
TEXT
  5
2BD
  8
DATA
 62
     7
 10
-122.5000299999999
 20
-142.78599249999999
 30
0.0
 40
4.8865234374999993
  1
仕様および外観は予告なく変更されることがありますので、ご了承ください。
 41
0.7
 11
-122.5000299999999
 21
-137.8994690625
 31
0.0
 73
     3
  0
ENDSEC
  0
EOF
