  0
SECTION
  2
HEADER
  9
$ACADVER
  1
AC1009
  9
$INSBASE
 10
0.0
 20
0.0
 30
0.0
  9
$EXTMIN
 10
-152.51647823400589
 20
-278.36571085595318
 30
-0.0015258207003583
  9
$EXTMAX
 10
387.51645074857652
 20
524.52445227010935
 30
0.0000000349246037
  9
$LIMMIN
 10
0.0
 20
0.0
  9
$LIMMAX
 10
0.0
 20
0.0
  9
$ORTHOMODE
 70
     0
  9
$REGENMODE
 70
     1
  9
$FILLMODE
 70
     1
  9
$QTEXTMODE
 70
     0
  9
$MIRRTEXT
 70
     1
  9
$DRAGMODE
 70
     2
  9
$LTSCALE
 40
15.24
  9
$OSMODE
 70
   231
  9
$ATTMODE
 70
     1
  9
$TEXTSIZE
 40
0.0
  9
$TRACEWID
 40
1.0
  9
$TEXTSTYLE
  7
STANDARD
  9
$CLAYER
  8
DATA
  9
$CELTYPE
  6
BYLAYER
  9
$CECOLOR
 62
   256
  9
$DIMSCALE
 40
1.0
  9
$DIMASZ
 40
0.18
  9
$DIMEXO
 40
0.0625
  9
$DIMDLI
 40
0.38
  9
$DIMRND
 40
0.0
  9
$DIMDLE
 40
0.0
  9
$DIMEXE
 40
0.18
  9
$DIMTP
 40
0.0
  9
$DIMTM
 40
0.0
  9
$DIMTXT
 40
0.18
  9
$DIMCEN
 40
0.09
  9
$DIMTSZ
 40
0.0
  9
$DIMTOL
 70
     0
  9
$DIMLIM
 70
     0
  9
$DIMTIH
 70
     1
  9
$DIMTOH
 70
     1
  9
$DIMSE1
 70
     0
  9
$DIMSE2
 70
     0
  9
$DIMTAD
 70
     0
  9
$DIMZIN
 70
     0
  9
$DIMBLK
  1

  9
$DIMASO
 70
     1
  9
$DIMSHO
 70
     1
  9
$DIMPOST
  1

  9
$DIMAPOST
  1

  9
$DIMALT
 70
     0
  9
$DIMALTD
 70
     2
  9
$DIMALTF
 40
25.399999999999999
  9
$DIMLFAC
 40
1.0
  9
$DIMTOFL
 70
     0
  9
$DIMTVP
 40
0.0
  9
$DIMTIX
 70
     0
  9
$DIMSOXD
 70
     0
  9
$DIMSAH
 70
     0
  9
$DIMBLK1
  1

  9
$DIMBLK2
  1

  9
$DIMSTYLE
  2
STANDARD
  9
$DIMCLRD
 70
     0
  9
$DIMCLRE
 70
     0
  9
$DIMCLRT
 70
     0
  9
$DIMTFAC
 40
1.0
  9
$DIMGAP
 40
0.09
  9
$LUNITS
 70
     2
  9
$LUPREC
 70
     4
  9
$SKETCHINC
 40
0.1
  9
$FILLETRAD
 40
0.0
  9
$AUNITS
 70
     0
  9
$AUPREC
 70
     0
  9
$MENU
  1
acad
  9
$ELEVATION
 40
0.0
  9
$PELEVATION
 40
0.0
  9
$THICKNESS
 40
0.0
  9
$LIMCHECK
 70
     0
  9
$BLIPMODE
 70
     0
  9
$CHAMFERA
 40
0.0
  9
$CHAMFERB
 40
0.0
  9
$SKPOLY
 70
     0
  9
$TDCREATE
 40
2454952.788263889
  9
$TDUPDATE
 40
2454952.792049861
  9
$TDINDWG
 40
0.0003139931
  9
$TDUSRTIMER
 40
0.0003138194
  9
$USRTIMER
 70
     1
  9
$ANGBASE
 50
0.0
  9
$ANGDIR
 70
     0
  9
$PDMODE
 70
     1
  9
$PDSIZE
 40
-2.0
  9
$PLINEWID
 40
0.0
  9
$COORDS
 70
     1
  9
$SPLFRAME
 70
     0
  9
$SPLINETYPE
 70
     6
  9
$SPLINESEGS
 70
     8
  9
$ATTDIA
 70
     0
  9
$ATTREQ
 70
     1
  9
$HANDLING
 70
     1
  9
$HANDSEED
  5
37B
  9
$SURFTAB1
 70
     6
  9
$SURFTAB2
 70
     6
  9
$SURFTYPE
 70
     6
  9
$SURFU
 70
     6
  9
$SURFV
 70
     6
  9
$UCSNAME
  2

  9
$UCSORG
 10
0.0
 20
0.0
 30
0.0
  9
$UCSXDIR
 10
1.0
 20
0.0
 30
0.0
  9
$UCSYDIR
 10
0.0
 20
1.0
 30
0.0
  9
$PUCSNAME
  2

  9
$PUCSORG
 10
0.0
 20
0.0
 30
0.0
  9
$PUCSXDIR
 10
1.0
 20
0.0
 30
0.0
  9
$PUCSYDIR
 10
0.0
 20
1.0
 30
0.0
  9
$USERI1
 70
     0
  9
$USERI2
 70
     0
  9
$USERI3
 70
     0
  9
$USERI4
 70
     0
  9
$USERI5
 70
     0
  9
$USERR1
 40
0.0
  9
$USERR2
 40
0.0
  9
$USERR3
 40
0.0
  9
$USERR4
 40
0.0
  9
$USERR5
 40
0.0
  9
$WORLDVIEW
 70
     1
  9
$SHADEDGE
 70
     3
  9
$SHADEDIF
 70
    70
  9
$TILEMODE
 70
     1
  9
$MAXACTVP
 70
    64
  9
$PLIMCHECK
 70
     0
  9
$PEXTMIN
 10
1.0000000000000000E+020
 20
1.0000000000000000E+020
 30
1.0000000000000000E+020
  9
$PEXTMAX
 10
-1.0000000000000000E+020
 20
-1.0000000000000000E+020
 30
-1.0000000000000000E+020
  9
$PLIMMIN
 10
0.0
 20
0.0
  9
$PLIMMAX
 10
12.0
 20
9.0
  9
$UNITMODE
 70
     0
  9
$VISRETAIN
 70
     0
  9
$PLINEGEN
 70
     1
  9
$PSLTSCALE
 70
     0
  0
ENDSEC
  0
SECTION
  2
TABLES
  0
TABLE
  2
VPORT
 70
     1
  0
VPORT
  2
*ACTIVE
 70
     0
 10
0.0
 20
0.0
 11
1.0
 21
1.0
 12
117.4999862572853
 22
123.079370707078
 13
0.0
 23
0.0
 14
1.0
 24
1.0
 15
0.0
 25
0.0
 16
0.0
 26
0.0
 36
1.0
 17
0.0
 27
0.0
 37
0.0
 40
809.62770295649113
 41
1.6596638655462179
 42
50.0
 43
0.0
 44
0.0
 50
0.0
 51
0.0
 71
     0
 72
  2000
 73
     1
 74
     1
 75
     0
 76
     0
 77
     0
 78
     0
  0
ENDTAB
  0
TABLE
  2
LTYPE
 70
    11
  0
LTYPE
  2
CONTINUOUS
 70
     0
  3
Solid line
 72
    65
 73
     0
 40
0.0
  0
ENDTAB
  0
TABLE
  2
LAYER
 70
     6
  0
LAYER
  2
0
 70
     0
 62
     7
  6
CONTINUOUS
  0
LAYER
  2
DATA
 70
     0
 62
     7
  6
CONTINUOUS
  0
LAYER
  2
HIBINO-BASE
 70
     0
 62
     7
  6
CONTINUOUS
  0
LAYER
  2
PATTERN_FILL
 70
     0
 62
     7
  6
CONTINUOUS
  0
LAYER
  2
SPEC
 70
     0
 62
     7
  6
CONTINUOUS
  0
LAYER
  2
DIMNSIONS
 70
     0
 62
     7
  6
CONTINUOUS
  0
ENDTAB
  0
TABLE
  2
STYLE
 70
     3
  0
STYLE
  2
STANDARD
 70
     0
 40
0.0
 41
1.0
 50
0.0
 71
     0
 42
0.0
  3
txt
  4
BIGFONT.SHX
  0
ENDTAB
  0
TABLE
  2
VIEW
 70
     0
  0
ENDTAB
  0
TABLE
  2
UCS
 70
     0
  0
ENDTAB
  0
TABLE
  2
APPID
 70
     3
  0
APPID
  2
ACAD
 70
     0
  0
APPID
  2
ACADANNOTATIVE
 70
     0
  0
APPID
  2
ACAD_MLEADERVER
 70
     0
  0
ENDTAB
  0
TABLE
  2
DIMSTYLE
 70
     2
  0
DIMSTYLE
  2
STANDARD
 70
     0
  3

  4

  5

  6

  7

 40
1.0
 41
0.18
 42
0.0625
 43
0.38
 44
0.18
 45
0.0
 46
0.0
 47
0.0
 48
0.0
140
0.18
141
0.09
142
0.0
143
25.399999999999999
144
1.0
145
0.0
146
1.0
147
0.09
 71
     0
 72
     0
 73
     1
 74
     1
 75
     0
 76
     0
 77
     0
 78
     0
170
     0
171
     2
172
     0
173
     0
174
     0
175
     0
176
     0
177
     0
178
     0
  0
ENDTAB
  0
ENDSEC
  0
SECTION
  2
BLOCKS
  0
BLOCK
  8
0
  2
$MODEL_SPACE
 70
     0
 10
0.0
 20
0.0
 30
0.0
  3
$MODEL_SPACE
  1

  0
ENDBLK
  5
319
  8
0
  0
BLOCK
 67
     1
  8
0
  2
$PAPER_SPACE
 70
     0
 10
0.0
 20
0.0
 30
0.0
  3
$PAPER_SPACE
  1

  0
ENDBLK
  5
315
 67
     1
  8
0
  0
ENDSEC
  0
SECTION
  2
ENTITIES
  0
LINE
  5
2D
  8
HIBINO-BASE
  6
CONTINUOUS
 62
     7
 10
-152.5
 20
524.5
 30
0.0
 11
387.49997000000002
 21
524.5
 31
0.0
  0
LINE
  5
2E
  8
HIBINO-BASE
  6
CONTINUOUS
 62
     7
 10
387.49997000000002
 20
-255.49998500000001
 30
0.0
 11
-152.5
 21
-255.49998500000001
 31
0.0
  0
LINE
  5
2F
  8
HIBINO-BASE
  6
CONTINUOUS
 62
     7
 10
-152.5
 20
-255.49998500000001
 30
0.0
 11
-152.5
 21
524.5
 31
0.0
  0
TEXT
  5
30
  8
HIBINO-BASE
 62
     7
 10
-130.94799999999989
 20
-274.72600549999999
 30
0.0
 40
10.800120996093741
  1
Hibino Corporation
 41
0.7
 11
-130.94799999999989
 21
-263.92588450390627
 31
0.0
 73
     3
  0
LINE
  5
31
  8
HIBINO-BASE
  6
CONTINUOUS
 62
     7
 10
387.49997000000002
 20
524.5
 30
0.0
 11
387.49997000000002
 21
-255.49998500000001
 31
0.0
  0
LINE
  5
32
  8
HIBINO-BASE
  6
CONTINUOUS
 62
     7
 10
117.499985
 20
-188.0
 30
0.0
 11
387.49997000000002
 21
-188.0
 31
0.0
  0
LINE
  5
33
  8
HIBINO-BASE
  6
CONTINUOUS
 62
     7
 10
117.499985
 20
-255.49998500000001
 30
0.0
 11
117.499985
 21
-188.0
 31
0.0
  0
TEXT
  5
34
  8
HIBINO-BASE
 62
     7
 10
120.19996999999999
 20
-196.10000959999999
 30
0.0
 40
5.4000778125000002
  1
NOTE
 41
0.7
 11
120.19996999999999
 21
-190.69993178749999
 31
0.0
 73
     3
  0
LINE
  5
35
  8
HIBINO-BASE
  6
CONTINUOUS
 62
     7
 10
222.49998500000001
 20
-255.49998500000001
 30
0.0
 11
222.49998500000001
 21
-188.0
 31
0.0
  0
TEXT
  5
36
  8
HIBINO-BASE
 62
     7
 10
225.199985
 20
-196.10000959999999
 30
0.0
 40
5.4000778125000002
  1
TITLE
 41
0.7
 11
225.199985
 21
-190.69993178749999
 31
0.0
 73
     3
  0
TEXT
  5
37
  8
HIBINO-BASE
 62
     7
 10
267.70513999999997
 20
-274.72600549999999
 30
0.0
 40
10.800120996093741
  1
ヒビノ株式会社
 41
0.7
 11
267.70513999999997
 21
-263.92588450390627
 31
0.0
 73
     3
  0
LINE
  5
38
  8
HIBINO-BASE
  6
CONTINUOUS
 62
     7
 10
117.499985
 20
-225.5
 30
0.0
 11
387.49997000000002
 21
-225.5
 31
0.0
  0
TEXT
  5
39
  8
HIBINO-BASE
 62
     7
 10
262.69998500000003
 20
-233.43103459999989
 30
0.0
 40
5.4000778125000002
  1
DRAWN
 41
0.7
 11
262.69998500000003
 21
-228.03095678749989
 31
0.0
 73
     3
  0
TEXT
  5
3A
  8
HIBINO-BASE
 62
     7
 10
187.699985
 20
-233.43103459999989
 30
0.0
 40
5.4000778125000002
  1
DATE
 41
0.7
 11
187.699985
 21
-228.03095678749989
 31
0.0
 73
     3
  0
TEXT
  5
3B
  8
HIBINO-BASE
 62
     7
 10
120.7999699999999
 20
-233.3583406999999
 30
0.0
 40
4.8865195898437506
  1
図面サイズ
 41
0.7
 11
120.7999699999999
 21
-228.47182111015621
 31
0.0
 73
     3
  0
TEXT
  5
3C
  8
HIBINO-BASE
 62
     7
 10
157.69996999999989
 20
-233.43103459999989
 30
0.0
 40
5.4000778125000002
  1
SCALE
 41
0.7
 11
157.69996999999989
 21
-228.03095678749989
 31
0.0
 73
     3
  0
TEXT
  5
3D
  8
HIBINO-BASE
 62
     7
 10
225.199985
 20
-233.43103459999989
 30
0.0
 40
5.4000778125000002
  1
DESIGN
 41
0.7
 11
225.199985
 21
-228.03095678749989
 31
0.0
 73
     3
  0
TEXT
  5
3E
  8
HIBINO-BASE
 62
     7
 10
337.69996999999989
 20
-233.43103459999989
 30
0.0
 40
5.4000778125000002
  1
DRAWING NO.
 41
0.7
 11
337.69996999999989
 21
-228.03095678749989
 31
0.0
 73
     3
  0
TEXT
  5
3F
  8
HIBINO-BASE
 62
     7
 10
300.19997000000001
 20
-233.43103459999989
 30
0.0
 40
5.4000778125000002
  1
CHECK
 41
0.7
 11
300.19997000000001
 21
-228.03095678749989
 31
0.0
 73
     3
  0
LINE
  5
40
  8
HIBINO-BASE
  6
CONTINUOUS
 62
     7
 10
160.62496999999991
 20
-251.75
 30
0.0
 11
171.8749849999999
 21
-240.5
 31
0.0
  0
TEXT
  5
41
  8
HIBINO-BASE
 62
     7
 10
158.74996999999991
 20
-245.6471426
 30
0.0
 40
6.515359453124999
  1
1
 41
0.7
 11
158.74996999999991
 21
-239.13178314687499
 31
0.0
 73
     3
  0
LINE
  5
42
  8
HIBINO-BASE
  6
CONTINUOUS
 62
     7
 10
154.99996999999991
 20
-255.49998500000001
 30
0.0
 11
154.99996999999991
 21
-225.5
 31
0.0
  0
LINE
  5
43
  8
HIBINO-BASE
  6
CONTINUOUS
 62
     7
 10
184.99996999999999
 20
-255.49998500000001
 30
0.0
 11
184.99996999999999
 21
-225.5
 31
0.0
  0
LINE
  5
44
  8
HIBINO-BASE
  6
CONTINUOUS
 62
     7
 10
259.99997000000002
 20
-225.5
 30
0.0
 11
259.99997000000002
 21
-255.49998500000001
 31
0.0
  0
LINE
  5
45
  8
HIBINO-BASE
  6
CONTINUOUS
 62
     7
 10
334.99998499999998
 20
-225.5
 30
0.0
 11
334.99998499999998
 21
-255.49998500000001
 31
0.0
  0
LINE
  5
46
  8
HIBINO-BASE
  6
CONTINUOUS
 62
     7
 10
297.49997000000002
 20
-255.49998500000001
 30
0.0
 11
297.49997000000002
 21
-225.5
 31
0.0
  0
TEXT
  5
47
  8
HIBINO-BASE
 62
     7
 10
129.23265499999991
 20
-248.00460349999989
 30
0.0
 40
9.7730276367187496
  1
A4
 41
0.7
 11
129.23265499999991
 21
-238.23157586328119
 31
0.0
 73
     3
  0
TEXT
  5
48
  8
HIBINO-BASE
 62
     7
 10
187.569605
 20
-247.48297460000001
 30
0.0
 40
5.4000778125000002
  1
'06.2.
 41
0.7
 11
187.569605
 21
-242.0828967875
 31
0.0
 73
     3
  0
TEXT
  5
49
  8
HIBINO-BASE
 62
     7
 10
169.9999849999999
 20
-251.2721426
 30
0.0
 40
6.515359453124999
  1
3
 41
0.7
 11
169.9999849999999
 21
-244.75678314687499
 31
0.0
 73
     3
  0
TEXT
  5
4A
  8
HIBINO-BASE
 62
     7
 10
264.51740003310391
 20
-246.9090525
 30
0.0
 40
4.8865234374999993
  1
N.Sasaki
 41
0.7
 11
264.51740003310391
 21
-242.02252906250001
 31
0.0
 73
     3
  0
ARC
  5
4B
  8
PATTERN_FILL
  6
CONTINUOUS
 62
     7
 10
0.0
 20
-107.9261482096943
 30
0.0
 40
27.99999999999995
 50
41.579406753593332
 51
138.42059324640661
  0
ARC
  5
4C
  8
PATTERN_FILL
  6
CONTINUOUS
 62
     7
 10
0.0
 20
-107.9261482096943
 30
0.0
 40
29.999999999999989
 50
59.692779533865128
 51
120.30722046613489
  0
LINE
  5
4D
  8
PATTERN_FILL
  6
CONTINUOUS
 62
     7
 10
0.0
 20
-76.5
 30
0.0
 11
0.0
 21
-80.750000000000014
 31
0.0
  0
ARC
  5
4E
  8
PATTERN_FILL
  6
CONTINUOUS
 62
     7
 10
0.0
 20
-107.9261482096943
 30
0.0
 40
23.999999999999961
 50
135.1618616228734
 51
160.7156749720348
  0
ARC
  5
4F
  8
PATTERN_FILL
  6
CONTINUOUS
 62
     7
 10
0.0
 20
-107.9261482096943
 30
0.0
 40
25.999999999999972
 50
116.6846392030825
 51
153.30657718644841
  0
ARC
  5
50
  8
PATTERN_FILL
  6
CONTINUOUS
 62
     7
 10
-627.25000000000068
 20
-101.9261482096943
 30
0.0
 40
625.2500000000008
 50
1.92763671292567
 51
2.3182623696468161
  0
ARC
  5
51
  8
PATTERN_FILL
  6
CONTINUOUS
 62
     7
 10
-627.15511396063755
 20
-112.79901137646451
 30
0.0
 40
623.25000000000068
 50
2.8939608111589918
 51
3.2906718707944802
  0
ARC
  5
52
  8
PATTERN_FILL
  6
CONTINUOUS
 62
     7
 10
-626.8714995841774
 20
-123.6307256896374
 30
0.0
 40
621.2500000000008
 50
3.8355985900253691
 51
4.2426394560630474
  0
ARC
  5
53
  8
PATTERN_FILL
  6
CONTINUOUS
 62
     7
 10
-626.40044573234491
 20
-134.41968863877469
 30
0.0
 40
619.25000000000057
 50
4.7506823196444419
 51
5.1732791628469004
  0
ARC
  5
54
  8
PATTERN_FILL
  6
CONTINUOUS
 62
     7
 10
-625.74330135383389
 20
-145.1639042543616
 30
0.0
 40
617.2500000000008
 50
5.6359354948921609
 51
6.081087941055844
  0
ARC
  5
55
  8
PATTERN_FILL
  6
CONTINUOUS
 62
     7
 10
-624.90148115807028
 20
-155.8602440127801
 30
0.0
 40
615.25000000000057
 50
6.485622313739972
 51
6.9636258132825146
  0
ARC
  5
56
  8
PATTERN_FILL
  6
CONTINUOUS
 62
     7
 10
-623.8764552367777
 20
-166.50554522283969
 30
0.0
 40
613.25000000000045
 50
7.2892314409316024
 51
7.8171346397389101
  0
ARC
  5
57
  8
PATTERN_FILL
  6
CONTINUOUS
 62
     7
 10
-622.66974763606004
 20
-177.09668190701561
 30
0.0
 40
611.25000000000057
 50
8.0239408483463617
 51
8.6355525951655352
  0
ARC
  5
58
  8
PATTERN_FILL
  6
CONTINUOUS
 62
     7
 10
-621.28293552303433
 20
-187.63056571810881
 30
0.0
 40
609.25000000000125
 50
8.614270319801772
 51
9.4081676558677945
  0
ARC
  5
59
  8
PATTERN_FILL
  6
CONTINUOUS
 62
     7
 10
-619.71764833695386
 20
-198.1041468380063
 30
0.0
 40
607.25000000000068
 50
9.2971533769213561
 51
10.11261463864002
  0
ARC
  5
5A
  8
PATTERN_FILL
  6
CONTINUOUS
 62
     7
 10
-617.97556692520448
 20
-208.51441485828099
 30
0.0
 40
605.2500000000008
 50
10.328324528457211
 51
10.68970870120279
  0
ARC
  5
5B
  8
PATTERN_FILL
  6
CONTINUOUS
 62
     7
 10
0.0
 20
-92.073851790305724
 30
0.0
 40
27.99999999999994
 50
221.5794067535933
 51
318.4205932464069
  0
ARC
  5
5C
  8
PATTERN_FILL
  6
CONTINUOUS
 62
     7
 10
0.0
 20
-92.073851790305724
 30
0.0
 40
30.000000000000011
 50
239.69277953386529
 51
300.30722046613459
  0
LINE
  5
5D
  8
PATTERN_FILL
  6
CONTINUOUS
 62
     7
 10
0.0
 20
-123.5
 30
0.0
 11
0.0
 21
-119.25
 31
0.0
  0
ARC
  5
5E
  8
PATTERN_FILL
  6
CONTINUOUS
 62
     7
 10
0.0
 20
-92.073851790305724
 30
0.0
 40
21.999999999999972
 50
201.117359857472
 51
210.35844424769169
  0
ARC
  5
5F
  8
PATTERN_FILL
  6
CONTINUOUS
 62
     7
 10
0.0
 20
-92.073851790305724
 30
0.0
 40
23.999999999999972
 50
199.28432502796511
 51
224.8381383771266
  0
ARC
  5
60
  8
PATTERN_FILL
  6
CONTINUOUS
 62
     7
 10
0.0
 20
-92.073851790305724
 30
0.0
 40
25.999999999999972
 50
206.69342281355159
 51
243.31536079691779
  0
ARC
  5
61
  8
PATTERN_FILL
  6
CONTINUOUS
 62
     7
 10
-627.25000000000068
 20
-98.073851790305653
 30
0.0
 40
625.2500000000008
 50
357.68173763034741
 51
358.07236328708223
  0
ARC
  5
62
  8
PATTERN_FILL
  6
CONTINUOUS
 62
     7
 10
-627.15511396063755
 20
-87.200988623535423
 30
0.0
 40
623.25000000000102
 50
356.70932812919409
 51
357.10603918884323
  0
ARC
  5
63
  8
PATTERN_FILL
  6
CONTINUOUS
 62
     7
 10
-626.8714995841774
 20
-76.369274310362613
 30
0.0
 40
621.2500000000008
 50
355.75736054394969
 51
356.16440140997832
  0
ARC
  5
64
  8
PATTERN_FILL
  6
CONTINUOUS
 62
     7
 10
-626.40044573234491
 20
-65.580311361225341
 30
0.0
 40
619.25000000000057
 50
354.82672083714692
 51
355.2493176803311
  0
ARC
  5
65
  8
PATTERN_FILL
  6
CONTINUOUS
 62
     7
 10
-625.74330135383389
 20
-54.83609574563836
 30
0.0
 40
617.25000000000045
 50
353.91891205894541
 51
354.36406450511009
  0
ARC
  5
66
  8
PATTERN_FILL
  6
CONTINUOUS
 62
     7
 10
-624.90148115807028
 20
-44.139755987219871
 30
0.0
 40
615.25000000000057
 50
353.03637418671639
 51
353.51437768625482
  0
ARC
  5
67
  8
PATTERN_FILL
  6
CONTINUOUS
 62
     7
 10
-623.8764552367777
 20
-33.494454777160293
 30
0.0
 40
613.2500000000008
 50
352.18286536026937
 51
352.7107685590708
  0
ARC
  5
68
  8
PATTERN_FILL
  6
CONTINUOUS
 62
     7
 10
-622.66974763606004
 20
-22.90331809298436
 30
0.0
 40
611.25000000000057
 50
351.36444740484529
 51
351.97605915165968
  0
ARC
  5
69
  8
PATTERN_FILL
  6
CONTINUOUS
 62
     7
 10
-621.28293552303433
 20
-12.369434281891239
 30
0.0
 40
609.25000000000114
 50
350.5918323441324
 51
351.38572968020981
  0
ARC
  5
6A
  8
PATTERN_FILL
  6
CONTINUOUS
 62
     7
 10
-619.71764833695386
 20
-1.8958531619937271
 30
0.0
 40
607.25000000000102
 50
349.88738536136719
 51
350.70284662307841
  0
ARC
  5
6B
  8
PATTERN_FILL
  6
CONTINUOUS
 62
     7
 10
-617.97556692520448
 20
8.5144148582810431
 30
0.0
 40
605.2500000000008
 50
349.3102912987934
 51
349.6716754715415
  0
ARC
  5
6C
  8
PATTERN_FILL
  6
CONTINUOUS
 62
     7
 10
0.0000000000000568
 20
211.47385179033131
 30
0.0
 40
10.0
 50
64.503931246462386
 51
115.4960687535376
  0
ARC
  5
6D
  8
PATTERN_FILL
  6
CONTINUOUS
 62
     7
 10
0.0000000000000568
 20
211.47385179033131
 30
0.0
 40
12.0
 50
48.779485295058031
 51
131.22051470494179
  0
ARC
  5
6E
  8
PATTERN_FILL
  6
CONTINUOUS
 62
     7
 10
0.0000000000000568
 20
211.47385179033131
 30
0.0
 40
14.0
 50
40.145050460375927
 51
139.8549495396241
  0
ARC
  5
6F
  8
PATTERN_FILL
  6
CONTINUOUS
 62
     7
 10
0.0000000000000568
 20
211.47385179033131
 30
0.0
 40
15.99999999999998
 50
34.342194571210321
 51
145.6578054287892
  0
ARC
  5
70
  8
PATTERN_FILL
  6
CONTINUOUS
 62
     7
 10
0.0000000000000568
 20
211.47385179033131
 30
0.0
 40
18.0
 50
30.096155052193438
 51
149.9038449478065
  0
ARC
  5
71
  8
PATTERN_FILL
  6
CONTINUOUS
 62
     7
 10
0.0000000000000568
 20
211.47385179033131
 30
0.0
 40
19.999999999999989
 50
26.82759703548269
 51
153.17240296451729
  0
ARC
  5
72
  8
PATTERN_FILL
  6
CONTINUOUS
 62
     7
 10
0.0000000000000568
 20
211.47385179033131
 30
0.0
 40
22.0
 50
24.222391505059669
 51
155.77760849494041
  0
ARC
  5
73
  8
PATTERN_FILL
  6
CONTINUOUS
 62
     7
 10
0.0000000000000568
 20
211.47385179033131
 30
0.0
 40
23.999999999999972
 50
22.091667142957071
 51
157.90833285704289
  0
ARC
  5
74
  8
PATTERN_FILL
  6
CONTINUOUS
 62
     7
 10
0.0000000000000568
 20
211.47385179033131
 30
0.0
 40
26.0
 50
26.1196507462721
 51
153.88034925372929
  0
ARC
  5
75
  8
PATTERN_FILL
  6
CONTINUOUS
 62
     7
 10
0.0000000000000568
 20
211.47385179033131
 30
0.0
 40
27.999999999999972
 50
35.578264577551693
 51
144.42173542244649
  0
LINE
  5
76
  8
PATTERN_FILL
  6
CONTINUOUS
 62
     7
 10
0.0000000000000568
 20
245.50000000002549
 30
0.0
 11
0.0000000000000568
 21
220.5
 31
0.0
  0
ARC
  5
77
  8
PATTERN_FILL
  6
CONTINUOUS
 62
     7
 10
627.25000000000114
 20
217.47385179033131
 30
0.0
 40
625.25000000000102
 50
177.43091849221719
 51
179.72269300676871
  0
ARC
  5
78
  8
PATTERN_FILL
  6
CONTINUOUS
 62
     7
 10
627.15511396063755
 20
206.60098862356099
 30
0.0
 40
623.25000000000068
 50
176.4216627334753
 51
178.72214887388711
  0
ARC
  5
79
  8
PATTERN_FILL
  6
CONTINUOUS
 62
     7
 10
626.87149958417785
 20
195.76927431038831
 30
0.0
 40
621.2500000000008
 50
175.40859142077261
 51
177.71856625749081
  0
ARC
  5
7A
  8
PATTERN_FILL
  6
CONTINUOUS
 62
     7
 10
626.40044573234525
 20
184.9803113612509
 30
0.0
 40
619.25000000000068
 50
174.3914953990521
 51
176.71175476886461
  0
ARC
  5
7B
  8
PATTERN_FILL
  6
CONTINUOUS
 62
     7
 10
625.74330135383434
 20
174.23609574566399
 30
0.0
 40
617.2500000000008
 50
173.37019546087191
 51
175.70155592456629
  0
ARC
  5
7C
  8
PATTERN_FILL
  6
CONTINUOUS
 62
     7
 10
624.90148115807074
 20
163.53975598724551
 30
0.0
 40
615.25000000000057
 50
172.3446121221065
 51
174.68791259085879
  0
ARC
  5
7D
  8
PATTERN_FILL
  6
CONTINUOUS
 62
     7
 10
623.87645523677793
 20
152.89445477718601
 30
0.0
 40
613.25000000000102
 50
171.40900860588329
 51
173.67076796915151
  0
ARC
  5
7E
  8
PATTERN_FILL
  6
CONTINUOUS
 62
     7
 10
622.66974763606038
 20
142.30331809301001
 30
0.0
 40
611.25000000000068
 50
170.72493061534871
 51
172.65005888817731
  0
ARC
  5
7F
  8
PATTERN_FILL
  6
CONTINUOUS
 62
     7
 10
621.28293552303433
 20
131.7694342819168
 30
0.0
 40
609.25000000000102
 50
170.1576533811309
 51
171.62571552077441
  0
ARC
  5
80
  8
PATTERN_FILL
  6
CONTINUOUS
 62
     7
 10
619.71764833695431
 20
121.2958531620193
 30
0.0
 40
607.25000000000114
 50
169.65873998124749
 51
170.59766106645469
  0
ARC
  5
81
  8
PATTERN_FILL
  6
CONTINUOUS
 62
     7
 10
617.97556692520482
 20
110.8855851417445
 30
0.0
 40
605.2500000000008
 50
169.27681254455791
 51
169.5658113966349
  0
ARC
  5
82
  8
PATTERN_FILL
  6
CONTINUOUS
 62
     7
 10
0.0000000000000568
 20
211.47385179033131
 30
0.0
 40
29.999999999999961
 50
42.796460721880798
 51
137.20353927811789
  0
ARC
  5
83
  8
PATTERN_FILL
  6
CONTINUOUS
 62
     7
 10
0.0000000000000568
 20
211.47385179033131
 30
0.0
 40
31.999999999999929
 50
48.72730141370409
 51
131.27269858629569
  0
ARC
  5
84
  8
PATTERN_FILL
  6
CONTINUOUS
 62
     7
 10
0.0000000000000568
 20
211.47385179033131
 30
0.0
 40
33.999999999999972
 50
53.805589854085092
 51
126.1944101459151
  0
ARC
  5
85
  8
PATTERN_FILL
  6
CONTINUOUS
 62
     7
 10
0.0000000000000568
 20
211.47385179033131
 30
0.0
 40
35.999999999999979
 50
58.274014153956081
 51
70.938887752911313
  0
ARC
  5
86
  8
PATTERN_FILL
  6
CONTINUOUS
 62
     7
 10
0.0000000000000568
 20
211.47385179033131
 30
0.0
 40
35.999999999999957
 50
109.0611122470887
 51
121.7259858460432
  0
ARC
  5
87
  8
PATTERN_FILL
  6
CONTINUOUS
 62
     7
 10
-627.25000000000068
 20
217.47385179033131
 30
0.0
 40
625.2500000000008
 50
0.2773069932325414
 51
2.569081507782693
  0
ARC
  5
88
  8
PATTERN_FILL
  6
CONTINUOUS
 62
     7
 10
-627.15511396063732
 20
206.60098862356099
 30
0.0
 40
623.25000000000068
 50
1.2778511261094321
 51
3.5783372665245659
  0
ARC
  5
89
  8
PATTERN_FILL
  6
CONTINUOUS
 62
     7
 10
-626.8714995841774
 20
195.76927431038831
 30
0.0
 40
621.25000000000045
 50
2.2814337425086331
 51
4.5914085792272816
  0
ARC
  5
8A
  8
PATTERN_FILL
  6
CONTINUOUS
 62
     7
 10
-626.40044573234491
 20
184.9803113612509
 30
0.0
 40
619.25000000000057
 50
3.2882452311428469
 51
5.6085046009476898
  0
ARC
  5
8B
  8
PATTERN_FILL
  6
CONTINUOUS
 62
     7
 10
-625.74330135383389
 20
174.23609574566399
 30
0.0
 40
617.2500000000008
 50
4.298444075438506
 51
6.6298045391282328
  0
ARC
  5
8C
  8
PATTERN_FILL
  6
CONTINUOUS
 62
     7
 10
-624.90148115807028
 20
163.53975598724551
 30
0.0
 40
615.25000000000057
 50
5.3120874091364252
 51
7.6553878778935172
  0
ARC
  5
8D
  8
PATTERN_FILL
  6
CONTINUOUS
 62
     7
 10
-623.87645523677747
 20
152.89445477718601
 30
0.0
 40
613.2500000000008
 50
6.3292320308529284
 51
8.5909913941209251
  0
ARC
  5
8E
  8
PATTERN_FILL
  6
CONTINUOUS
 62
     7
 10
-622.66974763606004
 20
142.30331809301001
 30
0.0
 40
611.25000000000068
 50
7.3499411118257694
 51
9.2750693846494308
  0
ARC
  5
8F
  8
PATTERN_FILL
  6
CONTINUOUS
 62
     7
 10
-621.28293552303398
 20
131.7694342819168
 30
0.0
 40
609.25000000000045
 50
8.374284479224908
 51
9.8423466188607556
  0
ARC
  5
90
  8
PATTERN_FILL
  6
CONTINUOUS
 62
     7
 10
-619.71764833695386
 20
121.2958531620193
 30
0.0
 40
607.25000000000068
 50
9.402338933542147
 51
10.34126001875034
  0
ARC
  5
91
  8
PATTERN_FILL
  6
CONTINUOUS
 62
     7
 10
-617.97556692520448
 20
110.8855851417445
 30
0.0
 40
605.25000000000125
 50
10.43418860336288
 51
10.72318745544916
  0
ARC
  5
92
  8
PATTERN_FILL
  6
CONTINUOUS
 62
     7
 10
0.0000000000000568
 20
223.52614820971979
 30
0.0
 40
9.9999999999999911
 50
233.38052986997289
 51
306.6194701300268
  0
ARC
  5
93
  8
PATTERN_FILL
  6
CONTINUOUS
 62
     7
 10
0.0000000000000568
 20
223.52614820971979
 30
0.0
 40
12.0
 50
221.97803655026939
 51
318.02196344973157
  0
ARC
  5
94
  8
PATTERN_FILL
  6
CONTINUOUS
 62
     7
 10
0.0000000000000568
 20
223.52614820971979
 30
0.0
 40
14.0
 50
214.9804081916399
 51
325.0195918083603
  0
ARC
  5
95
  8
PATTERN_FILL
  6
CONTINUOUS
 62
     7
 10
0.0000000000000568
 20
223.52614820971979
 30
0.0
 40
15.999999999999959
 50
210.10818100537409
 51
329.89181899462579
  0
ARC
  5
96
  8
PATTERN_FILL
  6
CONTINUOUS
 62
     7
 10
0.0000000000000568
 20
223.52614820971979
 30
0.0
 40
17.999999999999989
 50
206.48075071633389
 51
333.519249283666
  0
ARC
  5
97
  8
PATTERN_FILL
  6
CONTINUOUS
 62
     7
 10
0.0000000000000568
 20
223.52614820971979
 30
0.0
 40
19.999999999999972
 50
203.65993649619881
 51
336.34006350380042
  0
ARC
  5
98
  8
PATTERN_FILL
  6
CONTINUOUS
 62
     7
 10
0.0000000000000568
 20
223.52614820971979
 30
0.0
 40
22.0
 50
201.39680829652991
 51
338.60319170346952
  0
ARC
  5
99
  8
PATTERN_FILL
  6
CONTINUOUS
 62
     7
 10
0.0000000000000568
 20
223.52614820971979
 30
0.0
 40
23.999999999999972
 50
199.51692093162799
 51
340.46255490114709
  0
ARC
  5
9A
  8
PATTERN_FILL
  6
CONTINUOUS
 62
     7
 10
0.0000000000000568
 20
223.52614820971979
 30
0.0
 40
25.999999999999972
 50
204.84235834270521
 51
335.15764165729382
  0
ARC
  5
9B
  8
PATTERN_FILL
  6
CONTINUOUS
 62
     7
 10
0.0000000000000568
 20
223.52614820971979
 30
0.0
 40
27.999999999999929
 50
217.36533518297841
 51
322.59515184583432
  0
LINE
  5
9C
  8
PATTERN_FILL
  6
CONTINUOUS
 62
     7
 10
0.0
 20
191.5
 30
0.0
 11
0.0
 21
215.5
 31
0.0
  0
ARC
  5
9D
  8
PATTERN_FILL
  6
CONTINUOUS
 62
     7
 10
627.25000000000114
 20
217.52614820971979
 30
0.0
 40
625.25000000000114
 50
180.1856708427359
 51
182.38563679325219
  0
ARC
  5
9E
  8
PATTERN_FILL
  6
CONTINUOUS
 62
     7
 10
627.15511396063755
 20
228.39901137648999
 30
0.0
 40
623.25000000000102
 50
181.18594012588829
 51
183.39413500297749
  0
ARC
  5
9F
  8
PATTERN_FILL
  6
CONTINUOUS
 62
     7
 10
626.87149958417785
 20
239.23072568966279
 30
0.0
 40
621.25000000000045
 50
182.18927441349831
 51
184.4063851994828
  0
ARC
  5
A0
  8
PATTERN_FILL
  6
CONTINUOUS
 62
     7
 10
626.40044573234525
 20
250.01968863880009
 30
0.0
 40
619.25000000000068
 50
183.19556825659609
 51
185.42259484067671
  0
ARC
  5
A1
  8
PATTERN_FILL
  6
CONTINUOUS
 62
     7
 10
625.74330135383434
 20
260.76390425438711
 30
0.0
 40
617.2500000000008
 50
184.20535805374121
 51
186.44294127025651
  0
ARC
  5
A2
  8
PATTERN_FILL
  6
CONTINUOUS
 62
     7
 10
624.90148115807074
 20
271.46024401280562
 30
0.0
 40
615.25000000000057
 50
185.21855979541789
 51
187.46750197133679
  0
ARC
  5
A3
  8
PATTERN_FILL
  6
CONTINUOUS
 62
     7
 10
623.87645523677793
 20
282.1055452228652
 30
0.0
 40
613.25000000000102
 50
186.23522942772169
 51
188.4963558297116
  0
ARC
  5
A4
  8
PATTERN_FILL
  6
CONTINUOUS
 62
     7
 10
622.66974763606038
 20
292.69668190704112
 30
0.0
 40
611.25000000000068
 50
187.25542919527189
 51
189.21888199847061
  0
ARC
  5
A5
  8
PATTERN_FILL
  6
CONTINUOUS
 62
     7
 10
621.28293552303433
 20
303.2305657181343
 30
0.0
 40
609.25000000000125
 50
188.2792279191012
 51
189.70433518958441
  0
ARC
  5
A6
  8
PATTERN_FILL
  6
CONTINUOUS
 62
     7
 10
619.71764833695431
 20
313.70414683803182
 30
0.0
 40
607.25000000000125
 50
189.3067013081853
 51
190.2202136662228
  0
ARC
  5
A7
  8
PATTERN_FILL
  6
CONTINUOUS
 62
     7
 10
617.97556692520482
 20
324.11441485830647
 30
0.0
 40
605.2500000000008
 50
190.33794705672659
 51
190.75852123232491
  0
ARC
  5
A8
  8
PATTERN_FILL
  6
CONTINUOUS
 62
     7
 10
0.0000000000000568
 20
223.52614820971979
 30
0.0
 40
29.999999999999972
 50
225.06755832871079
 51
314.9324416712862
  0
ARC
  5
A9
  8
PATTERN_FILL
  6
CONTINUOUS
 62
     7
 10
0.0000000000000568
 20
223.52614820971979
 30
0.0
 40
31.999999999999961
 50
230.5786363467281
 51
309.42136365326758
  0
ARC
  5
AA
  8
PATTERN_FILL
  6
CONTINUOUS
 62
     7
 10
0.0000000000000568
 20
223.52614820971979
 30
0.0
 40
33.99999999999995
 50
234.90337528364341
 51
250.3808932699815
  0
ARC
  5
AB
  8
PATTERN_FILL
  6
CONTINUOUS
 62
     7
 10
0.0000000000000568
 20
223.52614820971979
 30
0.0
 40
33.99999999999995
 50
289.6191067300183
 51
305.0966247163517
  0
ARC
  5
AC
  8
PATTERN_FILL
  6
CONTINUOUS
 62
     7
 10
0.0000000000000568
 20
223.52614820971979
 30
0.0
 40
35.999999999999979
 50
297.17506362580127
 51
301.54791409704609
  0
ARC
  5
AD
  8
PATTERN_FILL
  6
CONTINUOUS
 62
     7
 10
0.0000000000000568
 20
223.52614820971979
 30
0.0
 40
35.999999999999957
 50
238.4520859029528
 51
242.82493637419839
  0
ARC
  5
AE
  8
PATTERN_FILL
  6
CONTINUOUS
 62
     7
 10
-627.25000000000068
 20
217.52614820971979
 30
0.0
 40
625.2500000000008
 50
357.61436320674858
 51
359.81432915726413
  0
ARC
  5
AF
  8
PATTERN_FILL
  6
CONTINUOUS
 62
     7
 10
-627.15511396063732
 20
228.39901137648999
 30
0.0
 40
623.25000000000068
 50
356.60586499701981
 51
358.81405987411159
  0
ARC
  5
B0
  8
PATTERN_FILL
  6
CONTINUOUS
 62
     7
 10
-626.8714995841774
 20
239.23072568966279
 30
0.0
 40
621.25000000000011
 50
355.59361480051729
 51
357.8108631042852
  0
ARC
  5
B1
  8
PATTERN_FILL
  6
CONTINUOUS
 62
     7
 10
-626.40044573234491
 20
250.01968863880009
 30
0.0
 40
619.25000000000068
 50
354.5774051593263
 51
356.80442755867182
  0
ARC
  5
B2
  8
PATTERN_FILL
  6
CONTINUOUS
 62
     7
 10
-625.74330135383389
 20
260.76390425438711
 30
0.0
 40
617.2500000000008
 50
353.55705872974357
 51
355.79463638621741
  0
ARC
  5
B3
  8
PATTERN_FILL
  6
CONTINUOUS
 62
     7
 10
-624.90148115807028
 20
271.46024401280562
 30
0.0
 40
615.25000000000011
 50
352.53249802866111
 51
354.78143323255881
  0
ARC
  5
B4
  8
PATTERN_FILL
  6
CONTINUOUS
 62
     7
 10
-623.87645523677747
 20
282.1055452228652
 30
0.0
 40
613.2500000000008
 50
351.50364417029311
 51
353.76476214714779
  0
ARC
  5
B5
  8
PATTERN_FILL
  6
CONTINUOUS
 62
     7
 10
-621.28293552303398
 20
303.2305657181343
 30
0.0
 40
609.2500000000008
 50
350.29566481041832
 51
351.7207606068464
  0
ARC
  5
B6
  8
PATTERN_FILL
  6
CONTINUOUS
 62
     7
 10
-619.71764833695386
 20
313.70414683803182
 30
0.0
 40
607.25000000000068
 50
349.77978633378962
 51
350.69328561139031
  0
ARC
  5
B7
  8
PATTERN_FILL
  6
CONTINUOUS
 62
     7
 10
-617.97556692520448
 20
324.11441485830647
 30
0.0
 40
605.25000000000125
 50
349.24147876769018
 51
349.66205294322151
  0
ARC
  5
B8
  8
PATTERN_FILL
  6
CONTINUOUS
 62
     7
 10
-622.66974763606038
 20
292.69668190704112
 30
0.0
 40
611.25000000000068
 50
350.78111800152573
 51
352.744560880618
  0
ARC
  5
B9
  8
PATTERN_FILL
  6
CONTINUOUS
 62
     7
 10
120.0
 20
211.47385179033131
 30
0.0
 40
10.0
 50
64.503931246462386
 51
115.4960687535376
  0
ARC
  5
BA
  8
PATTERN_FILL
  6
CONTINUOUS
 62
     7
 10
120.0
 20
211.47385179033131
 30
0.0
 40
12.0
 50
48.779485295058031
 51
131.22051470494179
  0
ARC
  5
BB
  8
PATTERN_FILL
  6
CONTINUOUS
 62
     7
 10
120.0
 20
211.47385179033131
 30
0.0
 40
14.0
 50
40.145050460375927
 51
139.8549495396241
  0
ARC
  5
BC
  8
PATTERN_FILL
  6
CONTINUOUS
 62
     7
 10
120.0
 20
211.47385179033131
 30
0.0
 40
15.99999999999998
 50
34.342194571210321
 51
145.6578054287892
  0
ARC
  5
BD
  8
PATTERN_FILL
  6
CONTINUOUS
 62
     7
 10
120.0
 20
211.47385179033131
 30
0.0
 40
18.0
 50
30.096155052193438
 51
149.9038449478065
  0
ARC
  5
BE
  8
PATTERN_FILL
  6
CONTINUOUS
 62
     7
 10
120.0
 20
211.47385179033131
 30
0.0
 40
19.999999999999989
 50
26.82759703548269
 51
153.17240296451729
  0
ARC
  5
BF
  8
PATTERN_FILL
  6
CONTINUOUS
 62
     7
 10
120.0
 20
211.47385179033131
 30
0.0
 40
22.0
 50
24.222391505059669
 51
155.77760849494041
  0
ARC
  5
C0
  8
PATTERN_FILL
  6
CONTINUOUS
 62
     7
 10
120.0
 20
211.47385179033131
 30
0.0
 40
23.999999999999972
 50
22.091667142957071
 51
157.90833285704289
  0
ARC
  5
C1
  8
PATTERN_FILL
  6
CONTINUOUS
 62
     7
 10
120.0
 20
211.47385179033131
 30
0.0
 40
26.0
 50
26.1196507462721
 51
153.88034925372929
  0
ARC
  5
C2
  8
PATTERN_FILL
  6
CONTINUOUS
 62
     7
 10
120.0
 20
211.47385179033131
 30
0.0
 40
27.999999999999972
 50
35.578264577551693
 51
144.42173542244649
  0
LINE
  5
C3
  8
PATTERN_FILL
  6
CONTINUOUS
 62
     7
 10
120.0
 20
245.50000000002549
 30
0.0
 11
120.0
 21
220.5
 31
0.0
  0
ARC
  5
C4
  8
PATTERN_FILL
  6
CONTINUOUS
 62
     7
 10
747.25000000000102
 20
217.47385179033131
 30
0.0
 40
625.25000000000102
 50
177.43091849221719
 51
179.72269300676871
  0
ARC
  5
C5
  8
PATTERN_FILL
  6
CONTINUOUS
 62
     7
 10
747.15511396063755
 20
206.60098862356099
 30
0.0
 40
623.25000000000068
 50
176.4216627334753
 51
178.72214887388711
  0
ARC
  5
C6
  8
PATTERN_FILL
  6
CONTINUOUS
 62
     7
 10
746.87149958417774
 20
195.76927431038831
 30
0.0
 40
621.2500000000008
 50
175.40859142077261
 51
177.71856625749081
  0
ARC
  5
C7
  8
PATTERN_FILL
  6
CONTINUOUS
 62
     7
 10
746.40044573234525
 20
184.9803113612509
 30
0.0
 40
619.25000000000068
 50
174.3914953990521
 51
176.71175476886461
  0
ARC
  5
C8
  8
PATTERN_FILL
  6
CONTINUOUS
 62
     7
 10
745.74330135383411
 20
174.23609574566399
 30
0.0
 40
617.2500000000008
 50
173.37019546087191
 51
175.70155592456629
  0
ARC
  5
C9
  8
PATTERN_FILL
  6
CONTINUOUS
 62
     7
 10
744.90148115807062
 20
163.53975598724551
 30
0.0
 40
615.25000000000057
 50
172.3446121221065
 51
174.68791259085879
  0
ARC
  5
CA
  8
PATTERN_FILL
  6
CONTINUOUS
 62
     7
 10
743.87645523677782
 20
152.89445477718601
 30
0.0
 40
613.25000000000102
 50
171.40900860588329
 51
173.67076796915151
  0
ARC
  5
CB
  8
PATTERN_FILL
  6
CONTINUOUS
 62
     7
 10
742.66974763606049
 20
142.30331809301001
 30
0.0
 40
611.25000000000068
 50
170.72493061534871
 51
172.65005888817731
  0
ARC
  5
CC
  8
PATTERN_FILL
  6
CONTINUOUS
 62
     7
 10
741.28293552303433
 20
131.7694342819168
 30
0.0
 40
609.25000000000102
 50
170.1576533811309
 51
171.62571552077441
  0
ARC
  5
CD
  8
PATTERN_FILL
  6
CONTINUOUS
 62
     7
 10
739.71764833695431
 20
121.2958531620193
 30
0.0
 40
607.25000000000114
 50
169.65873998124749
 51
170.59766106645469
  0
ARC
  5
CE
  8
PATTERN_FILL
  6
CONTINUOUS
 62
     7
 10
737.97556692520482
 20
110.8855851417445
 30
0.0
 40
605.2500000000008
 50
169.27681254455791
 51
169.5658113966349
  0
ARC
  5
CF
  8
PATTERN_FILL
  6
CONTINUOUS
 62
     7
 10
120.0
 20
211.47385179033131
 30
0.0
 40
29.999999999999961
 50
42.796460721880798
 51
137.20353927811789
  0
ARC
  5
D0
  8
PATTERN_FILL
  6
CONTINUOUS
 62
     7
 10
120.0
 20
211.47385179033131
 30
0.0
 40
31.999999999999929
 50
48.72730141370409
 51
131.27269858629569
  0
ARC
  5
D1
  8
PATTERN_FILL
  6
CONTINUOUS
 62
     7
 10
120.0
 20
211.47385179033131
 30
0.0
 40
33.999999999999972
 50
53.805589854085092
 51
126.1944101459151
  0
ARC
  5
D2
  8
PATTERN_FILL
  6
CONTINUOUS
 62
     7
 10
120.0
 20
211.47385179033131
 30
0.0
 40
35.999999999999979
 50
58.274014153956081
 51
70.938887752911313
  0
ARC
  5
D3
  8
PATTERN_FILL
  6
CONTINUOUS
 62
     7
 10
120.0
 20
211.47385179033131
 30
0.0
 40
35.999999999999957
 50
109.0611122470887
 51
121.7259858460432
  0
ARC
  5
D4
  8
PATTERN_FILL
  6
CONTINUOUS
 62
     7
 10
-507.2500000000008
 20
217.47385179033131
 30
0.0
 40
625.2500000000008
 50
0.2773069932325414
 51
2.569081507782693
  0
ARC
  5
D5
  8
PATTERN_FILL
  6
CONTINUOUS
 62
     7
 10
-507.15511396063732
 20
206.60098862356099
 30
0.0
 40
623.25000000000068
 50
1.2778511261094321
 51
3.5783372665245659
  0
ARC
  5
D6
  8
PATTERN_FILL
  6
CONTINUOUS
 62
     7
 10
-506.8714995841774
 20
195.76927431038831
 30
0.0
 40
621.25000000000045
 50
2.2814337425086331
 51
4.5914085792272816
  0
ARC
  5
D7
  8
PATTERN_FILL
  6
CONTINUOUS
 62
     7
 10
-506.40044573234491
 20
184.9803113612509
 30
0.0
 40
619.25000000000057
 50
3.2882452311428469
 51
5.6085046009476898
  0
ARC
  5
D8
  8
PATTERN_FILL
  6
CONTINUOUS
 62
     7
 10
-505.74330135383389
 20
174.23609574566399
 30
0.0
 40
617.2500000000008
 50
4.298444075438506
 51
6.6298045391282328
  0
ARC
  5
D9
  8
PATTERN_FILL
  6
CONTINUOUS
 62
     7
 10
-504.90148115807028
 20
163.53975598724551
 30
0.0
 40
615.25000000000057
 50
5.3120874091364252
 51
7.6553878778935172
  0
ARC
  5
DA
  8
PATTERN_FILL
  6
CONTINUOUS
 62
     7
 10
-503.87645523677747
 20
152.89445477718601
 30
0.0
 40
613.2500000000008
 50
6.3292320308529284
 51
8.5909913941209251
  0
ARC
  5
DB
  8
PATTERN_FILL
  6
CONTINUOUS
 62
     7
 10
-502.66974763605998
 20
142.30331809301001
 30
0.0
 40
611.25000000000068
 50
7.3499411118257694
 51
9.2750693846494308
  0
ARC
  5
DC
  8
PATTERN_FILL
  6
CONTINUOUS
 62
     7
 10
-501.28293552303398
 20
131.7694342819168
 30
0.0
 40
609.25000000000045
 50
8.374284479224908
 51
9.8423466188607556
  0
ARC
  5
DD
  8
PATTERN_FILL
  6
CONTINUOUS
 62
     7
 10
-499.71764833695391
 20
121.2958531620193
 30
0.0
 40
607.25000000000068
 50
9.402338933542147
 51
10.34126001875034
  0
ARC
  5
DE
  8
PATTERN_FILL
  6
CONTINUOUS
 62
     7
 10
-497.97556692520442
 20
110.8855851417445
 30
0.0
 40
605.25000000000125
 50
10.43418860336288
 51
10.72318745544916
  0
ARC
  5
DF
  8
PATTERN_FILL
  6
CONTINUOUS
 62
     7
 10
120.0
 20
223.52614820971979
 30
0.0
 40
9.9999999999999911
 50
233.38052986997289
 51
306.6194701300268
  0
ARC
  5
E0
  8
PATTERN_FILL
  6
CONTINUOUS
 62
     7
 10
120.0
 20
223.52614820971979
 30
0.0
 40
12.0
 50
221.97803655026939
 51
318.02196344973157
  0
ARC
  5
E1
  8
PATTERN_FILL
  6
CONTINUOUS
 62
     7
 10
120.0
 20
223.52614820971979
 30
0.0
 40
14.0
 50
214.9804081916399
 51
325.0195918083603
  0
ARC
  5
E2
  8
PATTERN_FILL
  6
CONTINUOUS
 62
     7
 10
120.0
 20
223.52614820971979
 30
0.0
 40
15.999999999999959
 50
210.10818100537409
 51
329.89181899462579
  0
ARC
  5
E3
  8
PATTERN_FILL
  6
CONTINUOUS
 62
     7
 10
120.0
 20
223.52614820971979
 30
0.0
 40
17.999999999999989
 50
206.48075071633389
 51
333.519249283666
  0
ARC
  5
E4
  8
PATTERN_FILL
  6
CONTINUOUS
 62
     7
 10
120.0
 20
223.52614820971979
 30
0.0
 40
19.999999999999972
 50
203.65993649619881
 51
336.34006350380042
  0
ARC
  5
E5
  8
PATTERN_FILL
  6
CONTINUOUS
 62
     7
 10
120.0
 20
223.52614820971979
 30
0.0
 40
22.0
 50
201.39680829652991
 51
338.60319170346952
  0
ARC
  5
E6
  8
PATTERN_FILL
  6
CONTINUOUS
 62
     7
 10
120.0
 20
223.52614820971979
 30
0.0
 40
23.999999999999972
 50
199.51692093162799
 51
340.46255490114709
  0
ARC
  5
E7
  8
PATTERN_FILL
  6
CONTINUOUS
 62
     7
 10
120.0
 20
223.52614820971979
 30
0.0
 40
25.999999999999972
 50
204.84235834270521
 51
335.15764165729382
  0
ARC
  5
E8
  8
PATTERN_FILL
  6
CONTINUOUS
 62
     7
 10
120.0
 20
223.52614820971979
 30
0.0
 40
27.999999999999929
 50
217.36533518297841
 51
322.59515184583432
  0
LINE
  5
E9
  8
PATTERN_FILL
  6
CONTINUOUS
 62
     7
 10
120.0
 20
191.5
 30
0.0
 11
120.0
 21
215.5
 31
0.0
  0
ARC
  5
EA
  8
PATTERN_FILL
  6
CONTINUOUS
 62
     7
 10
747.25000000000102
 20
217.52614820971979
 30
0.0
 40
625.25000000000114
 50
180.1856708427359
 51
182.38563679325219
  0
ARC
  5
EB
  8
PATTERN_FILL
  6
CONTINUOUS
 62
     7
 10
747.15511396063755
 20
228.39901137648999
 30
0.0
 40
623.25000000000102
 50
181.18594012588829
 51
183.39413500297749
  0
ARC
  5
EC
  8
PATTERN_FILL
  6
CONTINUOUS
 62
     7
 10
746.87149958417774
 20
239.23072568966279
 30
0.0
 40
621.25000000000045
 50
182.18927441349831
 51
184.4063851994828
  0
ARC
  5
ED
  8
PATTERN_FILL
  6
CONTINUOUS
 62
     7
 10
746.40044573234525
 20
250.01968863880009
 30
0.0
 40
619.25000000000068
 50
183.19556825659609
 51
185.42259484067671
  0
ARC
  5
EE
  8
PATTERN_FILL
  6
CONTINUOUS
 62
     7
 10
745.74330135383411
 20
260.76390425438711
 30
0.0
 40
617.2500000000008
 50
184.20535805374121
 51
186.44294127025651
  0
ARC
  5
EF
  8
PATTERN_FILL
  6
CONTINUOUS
 62
     7
 10
744.90148115807062
 20
271.46024401280562
 30
0.0
 40
615.25000000000057
 50
185.21855979541789
 51
187.46750197133679
  0
ARC
  5
F0
  8
PATTERN_FILL
  6
CONTINUOUS
 62
     7
 10
743.87645523677782
 20
282.1055452228652
 30
0.0
 40
613.25000000000102
 50
186.23522942772169
 51
188.4963558297116
  0
ARC
  5
F1
  8
PATTERN_FILL
  6
CONTINUOUS
 62
     7
 10
742.66974763606049
 20
292.69668190704112
 30
0.0
 40
611.25000000000068
 50
187.25542919527189
 51
189.21888199847061
  0
ARC
  5
F2
  8
PATTERN_FILL
  6
CONTINUOUS
 62
     7
 10
741.28293552303433
 20
303.2305657181343
 30
0.0
 40
609.25000000000125
 50
188.2792279191012
 51
189.70433518958441
  0
ARC
  5
F3
  8
PATTERN_FILL
  6
CONTINUOUS
 62
     7
 10
739.71764833695431
 20
313.70414683803182
 30
0.0
 40
607.25000000000125
 50
189.3067013081853
 51
190.2202136662228
  0
ARC
  5
F4
  8
PATTERN_FILL
  6
CONTINUOUS
 62
     7
 10
737.97556692520482
 20
324.11441485830647
 30
0.0
 40
605.2500000000008
 50
190.33794705672659
 51
190.75852123232491
  0
ARC
  5
F5
  8
PATTERN_FILL
  6
CONTINUOUS
 62
     7
 10
120.0
 20
223.52614820971979
 30
0.0
 40
29.999999999999972
 50
225.06755832871079
 51
314.9324416712862
  0
ARC
  5
F6
  8
PATTERN_FILL
  6
CONTINUOUS
 62
     7
 10
120.0
 20
223.52614820971979
 30
0.0
 40
31.999999999999961
 50
230.5786363467281
 51
309.42136365326758
  0
ARC
  5
F7
  8
PATTERN_FILL
  6
CONTINUOUS
 62
     7
 10
120.0
 20
223.52614820971979
 30
0.0
 40
33.99999999999995
 50
234.90337528364341
 51
250.3808932699815
  0
ARC
  5
F8
  8
PATTERN_FILL
  6
CONTINUOUS
 62
     7
 10
120.0
 20
223.52614820971979
 30
0.0
 40
33.99999999999995
 50
289.6191067300183
 51
305.0966247163517
  0
ARC
  5
F9
  8
PATTERN_FILL
  6
CONTINUOUS
 62
     7
 10
120.0
 20
223.52614820971979
 30
0.0
 40
35.999999999999979
 50
297.17506362580127
 51
301.54791409704609
  0
ARC
  5
FA
  8
PATTERN_FILL
  6
CONTINUOUS
 62
     7
 10
120.0
 20
223.52614820971979
 30
0.0
 40
35.999999999999957
 50
238.4520859029528
 51
242.82493637419839
  0
ARC
  5
FB
  8
PATTERN_FILL
  6
CONTINUOUS
 62
     7
 10
-507.2500000000008
 20
217.52614820971979
 30
0.0
 40
625.2500000000008
 50
357.61436320674858
 51
359.81432915726413
  0
ARC
  5
FC
  8
PATTERN_FILL
  6
CONTINUOUS
 62
     7
 10
-507.15511396063732
 20
228.39901137648999
 30
0.0
 40
623.25000000000068
 50
356.60586499701981
 51
358.81405987411159
  0
ARC
  5
FD
  8
PATTERN_FILL
  6
CONTINUOUS
 62
     7
 10
-506.8714995841774
 20
239.23072568966279
 30
0.0
 40
621.25000000000011
 50
355.59361480051729
 51
357.8108631042852
  0
ARC
  5
FE
  8
PATTERN_FILL
  6
CONTINUOUS
 62
     7
 10
-506.40044573234491
 20
250.01968863880009
 30
0.0
 40
619.25000000000068
 50
354.5774051593263
 51
356.80442755867182
  0
ARC
  5
FF
  8
PATTERN_FILL
  6
CONTINUOUS
 62
     7
 10
-505.74330135383389
 20
260.76390425438711
 30
0.0
 40
617.2500000000008
 50
353.55705872974357
 51
355.79463638621741
  0
ARC
  5
100
  8
PATTERN_FILL
  6
CONTINUOUS
 62
     7
 10
-504.90148115807028
 20
271.46024401280562
 30
0.0
 40
615.25000000000011
 50
352.53249802866111
 51
354.78143323255881
  0
ARC
  5
101
  8
PATTERN_FILL
  6
CONTINUOUS
 62
     7
 10
-503.87645523677747
 20
282.1055452228652
 30
0.0
 40
613.2500000000008
 50
351.50364417029311
 51
353.76476214714779
  0
ARC
  5
102
  8
PATTERN_FILL
  6
CONTINUOUS
 62
     7
 10
-501.28293552303398
 20
303.2305657181343
 30
0.0
 40
609.2500000000008
 50
350.29566481041832
 51
351.7207606068464
  0
ARC
  5
103
  8
PATTERN_FILL
  6
CONTINUOUS
 62
     7
 10
-499.71764833695391
 20
313.70414683803182
 30
0.0
 40
607.25000000000068
 50
349.77978633378962
 51
350.69328561139031
  0
ARC
  5
104
  8
PATTERN_FILL
  6
CONTINUOUS
 62
     7
 10
-497.97556692520442
 20
324.11441485830647
 30
0.0
 40
605.25000000000125
 50
349.24147876769018
 51
349.66205294322151
  0
ARC
  5
105
  8
PATTERN_FILL
  6
CONTINUOUS
 62
     7
 10
-502.66974763606038
 20
292.69668190704112
 30
0.0
 40
611.25000000000068
 50
350.78111800152573
 51
352.744560880618
  0
ARC
  5
106
  8
PATTERN_FILL
  6
CONTINUOUS
 62
     7
 10
240.00000000000011
 20
211.47385179033131
 30
0.0
 40
10.0
 50
64.503931246462386
 51
115.4960687535376
  0
ARC
  5
107
  8
PATTERN_FILL
  6
CONTINUOUS
 62
     7
 10
240.00000000000011
 20
211.47385179033131
 30
0.0
 40
12.0
 50
48.779485295058031
 51
131.22051470494179
  0
ARC
  5
108
  8
PATTERN_FILL
  6
CONTINUOUS
 62
     7
 10
240.00000000000011
 20
211.47385179033131
 30
0.0
 40
14.0
 50
40.145050460375927
 51
139.8549495396241
  0
ARC
  5
109
  8
PATTERN_FILL
  6
CONTINUOUS
 62
     7
 10
240.00000000000011
 20
211.47385179033131
 30
0.0
 40
16.0
 50
34.3421945712103
 51
145.6578054287892
  0
ARC
  5
10A
  8
PATTERN_FILL
  6
CONTINUOUS
 62
     7
 10
240.00000000000011
 20
211.47385179033131
 30
0.0
 40
18.0
 50
30.096155052193438
 51
149.9038449478065
  0
ARC
  5
10B
  8
PATTERN_FILL
  6
CONTINUOUS
 62
     7
 10
240.00000000000011
 20
211.47385179033131
 30
0.0
 40
20.0
 50
26.827597035482679
 51
153.17240296451729
  0
ARC
  5
10C
  8
PATTERN_FILL
  6
CONTINUOUS
 62
     7
 10
240.00000000000011
 20
211.47385179033131
 30
0.0
 40
22.0
 50
24.222391505059669
 51
155.77760849494041
  0
ARC
  5
10D
  8
PATTERN_FILL
  6
CONTINUOUS
 62
     7
 10
240.00000000000011
 20
211.47385179033131
 30
0.0
 40
23.999999999999972
 50
22.091667142957071
 51
157.90833285704289
  0
ARC
  5
10E
  8
PATTERN_FILL
  6
CONTINUOUS
 62
     7
 10
240.00000000000011
 20
211.47385179033131
 30
0.0
 40
26.0
 50
26.1196507462721
 51
153.88034925372929
  0
ARC
  5
10F
  8
PATTERN_FILL
  6
CONTINUOUS
 62
     7
 10
240.00000000000011
 20
211.47385179033131
 30
0.0
 40
27.999999999999972
 50
35.578264577551693
 51
144.42173542244649
  0
LINE
  5
110
  8
PATTERN_FILL
  6
CONTINUOUS
 62
     7
 10
240.00000000000011
 20
245.50000000002549
 30
0.0
 11
240.00000000000011
 21
220.5
 31
0.0
  0
ARC
  5
111
  8
PATTERN_FILL
  6
CONTINUOUS
 62
     7
 10
867.25000000000102
 20
217.47385179033131
 30
0.0
 40
625.25000000000102
 50
177.43091849221719
 51
179.72269300676871
  0
ARC
  5
112
  8
PATTERN_FILL
  6
CONTINUOUS
 62
     7
 10
867.15511396063766
 20
206.60098862356099
 30
0.0
 40
623.25000000000068
 50
176.4216627334753
 51
178.72214887388711
  0
ARC
  5
113
  8
PATTERN_FILL
  6
CONTINUOUS
 62
     7
 10
866.87149958417785
 20
195.76927431038831
 30
0.0
 40
621.2500000000008
 50
175.40859142077261
 51
177.71856625749081
  0
ARC
  5
114
  8
PATTERN_FILL
  6
CONTINUOUS
 62
     7
 10
866.40044573234525
 20
184.9803113612509
 30
0.0
 40
619.25000000000068
 50
174.3914953990521
 51
176.71175476886461
  0
ARC
  5
115
  8
PATTERN_FILL
  6
CONTINUOUS
 62
     7
 10
865.74330135383434
 20
174.23609574566399
 30
0.0
 40
617.2500000000008
 50
173.37019546087191
 51
175.70155592456629
  0
ARC
  5
116
  8
PATTERN_FILL
  6
CONTINUOUS
 62
     7
 10
864.90148115807051
 20
163.53975598724551
 30
0.0
 40
615.25000000000057
 50
172.3446121221065
 51
174.68791259085879
  0
ARC
  5
117
  8
PATTERN_FILL
  6
CONTINUOUS
 62
     7
 10
863.87645523677782
 20
152.89445477718601
 30
0.0
 40
613.25000000000102
 50
171.40900860588329
 51
173.67076796915151
  0
ARC
  5
118
  8
PATTERN_FILL
  6
CONTINUOUS
 62
     7
 10
862.66974763606061
 20
142.30331809301001
 30
0.0
 40
611.25000000000068
 50
170.72493061534871
 51
172.65005888817731
  0
ARC
  5
119
  8
PATTERN_FILL
  6
CONTINUOUS
 62
     7
 10
861.28293552303444
 20
131.7694342819168
 30
0.0
 40
609.25000000000102
 50
170.1576533811309
 51
171.62571552077441
  0
ARC
  5
11A
  8
PATTERN_FILL
  6
CONTINUOUS
 62
     7
 10
859.7176483369542
 20
121.2958531620193
 30
0.0
 40
607.25000000000114
 50
169.65873998124749
 51
170.59766106645469
  0
ARC
  5
11B
  8
PATTERN_FILL
  6
CONTINUOUS
 62
     7
 10
857.97556692520482
 20
110.8855851417445
 30
0.0
 40
605.2500000000008
 50
169.27681254455791
 51
169.5658113966349
  0
ARC
  5
11C
  8
PATTERN_FILL
  6
CONTINUOUS
 62
     7
 10
240.00000000000011
 20
211.47385179033131
 30
0.0
 40
29.999999999999972
 50
42.796460721880777
 51
137.20353927811789
  0
ARC
  5
11D
  8
PATTERN_FILL
  6
CONTINUOUS
 62
     7
 10
240.00000000000011
 20
211.47385179033131
 30
0.0
 40
31.999999999999929
 50
48.72730141370409
 51
131.27269858629569
  0
ARC
  5
11E
  8
PATTERN_FILL
  6
CONTINUOUS
 62
     7
 10
240.00000000000011
 20
211.47385179033131
 30
0.0
 40
33.999999999999972
 50
53.80558985408512
 51
126.1944101459151
  0
ARC
  5
11F
  8
PATTERN_FILL
  6
CONTINUOUS
 62
     7
 10
240.00000000000011
 20
211.47385179033131
 30
0.0
 40
35.999999999999979
 50
58.274014153956081
 51
70.938887752911313
  0
ARC
  5
120
  8
PATTERN_FILL
  6
CONTINUOUS
 62
     7
 10
240.00000000000011
 20
211.47385179033131
 30
0.0
 40
35.999999999999957
 50
109.0611122470887
 51
121.7259858460432
  0
ARC
  5
121
  8
PATTERN_FILL
  6
CONTINUOUS
 62
     7
 10
-387.25000000000091
 20
217.47385179033131
 30
0.0
 40
625.2500000000008
 50
0.2773069932325414
 51
2.569081507782693
  0
ARC
  5
122
  8
PATTERN_FILL
  6
CONTINUOUS
 62
     7
 10
-387.15511396063732
 20
206.60098862356099
 30
0.0
 40
623.25000000000068
 50
1.2778511261094321
 51
3.5783372665245659
  0
ARC
  5
123
  8
PATTERN_FILL
  6
CONTINUOUS
 62
     7
 10
-386.87149958417751
 20
195.76927431038831
 30
0.0
 40
621.25000000000045
 50
2.2814337425086331
 51
4.5914085792272816
  0
ARC
  5
124
  8
PATTERN_FILL
  6
CONTINUOUS
 62
     7
 10
-386.40044573234502
 20
184.9803113612509
 30
0.0
 40
619.25000000000057
 50
3.2882452311428469
 51
5.6085046009476898
  0
ARC
  5
125
  8
PATTERN_FILL
  6
CONTINUOUS
 62
     7
 10
-385.743301353834
 20
174.23609574566399
 30
0.0
 40
617.2500000000008
 50
4.298444075438506
 51
6.6298045391282328
  0
ARC
  5
126
  8
PATTERN_FILL
  6
CONTINUOUS
 62
     7
 10
-384.9014811580704
 20
163.53975598724551
 30
0.0
 40
615.25000000000057
 50
5.3120874091364252
 51
7.6553878778935172
  0
ARC
  5
127
  8
PATTERN_FILL
  6
CONTINUOUS
 62
     7
 10
-383.87645523677747
 20
152.89445477718601
 30
0.0
 40
613.2500000000008
 50
6.3292320308529284
 51
8.5909913941209251
  0
ARC
  5
128
  8
PATTERN_FILL
  6
CONTINUOUS
 62
     7
 10
-382.66974763605998
 20
142.30331809301001
 30
0.0
 40
611.25000000000068
 50
7.3499411118257694
 51
9.2750693846494308
  0
ARC
  5
129
  8
PATTERN_FILL
  6
CONTINUOUS
 62
     7
 10
-381.28293552303398
 20
131.7694342819168
 30
0.0
 40
609.25000000000045
 50
8.374284479224908
 51
9.8423466188607556
  0
ARC
  5
12A
  8
PATTERN_FILL
  6
CONTINUOUS
 62
     7
 10
-379.71764833695403
 20
121.2958531620193
 30
0.0
 40
607.25000000000068
 50
9.402338933542147
 51
10.34126001875034
  0
ARC
  5
12B
  8
PATTERN_FILL
  6
CONTINUOUS
 62
     7
 10
-377.97556692520448
 20
110.8855851417445
 30
0.0
 40
605.25000000000125
 50
10.43418860336288
 51
10.72318745544916
  0
ARC
  5
12C
  8
PATTERN_FILL
  6
CONTINUOUS
 62
     7
 10
240.00000000000011
 20
223.52614820971979
 30
0.0
 40
9.9999999999999911
 50
233.38052986997289
 51
306.61947013002691
  0
ARC
  5
12D
  8
PATTERN_FILL
  6
CONTINUOUS
 62
     7
 10
240.00000000000011
 20
223.52614820971979
 30
0.0
 40
12.0
 50
221.97803655026939
 51
318.02196344973152
  0
ARC
  5
12E
  8
PATTERN_FILL
  6
CONTINUOUS
 62
     7
 10
240.00000000000011
 20
223.52614820971979
 30
0.0
 40
14.0
 50
214.9804081916399
 51
325.0195918083603
  0
ARC
  5
12F
  8
PATTERN_FILL
  6
CONTINUOUS
 62
     7
 10
240.00000000000011
 20
223.52614820971979
 30
0.0
 40
15.999999999999959
 50
210.10818100537409
 51
329.89181899462579
  0
ARC
  5
130
  8
PATTERN_FILL
  6
CONTINUOUS
 62
     7
 10
240.00000000000011
 20
223.52614820971979
 30
0.0
 40
17.999999999999989
 50
206.48075071633389
 51
333.519249283666
  0
ARC
  5
131
  8
PATTERN_FILL
  6
CONTINUOUS
 62
     7
 10
240.00000000000011
 20
223.52614820971979
 30
0.0
 40
19.999999999999972
 50
203.65993649619881
 51
336.34006350380042
  0
ARC
  5
132
  8
PATTERN_FILL
  6
CONTINUOUS
 62
     7
 10
240.00000000000011
 20
223.52614820971979
 30
0.0
 40
22.0
 50
201.39680829652991
 51
338.60319170346952
  0
ARC
  5
133
  8
PATTERN_FILL
  6
CONTINUOUS
 62
     7
 10
240.00000000000011
 20
223.52614820971979
 30
0.0
 40
23.999999999999972
 50
199.51692093162799
 51
340.46255490114709
  0
ARC
  5
134
  8
PATTERN_FILL
  6
CONTINUOUS
 62
     7
 10
240.00000000000011
 20
223.52614820971979
 30
0.0
 40
25.999999999999972
 50
204.84235834270521
 51
335.15764165729382
  0
ARC
  5
135
  8
PATTERN_FILL
  6
CONTINUOUS
 62
     7
 10
240.00000000000011
 20
223.52614820971979
 30
0.0
 40
27.999999999999929
 50
217.36533518297841
 51
322.59515184583432
  0
LINE
  5
136
  8
PATTERN_FILL
  6
CONTINUOUS
 62
     7
 10
240.0
 20
191.5
 30
0.0
 11
240.0
 21
215.5
 31
0.0
  0
ARC
  5
137
  8
PATTERN_FILL
  6
CONTINUOUS
 62
     7
 10
867.25000000000102
 20
217.52614820971979
 30
0.0
 40
625.25000000000114
 50
180.1856708427359
 51
182.38563679325219
  0
ARC
  5
138
  8
PATTERN_FILL
  6
CONTINUOUS
 62
     7
 10
867.15511396063766
 20
228.39901137648999
 30
0.0
 40
623.25000000000102
 50
181.18594012588829
 51
183.39413500297749
  0
ARC
  5
139
  8
PATTERN_FILL
  6
CONTINUOUS
 62
     7
 10
866.87149958417785
 20
239.23072568966279
 30
0.0
 40
621.25000000000045
 50
182.18927441349831
 51
184.4063851994828
  0
ARC
  5
13A
  8
PATTERN_FILL
  6
CONTINUOUS
 62
     7
 10
866.40044573234525
 20
250.01968863880009
 30
0.0
 40
619.25000000000068
 50
183.19556825659609
 51
185.42259484067671
  0
ARC
  5
13B
  8
PATTERN_FILL
  6
CONTINUOUS
 62
     7
 10
865.74330135383434
 20
260.76390425438711
 30
0.0
 40
617.2500000000008
 50
184.20535805374121
 51
186.44294127025651
  0
ARC
  5
13C
  8
PATTERN_FILL
  6
CONTINUOUS
 62
     7
 10
864.90148115807051
 20
271.46024401280562
 30
0.0
 40
615.25000000000057
 50
185.21855979541789
 51
187.46750197133679
  0
ARC
  5
13D
  8
PATTERN_FILL
  6
CONTINUOUS
 62
     7
 10
863.87645523677782
 20
282.1055452228652
 30
0.0
 40
613.25000000000102
 50
186.23522942772169
 51
188.4963558297116
  0
ARC
  5
13E
  8
PATTERN_FILL
  6
CONTINUOUS
 62
     7
 10
862.66974763606061
 20
292.69668190704112
 30
0.0
 40
611.25000000000068
 50
187.25542919527189
 51
189.21888199847061
  0
ARC
  5
13F
  8
PATTERN_FILL
  6
CONTINUOUS
 62
     7
 10
861.28293552303444
 20
303.2305657181343
 30
0.0
 40
609.25000000000125
 50
188.2792279191012
 51
189.70433518958441
  0
ARC
  5
140
  8
PATTERN_FILL
  6
CONTINUOUS
 62
     7
 10
859.7176483369542
 20
313.70414683803182
 30
0.0
 40
607.25000000000125
 50
189.3067013081853
 51
190.2202136662228
  0
ARC
  5
141
  8
PATTERN_FILL
  6
CONTINUOUS
 62
     7
 10
857.97556692520482
 20
324.11441485830647
 30
0.0
 40
605.2500000000008
 50
190.33794705672659
 51
190.75852123232491
  0
ARC
  5
142
  8
PATTERN_FILL
  6
CONTINUOUS
 62
     7
 10
240.00000000000011
 20
223.52614820971979
 30
0.0
 40
29.999999999999972
 50
225.06755832871079
 51
314.9324416712862
  0
ARC
  5
143
  8
PATTERN_FILL
  6
CONTINUOUS
 62
     7
 10
240.00000000000011
 20
223.52614820971979
 30
0.0
 40
31.999999999999961
 50
230.5786363467281
 51
309.42136365326758
  0
ARC
  5
144
  8
PATTERN_FILL
  6
CONTINUOUS
 62
     7
 10
240.00000000000011
 20
223.52614820971979
 30
0.0
 40
33.99999999999995
 50
234.90337528364341
 51
250.3808932699815
  0
ARC
  5
145
  8
PATTERN_FILL
  6
CONTINUOUS
 62
     7
 10
240.00000000000011
 20
223.52614820971979
 30
0.0
 40
33.99999999999995
 50
289.6191067300183
 51
305.0966247163517
  0
ARC
  5
146
  8
PATTERN_FILL
  6
CONTINUOUS
 62
     7
 10
240.00000000000011
 20
223.52614820971979
 30
0.0
 40
35.999999999999979
 50
297.17506362580127
 51
301.54791409704609
  0
ARC
  5
147
  8
PATTERN_FILL
  6
CONTINUOUS
 62
     7
 10
240.00000000000011
 20
223.52614820971979
 30
0.0
 40
35.999999999999957
 50
238.4520859029528
 51
242.82493637419839
  0
ARC
  5
148
  8
PATTERN_FILL
  6
CONTINUOUS
 62
     7
 10
-387.25000000000091
 20
217.52614820971979
 30
0.0
 40
625.2500000000008
 50
357.61436320674858
 51
359.81432915726413
  0
ARC
  5
149
  8
PATTERN_FILL
  6
CONTINUOUS
 62
     7
 10
-387.15511396063732
 20
228.39901137648999
 30
0.0
 40
623.25000000000068
 50
356.60586499701981
 51
358.81405987411159
  0
ARC
  5
14A
  8
PATTERN_FILL
  6
CONTINUOUS
 62
     7
 10
-386.87149958417751
 20
239.23072568966279
 30
0.0
 40
621.25000000000011
 50
355.59361480051729
 51
357.8108631042852
  0
ARC
  5
14B
  8
PATTERN_FILL
  6
CONTINUOUS
 62
     7
 10
-386.40044573234502
 20
250.01968863880009
 30
0.0
 40
619.25000000000068
 50
354.5774051593263
 51
356.80442755867182
  0
ARC
  5
14C
  8
PATTERN_FILL
  6
CONTINUOUS
 62
     7
 10
-385.743301353834
 20
260.76390425438711
 30
0.0
 40
617.2500000000008
 50
353.55705872974357
 51
355.79463638621741
  0
ARC
  5
14D
  8
PATTERN_FILL
  6
CONTINUOUS
 62
     7
 10
-384.9014811580704
 20
271.46024401280562
 30
0.0
 40
615.25000000000011
 50
352.53249802866111
 51
354.78143323255881
  0
ARC
  5
14E
  8
PATTERN_FILL
  6
CONTINUOUS
 62
     7
 10
-383.87645523677747
 20
282.1055452228652
 30
0.0
 40
613.2500000000008
 50
351.50364417029311
 51
353.76476214714779
  0
ARC
  5
14F
  8
PATTERN_FILL
  6
CONTINUOUS
 62
     7
 10
-381.28293552303398
 20
303.2305657181343
 30
0.0
 40
609.2500000000008
 50
350.29566481041832
 51
351.7207606068464
  0
ARC
  5
150
  8
PATTERN_FILL
  6
CONTINUOUS
 62
     7
 10
-379.71764833695403
 20
313.70414683803182
 30
0.0
 40
607.25000000000068
 50
349.77978633378962
 51
350.69328561139031
  0
ARC
  5
151
  8
PATTERN_FILL
  6
CONTINUOUS
 62
     7
 10
-377.97556692520448
 20
324.11441485830647
 30
0.0
 40
605.25000000000125
 50
349.24147876769018
 51
349.66205294322151
  0
ARC
  5
152
  8
PATTERN_FILL
  6
CONTINUOUS
 62
     7
 10
-382.66974763606049
 20
292.69668190704112
 30
0.0
 40
611.25000000000068
 50
350.78111800152573
 51
352.744560880618
  0
ARC
  5
153
  8
PATTERN_FILL
  6
CONTINUOUS
 62
     7
 10
0.0
 20
-107.9261482096943
 30
0.0
 40
23.999999999999972
 50
19.284325027965089
 51
44.838138377126619
  0
ARC
  5
154
  8
PATTERN_FILL
  6
CONTINUOUS
 62
     7
 10
0.0
 20
-107.9261482096943
 30
0.0
 40
25.999999999999972
 50
26.693422813551589
 51
63.315360796917531
  0
ARC
  5
155
  8
PATTERN_FILL
  6
CONTINUOUS
 62
     7
 10
627.25000000000068
 20
-101.9261482096943
 30
0.0
 40
625.2500000000008
 50
177.68173763035321
 51
178.0723632870743
  0
ARC
  5
156
  8
PATTERN_FILL
  6
CONTINUOUS
 62
     7
 10
627.15511396063755
 20
-112.79901137646451
 30
0.0
 40
623.25000000000068
 50
176.70932812920549
 51
177.10603918884101
  0
ARC
  5
157
  8
PATTERN_FILL
  6
CONTINUOUS
 62
     7
 10
626.8714995841774
 20
-123.6307256896374
 30
0.0
 40
621.2500000000008
 50
175.7573605439369
 51
176.1644014099746
  0
ARC
  5
158
  8
PATTERN_FILL
  6
CONTINUOUS
 62
     7
 10
626.40044573234491
 20
-134.41968863877469
 30
0.0
 40
619.25000000000057
 50
174.82672083715309
 51
175.2493176803556
  0
ARC
  5
159
  8
PATTERN_FILL
  6
CONTINUOUS
 62
     7
 10
625.74330135383389
 20
-145.1639042543616
 30
0.0
 40
617.25000000000045
 50
173.9189120589441
 51
174.36406450510779
  0
ARC
  5
15A
  8
PATTERN_FILL
  6
CONTINUOUS
 62
     7
 10
624.90148115807028
 20
-155.8602440127801
 30
0.0
 40
615.25000000000068
 50
173.0363741867175
 51
173.51437768625999
  0
ARC
  5
15B
  8
PATTERN_FILL
  6
CONTINUOUS
 62
     7
 10
623.8764552367777
 20
-166.50554522283969
 30
0.0
 40
613.25000000000045
 50
172.1828653602611
 51
172.71076855906841
  0
ARC
  5
15C
  8
PATTERN_FILL
  6
CONTINUOUS
 62
     7
 10
622.66974763606004
 20
-177.09668190701561
 30
0.0
 40
611.25000000000057
 50
171.36444740483441
 51
171.9760591516536
  0
ARC
  5
15D
  8
PATTERN_FILL
  6
CONTINUOUS
 62
     7
 10
621.28293552303433
 20
-187.63056571810881
 30
0.0
 40
609.25000000000125
 50
170.5918323441322
 51
171.3857296801983
  0
ARC
  5
15E
  8
PATTERN_FILL
  6
CONTINUOUS
 62
     7
 10
619.71764833695386
 20
-198.1041468380063
 30
0.0
 40
607.25000000000068
 50
169.88738536136
 51
170.7028466230787
  0
ARC
  5
15F
  8
PATTERN_FILL
  6
CONTINUOUS
 62
     7
 10
617.97556692520448
 20
-208.51441485828099
 30
0.0
 40
605.25000000000091
 50
169.3102912987971
 51
169.67167547154281
  0
ARC
  5
160
  8
PATTERN_FILL
  6
CONTINUOUS
 62
     7
 10
0.0
 20
-92.073851790305724
 30
0.0
 40
21.999999999999972
 50
329.64155575230819
 51
338.88264014252798
  0
ARC
  5
161
  8
PATTERN_FILL
  6
CONTINUOUS
 62
     7
 10
0.0
 20
-92.073851790305724
 30
0.0
 40
23.999999999999989
 50
315.1618616228734
 51
340.71567497203489
  0
ARC
  5
162
  8
PATTERN_FILL
  6
CONTINUOUS
 62
     7
 10
0.0
 20
-92.073851790305724
 30
0.0
 40
25.999999999999972
 50
296.68463920308221
 51
333.30657718644829
  0
ARC
  5
163
  8
PATTERN_FILL
  6
CONTINUOUS
 62
     7
 10
627.25000000000068
 20
-98.073851790305653
 30
0.0
 40
625.2500000000008
 50
181.9276367129178
 51
182.31826236965259
  0
ARC
  5
164
  8
PATTERN_FILL
  6
CONTINUOUS
 62
     7
 10
627.15511396063755
 20
-87.200988623535423
 30
0.0
 40
623.25000000000102
 50
182.89396081115689
 51
183.2906718708058
  0
ARC
  5
165
  8
PATTERN_FILL
  6
CONTINUOUS
 62
     7
 10
626.8714995841774
 20
-76.369274310362613
 30
0.0
 40
621.25000000000045
 50
183.83559859002159
 51
184.24263945605031
  0
ARC
  5
166
  8
PATTERN_FILL
  6
CONTINUOUS
 62
     7
 10
626.40044573234491
 20
-65.580311361225341
 30
0.0
 40
619.25000000000057
 50
184.7506823196689
 51
185.17327916285299
  0
ARC
  5
167
  8
PATTERN_FILL
  6
CONTINUOUS
 62
     7
 10
625.74330135383389
 20
-54.83609574563836
 30
0.0
 40
617.25000000000045
 50
185.63593549488991
 51
186.08108794105459
  0
ARC
  5
168
  8
PATTERN_FILL
  6
CONTINUOUS
 62
     7
 10
624.90148115807028
 20
-44.139755987219871
 30
0.0
 40
615.25000000000057
 50
186.48562231374521
 51
186.9636258132837
  0
ARC
  5
169
  8
PATTERN_FILL
  6
CONTINUOUS
 62
     7
 10
623.8764552367777
 20
-33.494454777160293
 30
0.0
 40
613.2500000000008
 50
187.28923144092931
 51
187.8171346397306
  0
ARC
  5
16A
  8
PATTERN_FILL
  6
CONTINUOUS
 62
     7
 10
622.66974763606004
 20
-22.90331809298436
 30
0.0
 40
611.25000000000068
 50
188.02394084834029
 51
188.63555259515479
  0
ARC
  5
16B
  8
PATTERN_FILL
  6
CONTINUOUS
 62
     7
 10
621.28293552303433
 20
-12.369434281891239
 30
0.0
 40
609.25000000000125
 50
188.61427031979011
 51
189.40816765586769
  0
ARC
  5
16C
  8
PATTERN_FILL
  6
CONTINUOUS
 62
     7
 10
619.71764833695386
 20
-1.8958531619937271
 30
0.0
 40
607.25000000000068
 50
189.29715337692161
 51
190.11261463863281
  0
ARC
  5
16D
  8
PATTERN_FILL
  6
CONTINUOUS
 62
     7
 10
617.97556692520448
 20
8.5144148582810431
 30
0.0
 40
605.2500000000008
 50
190.3283245284585
 51
190.6897087012066
  0
LINE
  5
16E
  8
SPEC
  6
CONTINUOUS
 62
     7
 10
-130.0
 20
494.5
 30
0.0
 11
250.0
 21
494.5
 31
0.0
  0
LINE
  5
16F
  8
SPEC
  6
CONTINUOUS
 62
     7
 10
-130.0
 20
483.25
 30
0.0
 11
250.0
 21
483.25
 31
0.0
  0
LINE
  5
170
  8
SPEC
  6
CONTINUOUS
 62
     7
 10
-130.0
 20
415.74999999999989
 30
0.0
 11
250.0
 21
415.74999999999989
 31
0.0
  0
LINE
  5
171
  8
SPEC
  6
CONTINUOUS
 62
     7
 10
-130.0
 20
427.0
 30
0.0
 11
250.0
 21
427.0
 31
0.0
  0
LINE
  5
172
  8
SPEC
  6
CONTINUOUS
 62
     7
 10
-130.0
 20
438.25
 30
0.0
 11
250.0
 21
438.25
 31
0.0
  0
LINE
  5
173
  8
SPEC
  6
CONTINUOUS
 62
     7
 10
-130.0
 20
404.49999999999989
 30
0.0
 11
250.0
 21
404.49999999999989
 31
0.0
  0
LINE
  5
174
  8
SPEC
  6
CONTINUOUS
 62
     7
 10
-130.0
 20
382.0
 30
0.0
 11
250.0
 21
382.0
 31
0.0
  0
LINE
  5
175
  8
SPEC
  6
CONTINUOUS
 62
     7
 10
-130.0
 20
393.25
 30
0.0
 11
250.0
 21
393.25
 31
0.0
  0
LINE
  5
176
  8
SPEC
  6
CONTINUOUS
 62
     7
 10
-130.0
 20
449.5
 30
0.0
 11
250.0
 21
449.5
 31
0.0
  0
TEXT
  5
177
  8
SPEC
 62
     7
 10
-29.800000000000011
 20
485.61373833333329
 30
0.0
 40
5.7009440104166647
  1
F8W
 41
0.7
 11
-29.800000000000011
 21
491.31468234374989
 31
0.0
 73
     3
  0
LINE
  5
178
  8
SPEC
  6
CONTINUOUS
 62
     7
 10
-130.0
 20
494.5
 30
0.0
 11
-130.0
 21
325.74999999999989
 31
0.0
  0
TEXT
  5
179
  8
SPEC
 62
     7
 10
-126.25
 20
498.67979499999979
 30
0.0
 40
7.3297851562499989
  1
仕様
 41
0.7
 11
-126.25
 21
506.00958015624991
 31
0.0
 73
     3
  0
LINE
  5
17A
  8
SPEC
  6
CONTINUOUS
 62
     7
 10
-32.5
 20
494.5
 30
0.0
 11
-32.5
 21
325.74999999999989
 31
0.0
  0
LINE
  5
17B
  8
SPEC
  6
CONTINUOUS
 62
     7
 10
250.0
 20
494.5
 30
0.0
 11
250.0
 21
325.75
 31
0.0
  0
TEXT
  5
17C
  8
SPEC
 62
     7
 10
-29.800000000000011
 20
373.11375333333342
 30
0.0
 40
5.7009440104166647
  1
0.5dBV(1kHz、ゲイン最小、1%%%THD、パッド無し)
 41
0.7
 11
-29.800000000000011
 21
378.81469734375003
 31
0.0
 73
     3
  0
TEXT
  5
17D
  8
SPEC
 62
     7
 10
-127.3
 20
418.11375333333331
 30
0.0
 40
5.7009440104166647
  1
アンテナ形式
 41
0.7
 11
-127.3
 21
423.81469734374991
 31
0.0
 73
     3
  0
TEXT
  5
17E
  8
SPEC
 62
     7
 10
-127.3
 20
485.61373833333329
 30
0.0
 40
5.7009440104166647
  1
電波型式
 41
0.7
 11
-127.3
 21
491.31468234374989
 31
0.0
 73
     3
  0
TEXT
  5
17F
  8
SPEC
 62
     7
 10
-127.3
 20
395.61375333333331
 30
0.0
 40
5.7009440104166647
  1
トーン信号周波数
 41
0.7
 11
-127.3
 21
401.31469734375003
 31
0.0
 73
     3
  0
TEXT
  5
180
  8
SPEC
 62
     7
 10
-127.3
 20
384.36375333333342
 30
0.0
 40
5.7009440104166647
  1
周波数特性
 41
0.7
 11
-127.3
 21
390.06469734375003
 31
0.0
 73
     3
  0
TEXT
  5
181
  8
SPEC
 62
     7
 10
-127.3
 20
429.36375333333331
 30
0.0
 40
5.7009440104166647
  1
空中線電力
 41
0.7
 11
-127.3
 21
435.06469734375003
 31
0.0
 73
     3
  0
TEXT
  5
182
  8
SPEC
 62
     7
 10
-127.3
 20
406.86375333333331
 30
0.0
 40
5.7009440104166647
  1
到達距離
 41
0.7
 11
-127.3
 21
412.56469734375003
 31
0.0
 73
     3
  0
TEXT
  5
183
  8
SPEC
 62
     7
 10
-127.3
 20
474.36375333333331
 30
0.0
 40
5.7009440104166647
  1
送信周波数
 41
0.7
 11
-127.3
 21
480.06469734375003
 31
0.0
 73
     3
  0
TEXT
  5
184
  8
SPEC
 62
     7
 10
-127.3
 20
440.61375333333342
 30
0.0
 40
5.7009440104166647
  1
発振方式
 41
0.7
 11
-127.3
 21
446.31469734375003
 31
0.0
 73
     3
  0
TEXT
  5
185
  8
SPEC
 62
     7
 10
-127.3
 20
373.11375333333342
 30
0.0
 40
5.7009440104166647
  1
最大入力レベル
 41
0.7
 11
-127.3
 21
378.81469734375003
 31
0.0
 73
     3
  0
TEXT
  5
186
  8
SPEC
 62
     7
 10
-29.800000000000011
 20
418.11375333333331
 30
0.0
 40
5.7009440104166647
  1
1/4波長ヘリカル、50\U+03A9
 41
0.7
 11
-29.800000000000011
 21
423.81469734374991
 31
0.0
 73
     3
  0
TEXT
  5
187
  8
SPEC
 62
     7
 10
-29.800000000000011
 20
395.61375333333331
 30
0.0
 40
5.7009440104166647
  1
32.768kHz
 41
0.7
 11
-29.800000000000011
 21
401.31469734375003
 31
0.0
 73
     3
  0
TEXT
  5
188
  8
SPEC
 62
     7
 10
-29.800000000000011
 20
384.36375333333342
 30
0.0
 40
5.7009440104166647
  1
40Hz～15kHz \U+00B11dB（システム全体の帯域幅はマイクヘッドにより変動）
 41
0.7
 11
-29.800000000000011
 21
390.06469734375003
 31
0.0
 73
     3
  0
TEXT
  5
189
  8
SPEC
 62
     7
 10
-29.800000000000011
 20
429.36375333333331
 30
0.0
 40
5.7009440104166647
  1
10mW
 41
0.7
 11
-29.800000000000011
 21
435.06469734375003
 31
0.0
 73
     3
  0
TEXT
  5
18A
  8
SPEC
 62
     7
 10
-29.800000000000011
 20
406.86375333333331
 30
0.0
 40
5.7009440104166647
  1
約100m(標準環境における最大値)
 41
0.7
 11
-29.800000000000011
 21
412.56469734375003
 31
0.0
 73
     3
  0
TEXT
  5
18B
  8
SPEC
 62
     7
 10
-29.800000000000011
 20
440.61375333333342
 30
0.0
 40
5.7009440104166647
  1
水晶制御PLLシンセサイザー方式
 41
0.7
 11
-29.800000000000011
 21
446.31469734375003
 31
0.0
 73
     3
  0
TEXT
  5
18C
  8
SPEC
 62
     7
 10
-29.800000000000011
 20
474.36375333333331
 30
0.0
 40
5.7009440104166647
  1
UR2/SM87-JBX:B型(806～810MHz)30チャンネルのうち任意の1チャンネル
 41
0.7
 11
-29.800000000000011
 21
480.06469734375003
 31
0.0
 73
     3
  0
LINE
  5
18D
  8
SPEC
  6
CONTINUOUS
 62
     7
 10
-130.0
 20
348.25
 30
0.0
 11
250.0
 21
348.25
 31
0.0
  0
LINE
  5
18E
  8
SPEC
  6
CONTINUOUS
 62
     7
 10
-130.0
 20
337.0
 30
0.0
 11
250.0
 21
337.0
 31
0.0
  0
TEXT
  5
18F
  8
SPEC
 62
     7
 10
-29.800000000000011
 20
350.61375333333342
 30
0.0
 40
5.7009440104166647
  1
単3形アルカリ乾電池\U+00D72
 41
0.7
 11
-29.800000000000011
 21
356.31469734375008
 31
0.0
 73
     3
  0
TEXT
  5
190
  8
SPEC
 62
     7
 10
-127.3
 20
350.61375333333342
 30
0.0
 40
5.7009440104166647
  1
電源
 41
0.7
 11
-127.3
 21
356.31469734375008
 31
0.0
 73
     3
  0
LINE
  5
191
  8
SPEC
  6
CONTINUOUS
 62
     7
 10
-130.0
 20
325.75
 30
0.0
 11
250.0
 21
325.75
 31
0.0
  0
TEXT
  5
192
  8
SPEC
 62
     7
 10
-29.800000000000011
 20
339.36375333333342
 30
0.0
 40
5.7009440104166647
  1
\U+03C650\U+00D7246mm
 41
0.7
 11
-29.800000000000011
 21
345.06469734375008
 31
0.0
 73
     3
  0
TEXT
  5
193
  8
SPEC
 62
     7
 10
-127.3
 20
339.36375333333342
 30
0.0
 40
5.7009440104166647
  1
寸法(W\U+00D7H\U+00D7D)
 41
0.7
 11
-127.3
 21
345.06469734375008
 31
0.0
 73
     3
  0
TEXT
  5
194
  8
SPEC
 62
     7
 10
-29.800000000000011
 20
328.11375333333342
 30
0.0
 40
5.7009440104166647
  1
約298g(電池除く)
 41
0.7
 11
-29.800000000000011
 21
333.81469734375008
 31
0.0
 73
     3
  0
TEXT
  5
195
  8
SPEC
 62
     7
 10
-127.3
 20
328.11375333333342
 30
0.0
 40
5.7009440104166647
  1
質量
 41
0.7
 11
-127.3
 21
333.81469734375008
 31
0.0
 73
     3
  0
TEXT
  5
196
  8
SPEC
 62
     7
 10
-29.800000000000011
 20
361.86375333333342
 30
0.0
 40
5.7009440104166647
  1
-10～+20dB
 41
0.7
 11
-29.800000000000011
 21
367.56469734375003
 31
0.0
 73
     3
  0
TEXT
  5
197
  8
SPEC
 62
     7
 10
-127.3
 20
361.86375333333342
 30
0.0
 40
5.7009440104166647
  1
ゲイン調整範囲
 41
0.7
 11
-127.3
 21
367.56469734375003
 31
0.0
 73
     3
  0
LINE
  5
198
  8
SPEC
  6
CONTINUOUS
 62
     7
 10
-130.0
 20
370.75
 30
0.0
 11
250.0
 21
370.75
 31
0.0
  0
TEXT
  5
199
  8
SPEC
 62
     7
 10
-29.800000000000011
 20
463.11375333333331
 30
0.0
 40
5.7009440104166647
  1
UR2/SM87-A24:A型(797～806MHz)71チャンネルとA2型 (779～788MHz)71チャンネル
 41
0.7
 11
-29.800000000000011
 21
468.81469734375003
 31
0.0
 73
     3
  0
TEXT
  5
19A
  8
SPEC
 62
     7
 10
18.199999999999989
 20
451.86375333333331
 30
0.0
 40
5.7009440104166647
  1
合計142チャンネルのうち任意の1チャンネル
 41
0.7
 11
18.199999999999989
 21
457.56469734375003
 31
0.0
 73
     3
  0
LINE
  5
19B
  8
SPEC
  6
CONTINUOUS
 62
     7
 10
-130.0
 20
359.5
 30
0.0
 11
250.0
 21
359.5
 31
0.0
  0
TEXT
  5
19C
  8
DIMNSIONS
 62
     7
 10
57.499984999999981
 20
-218.69151500000001
 30
0.0
 40
7.3297851562499989
  1
(単位：mm)
 41
0.7
 11
57.499984999999981
 21
-211.36172984375
 31
0.0
 73
     3
  0
LINE
  5
19D
  8
DIMNSIONS
  6
CONTINUOUS
 62
     7
 10
-24.499999977648251
 20
176.0
 30
0.0
 11
-65.999999977648244
 21
176.0
 31
0.0
  0
LINE
  5
19E
  8
DIMNSIONS
  6
CONTINUOUS
 62
     7
 10
-15.05309312801816
 20
0.0
 30
0.0
 11
-65.999999977648244
 21
0.0
 31
0.0
  0
LINE
  5
19F
  8
DIMNSIONS
  6
CONTINUOUS
 62
     7
 10
-60.0
 20
176.0
 30
0.0
 11
-60.0
 21
0.0
 31
0.0
  0
LINE
  5
1A0
  8
DIMNSIONS
  6
CONTINUOUS
 62
     7
 10
-60.0
 20
176.0
 30
0.0
 11
-57.447783942093572
 21
166.47499999999999
 31
0.0
  0
LINE
  5
1A1
  8
DIMNSIONS
  6
CONTINUOUS
 62
     7
 10
-60.0
 20
176.0
 30
0.0
 11
-62.552216057906442
 21
166.47499999999999
 31
0.0
  0
LINE
  5
1A2
  8
DIMNSIONS
  6
CONTINUOUS
 62
     7
 10
-60.0
 20
0.0
 30
0.0
 11
-62.552216057906442
 21
9.5250000000000021
 31
0.0
  0
LINE
  5
1A3
  8
DIMNSIONS
  6
CONTINUOUS
 62
     7
 10
-60.0
 20
0.0
 30
0.0
 11
-57.447783942093572
 21
9.5250000000000021
 31
0.0
  0
TEXT
  5
1A4
  8
DIMNSIONS
 62
     7
 10
-64.48166665549077
 20
80.062499999999986
 30
0.0
 40
8.1442057291666661
  1
176
 50
90.0
 41
0.7
 11
-72.625872384657441
 21
80.062499999999986
 31
0.0
 73
     3
  0
LINE
  5
1A5
  8
DIMNSIONS
  6
CONTINUOUS
 62
     7
 10
-21.135066103397371
 20
245.5000000000087
 30
0.0
 11
-95.999999977648244
 21
245.5000000000087
 31
0.0
  0
LINE
  5
1A6
  8
DIMNSIONS
  6
CONTINUOUS
 62
     7
 10
-15.05309312801816
 20
0.0
 30
0.0
 11
-95.999999977648244
 21
0.0
 31
0.0
  0
LINE
  5
1A7
  8
DIMNSIONS
  6
CONTINUOUS
 62
     7
 10
-90.0
 20
245.5000000000087
 30
0.0
 11
-90.0
 21
0.0
 31
0.0
  0
LINE
  5
1A8
  8
DIMNSIONS
  6
CONTINUOUS
 62
     7
 10
-90.0
 20
245.5000000000087
 30
0.0
 11
-87.447783942093565
 21
235.97500000000869
 31
0.0
  0
LINE
  5
1A9
  8
DIMNSIONS
  6
CONTINUOUS
 62
     7
 10
-90.0
 20
245.5000000000087
 30
0.0
 11
-92.552216057906435
 21
235.97500000000869
 31
0.0
  0
LINE
  5
1AA
  8
DIMNSIONS
  6
CONTINUOUS
 62
     7
 10
-90.0
 20
0.0
 30
0.0
 11
-92.552216057906435
 21
9.5250000000000021
 31
0.0
  0
LINE
  5
1AB
  8
DIMNSIONS
  6
CONTINUOUS
 62
     7
 10
-90.0
 20
0.0
 30
0.0
 11
-87.447783942093565
 21
9.5250000000000021
 31
0.0
  0
TEXT
  5
1AC
  8
DIMNSIONS
 62
     7
 10
-94.48166665549077
 20
114.81250000000431
 30
0.0
 40
8.1442057291666661
  1
246
 50
90.0
 41
0.7
 11
-102.6258723846574
 21
114.81250000000431
 31
0.0
 73
     3
  0
LINE
  5
1AD
  8
DIMNSIONS
  6
CONTINUOUS
 62
     7
 10
-24.499999977648251
 20
176.0
 30
0.0
 11
-65.999999977648244
 21
176.0
 31
0.0
  0
LINE
  5
1AE
  8
DIMNSIONS
  6
CONTINUOUS
 62
     7
 10
-21.135066103397371
 20
245.5000000000087
 30
0.0
 11
-65.999999977648244
 21
245.5000000000087
 31
0.0
  0
LINE
  5
1AF
  8
DIMNSIONS
  6
CONTINUOUS
 62
     7
 10
-60.0
 20
176.0
 30
0.0
 11
-60.0
 21
245.5000000000087
 31
0.0
  0
LINE
  5
1B0
  8
DIMNSIONS
  6
CONTINUOUS
 62
     7
 10
-60.0
 20
176.0
 30
0.0
 11
-62.552216057906442
 21
185.52500000000001
 31
0.0
  0
LINE
  5
1B1
  8
DIMNSIONS
  6
CONTINUOUS
 62
     7
 10
-60.0
 20
176.0
 30
0.0
 11
-57.447783942093572
 21
185.52500000000001
 31
0.0
  0
LINE
  5
1B2
  8
DIMNSIONS
  6
CONTINUOUS
 62
     7
 10
-60.0
 20
245.5000000000087
 30
0.0
 11
-57.447783942093572
 21
235.97500000000869
 31
0.0
  0
LINE
  5
1B3
  8
DIMNSIONS
  6
CONTINUOUS
 62
     7
 10
-60.0
 20
245.5000000000087
 30
0.0
 11
-62.552216057906442
 21
235.97500000000869
 31
0.0
  0
TEXT
  5
1B4
  8
DIMNSIONS
 62
     7
 10
-64.48166665549077
 20
205.45833333333761
 30
0.0
 40
8.1442057291666661
  1
70
 50
90.0
 41
0.7
 11
-72.625872384657441
 21
205.45833333333761
 31
0.0
 73
     3
  0
LINE
  5
1B5
  8
DIMNSIONS
  6
CONTINUOUS
 62
     7
 10
-24.75
 20
-94.000000022351742
 30
0.0
 11
-24.75
 21
-34.000000022351749
 31
0.0
  0
LINE
  5
1B6
  8
DIMNSIONS
  6
CONTINUOUS
 62
     7
 10
24.75
 20
-94.000000022351742
 30
0.0
 11
24.75
 21
-34.000000022351749
 31
0.0
  0
LINE
  5
1B7
  8
DIMNSIONS
  6
CONTINUOUS
 62
     7
 10
-24.75
 20
-40.0
 30
0.0
 11
24.75
 21
-40.0
 31
0.0
  0
LINE
  5
1B8
  8
DIMNSIONS
  6
CONTINUOUS
 62
     7
 10
-24.75
 20
-40.0
 30
0.0
 11
-15.224999999999991
 21
-37.447783942093572
 31
0.0
  0
LINE
  5
1B9
  8
DIMNSIONS
  6
CONTINUOUS
 62
     7
 10
-24.75
 20
-40.0
 30
0.0
 11
-15.224999999999991
 21
-42.552216057906442
 31
0.0
  0
LINE
  5
1BA
  8
DIMNSIONS
  6
CONTINUOUS
 62
     7
 10
24.75
 20
-40.0
 30
0.0
 11
15.224999999999991
 21
-42.552216057906442
 31
0.0
  0
LINE
  5
1BB
  8
DIMNSIONS
  6
CONTINUOUS
 62
     7
 10
24.75
 20
-40.0
 30
0.0
 11
15.224999999999991
 21
-37.447783942093572
 31
0.0
  0
TEXT
  5
1BC
  8
DIMNSIONS
 62
     7
 10
-5.2916666666666732
 20
-35.518333344509202
 30
0.0
 40
8.1442057291666661
  1
50
 41
0.7
 11
-5.2916666666666723
 21
-27.37412761534253
 31
0.0
 73
     3
  0
TEXT
  5
1BD
  8
DATA
 62
     7
 10
239.99996999999999
 20
-221.19716333333329
 30
0.0
 40
6.5153645833333318
  1
UR2/SM87-JBX 、 UR2/SM87-A24
 41
0.7
 11
239.99996999999999
 21
-214.68179875000001
 31
0.0
 73
     3
  0
TEXT
  5
1BE
  8
DATA
 62
     7
 10
259.99997000000002
 20
-200.35732999999999
 30
0.0
 40
7.3297851562499989
  1
SHURE
 41
0.7
 11
259.99997000000002
 21
-193.02754484375001
 31
0.0
 73
     3
  0
TEXT
  5
1BF
  8
DATA
 62
     7
 10
239.99996999999999
 20
-210.3581574561403
 30
0.0
 40
6.5153645833333318
  1
ハンドヘルド型送信機
 41
0.7
 11
239.99996999999999
 21
-203.84279287280691
 31
0.0
 73
     3
  0
CIRCLE
  5
1C0
  8
DATA
  6
CONTINUOUS
 62
     7
 10
0.0
 20
-100.0
 30
0.0
 40
24.75
  0
CIRCLE
  5
1C1
  8
DATA
  6
CONTINUOUS
 62
     7
 10
0.0
 20
-100.0
 30
0.0
 40
23.5
  0
CIRCLE
  5
1C2
  8
DATA
  6
CONTINUOUS
 62
     7
 10
0.0
 20
-100.0
 30
0.0
 40
12.5
  0
CIRCLE
  5
1C3
  8
DATA
  6
CONTINUOUS
 62
     7
 10
0.0
 20
-100.0
 30
0.0
 40
18.5
  0
CIRCLE
  5
1C4
  8
DATA
  6
CONTINUOUS
 62
     7
 10
0.0
 20
-100.0
 30
0.0
 40
19.25
  0
CIRCLE
  5
1C5
  8
DATA
  6
CONTINUOUS
 62
     7
 10
0.0
 20
-100.0
 30
0.0
 40
17.0
  0
LINE
  5
1C6
  8
DATA
  6
CONTINUOUS
 62
     7
 10
-18.5
 20
176.5
 30
0.0
 11
18.5
 21
176.5
 31
0.0
  0
TEXT
  5
1C7
  8
DATA
 62
     7
 10
-6.6145833333333277
 20
177.7408333333332
 30
0.0
 40
4.072102864583333
  1
SM87A
 41
0.7
 11
-6.6145833333333277
 21
181.8129361979166
 31
0.0
 73
     3
  0
LINE
  5
1C8
  8
DATA
  6
CONTINUOUS
 62
     7
 10
-18.5
 20
176.5
 30
0.0
 11
-18.5
 21
183.5
 31
0.0
  0
LINE
  5
1C9
  8
DATA
  6
CONTINUOUS
 62
     7
 10
18.5
 20
176.5
 30
0.0
 11
18.5
 21
183.5
 31
0.0
  0
LINE
  5
1CA
  8
DATA
  6
CONTINUOUS
 62
     7
 10
-18.5
 20
176.0
 30
0.0
 11
18.5
 21
176.0
 31
0.0
  0
LINE
  5
1CB
  8
DATA
  6
CONTINUOUS
 62
     7
 10
-17.5
 20
102.0
 30
0.0
 11
17.5
 21
102.0
 31
0.0
  0
LINE
  5
1CC
  8
DATA
  6
CONTINUOUS
 62
     7
 10
-17.5
 20
136.0
 30
0.0
 11
-17.5
 21
102.0
 31
0.0
  0
LINE
  5
1CD
  8
DATA
  6
CONTINUOUS
 62
     7
 10
17.5
 20
136.0
 30
0.0
 11
17.5
 21
102.0
 31
0.0
  0
ARC
  5
1CE
  8
DATA
  6
CONTINUOUS
 62
     7
 10
151.17307692307691
 20
171.88461538461539
 30
0.0
 40
169.72297847691971
 50
178.61057540006649
 51
187.0513242185213
  0
LINE
  5
1CF
  8
DATA
  6
CONTINUOUS
 62
     7
 10
17.5
 20
136.0
 30
0.0
 11
17.5
 21
102.0
 31
0.0
  0
ARC
  5
1D0
  8
DATA
  6
CONTINUOUS
 62
     7
 10
-91.204948301329424
 20
138.32865583456419
 30
0.0
 40
108.7298874421865
 50
358.77280887296558
 51
4.5740453520401161
  0
LINE
  5
1D1
  8
DATA
  6
CONTINUOUS
 62
     7
 10
-17.5
 20
176.5
 30
0.0
 11
-17.5
 21
176.0
 31
0.0
  0
LINE
  5
1D2
  8
DATA
  6
CONTINUOUS
 62
     7
 10
17.5
 20
176.5
 30
0.0
 11
17.5
 21
176.0
 31
0.0
  0
LINE
  5
1D3
  8
DATA
  6
CONTINUOUS
 62
     7
 10
-17.5
 20
102.5
 30
0.0
 11
17.5
 21
102.5
 31
0.0
  0
LINE
  5
1D4
  8
DATA
  6
CONTINUOUS
 62
     7
 10
-17.0
 20
37.0
 30
0.0
 11
17.0
 21
37.0
 31
0.0
  0
LINE
  5
1D5
  8
DATA
  6
CONTINUOUS
 62
     7
 10
-16.0
 20
28.0
 30
0.0
 11
16.0
 21
28.0
 31
0.0
  0
LINE
  5
1D6
  8
DATA
  6
CONTINUOUS
 62
     7
 10
-17.0
 20
29.0
 30
0.0
 11
-17.0
 21
37.0
 31
0.0
  0
LINE
  5
1D7
  8
DATA
  6
CONTINUOUS
 62
     7
 10
17.0
 20
29.0
 30
0.0
 11
17.0
 21
37.0
 31
0.0
  0
LINE
  5
1D8
  8
DATA
  6
CONTINUOUS
 62
     7
 10
-17.0
 20
37.5
 30
0.0
 11
17.0
 21
37.5
 31
0.0
  0
LINE
  5
1D9
  8
DATA
  6
CONTINUOUS
 62
     7
 10
-17.5
 20
102.0
 30
0.0
 11
-17.0
 21
37.5
 31
0.0
  0
LINE
  5
1DA
  8
DATA
  6
CONTINUOUS
 62
     7
 10
17.5
 20
102.0
 30
0.0
 11
17.0
 21
37.5
 31
0.0
  0
LINE
  5
1DB
  8
DATA
  6
CONTINUOUS
 62
     7
 10
-17.0
 20
37.5
 30
0.0
 11
-16.5
 21
37.25
 31
0.0
  0
LINE
  5
1DC
  8
DATA
  6
CONTINUOUS
 62
     7
 10
-16.5
 20
37.25
 30
0.0
 11
-17.0
 21
37.0
 31
0.0
  0
LINE
  5
1DD
  8
DATA
  6
CONTINUOUS
 62
     7
 10
17.0
 20
37.5
 30
0.0
 11
16.5
 21
37.25
 31
0.0
  0
LINE
  5
1DE
  8
DATA
  6
CONTINUOUS
 62
     7
 10
16.5
 20
37.25
 30
0.0
 11
17.0
 21
37.0
 31
0.0
  0
LINE
  5
1DF
  8
DATA
  6
CONTINUOUS
 62
     7
 10
-16.5
 20
37.25
 30
0.0
 11
16.5
 21
37.25
 31
0.0
  0
ARC
  5
1E0
  8
DATA
  6
CONTINUOUS
 62
     7
 10
-16.0
 20
29.0
 30
0.0
 40
1.0
 50
180.0
 51
270.0
  0
ARC
  5
1E1
  8
DATA
  6
CONTINUOUS
 62
     7
 10
16.0
 20
29.0
 30
0.0
 40
1.0
 50
270.0
 51
0.0
  0
LINE
  5
1E2
  8
DATA
  6
CONTINUOUS
 62
     7
 10
-9.0530931503699037
 20
0.0
 30
0.0
 11
9.0530931503699037
 21
0.0
 31
0.0
  0
LINE
  5
1E3
  8
DATA
  6
CONTINUOUS
 62
     7
 10
-12.5
 20
28.0
 30
0.0
 11
-12.052614948406241
 21
2.9464371107493572
 31
0.0
  0
LINE
  5
1E4
  8
DATA
  6
CONTINUOUS
 62
     7
 10
12.5
 20
28.0
 30
0.0
 11
12.052614948406241
 21
2.9464371107493572
 31
0.0
  0
ARC
  5
1E5
  8
DATA
  6
CONTINUOUS
 62
     7
 10
-9.0530931503699037
 20
3.0
 30
0.0
 40
3.0000000000000062
 50
181.0230301886676
 51
270.0
  0
ARC
  5
1E6
  8
DATA
  6
CONTINUOUS
 62
     7
 10
9.0530931503699037
 20
2.9999999999999849
 30
0.0
 40
2.9999999999999849
 50
270.0
 51
358.97696981133248
  0
LINE
  5
1E7
  8
DATA
  6
CONTINUOUS
 62
     7
 10
-9.5
 20
104.5
 30
0.0
 11
9.5
 21
104.5
 31
0.0
  0
LINE
  5
1E8
  8
DATA
  6
CONTINUOUS
 62
     7
 10
-9.5
 20
128.5
 30
0.0
 11
9.5
 21
128.5
 31
0.0
  0
LINE
  5
1E9
  8
DATA
  6
CONTINUOUS
 62
     7
 10
-11.0
 20
127.0
 30
0.0
 11
-11.0
 21
106.0
 31
0.0
  0
LINE
  5
1EA
  8
DATA
  6
CONTINUOUS
 62
     7
 10
11.0
 20
127.0
 30
0.0
 11
11.0
 21
106.0
 31
0.0
  0
LINE
  5
1EB
  8
DATA
  6
CONTINUOUS
 62
     7
 10
-8.5
 20
108.5
 30
0.0
 11
8.5
 21
108.5
 31
0.0
  0
LINE
  5
1EC
  8
DATA
  6
CONTINUOUS
 62
     7
 10
-8.5
 20
125.5
 30
0.0
 11
8.5
 21
125.5
 31
0.0
  0
LINE
  5
1ED
  8
DATA
  6
CONTINUOUS
 62
     7
 10
-8.5
 20
108.5
 30
0.0
 11
-8.5
 21
125.5
 31
0.0
  0
LINE
  5
1EE
  8
DATA
  6
CONTINUOUS
 62
     7
 10
8.5
 20
108.5
 30
0.0
 11
8.5
 21
125.5
 31
0.0
  0
ARC
  5
1EF
  8
DATA
  6
CONTINUOUS
 62
     7
 10
-9.5
 20
127.0
 30
0.0
 40
1.5
 50
90.0
 51
180.0
  0
ARC
  5
1F0
  8
DATA
  6
CONTINUOUS
 62
     7
 10
-9.5
 20
106.0
 30
0.0
 40
1.5
 50
180.0
 51
270.0
  0
ARC
  5
1F1
  8
DATA
  6
CONTINUOUS
 62
     7
 10
9.5
 20
106.0
 30
0.0
 40
1.5
 50
270.0
 51
0.0
  0
ARC
  5
1F2
  8
DATA
  6
CONTINUOUS
 62
     7
 10
9.5
 20
127.0
 30
0.0
 40
1.5
 50
0.0
 51
90.0
  0
TEXT
  5
1F3
  8
DATA
 62
     7
 10
-2.785662895322957
 20
30.659518004825529
 30
0.0
 40
3.2576822916666659
  1
UR2
 41
0.7
 11
-2.785662895322957
 21
33.917200296492197
 31
0.0
 73
     3
  0
LINE
  5
1F4
  8
DATA
  6
CONTINUOUS
 62
     7
 10
101.5
 20
176.0
 30
0.0
 11
138.5
 21
176.0
 31
0.0
  0
LINE
  5
1F5
  8
DATA
  6
CONTINUOUS
 62
     7
 10
102.5
 20
102.0
 30
0.0
 11
137.5
 21
102.0
 31
0.0
  0
LINE
  5
1F6
  8
DATA
  6
CONTINUOUS
 62
     7
 10
102.5
 20
136.0
 30
0.0
 11
102.5
 21
102.0
 31
0.0
  0
LINE
  5
1F7
  8
DATA
  6
CONTINUOUS
 62
     7
 10
137.5
 20
136.0
 30
0.0
 11
137.5
 21
102.0
 31
0.0
  0
ARC
  5
1F8
  8
DATA
  6
CONTINUOUS
 62
     7
 10
271.17307692307691
 20
171.88461538461539
 30
0.0
 40
169.72297847691971
 50
178.61057540006649
 51
187.0513242185213
  0
LINE
  5
1F9
  8
DATA
  6
CONTINUOUS
 62
     7
 10
137.5
 20
136.0
 30
0.0
 11
137.5
 21
102.0
 31
0.0
  0
ARC
  5
1FA
  8
DATA
  6
CONTINUOUS
 62
     7
 10
28.795051698670591
 20
138.32865583456419
 30
0.0
 40
108.7298874421865
 50
358.77280887296558
 51
4.5740453520388646
  0
LINE
  5
1FB
  8
DATA
  6
CONTINUOUS
 62
     7
 10
102.5
 20
176.5
 30
0.0
 11
102.5
 21
176.0
 31
0.0
  0
LINE
  5
1FC
  8
DATA
  6
CONTINUOUS
 62
     7
 10
137.5
 20
176.5
 30
0.0
 11
137.5
 21
176.0
 31
0.0
  0
LINE
  5
1FD
  8
DATA
  6
CONTINUOUS
 62
     7
 10
102.5
 20
102.5
 30
0.0
 11
137.5
 21
102.5
 31
0.0
  0
LINE
  5
1FE
  8
DATA
  6
CONTINUOUS
 62
     7
 10
103.0
 20
37.0
 30
0.0
 11
137.0
 21
37.0
 31
0.0
  0
LINE
  5
1FF
  8
DATA
  6
CONTINUOUS
 62
     7
 10
104.0
 20
28.0
 30
0.0
 11
136.0
 21
28.0
 31
0.0
  0
LINE
  5
200
  8
DATA
  6
CONTINUOUS
 62
     7
 10
103.0
 20
29.0
 30
0.0
 11
103.0
 21
37.0
 31
0.0
  0
LINE
  5
201
  8
DATA
  6
CONTINUOUS
 62
     7
 10
137.0
 20
29.0
 30
0.0
 11
137.0
 21
37.0
 31
0.0
  0
LINE
  5
202
  8
DATA
  6
CONTINUOUS
 62
     7
 10
103.0
 20
37.5
 30
0.0
 11
137.0
 21
37.5
 31
0.0
  0
LINE
  5
203
  8
DATA
  6
CONTINUOUS
 62
     7
 10
102.5
 20
102.0
 30
0.0
 11
103.0
 21
37.5
 31
0.0
  0
LINE
  5
204
  8
DATA
  6
CONTINUOUS
 62
     7
 10
137.5
 20
102.0
 30
0.0
 11
137.0
 21
37.5
 31
0.0
  0
LINE
  5
205
  8
DATA
  6
CONTINUOUS
 62
     7
 10
103.0
 20
37.5
 30
0.0
 11
103.5
 21
37.25
 31
0.0
  0
LINE
  5
206
  8
DATA
  6
CONTINUOUS
 62
     7
 10
103.5
 20
37.25
 30
0.0
 11
103.0
 21
37.0
 31
0.0
  0
LINE
  5
207
  8
DATA
  6
CONTINUOUS
 62
     7
 10
137.0
 20
37.5
 30
0.0
 11
136.5
 21
37.25
 31
0.0
  0
LINE
  5
208
  8
DATA
  6
CONTINUOUS
 62
     7
 10
136.5
 20
37.25
 30
0.0
 11
137.0
 21
37.0
 31
0.0
  0
LINE
  5
209
  8
DATA
  6
CONTINUOUS
 62
     7
 10
103.5
 20
37.25
 30
0.0
 11
136.5
 21
37.25
 31
0.0
  0
ARC
  5
20A
  8
DATA
  6
CONTINUOUS
 62
     7
 10
104.0
 20
29.0
 30
0.0
 40
1.0
 50
180.0
 51
270.0
  0
ARC
  5
20B
  8
DATA
  6
CONTINUOUS
 62
     7
 10
136.0
 20
29.0
 30
0.0
 40
1.0
 50
270.0
 51
0.0
  0
LINE
  5
20C
  8
DATA
  6
CONTINUOUS
 62
     7
 10
110.9469068496301
 20
0.0
 30
0.0
 11
129.0530931503699
 21
0.0
 31
0.0
  0
LINE
  5
20D
  8
DATA
  6
CONTINUOUS
 62
     7
 10
107.5
 20
28.0
 30
0.0
 11
107.9473850515937
 21
2.9464371107493572
 31
0.0
  0
LINE
  5
20E
  8
DATA
  6
CONTINUOUS
 62
     7
 10
132.5
 20
28.0
 30
0.0
 11
132.05261494840619
 21
2.9464371107493572
 31
0.0
  0
ARC
  5
20F
  8
DATA
  6
CONTINUOUS
 62
     7
 10
110.9469068496301
 20
3.0
 30
0.0
 40
3.0000000000000062
 50
181.0230301886676
 51
270.0
  0
ARC
  5
210
  8
DATA
  6
CONTINUOUS
 62
     7
 10
129.0530931503699
 20
2.9999999999999849
 30
0.0
 40
2.9999999999999849
 50
270.0
 51
358.97696981133248
  0
LINE
  5
211
  8
DATA
  6
CONTINUOUS
 62
     7
 10
102.5
 20
104.5
 30
0.0
 11
104.5
 21
104.5
 31
0.0
  0
LINE
  5
212
  8
DATA
  6
CONTINUOUS
 62
     7
 10
102.5
 20
128.5
 30
0.0
 11
104.5
 21
128.5
 31
0.0
  0
LINE
  5
213
  8
DATA
  6
CONTINUOUS
 62
     7
 10
107.5
 20
125.5
 30
0.0
 11
107.5
 21
107.5
 31
0.0
  0
LINE
  5
214
  8
DATA
  6
CONTINUOUS
 62
     7
 10
102.5
 20
108.5
 30
0.0
 11
105.5
 21
108.5
 31
0.0
  0
LINE
  5
215
  8
DATA
  6
CONTINUOUS
 62
     7
 10
102.5
 20
125.5
 30
0.0
 11
105.5
 21
125.5
 31
0.0
  0
ARC
  5
216
  8
DATA
  6
CONTINUOUS
 62
     7
 10
104.5
 20
125.5
 30
0.0
 40
3.0
 50
0.0
 51
90.0
  0
ARC
  5
217
  8
DATA
  6
CONTINUOUS
 62
     7
 10
104.5
 20
107.5
 30
0.0
 40
3.0
 50
270.0
 51
0.0
  0
LINE
  5
218
  8
DATA
  6
CONTINUOUS
 62
     7
 10
105.5
 20
125.5
 30
0.0
 11
105.5
 21
108.5
 31
0.0
  0
LINE
  5
219
  8
DATA
  6
CONTINUOUS
 62
     7
 10
221.5
 20
176.0
 30
0.0
 11
258.5
 21
176.0
 31
0.0
  0
LINE
  5
21A
  8
DATA
  6
CONTINUOUS
 62
     7
 10
222.5
 20
102.0
 30
0.0
 11
257.5
 21
102.0
 31
0.0
  0
LINE
  5
21B
  8
DATA
  6
CONTINUOUS
 62
     7
 10
222.5
 20
136.0
 30
0.0
 11
222.5
 21
102.0
 31
0.0
  0
LINE
  5
21C
  8
DATA
  6
CONTINUOUS
 62
     7
 10
257.5
 20
136.0
 30
0.0
 11
257.5
 21
102.0
 31
0.0
  0
ARC
  5
21D
  8
DATA
  6
CONTINUOUS
 62
     7
 10
391.17307692307702
 20
171.88461538461539
 30
0.0
 40
169.72297847691971
 50
178.61057540006649
 51
187.0513242185211
  0
LINE
  5
21E
  8
DATA
  6
CONTINUOUS
 62
     7
 10
257.5
 20
136.0
 30
0.0
 11
257.5
 21
102.0
 31
0.0
  0
ARC
  5
21F
  8
DATA
  6
CONTINUOUS
 62
     7
 10
148.79505169867059
 20
138.32865583456419
 30
0.0
 40
108.7298874421865
 50
358.77280887296558
 51
4.5740453520401161
  0
LINE
  5
220
  8
DATA
  6
CONTINUOUS
 62
     7
 10
222.5
 20
176.5
 30
0.0
 11
222.5
 21
176.0
 31
0.0
  0
LINE
  5
221
  8
DATA
  6
CONTINUOUS
 62
     7
 10
257.5
 20
176.5
 30
0.0
 11
257.5
 21
176.0
 31
0.0
  0
LINE
  5
222
  8
DATA
  6
CONTINUOUS
 62
     7
 10
222.5
 20
102.5
 30
0.0
 11
257.5
 21
102.5
 31
0.0
  0
LINE
  5
223
  8
DATA
  6
CONTINUOUS
 62
     7
 10
223.0
 20
37.0
 30
0.0
 11
257.0
 21
37.0
 31
0.0
  0
LINE
  5
224
  8
DATA
  6
CONTINUOUS
 62
     7
 10
224.0
 20
28.0
 30
0.0
 11
256.0
 21
28.0
 31
0.0
  0
LINE
  5
225
  8
DATA
  6
CONTINUOUS
 62
     7
 10
223.0
 20
29.0
 30
0.0
 11
223.0
 21
37.0
 31
0.0
  0
LINE
  5
226
  8
DATA
  6
CONTINUOUS
 62
     7
 10
257.0
 20
29.0
 30
0.0
 11
257.0
 21
37.0
 31
0.0
  0
LINE
  5
227
  8
DATA
  6
CONTINUOUS
 62
     7
 10
223.0
 20
37.5
 30
0.0
 11
257.0
 21
37.5
 31
0.0
  0
LINE
  5
228
  8
DATA
  6
CONTINUOUS
 62
     7
 10
222.5
 20
102.0
 30
0.0
 11
223.0
 21
37.5
 31
0.0
  0
LINE
  5
229
  8
DATA
  6
CONTINUOUS
 62
     7
 10
257.5
 20
102.0
 30
0.0
 11
257.0
 21
37.5
 31
0.0
  0
LINE
  5
22A
  8
DATA
  6
CONTINUOUS
 62
     7
 10
223.0
 20
37.5
 30
0.0
 11
223.5
 21
37.25
 31
0.0
  0
LINE
  5
22B
  8
DATA
  6
CONTINUOUS
 62
     7
 10
223.5
 20
37.25
 30
0.0
 11
223.0
 21
37.0
 31
0.0
  0
LINE
  5
22C
  8
DATA
  6
CONTINUOUS
 62
     7
 10
257.0
 20
37.5
 30
0.0
 11
256.5
 21
37.25
 31
0.0
  0
LINE
  5
22D
  8
DATA
  6
CONTINUOUS
 62
     7
 10
256.5
 20
37.25
 30
0.0
 11
257.0
 21
37.0
 31
0.0
  0
LINE
  5
22E
  8
DATA
  6
CONTINUOUS
 62
     7
 10
223.5
 20
37.25
 30
0.0
 11
256.5
 21
37.25
 31
0.0
  0
ARC
  5
22F
  8
DATA
  6
CONTINUOUS
 62
     7
 10
224.0
 20
29.0
 30
0.0
 40
1.0
 50
180.0
 51
270.0
  0
ARC
  5
230
  8
DATA
  6
CONTINUOUS
 62
     7
 10
256.0
 20
29.0
 30
0.0
 40
1.0
 50
270.0
 51
0.0
  0
LINE
  5
231
  8
DATA
  6
CONTINUOUS
 62
     7
 10
230.9469068496301
 20
0.0
 30
0.0
 11
249.0530931503699
 21
0.0
 31
0.0
  0
LINE
  5
232
  8
DATA
  6
CONTINUOUS
 62
     7
 10
227.5
 20
28.0
 30
0.0
 11
227.9473850515937
 21
2.9464371107493572
 31
0.0
  0
LINE
  5
233
  8
DATA
  6
CONTINUOUS
 62
     7
 10
252.5
 20
28.0
 30
0.0
 11
252.05261494840619
 21
2.9464371107493572
 31
0.0
  0
ARC
  5
234
  8
DATA
  6
CONTINUOUS
 62
     7
 10
230.9469068496301
 20
3.0
 30
0.0
 40
3.0000000000000062
 50
181.0230301886676
 51
270.0
  0
ARC
  5
235
  8
DATA
  6
CONTINUOUS
 62
     7
 10
249.0530931503699
 20
2.9999999999999849
 30
0.0
 40
2.9999999999999849
 50
270.0
 51
358.97696981133248
  0
TEXT
  5
236
  8
DATA
 62
     7
 10
237.21433710467701
 20
30.659518004825529
 30
0.0
 40
3.2576822916666659
  1
UR2
 41
0.7
 11
237.21433710467701
 21
33.917200296492197
 31
0.0
 73
     3
  0
LINE
  5
237
  8
DATA
  6
CONTINUOUS
 62
     7
 10
232.5
 20
21.0
 30
0.0
 11
247.5
 21
21.0
 31
0.0
  0
LINE
  5
238
  8
DATA
  6
CONTINUOUS
 62
     7
 10
232.5
 20
21.0
 30
0.0
 11
232.5
 21
28.0
 31
0.0
  0
LINE
  5
239
  8
DATA
  6
CONTINUOUS
 62
     7
 10
247.5
 20
21.0
 30
0.0
 11
247.5
 21
28.0
 31
0.0
  0
LINE
  5
23A
  8
DATA
  6
CONTINUOUS
 62
     7
 10
234.5
 20
23.0
 30
0.0
 11
245.5
 21
23.0
 31
0.0
  0
LINE
  5
23B
  8
DATA
  6
CONTINUOUS
 62
     7
 10
234.5
 20
23.0
 30
0.0
 11
234.5
 21
28.0
 31
0.0
  0
LINE
  5
23C
  8
DATA
  6
CONTINUOUS
 62
     7
 10
245.5
 20
23.0
 30
0.0
 11
245.5
 21
28.0
 31
0.0
  0
LINE
  5
23D
  8
DATA
  6
CONTINUOUS
 62
     7
 10
235.0
 20
26.5
 30
0.0
 11
245.0
 21
26.5
 31
0.0
  0
LINE
  5
23E
  8
DATA
  6
CONTINUOUS
 62
     7
 10
245.0
 20
26.5
 30
0.0
 11
245.0
 21
24.5
 31
0.0
  0
LINE
  5
23F
  8
DATA
  6
CONTINUOUS
 62
     7
 10
235.0
 20
26.5
 30
0.0
 11
235.0
 21
24.5
 31
0.0
  0
LINE
  5
240
  8
DATA
  6
CONTINUOUS
 62
     7
 10
235.0
 20
24.5
 30
0.0
 11
245.0
 21
24.5
 31
0.0
  0
LINE
  5
241
  8
DATA
  6
CONTINUOUS
 62
     7
 10
237.0
 20
26.5
 30
0.0
 11
237.0
 21
24.5
 31
0.0
  0
LINE
  5
242
  8
DATA
  6
CONTINUOUS
 62
     7
 10
240.0
 20
26.5
 30
0.0
 11
240.5
 21
25.5
 31
0.0
  0
LINE
  5
243
  8
DATA
  6
CONTINUOUS
 62
     7
 10
240.5
 20
25.5
 30
0.0
 11
240.0
 21
24.5
 31
0.0
  0
LINE
  5
244
  8
DATA
  6
CONTINUOUS
 62
     7
 10
242.0
 20
26.5
 30
0.0
 11
241.5
 21
25.5
 31
0.0
  0
LINE
  5
245
  8
DATA
  6
CONTINUOUS
 62
     7
 10
241.5
 20
25.5
 30
0.0
 11
242.0
 21
24.5
 31
0.0
  0
TEXT
  5
246
  8
DATA
 62
     7
 10
237.550000025332
 20
24.866235380116962
 30
0.0
 40
1.154296875
  1
OFF
 41
0.7
 11
237.550000025332
 21
26.020532255116962
 31
0.0
 73
     3
  0
TEXT
  5
247
  8
DATA
 62
     7
 10
242.550000025332
 20
24.866235380116962
 30
0.0
 40
1.154296875
  1
ON
 41
0.7
 11
242.550000025332
 21
26.020532255116962
 31
0.0
 73
     3
  0
CIRCLE
  5
248
  8
DATA
  6
CONTINUOUS
 62
     7
 10
236.0
 20
25.5
 30
0.0
 40
0.5
  0
CIRCLE
  5
249
  8
DATA
  6
CONTINUOUS
 62
     7
 10
0.0
 20
-100.0
 30
0.0
 40
9.0
  0
ARC
  5
24A
  8
DATA
  6
CONTINUOUS
 62
     7
 10
-37.1149480715763
 20
148.5945272404534
 30
0.0
 40
19.99999999999018
 50
355.42595464795721
 51
7.0513242185242007
  0
ARC
  5
24B
  8
DATA
  6
CONTINUOUS
 62
     7
 10
91.204948301329395
 20
138.32865583456419
 30
0.0
 40
108.7298874421865
 50
175.42595464796011
 51
181.22719112703439
  0
ARC
  5
24C
  8
DATA
  6
CONTINUOUS
 62
     7
 10
37.114948071586241
 20
148.59452724045369
 30
0.0
 40
20.000000000000021
 50
172.9486757814791
 51
184.5740453520404
  0
ARC
  5
24D
  8
DATA
  6
CONTINUOUS
 62
     7
 10
-151.17307692307691
 20
171.88461538461539
 30
0.0
 40
169.72297847691971
 50
352.94867578147881
 51
1.3894245999334769
  0
ARC
  5
24E
  8
DATA
  6
CONTINUOUS
 62
     7
 10
82.885051928413802
 20
148.59452724045309
 30
0.0
 40
20.00000000000005
 50
355.42595464796022
 51
7.0513242185213016
  0
ARC
  5
24F
  8
DATA
  6
CONTINUOUS
 62
     7
 10
211.20494830132941
 20
138.32865583456419
 30
0.0
 40
108.7298874421865
 50
175.42595464796011
 51
181.22719112703439
  0
ARC
  5
250
  8
DATA
  6
CONTINUOUS
 62
     7
 10
157.1149480715857
 20
148.59452724045079
 30
0.0
 40
19.99999999999984
 50
172.94867578147779
 51
184.57404535203881
  0
ARC
  5
251
  8
DATA
  6
CONTINUOUS
 62
     7
 10
-31.173076923076959
 20
171.88461538461539
 30
0.0
 40
169.72297847691971
 50
352.94867578147802
 51
1.3894245999334769
  0
ARC
  5
252
  8
DATA
  6
CONTINUOUS
 62
     7
 10
202.8850519284137
 20
148.59452724045349
 30
0.0
 40
20.0
 50
355.42595464796011
 51
7.0513242185213576
  0
ARC
  5
253
  8
DATA
  6
CONTINUOUS
 62
     7
 10
331.20494830132941
 20
138.32865583456419
 30
0.0
 40
108.7298874421865
 50
175.4259546479598
 51
181.22719112703439
  0
ARC
  5
254
  8
DATA
  6
CONTINUOUS
 62
     7
 10
277.11494807157231
 20
148.5945272404538
 30
0.0
 40
19.999999999986109
 50
172.94867578147461
 51
184.5740453520439
  0
ARC
  5
255
  8
DATA
  6
CONTINUOUS
 62
     7
 10
88.826923076923052
 20
171.88461538461539
 30
0.0
 40
169.72297847691971
 50
352.94867578147881
 51
1.3894245999334769
  0
LINE
  5
256
  8
DATA
  6
CONTINUOUS
 62
     7
 10
-18.5
 20
183.5
 30
0.0
 11
18.5
 21
183.5
 31
0.0
  0
LINE
  5
257
  8
DATA
  6
CONTINUOUS
 62
     7
 10
-18.0
 20
185.5
 30
0.0
 11
18.0
 21
185.5
 31
0.0
  0
LINE
  5
258
  8
DATA
  6
CONTINUOUS
 62
     7
 10
-18.0
 20
185.5
 30
0.0
 11
-18.5
 21
183.5
 31
0.0
  0
LINE
  5
259
  8
DATA
  6
CONTINUOUS
 62
     7
 10
18.0
 20
185.5
 30
0.0
 11
18.5
 21
183.5
 31
0.0
  0
LINE
  5
25A
  8
DATA
  6
CONTINUOUS
 62
     7
 10
-19.25
 20
191.5
 30
0.0
 11
19.25
 21
191.5
 31
0.0
  0
LINE
  5
25B
  8
DATA
  6
CONTINUOUS
 62
     7
 10
-19.25
 20
191.5
 30
0.0
 11
-18.0
 21
185.5
 31
0.0
  0
LINE
  5
25C
  8
DATA
  6
CONTINUOUS
 62
     7
 10
19.25
 20
191.5
 30
0.0
 11
18.0
 21
185.5
 31
0.0
  0
LINE
  5
25D
  8
DATA
  6
CONTINUOUS
 62
     7
 10
-24.75
 20
215.5
 30
0.0
 11
24.75
 21
215.5
 31
0.0
  0
LINE
  5
25E
  8
DATA
  6
CONTINUOUS
 62
     7
 10
-24.0
 20
220.5
 30
0.0
 11
24.0
 21
220.5
 31
0.0
  0
LINE
  5
25F
  8
DATA
  6
CONTINUOUS
 62
     7
 10
-24.0
 20
220.5
 30
0.0
 11
-24.75
 21
215.5
 31
0.0
  0
LINE
  5
260
  8
DATA
  6
CONTINUOUS
 62
     7
 10
24.0
 20
220.5
 30
0.0
 11
24.75
 21
215.5
 31
0.0
  0
LINE
  5
261
  8
DATA
  6
CONTINUOUS
 62
     7
 10
-14.86333256358912
 20
245.5
 30
0.0
 11
14.86333256358912
 21
245.5
 31
0.0
  0
LINE
  5
262
  8
DATA
  6
CONTINUOUS
 62
     7
 10
-18.5
 20
191.5
 30
0.0
 11
-23.139422400754881
 21
210.11851449738819
 31
0.0
  0
LINE
  5
263
  8
DATA
  6
CONTINUOUS
 62
     7
 10
-23.732848755442831
 20
215.5
 30
0.0
 11
-23.732848755442831
 21
214.95430805678239
 31
0.0
  0
ARC
  5
264
  8
DATA
  6
CONTINUOUS
 62
     7
 10
44.75919732441465
 20
217.3377926421405
 30
0.0
 40
68.33240501217179
 50
157.93960187798641
 51
177.3475854412757
  0
ARC
  5
265
  8
DATA
  6
CONTINUOUS
 62
     7
 10
-14.86333256358912
 20
241.5
 30
0.0
 40
4.0
 50
90.0
 51
157.93960187798641
  0
ARC
  5
266
  8
DATA
  6
CONTINUOUS
 62
     7
 10
-3.7328487554428311
 20
214.95430805678239
 30
0.0
 40
20.0
 50
179.99999999999989
 51
193.99219270650369
  0
ARC
  5
267
  8
DATA
  6
CONTINUOUS
 62
     7
 10
-44.75919732441465
 20
217.3377926421405
 30
0.0
 40
68.33240501217179
 50
2.6524145587242738
 51
22.060398122013609
  0
ARC
  5
268
  8
DATA
  6
CONTINUOUS
 62
     7
 10
14.86333256358912
 20
241.5
 30
0.0
 40
3.999999999999992
 50
22.060398122013609
 51
90.0
  0
LINE
  5
269
  8
DATA
  6
CONTINUOUS
 62
     7
 10
18.5
 20
191.5
 30
0.0
 11
23.139422400754881
 21
210.11851449738819
 31
0.0
  0
LINE
  5
26A
  8
DATA
  6
CONTINUOUS
 62
     7
 10
23.732848755442831
 20
215.5
 30
0.0
 11
23.732848755442831
 21
214.95430805678239
 31
0.0
  0
ARC
  5
26B
  8
DATA
  6
CONTINUOUS
 62
     7
 10
3.7328487554428311
 20
214.95430805678239
 30
0.0
 40
20.0
 50
346.00780729349623
 51
0.0000000000001137
  0
LINE
  5
26C
  8
DATA
  6
CONTINUOUS
 62
     7
 10
101.5
 20
176.5
 30
0.0
 11
138.5
 21
176.5
 31
0.0
  0
LINE
  5
26D
  8
DATA
  6
CONTINUOUS
 62
     7
 10
101.5
 20
176.5
 30
0.0
 11
101.5
 21
183.5
 31
0.0
  0
LINE
  5
26E
  8
DATA
  6
CONTINUOUS
 62
     7
 10
138.5
 20
176.5
 30
0.0
 11
138.5
 21
183.5
 31
0.0
  0
LINE
  5
26F
  8
DATA
  6
CONTINUOUS
 62
     7
 10
101.5
 20
183.5
 30
0.0
 11
138.5
 21
183.5
 31
0.0
  0
LINE
  5
270
  8
DATA
  6
CONTINUOUS
 62
     7
 10
102.0
 20
185.5
 30
0.0
 11
138.0
 21
185.5
 31
0.0
  0
LINE
  5
271
  8
DATA
  6
CONTINUOUS
 62
     7
 10
102.0
 20
185.5
 30
0.0
 11
101.5
 21
183.5
 31
0.0
  0
LINE
  5
272
  8
DATA
  6
CONTINUOUS
 62
     7
 10
138.0
 20
185.5
 30
0.0
 11
138.5
 21
183.5
 31
0.0
  0
LINE
  5
273
  8
DATA
  6
CONTINUOUS
 62
     7
 10
100.75
 20
191.5
 30
0.0
 11
139.25
 21
191.5
 31
0.0
  0
LINE
  5
274
  8
DATA
  6
CONTINUOUS
 62
     7
 10
100.75
 20
191.5
 30
0.0
 11
102.0
 21
185.5
 31
0.0
  0
LINE
  5
275
  8
DATA
  6
CONTINUOUS
 62
     7
 10
139.25
 20
191.5
 30
0.0
 11
138.0
 21
185.5
 31
0.0
  0
LINE
  5
276
  8
DATA
  6
CONTINUOUS
 62
     7
 10
95.25
 20
215.5
 30
0.0
 11
144.75
 21
215.5
 31
0.0
  0
LINE
  5
277
  8
DATA
  6
CONTINUOUS
 62
     7
 10
96.0
 20
220.5
 30
0.0
 11
144.0
 21
220.5
 31
0.0
  0
LINE
  5
278
  8
DATA
  6
CONTINUOUS
 62
     7
 10
96.0
 20
220.5
 30
0.0
 11
95.25
 21
215.5
 31
0.0
  0
LINE
  5
279
  8
DATA
  6
CONTINUOUS
 62
     7
 10
144.0
 20
220.5
 30
0.0
 11
144.75
 21
215.5
 31
0.0
  0
LINE
  5
27A
  8
DATA
  6
CONTINUOUS
 62
     7
 10
105.1366674364108
 20
245.5
 30
0.0
 11
134.8633325635891
 21
245.5
 31
0.0
  0
LINE
  5
27B
  8
DATA
  6
CONTINUOUS
 62
     7
 10
101.5
 20
191.5
 30
0.0
 11
96.860577599245161
 21
210.11851449738819
 31
0.0
  0
LINE
  5
27C
  8
DATA
  6
CONTINUOUS
 62
     7
 10
96.267151244557155
 20
215.5
 30
0.0
 11
96.267151244557155
 21
214.95430805678239
 31
0.0
  0
ARC
  5
27D
  8
DATA
  6
CONTINUOUS
 62
     7
 10
164.7591973244146
 20
217.3377926421405
 30
0.0
 40
68.33240501217179
 50
157.93960187798641
 51
177.3475854412757
  0
ARC
  5
27E
  8
DATA
  6
CONTINUOUS
 62
     7
 10
105.1366674364108
 20
241.5
 30
0.0
 40
4.0
 50
90.0
 51
157.93960187798641
  0
ARC
  5
27F
  8
DATA
  6
CONTINUOUS
 62
     7
 10
116.2671512445571
 20
214.95430805678239
 30
0.0
 40
20.0
 50
179.99999999999989
 51
193.99219270650369
  0
ARC
  5
280
  8
DATA
  6
CONTINUOUS
 62
     7
 10
75.240802675585343
 20
217.3377926421405
 30
0.0
 40
68.33240501217179
 50
2.6524145587242738
 51
22.060398122013609
  0
ARC
  5
281
  8
DATA
  6
CONTINUOUS
 62
     7
 10
134.8633325635891
 20
241.5
 30
0.0
 40
3.999999999999992
 50
22.060398122013609
 51
90.0
  0
LINE
  5
282
  8
DATA
  6
CONTINUOUS
 62
     7
 10
138.5
 20
191.5
 30
0.0
 11
143.13942240075491
 21
210.11851449738819
 31
0.0
  0
LINE
  5
283
  8
DATA
  6
CONTINUOUS
 62
     7
 10
143.7328487554428
 20
215.5
 30
0.0
 11
143.7328487554428
 21
214.95430805678239
 31
0.0
  0
ARC
  5
284
  8
DATA
  6
CONTINUOUS
 62
     7
 10
123.7328487554428
 20
214.95430805678239
 30
0.0
 40
20.0
 50
346.00780729349623
 51
0.0000000000001137
  0
LINE
  5
285
  8
DATA
  6
CONTINUOUS
 62
     7
 10
221.5
 20
176.5
 30
0.0
 11
258.5
 21
176.5
 31
0.0
  0
TEXT
  5
286
  8
DATA
 62
     7
 10
233.38541666666671
 20
177.7408333333332
 30
0.0
 40
4.072102864583333
  1
SM87A
 41
0.7
 11
233.38541666666671
 21
181.8129361979166
 31
0.0
 73
     3
  0
LINE
  5
287
  8
DATA
  6
CONTINUOUS
 62
     7
 10
221.5
 20
176.5
 30
0.0
 11
221.5
 21
183.5
 31
0.0
  0
LINE
  5
288
  8
DATA
  6
CONTINUOUS
 62
     7
 10
258.5
 20
176.5
 30
0.0
 11
258.5
 21
183.5
 31
0.0
  0
LINE
  5
289
  8
DATA
  6
CONTINUOUS
 62
     7
 10
221.5
 20
183.5
 30
0.0
 11
258.5
 21
183.5
 31
0.0
  0
LINE
  5
28A
  8
DATA
  6
CONTINUOUS
 62
     7
 10
222.0
 20
185.5
 30
0.0
 11
258.0
 21
185.5
 31
0.0
  0
LINE
  5
28B
  8
DATA
  6
CONTINUOUS
 62
     7
 10
222.0
 20
185.5
 30
0.0
 11
221.5
 21
183.5
 31
0.0
  0
LINE
  5
28C
  8
DATA
  6
CONTINUOUS
 62
     7
 10
258.0
 20
185.5
 30
0.0
 11
258.5
 21
183.5
 31
0.0
  0
LINE
  5
28D
  8
DATA
  6
CONTINUOUS
 62
     7
 10
220.75
 20
191.5
 30
0.0
 11
259.25
 21
191.5
 31
0.0
  0
LINE
  5
28E
  8
DATA
  6
CONTINUOUS
 62
     7
 10
220.75
 20
191.5
 30
0.0
 11
222.0
 21
185.5
 31
0.0
  0
LINE
  5
28F
  8
DATA
  6
CONTINUOUS
 62
     7
 10
259.25
 20
191.5
 30
0.0
 11
258.0
 21
185.5
 31
0.0
  0
LINE
  5
290
  8
DATA
  6
CONTINUOUS
 62
     7
 10
215.25
 20
215.5
 30
0.0
 11
264.75
 21
215.5
 31
0.0
  0
LINE
  5
291
  8
DATA
  6
CONTINUOUS
 62
     7
 10
216.0
 20
220.5
 30
0.0
 11
264.0
 21
220.5
 31
0.0
  0
LINE
  5
292
  8
DATA
  6
CONTINUOUS
 62
     7
 10
216.0
 20
220.5
 30
0.0
 11
215.25
 21
215.5
 31
0.0
  0
LINE
  5
293
  8
DATA
  6
CONTINUOUS
 62
     7
 10
264.0
 20
220.5
 30
0.0
 11
264.75
 21
215.5
 31
0.0
  0
LINE
  5
294
  8
DATA
  6
CONTINUOUS
 62
     7
 10
225.1366674364109
 20
245.5
 30
0.0
 11
254.86333256358921
 21
245.5
 31
0.0
  0
LINE
  5
295
  8
DATA
  6
CONTINUOUS
 62
     7
 10
221.5
 20
191.5
 30
0.0
 11
216.86057759924509
 21
210.11851449738819
 31
0.0
  0
LINE
  5
296
  8
DATA
  6
CONTINUOUS
 62
     7
 10
216.2671512445572
 20
215.5
 30
0.0
 11
216.2671512445572
 21
214.95430805678239
 31
0.0
  0
ARC
  5
297
  8
DATA
  6
CONTINUOUS
 62
     7
 10
284.75919732441469
 20
217.3377926421405
 30
0.0
 40
68.33240501217179
 50
157.93960187798641
 51
177.3475854412757
  0
ARC
  5
298
  8
DATA
  6
CONTINUOUS
 62
     7
 10
225.1366674364109
 20
241.5
 30
0.0
 40
4.0
 50
90.0
 51
157.93960187798641
  0
ARC
  5
299
  8
DATA
  6
CONTINUOUS
 62
     7
 10
236.2671512445572
 20
214.95430805678239
 30
0.0
 40
20.0
 50
179.99999999999989
 51
193.99219270650369
  0
ARC
  5
29A
  8
DATA
  6
CONTINUOUS
 62
     7
 10
195.24080267558529
 20
217.3377926421405
 30
0.0
 40
68.33240501217179
 50
2.6524145587242738
 51
22.060398122013609
  0
ARC
  5
29B
  8
DATA
  6
CONTINUOUS
 62
     7
 10
254.86333256358921
 20
241.5
 30
0.0
 40
3.999999999999992
 50
22.060398122013609
 51
90.0
  0
LINE
  5
29C
  8
DATA
  6
CONTINUOUS
 62
     7
 10
258.5
 20
191.5
 30
0.0
 11
263.13942240075488
 21
210.11851449738819
 31
0.0
  0
LINE
  5
29D
  8
DATA
  6
CONTINUOUS
 62
     7
 10
263.73284875544277
 20
215.5
 30
0.0
 11
263.73284875544277
 21
214.95430805678239
 31
0.0
  0
ARC
  5
29E
  8
DATA
  6
CONTINUOUS
 62
     7
 10
243.73284875544289
 20
214.95430805678239
 30
0.0
 40
20.0
 50
346.00780729349623
 51
0.0000000000001137
  0
TEXT
  5
29F
  8
DATA
 62
     7
 10
-122.5000299999999
 20
-242.78599249999999
 30
0.0
 40
4.8865234374999993
  1
仕様および外観は予告なく変更されることがありますので、ご了承ください。
 41
0.7
 11
-122.5000299999999
 21
-237.8994690625
 31
0.0
 73
     3
  0
ENDSEC
  0
EOF
