  0
SECTION
  2
HEADER
  9
$ACADVER
  1
AC1009
  9
$INSBASE
 10
0.0
 20
0.0
 30
0.0
  9
$EXTMIN
 10
-152.51647823400589
 20
-278.36571085595318
 30
-0.0015258207003583
  9
$EXTMAX
 10
387.51645074857652
 20
524.52445227010935
 30
0.0000000349246037
  9
$LIMMIN
 10
0.0
 20
0.0
  9
$LIMMAX
 10
0.0
 20
0.0
  9
$ORTHOMODE
 70
     0
  9
$REGENMODE
 70
     1
  9
$FILLMODE
 70
     1
  9
$QTEXTMODE
 70
     0
  9
$MIRRTEXT
 70
     1
  9
$DRAGMODE
 70
     2
  9
$LTSCALE
 40
15.24
  9
$OSMODE
 70
   231
  9
$ATTMODE
 70
     1
  9
$TEXTSIZE
 40
0.0
  9
$TRACEWID
 40
1.0
  9
$TEXTSTYLE
  7
STANDARD
  9
$CLAYER
  8
DATA
  9
$CELTYPE
  6
BYLAYER
  9
$CECOLOR
 62
   256
  9
$DIMSCALE
 40
1.0
  9
$DIMASZ
 40
0.18
  9
$DIMEXO
 40
0.0625
  9
$DIMDLI
 40
0.38
  9
$DIMRND
 40
0.0
  9
$DIMDLE
 40
0.0
  9
$DIMEXE
 40
0.18
  9
$DIMTP
 40
0.0
  9
$DIMTM
 40
0.0
  9
$DIMTXT
 40
0.18
  9
$DIMCEN
 40
0.09
  9
$DIMTSZ
 40
0.0
  9
$DIMTOL
 70
     0
  9
$DIMLIM
 70
     0
  9
$DIMTIH
 70
     1
  9
$DIMTOH
 70
     1
  9
$DIMSE1
 70
     0
  9
$DIMSE2
 70
     0
  9
$DIMTAD
 70
     0
  9
$DIMZIN
 70
     0
  9
$DIMBLK
  1

  9
$DIMASO
 70
     1
  9
$DIMSHO
 70
     1
  9
$DIMPOST
  1

  9
$DIMAPOST
  1

  9
$DIMALT
 70
     0
  9
$DIMALTD
 70
     2
  9
$DIMALTF
 40
25.399999999999999
  9
$DIMLFAC
 40
1.0
  9
$DIMTOFL
 70
     0
  9
$DIMTVP
 40
0.0
  9
$DIMTIX
 70
     0
  9
$DIMSOXD
 70
     0
  9
$DIMSAH
 70
     0
  9
$DIMBLK1
  1

  9
$DIMBLK2
  1

  9
$DIMSTYLE
  2
STANDARD
  9
$DIMCLRD
 70
     0
  9
$DIMCLRE
 70
     0
  9
$DIMCLRT
 70
     0
  9
$DIMTFAC
 40
1.0
  9
$DIMGAP
 40
0.09
  9
$LUNITS
 70
     2
  9
$LUPREC
 70
     4
  9
$SKETCHINC
 40
0.1
  9
$FILLETRAD
 40
0.0
  9
$AUNITS
 70
     0
  9
$AUPREC
 70
     0
  9
$MENU
  1
acad
  9
$ELEVATION
 40
0.0
  9
$PELEVATION
 40
0.0
  9
$THICKNESS
 40
0.0
  9
$LIMCHECK
 70
     0
  9
$BLIPMODE
 70
     0
  9
$CHAMFERA
 40
0.0
  9
$CHAMFERB
 40
0.0
  9
$SKPOLY
 70
     0
  9
$TDCREATE
 40
2455187.4282638892
  9
$TDUPDATE
 40
2455187.4297854858
  9
$TDINDWG
 40
0.0010768287
  9
$TDUSRTIMER
 40
0.0010708681
  9
$USRTIMER
 70
     1
  9
$ANGBASE
 50
0.0
  9
$ANGDIR
 70
     0
  9
$PDMODE
 70
     1
  9
$PDSIZE
 40
-2.0
  9
$PLINEWID
 40
0.0
  9
$COORDS
 70
     0
  9
$SPLFRAME
 70
     0
  9
$SPLINETYPE
 70
     6
  9
$SPLINESEGS
 70
     8
  9
$ATTDIA
 70
     0
  9
$ATTREQ
 70
     1
  9
$HANDLING
 70
     1
  9
$HANDSEED
  5
38C
  9
$SURFTAB1
 70
     6
  9
$SURFTAB2
 70
     6
  9
$SURFTYPE
 70
     6
  9
$SURFU
 70
     6
  9
$SURFV
 70
     6
  9
$UCSNAME
  2

  9
$UCSORG
 10
0.0
 20
0.0
 30
0.0
  9
$UCSXDIR
 10
1.0
 20
0.0
 30
0.0
  9
$UCSYDIR
 10
0.0
 20
1.0
 30
0.0
  9
$PUCSNAME
  2

  9
$PUCSORG
 10
0.0
 20
0.0
 30
0.0
  9
$PUCSXDIR
 10
1.0
 20
0.0
 30
0.0
  9
$PUCSYDIR
 10
0.0
 20
1.0
 30
0.0
  9
$USERI1
 70
     0
  9
$USERI2
 70
     0
  9
$USERI3
 70
     0
  9
$USERI4
 70
     0
  9
$USERI5
 70
     0
  9
$USERR1
 40
0.0
  9
$USERR2
 40
0.0
  9
$USERR3
 40
0.0
  9
$USERR4
 40
0.0
  9
$USERR5
 40
0.0
  9
$WORLDVIEW
 70
     1
  9
$SHADEDGE
 70
     3
  9
$SHADEDIF
 70
    70
  9
$TILEMODE
 70
     1
  9
$MAXACTVP
 70
    64
  9
$PLIMCHECK
 70
     0
  9
$PEXTMIN
 10
1.0000000000000000E+020
 20
1.0000000000000000E+020
 30
1.0000000000000000E+020
  9
$PEXTMAX
 10
-1.0000000000000000E+020
 20
-1.0000000000000000E+020
 30
-1.0000000000000000E+020
  9
$PLIMMIN
 10
0.0
 20
0.0
  9
$PLIMMAX
 10
12.0
 20
9.0
  9
$UNITMODE
 70
     0
  9
$VISRETAIN
 70
     0
  9
$PLINEGEN
 70
     1
  9
$PSLTSCALE
 70
     0
  0
ENDSEC
  0
SECTION
  2
TABLES
  0
TABLE
  2
VPORT
 70
     1
  0
VPORT
  2
*ACTIVE
 70
     0
 10
0.0
 20
0.0
 11
1.0
 21
1.0
 12
117.4999862572851
 22
123.079370707078
 13
0.0
 23
0.0
 14
1.0
 24
1.0
 15
0.0
 25
0.0
 16
0.0
 26
0.0
 36
1.0
 17
0.0
 27
0.0
 37
0.0
 40
808.87443763383453
 41
1.9863184079601981
 42
50.0
 43
0.0
 44
0.0
 50
0.0
 51
0.0
 71
     0
 72
  2000
 73
     1
 74
     1
 75
     0
 76
     0
 77
     0
 78
     0
  0
ENDTAB
  0
TABLE
  2
LTYPE
 70
    11
  0
LTYPE
  2
CONTINUOUS
 70
     0
  3
Solid line
 72
    65
 73
     0
 40
0.0
  0
ENDTAB
  0
TABLE
  2
LAYER
 70
     6
  0
LAYER
  2
0
 70
     0
 62
     7
  6
CONTINUOUS
  0
LAYER
  2
DATA
 70
     0
 62
     7
  6
CONTINUOUS
  0
LAYER
  2
HIBINO-BASE
 70
     0
 62
     7
  6
CONTINUOUS
  0
LAYER
  2
PATTERN_FILL
 70
     0
 62
     7
  6
CONTINUOUS
  0
LAYER
  2
SPEC
 70
     0
 62
     7
  6
CONTINUOUS
  0
LAYER
  2
DIMNSIONS
 70
     0
 62
     7
  6
CONTINUOUS
  0
ENDTAB
  0
TABLE
  2
STYLE
 70
     3
  0
STYLE
  2
STANDARD
 70
     0
 40
0.0
 41
1.0
 50
0.0
 71
     0
 42
0.0
  3
txt
  4
BIGFONT.SHX
  0
ENDTAB
  0
TABLE
  2
VIEW
 70
     0
  0
ENDTAB
  0
TABLE
  2
UCS
 70
     0
  0
ENDTAB
  0
TABLE
  2
APPID
 70
     3
  0
APPID
  2
ACAD
 70
     0
  0
APPID
  2
ACADANNOTATIVE
 70
     0
  0
APPID
  2
ACAD_MLEADERVER
 70
     0
  0
ENDTAB
  0
TABLE
  2
DIMSTYLE
 70
     2
  0
DIMSTYLE
  2
STANDARD
 70
     0
  3

  4

  5

  6

  7

 40
1.0
 41
0.18
 42
0.0625
 43
0.38
 44
0.18
 45
0.0
 46
0.0
 47
0.0
 48
0.0
140
0.18
141
0.09
142
0.0
143
25.399999999999999
144
1.0
145
0.0
146
1.0
147
0.09
 71
     0
 72
     0
 73
     1
 74
     1
 75
     0
 76
     0
 77
     0
 78
     0
170
     0
171
     2
172
     0
173
     0
174
     0
175
     0
176
     0
177
     0
178
     0
  0
ENDTAB
  0
ENDSEC
  0
SECTION
  2
BLOCKS
  0
BLOCK
  8
0
  2
$MODEL_SPACE
 70
     0
 10
0.0
 20
0.0
 30
0.0
  3
$MODEL_SPACE
  1

  0
ENDBLK
  5
32A
  8
0
  0
BLOCK
 67
     1
  8
0
  2
$PAPER_SPACE
 70
     0
 10
0.0
 20
0.0
 30
0.0
  3
$PAPER_SPACE
  1

  0
ENDBLK
  5
326
 67
     1
  8
0
  0
ENDSEC
  0
SECTION
  2
ENTITIES
  0
LINE
  5
2D
  8
HIBINO-BASE
  6
CONTINUOUS
 62
     7
 10
-152.5
 20
524.5
 30
0.0
 11
387.49997000000002
 21
524.5
 31
0.0
  0
LINE
  5
2E
  8
HIBINO-BASE
  6
CONTINUOUS
 62
     7
 10
387.49997000000002
 20
-255.49998500000001
 30
0.0
 11
-152.5
 21
-255.49998500000001
 31
0.0
  0
LINE
  5
2F
  8
HIBINO-BASE
  6
CONTINUOUS
 62
     7
 10
-152.5
 20
-255.49998500000001
 30
0.0
 11
-152.5
 21
524.5
 31
0.0
  0
TEXT
  5
30
  8
HIBINO-BASE
 62
     7
 10
-130.94799999999989
 20
-274.72600549999999
 30
0.0
 40
10.800120996093741
  1
Hibino Corporation
 41
0.7
 11
-130.94799999999989
 21
-263.92588450390627
 31
0.0
 73
     3
  0
LINE
  5
31
  8
HIBINO-BASE
  6
CONTINUOUS
 62
     7
 10
387.49997000000002
 20
524.5
 30
0.0
 11
387.49997000000002
 21
-255.49998500000001
 31
0.0
  0
LINE
  5
32
  8
HIBINO-BASE
  6
CONTINUOUS
 62
     7
 10
117.499985
 20
-188.0
 30
0.0
 11
387.49997000000002
 21
-188.0
 31
0.0
  0
LINE
  5
33
  8
HIBINO-BASE
  6
CONTINUOUS
 62
     7
 10
117.499985
 20
-255.49998500000001
 30
0.0
 11
117.499985
 21
-188.0
 31
0.0
  0
TEXT
  5
34
  8
HIBINO-BASE
 62
     7
 10
120.19996999999999
 20
-196.10000959999999
 30
0.0
 40
5.4000778125000002
  1
NOTE
 41
0.7
 11
120.19996999999999
 21
-190.69993178749999
 31
0.0
 73
     3
  0
LINE
  5
35
  8
HIBINO-BASE
  6
CONTINUOUS
 62
     7
 10
222.49998500000001
 20
-255.49998500000001
 30
0.0
 11
222.49998500000001
 21
-188.0
 31
0.0
  0
TEXT
  5
36
  8
HIBINO-BASE
 62
     7
 10
225.199985
 20
-196.10000959999999
 30
0.0
 40
5.4000778125000002
  1
TITLE
 41
0.7
 11
225.199985
 21
-190.69993178749999
 31
0.0
 73
     3
  0
TEXT
  5
37
  8
HIBINO-BASE
 62
     7
 10
267.70513999999997
 20
-274.72600549999999
 30
0.0
 40
10.800120996093741
  1
ヒビノ株式会社
 41
0.7
 11
267.70513999999997
 21
-263.92588450390627
 31
0.0
 73
     3
  0
LINE
  5
38
  8
HIBINO-BASE
  6
CONTINUOUS
 62
     7
 10
117.499985
 20
-225.5
 30
0.0
 11
387.49997000000002
 21
-225.5
 31
0.0
  0
TEXT
  5
39
  8
HIBINO-BASE
 62
     7
 10
262.69998500000003
 20
-233.43103459999989
 30
0.0
 40
5.4000778125000002
  1
DRAWN
 41
0.7
 11
262.69998500000003
 21
-228.03095678749989
 31
0.0
 73
     3
  0
TEXT
  5
3A
  8
HIBINO-BASE
 62
     7
 10
187.699985
 20
-233.43103459999989
 30
0.0
 40
5.4000778125000002
  1
DATE
 41
0.7
 11
187.699985
 21
-228.03095678749989
 31
0.0
 73
     3
  0
TEXT
  5
3B
  8
HIBINO-BASE
 62
     7
 10
120.7999699999999
 20
-233.3583406999999
 30
0.0
 40
4.8865195898437506
  1
図面サイズ
 41
0.7
 11
120.7999699999999
 21
-228.47182111015621
 31
0.0
 73
     3
  0
TEXT
  5
3C
  8
HIBINO-BASE
 62
     7
 10
157.69996999999989
 20
-233.43103459999989
 30
0.0
 40
5.4000778125000002
  1
SCALE
 41
0.7
 11
157.69996999999989
 21
-228.03095678749989
 31
0.0
 73
     3
  0
TEXT
  5
3D
  8
HIBINO-BASE
 62
     7
 10
225.199985
 20
-233.43103459999989
 30
0.0
 40
5.4000778125000002
  1
DESIGN
 41
0.7
 11
225.199985
 21
-228.03095678749989
 31
0.0
 73
     3
  0
TEXT
  5
3E
  8
HIBINO-BASE
 62
     7
 10
337.69996999999989
 20
-233.43103459999989
 30
0.0
 40
5.4000778125000002
  1
DRAWING NO.
 41
0.7
 11
337.69996999999989
 21
-228.03095678749989
 31
0.0
 73
     3
  0
TEXT
  5
3F
  8
HIBINO-BASE
 62
     7
 10
300.19997000000001
 20
-233.43103459999989
 30
0.0
 40
5.4000778125000002
  1
CHECK
 41
0.7
 11
300.19997000000001
 21
-228.03095678749989
 31
0.0
 73
     3
  0
LINE
  5
40
  8
HIBINO-BASE
  6
CONTINUOUS
 62
     7
 10
160.62496999999991
 20
-251.75
 30
0.0
 11
171.8749849999999
 21
-240.5
 31
0.0
  0
TEXT
  5
41
  8
HIBINO-BASE
 62
     7
 10
158.74996999999991
 20
-245.6471426
 30
0.0
 40
6.515359453124999
  1
1
 41
0.7
 11
158.74996999999991
 21
-239.13178314687499
 31
0.0
 73
     3
  0
LINE
  5
42
  8
HIBINO-BASE
  6
CONTINUOUS
 62
     7
 10
154.99996999999991
 20
-255.49998500000001
 30
0.0
 11
154.99996999999991
 21
-225.5
 31
0.0
  0
LINE
  5
43
  8
HIBINO-BASE
  6
CONTINUOUS
 62
     7
 10
184.99996999999999
 20
-255.49998500000001
 30
0.0
 11
184.99996999999999
 21
-225.5
 31
0.0
  0
LINE
  5
44
  8
HIBINO-BASE
  6
CONTINUOUS
 62
     7
 10
259.99997000000002
 20
-225.5
 30
0.0
 11
259.99997000000002
 21
-255.49998500000001
 31
0.0
  0
LINE
  5
45
  8
HIBINO-BASE
  6
CONTINUOUS
 62
     7
 10
334.99998499999998
 20
-225.5
 30
0.0
 11
334.99998499999998
 21
-255.49998500000001
 31
0.0
  0
LINE
  5
46
  8
HIBINO-BASE
  6
CONTINUOUS
 62
     7
 10
297.49997000000002
 20
-255.49998500000001
 30
0.0
 11
297.49997000000002
 21
-225.5
 31
0.0
  0
TEXT
  5
47
  8
HIBINO-BASE
 62
     7
 10
129.23265499999991
 20
-248.00460349999989
 30
0.0
 40
9.7730276367187496
  1
A4
 41
0.7
 11
129.23265499999991
 21
-238.23157586328119
 31
0.0
 73
     3
  0
TEXT
  5
48
  8
HIBINO-BASE
 62
     7
 10
187.569605
 20
-247.48297460000001
 30
0.0
 40
5.4000778125000002
  1
'09.12.
 41
0.7
 11
187.569605
 21
-242.0828967875
 31
0.0
 73
     3
  0
TEXT
  5
49
  8
HIBINO-BASE
 62
     7
 10
169.9999849999999
 20
-251.2721426
 30
0.0
 40
6.515359453124999
  1
3
 41
0.7
 11
169.9999849999999
 21
-244.75678314687499
 31
0.0
 73
     3
  0
TEXT
  5
4A
  8
HIBINO-BASE
 62
     7
 10
264.51740003310391
 20
-246.9090525
 30
0.0
 40
4.8865234374999993
  1
N.Sasaki
 41
0.7
 11
264.51740003310391
 21
-242.02252906250001
 31
0.0
 73
     3
  0
ARC
  5
4B
  8
PATTERN_FILL
  6
CONTINUOUS
 62
     7
 10
0.0
 20
-107.9261482096943
 30
0.0
 40
27.999999999999961
 50
37.600353471357472
 51
142.39964652864239
  0
ARC
  5
4C
  8
PATTERN_FILL
  6
CONTINUOUS
 62
     7
 10
0.0
 20
-107.9261482096943
 30
0.0
 40
29.999999999999972
 50
54.428653172455768
 51
125.5713468275441
  0
LINE
  5
4D
  8
PATTERN_FILL
  6
CONTINUOUS
 62
     7
 10
0.0
 20
-76.0
 30
0.0
 11
0.0
 21
-80.25
 31
0.0
  0
ARC
  5
4E
  8
PATTERN_FILL
  6
CONTINUOUS
 62
     7
 10
0.0
 20
-107.9261482096943
 30
0.0
 40
21.999999999999972
 50
21.117359857472032
 51
26.711234937682931
  0
ARC
  5
4F
  8
PATTERN_FILL
  6
CONTINUOUS
 62
     7
 10
0.0
 20
-107.9261482096943
 30
0.0
 40
23.999999999999972
 50
19.284325027965089
 51
40.83265738155589
  0
ARC
  5
50
  8
PATTERN_FILL
  6
CONTINUOUS
 62
     7
 10
0.0
 20
-107.9261482096943
 30
0.0
 40
25.999999999999989
 50
23.269112630061091
 51
57.798590814261722
  0
ARC
  5
51
  8
PATTERN_FILL
  6
CONTINUOUS
 62
     7
 10
627.25000000000068
 20
-101.9261482096943
 30
0.0
 40
625.2500000000008
 50
177.63582077930911
 51
178.02636940263471
  0
ARC
  5
52
  8
PATTERN_FILL
  6
CONTINUOUS
 62
     7
 10
627.15511396063755
 20
-112.79901137646451
 30
0.0
 40
623.25000000000068
 50
176.66282653071761
 51
177.0592024183166
  0
ARC
  5
53
  8
PATTERN_FILL
  6
CONTINUOUS
 62
     7
 10
626.8714995841774
 20
-123.6307256896374
 30
0.0
 40
621.2500000000008
 50
175.7098878794435
 51
176.11610951126471
  0
ARC
  5
54
  8
PATTERN_FILL
  6
CONTINUOUS
 62
     7
 10
626.40044573234491
 20
-134.41968863877469
 30
0.0
 40
619.25000000000057
 50
174.77782198038199
 51
175.19878930648881
  0
ARC
  5
55
  8
PATTERN_FILL
  6
CONTINUOUS
 62
     7
 10
625.74330135383389
 20
-145.1639042543616
 30
0.0
 40
617.25000000000045
 50
173.8680153906445
 51
174.31019854807039
  0
ARC
  5
56
  8
PATTERN_FILL
  6
CONTINUOUS
 62
     7
 10
624.90148115807028
 20
-155.8602440127801
 30
0.0
 40
615.25000000000057
 50
172.98271200391159
 51
173.45543681377401
  0
ARC
  5
57
  8
PATTERN_FILL
  6
CONTINUOUS
 62
     7
 10
623.8764552367777
 20
-166.50554522283969
 30
0.0
 40
613.2500000000008
 50
172.1253256848307
 51
172.6435706817025
  0
ARC
  5
58
  8
PATTERN_FILL
  6
CONTINUOUS
 62
     7
 10
622.66974763606004
 20
-177.09668190701561
 30
0.0
 40
611.25000000000057
 50
171.30126116535041
 51
171.89318869340391
  0
ARC
  5
59
  8
PATTERN_FILL
  6
CONTINUOUS
 62
     7
 10
621.28293552303433
 20
-187.63056571810881
 30
0.0
 40
609.25000000000114
 50
170.51979019995329
 51
171.2569457655548
  0
ARC
  5
5A
  8
PATTERN_FILL
  6
CONTINUOUS
 62
     7
 10
619.71764833695386
 20
-198.1041468380063
 30
0.0
 40
607.25000000000068
 50
169.79926257689459
 51
170.7028466230787
  0
ARC
  5
5B
  8
PATTERN_FILL
  6
CONTINUOUS
 62
     7
 10
617.97556692520448
 20
-208.51441485828099
 30
0.0
 40
605.2500000000008
 50
169.18833786436861
 51
169.67167547154281
  0
ARC
  5
5C
  8
PATTERN_FILL
  6
CONTINUOUS
 62
     7
 10
0.0
 20
-107.9261482096943
 30
0.0
 40
21.999999999999961
 50
153.288765062317
 51
158.88264014252789
  0
ARC
  5
5D
  8
PATTERN_FILL
  6
CONTINUOUS
 62
     7
 10
0.0
 20
-107.9261482096943
 30
0.0
 40
23.999999999999972
 50
139.16734261844411
 51
160.7156749720348
  0
ARC
  5
5E
  8
PATTERN_FILL
  6
CONTINUOUS
 62
     7
 10
0.0
 20
-107.9261482096943
 30
0.0
 40
25.999999999999979
 50
122.2014091857386
 51
156.73088736993881
  0
ARC
  5
5F
  8
PATTERN_FILL
  6
CONTINUOUS
 62
     7
 10
-627.25000000000068
 20
-101.9261482096943
 30
0.0
 40
625.2500000000008
 50
1.973630597365402
 51
2.3641792206926042
  0
ARC
  5
60
  8
PATTERN_FILL
  6
CONTINUOUS
 62
     7
 10
-627.15511396063755
 20
-112.79901137646451
 30
0.0
 40
623.25000000000068
 50
2.940797581693825
 51
3.3371734692793882
  0
ARC
  5
61
  8
PATTERN_FILL
  6
CONTINUOUS
 62
     7
 10
-626.8714995841774
 20
-123.6307256896374
 30
0.0
 40
621.2500000000008
 50
3.88389048874786
 51
4.2901121205549719
  0
ARC
  5
62
  8
PATTERN_FILL
  6
CONTINUOUS
 62
     7
 10
-626.40044573234491
 20
-134.41968863877469
 30
0.0
 40
619.25000000000068
 50
4.8012106935229637
 51
5.2221780196219294
  0
ARC
  5
63
  8
PATTERN_FILL
  6
CONTINUOUS
 62
     7
 10
-625.74330135383389
 20
-145.1639042543616
 30
0.0
 40
617.25000000000045
 50
5.689801451932313
 51
6.1319846093490833
  0
ARC
  5
64
  8
PATTERN_FILL
  6
CONTINUOUS
 62
     7
 10
-624.90148115807028
 20
-155.8602440127801
 30
0.0
 40
615.25000000000068
 50
6.5445631862398912
 51
7.0172879960927554
  0
ARC
  5
65
  8
PATTERN_FILL
  6
CONTINUOUS
 62
     7
 10
-623.8764552367777
 20
-166.50554522283969
 30
0.0
 40
613.2500000000008
 50
7.3564293183038671
 51
7.8746743151688081
  0
ARC
  5
66
  8
PATTERN_FILL
  6
CONTINUOUS
 62
     7
 10
-622.66974763606004
 20
-177.09668190701561
 30
0.0
 40
611.25000000000057
 50
8.1068113065896981
 51
8.6987388346506584
  0
ARC
  5
67
  8
PATTERN_FILL
  6
CONTINUOUS
 62
     7
 10
-621.28293552303433
 20
-187.63056571810881
 30
0.0
 40
609.25000000000125
 50
8.7430542344540392
 51
9.4802098000465413
  0
ARC
  5
68
  8
PATTERN_FILL
  6
CONTINUOUS
 62
     7
 10
-619.71764833695386
 20
-198.1041468380063
 30
0.0
 40
607.25000000000068
 50
9.2971533769213561
 51
10.200737423101479
  0
ARC
  5
69
  8
PATTERN_FILL
  6
CONTINUOUS
 62
     7
 10
-617.97556692520448
 20
-208.51441485828099
 30
0.0
 40
605.2500000000008
 50
10.328324528457211
 51
10.81166213563232
  0
ARC
  5
6A
  8
PATTERN_FILL
  6
CONTINUOUS
 62
     7
 10
0.0
 20
-92.073851790305724
 30
0.0
 40
27.99999999999995
 50
217.60035347135741
 51
322.39964652864262
  0
ARC
  5
6B
  8
PATTERN_FILL
  6
CONTINUOUS
 62
     7
 10
0.0
 20
-92.073851790305724
 30
0.0
 40
30.0
 50
234.4286531724558
 51
305.57134682754401
  0
LINE
  5
6C
  8
PATTERN_FILL
  6
CONTINUOUS
 62
     7
 10
0.0
 20
-124.0
 30
0.0
 11
0.0
 21
-119.75
 31
0.0
  0
ARC
  5
6D
  8
PATTERN_FILL
  6
CONTINUOUS
 62
     7
 10
0.0
 20
-92.073851790305724
 30
0.0
 40
21.99999999999995
 50
333.28876506231722
 51
338.88264014252798
  0
ARC
  5
6E
  8
PATTERN_FILL
  6
CONTINUOUS
 62
     7
 10
0.0
 20
-92.073851790305724
 30
0.0
 40
23.99999999999995
 50
319.16734261844431
 51
340.71567497203489
  0
ARC
  5
6F
  8
PATTERN_FILL
  6
CONTINUOUS
 62
     7
 10
0.0
 20
-92.073851790305724
 30
0.0
 40
26.0
 50
302.20140918573878
 51
336.73088736993901
  0
ARC
  5
70
  8
PATTERN_FILL
  6
CONTINUOUS
 62
     7
 10
627.25000000000068
 20
-98.073851790305653
 30
0.0
 40
625.2500000000008
 50
181.97363059734951
 51
182.3641792206916
  0
ARC
  5
71
  8
PATTERN_FILL
  6
CONTINUOUS
 62
     7
 10
627.15511396063755
 20
-87.200988623535423
 30
0.0
 40
623.25000000000068
 50
182.9407975816782
 51
183.3371734692777
  0
ARC
  5
72
  8
PATTERN_FILL
  6
CONTINUOUS
 62
     7
 10
626.8714995841774
 20
-76.369274310362613
 30
0.0
 40
621.2500000000008
 50
183.8838904887478
 51
184.29011212055491
  0
ARC
  5
73
  8
PATTERN_FILL
  6
CONTINUOUS
 62
     7
 10
626.40044573234491
 20
-65.580311361225341
 30
0.0
 40
619.25000000000057
 50
184.8012106935229
 51
185.22217801962259
  0
ARC
  5
74
  8
PATTERN_FILL
  6
CONTINUOUS
 62
     7
 10
625.74330135383389
 20
-54.83609574563836
 30
0.0
 40
617.25000000000045
 50
185.6898014519322
 51
186.1319846093497
  0
ARC
  5
75
  8
PATTERN_FILL
  6
CONTINUOUS
 62
     7
 10
624.90148115807028
 20
-44.139755987219871
 30
0.0
 40
615.25000000000057
 50
186.5445631862213
 51
187.01728799609131
  0
ARC
  5
76
  8
PATTERN_FILL
  6
CONTINUOUS
 62
     7
 10
623.8764552367777
 20
-33.494454777160293
 30
0.0
 40
613.25000000000045
 50
187.3564293182929
 51
187.87467431516811
  0
ARC
  5
77
  8
PATTERN_FILL
  6
CONTINUOUS
 62
     7
 10
622.66974763606004
 20
-22.90331809298436
 30
0.0
 40
611.25000000000068
 50
188.1068113065941
 51
188.6987388346511
  0
ARC
  5
78
  8
PATTERN_FILL
  6
CONTINUOUS
 62
     7
 10
621.28293552303433
 20
-12.369434281891239
 30
0.0
 40
609.25000000000125
 50
188.74305423445111
 51
189.4802098000464
  0
ARC
  5
79
  8
PATTERN_FILL
  6
CONTINUOUS
 62
     7
 10
619.71764833695386
 20
-1.8958531619937271
 30
0.0
 40
607.25000000000068
 50
189.2971533769213
 51
190.2007374231014
  0
ARC
  5
7A
  8
PATTERN_FILL
  6
CONTINUOUS
 62
     7
 10
617.97556692520448
 20
8.5144148582810431
 30
0.0
 40
605.2500000000008
 50
190.32832452845719
 51
190.81166213563219
  0
ARC
  5
7B
  8
PATTERN_FILL
  6
CONTINUOUS
 62
     7
 10
0.0
 20
-92.073851790305724
 30
0.0
 40
21.999999999999972
 50
201.117359857472
 51
206.71123493768289
  0
ARC
  5
7C
  8
PATTERN_FILL
  6
CONTINUOUS
 62
     7
 10
0.0
 20
-92.073851790305724
 30
0.0
 40
23.999999999999972
 50
199.28432502796511
 51
220.83265738155589
  0
ARC
  5
7D
  8
PATTERN_FILL
  6
CONTINUOUS
 62
     7
 10
0.0
 20
-92.073851790305724
 30
0.0
 40
25.999999999999972
 50
203.2691126300609
 51
237.79859081426139
  0
ARC
  5
7E
  8
PATTERN_FILL
  6
CONTINUOUS
 62
     7
 10
-627.25000000000068
 20
-98.073851790305653
 30
0.0
 40
625.2500000000008
 50
357.63582077934188
 51
358.02636940263761
  0
ARC
  5
7F
  8
PATTERN_FILL
  6
CONTINUOUS
 62
     7
 10
-627.15511396063755
 20
-87.200988623535423
 30
0.0
 40
623.25000000000068
 50
356.66282653071761
 51
357.05920241831672
  0
ARC
  5
80
  8
PATTERN_FILL
  6
CONTINUOUS
 62
     7
 10
-626.8714995841774
 20
-76.369274310362613
 30
0.0
 40
621.2500000000008
 50
355.70988787944361
 51
356.11610951126562
  0
ARC
  5
81
  8
PATTERN_FILL
  6
CONTINUOUS
 62
     7
 10
-626.40044573234491
 20
-65.580311361225341
 30
0.0
 40
619.25000000000057
 50
354.77782198038187
 51
355.19878930648878
  0
ARC
  5
82
  8
PATTERN_FILL
  6
CONTINUOUS
 62
     7
 10
-625.74330135383389
 20
-54.83609574563836
 30
0.0
 40
617.25000000000045
 50
353.86801539064447
 51
354.3101985480713
  0
ARC
  5
83
  8
PATTERN_FILL
  6
CONTINUOUS
 62
     7
 10
-624.90148115807028
 20
-44.139755987219871
 30
0.0
 40
615.25000000000057
 50
352.98271200391167
 51
353.4554368137741
  0
ARC
  5
84
  8
PATTERN_FILL
  6
CONTINUOUS
 62
     7
 10
-623.8764552367777
 20
-33.494454777160293
 30
0.0
 40
613.2500000000008
 50
352.12532568483078
 51
352.64357068170199
  0
ARC
  5
85
  8
PATTERN_FILL
  6
CONTINUOUS
 62
     7
 10
-622.66974763606004
 20
-22.90331809298436
 30
0.0
 40
611.25000000000057
 50
351.30126116535041
 51
351.893188693404
  0
ARC
  5
86
  8
PATTERN_FILL
  6
CONTINUOUS
 62
     7
 10
-621.28293552303433
 20
-12.369434281891239
 30
0.0
 40
609.25000000000114
 50
350.51979019995338
 51
351.25694576555492
  0
ARC
  5
87
  8
PATTERN_FILL
  6
CONTINUOUS
 62
     7
 10
-619.71764833695386
 20
-1.8958531619937271
 30
0.0
 40
607.25000000000068
 50
349.79926257689459
 51
350.70284662307859
  0
ARC
  5
88
  8
PATTERN_FILL
  6
CONTINUOUS
 62
     7
 10
-617.97556692520448
 20
8.5144148582810431
 30
0.0
 40
605.2500000000008
 50
349.18833786436858
 51
349.67167547154281
  0
ARC
  5
89
  8
PATTERN_FILL
  6
CONTINUOUS
 62
     7
 10
0.0000000000000568
 20
217.97385179033131
 30
0.0
 40
10.0
 50
53.380529869726452
 51
126.61947013027149
  0
ARC
  5
8A
  8
PATTERN_FILL
  6
CONTINUOUS
 62
     7
 10
0.0000000000000568
 20
217.97385179033131
 30
0.0
 40
11.999999999999989
 50
41.978036550102637
 51
138.02196344989599
  0
ARC
  5
8B
  8
PATTERN_FILL
  6
CONTINUOUS
 62
     7
 10
0.0000000000000568
 20
217.97385179033131
 30
0.0
 40
13.999999999999989
 50
34.980408191510818
 51
145.0195918084884
  0
ARC
  5
8C
  8
PATTERN_FILL
  6
CONTINUOUS
 62
     7
 10
0.0000000000000568
 20
217.97385179033131
 30
0.0
 40
15.999999999999989
 50
30.108181005260839
 51
149.89181899473161
  0
ARC
  5
8D
  8
PATTERN_FILL
  6
CONTINUOUS
 62
     7
 10
0.0000000000000568
 20
217.97385179033131
 30
0.0
 40
18.0
 50
26.480750716242731
 51
153.51924928375681
  0
ARC
  5
8E
  8
PATTERN_FILL
  6
CONTINUOUS
 62
     7
 10
0.0000000000000568
 20
217.97385179033131
 30
0.0
 40
20.0
 50
23.659936496119059
 51
156.34006350388009
  0
ARC
  5
8F
  8
PATTERN_FILL
  6
CONTINUOUS
 62
     7
 10
0.0000000000000568
 20
217.97385179033131
 30
0.0
 40
21.999999999999989
 50
21.396808296465281
 51
158.603191703541
  0
ARC
  5
90
  8
PATTERN_FILL
  6
CONTINUOUS
 62
     7
 10
0.0000000000000568
 20
217.97385179033131
 30
0.0
 40
23.999999999999972
 50
19.53744509878786
 51
160.4625549012118
  0
ARC
  5
91
  8
PATTERN_FILL
  6
CONTINUOUS
 62
     7
 10
0.0000000000000568
 20
217.97385179033131
 30
0.0
 40
26.0
 50
29.284414519136181
 51
150.71558548087771
  0
ARC
  5
92
  8
PATTERN_FILL
  6
CONTINUOUS
 62
     7
 10
0.0000000000000568
 20
217.97385179033131
 30
0.0
 40
27.999999999999972
 50
37.861154481182439
 51
142.138845518821
  0
LINE
  5
93
  8
PATTERN_FILL
  6
CONTINUOUS
 62
     7
 10
0.0000000000000568
 20
252.00000000002549
 30
0.0
 11
0.0000000000000568
 21
225.97385179033131
 31
0.0
  0
ARC
  5
94
  8
PATTERN_FILL
  6
CONTINUOUS
 62
     7
 10
627.25000000000114
 20
223.97385179033131
 30
0.0
 40
625.25000000000102
 50
177.43091849221719
 51
179.8143303570364
  0
ARC
  5
95
  8
PATTERN_FILL
  6
CONTINUOUS
 62
     7
 10
627.15511396063755
 20
213.10098862356099
 30
0.0
 40
623.25000000000068
 50
176.4216627334753
 51
178.81410078891639
  0
ARC
  5
96
  8
PATTERN_FILL
  6
CONTINUOUS
 62
     7
 10
626.87149958417785
 20
202.26927431038831
 30
0.0
 40
621.2500000000008
 50
175.40859142077261
 51
177.81086310428731
  0
ARC
  5
97
  8
PATTERN_FILL
  6
CONTINUOUS
 62
     7
 10
626.40044573234525
 20
191.4803113612509
 30
0.0
 40
619.25000000000068
 50
174.3914953990521
 51
176.80442755867421
  0
ARC
  5
98
  8
PATTERN_FILL
  6
CONTINUOUS
 62
     7
 10
625.74330135383434
 20
180.73609574566399
 30
0.0
 40
617.2500000000008
 50
173.37019546087191
 51
175.79463638621979
  0
ARC
  5
99
  8
PATTERN_FILL
  6
CONTINUOUS
 62
     7
 10
624.90148115807074
 20
170.03975598724551
 30
0.0
 40
615.25000000000057
 50
172.3446121221065
 51
174.78143323256069
  0
ARC
  5
9A
  8
PATTERN_FILL
  6
CONTINUOUS
 62
     7
 10
623.87645523677793
 20
159.39445477718601
 30
0.0
 40
613.25000000000102
 50
171.3721728594648
 51
173.76476214715061
  0
ARC
  5
9B
  8
PATTERN_FILL
  6
CONTINUOUS
 62
     7
 10
622.66974763606038
 20
148.80331809301001
 30
0.0
 40
611.25000000000068
 50
170.7683336985279
 51
172.7445608806201
  0
ARC
  5
9C
  8
PATTERN_FILL
  6
CONTINUOUS
 62
     7
 10
621.28293552303433
 20
138.2694342819168
 30
0.0
 40
609.2500000000008
 50
170.24508885102489
 51
171.7207606068495
  0
ARC
  5
9D
  8
PATTERN_FILL
  6
CONTINUOUS
 62
     7
 10
619.71764833695431
 20
127.7958531620194
 30
0.0
 40
607.25000000000114
 50
169.79605339655021
 51
170.69328561139449
  0
ARC
  5
9E
  8
PATTERN_FILL
  6
CONTINUOUS
 62
     7
 10
617.97556692520482
 20
117.3855851417445
 30
0.0
 40
605.2500000000008
 50
169.4781787022718
 51
169.66205294322191
  0
ARC
  5
9F
  8
PATTERN_FILL
  6
CONTINUOUS
 62
     7
 10
0.0000000000000568
 20
217.97385179033131
 30
0.0
 40
29.99999999999995
 50
44.476331051993277
 51
135.52366894800571
  0
ARC
  5
A0
  8
PATTERN_FILL
  6
CONTINUOUS
 62
     7
 10
0.0000000000000568
 20
217.97385179033131
 30
0.0
 40
31.999999999999972
 50
49.923813226405152
 51
130.0761867735979
  0
ARC
  5
A1
  8
PATTERN_FILL
  6
CONTINUOUS
 62
     7
 10
0.0000000000000568
 20
217.97385179033131
 30
0.0
 40
33.999999999999972
 50
54.583456868931727
 51
125.41654313106859
  0
ARC
  5
A2
  8
PATTERN_FILL
  6
CONTINUOUS
 62
     7
 10
0.0000000000000568
 20
217.97385179033131
 30
0.0
 40
35.999999999999979
 50
58.672633930715342
 51
70.938887752911313
  0
ARC
  5
A3
  8
PATTERN_FILL
  6
CONTINUOUS
 62
     7
 10
0.0000000000000568
 20
217.97385179033131
 30
0.0
 40
35.999999999999957
 50
109.0611122470887
 51
121.3273660692865
  0
ARC
  5
A4
  8
PATTERN_FILL
  6
CONTINUOUS
 62
     7
 10
-627.25000000000068
 20
223.97385179033131
 30
0.0
 40
625.2500000000008
 50
0.1856696427620432
 51
2.5690815077826019
  0
ARC
  5
A5
  8
PATTERN_FILL
  6
CONTINUOUS
 62
     7
 10
-627.15511396063732
 20
213.10098862356099
 30
0.0
 40
623.25000000000068
 50
1.185899210875144
 51
3.5783372665245361
  0
ARC
  5
A6
  8
PATTERN_FILL
  6
CONTINUOUS
 62
     7
 10
-626.8714995841774
 20
202.26927431038831
 30
0.0
 40
621.25000000000045
 50
2.1891368955482311
 51
4.5914085792274193
  0
ARC
  5
A7
  8
PATTERN_FILL
  6
CONTINUOUS
 62
     7
 10
-626.40044573234491
 20
191.4803113612509
 30
0.0
 40
619.25000000000057
 50
3.195572441412176
 51
5.6085046009479438
  0
ARC
  5
A8
  8
PATTERN_FILL
  6
CONTINUOUS
 62
     7
 10
-625.74330135383389
 20
180.73609574566399
 30
0.0
 40
617.2500000000008
 50
4.2053636137397561
 51
6.629804539128223
  0
ARC
  5
A9
  8
PATTERN_FILL
  6
CONTINUOUS
 62
     7
 10
-624.90148115807028
 20
170.03975598724551
 30
0.0
 40
615.25000000000057
 50
5.2185667674325682
 51
7.6553878778934923
  0
ARC
  5
AA
  8
PATTERN_FILL
  6
CONTINUOUS
 62
     7
 10
-623.87645523677747
 20
159.39445477718601
 30
0.0
 40
613.2500000000008
 50
6.2352378531966259
 51
8.627827140537736
  0
ARC
  5
AB
  8
PATTERN_FILL
  6
CONTINUOUS
 62
     7
 10
-622.66974763606004
 20
148.80331809301001
 30
0.0
 40
611.25000000000068
 50
7.2554391195034293
 51
9.2316663014725187
  0
ARC
  5
AC
  8
PATTERN_FILL
  6
CONTINUOUS
 62
     7
 10
-621.28293552303398
 20
138.2694342819168
 30
0.0
 40
609.25000000000045
 50
8.2792393934980861
 51
9.754911148974406
  0
ARC
  5
AD
  8
PATTERN_FILL
  6
CONTINUOUS
 62
     7
 10
-619.71764833695386
 20
127.7958531620194
 30
0.0
 40
607.25000000000068
 50
9.3067143885766423
 51
10.203946603450269
  0
ARC
  5
AE
  8
PATTERN_FILL
  6
CONTINUOUS
 62
     7
 10
-617.97556692520448
 20
117.3855851417445
 30
0.0
 40
605.25000000000125
 50
10.337947056717139
 51
10.521821297727071
  0
ARC
  5
AF
  8
PATTERN_FILL
  6
CONTINUOUS
 62
     7
 10
0.0000000000000568
 20
230.02614820971979
 30
0.0
 40
10.0
 50
244.50393124714159
 51
295.49606875285838
  0
ARC
  5
B0
  8
PATTERN_FILL
  6
CONTINUOUS
 62
     7
 10
0.0000000000000568
 20
230.02614820971979
 30
0.0
 40
12.0
 50
228.77948529542871
 51
311.2205147045716
  0
ARC
  5
B1
  8
PATTERN_FILL
  6
CONTINUOUS
 62
     7
 10
0.0000000000000568
 20
230.02614820971979
 30
0.0
 40
14.0
 50
220.14505046064971
 51
319.85494953935017
  0
ARC
  5
B2
  8
PATTERN_FILL
  6
CONTINUOUS
 62
     7
 10
0.0000000000000568
 20
230.02614820971979
 30
0.0
 40
15.99999999999998
 50
214.34219457143249
 51
325.65780542856749
  0
ARC
  5
B3
  8
PATTERN_FILL
  6
CONTINUOUS
 62
     7
 10
0.0000000000000568
 20
230.02614820971979
 30
0.0
 40
18.0
 50
210.09615505238159
 51
329.90384494761838
  0
ARC
  5
B4
  8
PATTERN_FILL
  6
CONTINUOUS
 62
     7
 10
0.0000000000000568
 20
230.02614820971979
 30
0.0
 40
20.0
 50
206.8275970356467
 51
333.17240296435318
  0
ARC
  5
B5
  8
PATTERN_FILL
  6
CONTINUOUS
 62
     7
 10
0.0000000000000568
 20
230.02614820971979
 30
0.0
 40
22.000000000000011
 50
204.22239150520559
 51
335.77760849479438
  0
ARC
  5
B6
  8
PATTERN_FILL
  6
CONTINUOUS
 62
     7
 10
0.0000000000000568
 20
230.02614820971979
 30
0.0
 40
23.999999999999989
 50
202.0916671430887
 51
337.90833285691122
  0
ARC
  5
B7
  8
PATTERN_FILL
  6
CONTINUOUS
 62
     7
 10
0.0000000000000568
 20
230.02614820971979
 30
0.0
 40
25.999999999999972
 50
208.3443864871046
 51
331.65561351291842
  0
ARC
  5
B8
  8
PATTERN_FILL
  6
CONTINUOUS
 62
     7
 10
0.0000000000000568
 20
230.02614820971979
 30
0.0
 40
27.99999999999994
 50
216.63856962072921
 51
323.3614303792744
  0
LINE
  5
B9
  8
PATTERN_FILL
  6
CONTINUOUS
 62
     7
 10
0.0
 20
198.0
 30
0.0
 11
0.0
 21
221.0
 31
0.0
  0
ARC
  5
BA
  8
PATTERN_FILL
  6
CONTINUOUS
 62
     7
 10
627.25000000000114
 20
224.02614820971971
 30
0.0
 40
625.25000000000114
 50
180.2773069932324
 51
182.38563679325219
  0
ARC
  5
BB
  8
PATTERN_FILL
  6
CONTINUOUS
 62
     7
 10
627.15511396063755
 20
234.89901137648999
 30
0.0
 40
623.25000000000102
 50
181.27785112611329
 51
183.39413500297749
  0
ARC
  5
BC
  8
PATTERN_FILL
  6
CONTINUOUS
 62
     7
 10
626.87149958417785
 20
245.73072568966279
 30
0.0
 40
621.2500000000008
 50
182.28143374251641
 51
184.40638519948291
  0
ARC
  5
BD
  8
PATTERN_FILL
  6
CONTINUOUS
 62
     7
 10
626.40044573234525
 20
256.51968863880012
 30
0.0
 40
619.25000000000068
 50
183.28824523113309
 51
185.42259484067671
  0
ARC
  5
BE
  8
PATTERN_FILL
  6
CONTINUOUS
 62
     7
 10
625.74330135383434
 20
267.26390425438711
 30
0.0
 40
617.2500000000008
 50
184.2984440754316
 51
186.44294127025651
  0
ARC
  5
BF
  8
PATTERN_FILL
  6
CONTINUOUS
 62
     7
 10
624.90148115807074
 20
277.96024401280562
 30
0.0
 40
615.25000000000057
 50
185.31208740914411
 51
187.46750197133679
  0
ARC
  5
C0
  8
PATTERN_FILL
  6
CONTINUOUS
 62
     7
 10
623.87645523677793
 20
288.6055452228652
 30
0.0
 40
613.25000000000114
 50
186.32923203084999
 51
188.49635582971169
  0
ARC
  5
C1
  8
PATTERN_FILL
  6
CONTINUOUS
 62
     7
 10
622.66974763606038
 20
299.19668190704112
 30
0.0
 40
611.25000000000068
 50
187.3499411118334
 51
189.36302628898881
  0
ARC
  5
C2
  8
PATTERN_FILL
  6
CONTINUOUS
 62
     7
 10
621.28293552303433
 20
309.7305657181343
 30
0.0
 40
609.25000000000114
 50
188.37428447923051
 51
189.87091161596811
  0
ARC
  5
C3
  8
PATTERN_FILL
  6
CONTINUOUS
 62
     7
 10
619.71764833695431
 20
320.20414683803182
 30
0.0
 40
607.25000000000125
 50
189.4023389335573
 51
190.29622666915279
  0
ARC
  5
C4
  8
PATTERN_FILL
  6
CONTINUOUS
 62
     7
 10
617.97556692520482
 20
330.61441485830659
 30
0.0
 40
605.2500000000008
 50
190.43418860335899
 51
190.5665501387021
  0
ARC
  5
C5
  8
PATTERN_FILL
  6
CONTINUOUS
 62
     7
 10
0.0000000000000568
 20
230.02614820971979
 30
0.0
 40
29.999999999999961
 50
223.09432671075911
 51
316.9056732892418
  0
ARC
  5
C6
  8
PATTERN_FILL
  6
CONTINUOUS
 62
     7
 10
0.0000000000000568
 20
230.02614820971979
 30
0.0
 40
31.999999999999972
 50
228.43509669556261
 51
311.56490330443791
  0
ARC
  5
C7
  8
PATTERN_FILL
  6
CONTINUOUS
 62
     7
 10
0.0000000000000568
 20
230.02614820971979
 30
0.0
 40
33.999999999999972
 50
233.0163854968954
 51
250.38089326998161
  0
ARC
  5
C8
  8
PATTERN_FILL
  6
CONTINUOUS
 62
     7
 10
0.0000000000000568
 20
230.02614820971979
 30
0.0
 40
33.999999999999972
 50
289.6191067300183
 51
306.98361450310603
  0
ARC
  5
C9
  8
PATTERN_FILL
  6
CONTINUOUS
 62
     7
 10
0.0000000000000568
 20
230.02614820971979
 30
0.0
 40
35.999999999999979
 50
297.17506362580127
 51
302.95543008817828
  0
ARC
  5
CA
  8
PATTERN_FILL
  6
CONTINUOUS
 62
     7
 10
0.0000000000000568
 20
230.02614820971979
 30
0.0
 40
35.999999999999957
 50
237.0445699118207
 51
242.82493637419839
  0
ARC
  5
CB
  8
PATTERN_FILL
  6
CONTINUOUS
 62
     7
 10
-627.25000000000068
 20
224.02614820971971
 30
0.0
 40
625.2500000000008
 50
357.61436320674858
 51
359.72269300676402
  0
ARC
  5
CC
  8
PATTERN_FILL
  6
CONTINUOUS
 62
     7
 10
-627.15511396063732
 20
234.89901137648999
 30
0.0
 40
623.25000000000068
 50
356.60586499701981
 51
358.72214887388247
  0
ARC
  5
CD
  8
PATTERN_FILL
  6
CONTINUOUS
 62
     7
 10
-626.8714995841774
 20
245.73072568966279
 30
0.0
 40
621.25000000000011
 50
355.59361480051729
 51
357.71856625748597
  0
ARC
  5
CE
  8
PATTERN_FILL
  6
CONTINUOUS
 62
     7
 10
-626.40044573234491
 20
256.51968863880012
 30
0.0
 40
619.25000000000068
 50
354.5774051593263
 51
356.71175476885992
  0
ARC
  5
CF
  8
PATTERN_FILL
  6
CONTINUOUS
 62
     7
 10
-625.74330135383389
 20
267.26390425438711
 30
0.0
 40
617.2500000000008
 50
353.55705872974357
 51
355.70155592456109
  0
ARC
  5
D0
  8
PATTERN_FILL
  6
CONTINUOUS
 62
     7
 10
-624.90148115807028
 20
277.96024401280562
 30
0.0
 40
615.25000000000011
 50
352.53249802866111
 51
354.6879125908539
  0
ARC
  5
D1
  8
PATTERN_FILL
  6
CONTINUOUS
 62
     7
 10
-623.87645523677747
 20
288.6055452228652
 30
0.0
 40
613.2500000000008
 50
351.50364417029311
 51
353.67076796914699
  0
ARC
  5
D2
  8
PATTERN_FILL
  6
CONTINUOUS
 62
     7
 10
-621.28293552303398
 20
309.7305657181343
 30
0.0
 40
609.2500000000008
 50
350.12908838403541
 51
351.62571552076901
  0
ARC
  5
D3
  8
PATTERN_FILL
  6
CONTINUOUS
 62
     7
 10
-619.71764833695386
 20
320.20414683803182
 30
0.0
 40
607.25000000000068
 50
349.70377333084792
 51
350.59766106644969
  0
ARC
  5
D4
  8
PATTERN_FILL
  6
CONTINUOUS
 62
     7
 10
-617.97556692520448
 20
330.61441485830659
 30
0.0
 40
605.25000000000125
 50
349.43344986129762
 51
349.5658113966353
  0
ARC
  5
D5
  8
PATTERN_FILL
  6
CONTINUOUS
 62
     7
 10
120.0
 20
217.97385179033131
 30
0.0
 40
10.0
 50
53.380529869726452
 51
126.61947013027149
  0
ARC
  5
D6
  8
PATTERN_FILL
  6
CONTINUOUS
 62
     7
 10
120.0
 20
217.97385179033131
 30
0.0
 40
11.999999999999989
 50
41.978036550102637
 51
138.02196344989599
  0
ARC
  5
D7
  8
PATTERN_FILL
  6
CONTINUOUS
 62
     7
 10
120.0
 20
217.97385179033131
 30
0.0
 40
13.999999999999989
 50
34.980408191510818
 51
145.0195918084884
  0
ARC
  5
D8
  8
PATTERN_FILL
  6
CONTINUOUS
 62
     7
 10
120.0
 20
217.97385179033131
 30
0.0
 40
15.999999999999989
 50
30.108181005260839
 51
149.89181899473161
  0
ARC
  5
D9
  8
PATTERN_FILL
  6
CONTINUOUS
 62
     7
 10
120.0
 20
217.97385179033131
 30
0.0
 40
18.0
 50
26.480750716242731
 51
153.51924928375681
  0
ARC
  5
DA
  8
PATTERN_FILL
  6
CONTINUOUS
 62
     7
 10
120.0
 20
217.97385179033131
 30
0.0
 40
20.0
 50
23.659936496119059
 51
156.34006350388009
  0
ARC
  5
DB
  8
PATTERN_FILL
  6
CONTINUOUS
 62
     7
 10
120.0
 20
217.97385179033131
 30
0.0
 40
21.999999999999989
 50
21.396808296465281
 51
158.603191703541
  0
ARC
  5
DC
  8
PATTERN_FILL
  6
CONTINUOUS
 62
     7
 10
120.0
 20
217.97385179033131
 30
0.0
 40
23.999999999999972
 50
19.53744509878786
 51
160.4625549012118
  0
ARC
  5
DD
  8
PATTERN_FILL
  6
CONTINUOUS
 62
     7
 10
120.0
 20
217.97385179033131
 30
0.0
 40
26.0
 50
29.284414519136181
 51
150.71558548087771
  0
ARC
  5
DE
  8
PATTERN_FILL
  6
CONTINUOUS
 62
     7
 10
120.0
 20
217.97385179033131
 30
0.0
 40
27.999999999999972
 50
37.861154481182439
 51
142.138845518821
  0
LINE
  5
DF
  8
PATTERN_FILL
  6
CONTINUOUS
 62
     7
 10
120.0
 20
252.00000000002549
 30
0.0
 11
120.0
 21
225.97385179033131
 31
0.0
  0
ARC
  5
E0
  8
PATTERN_FILL
  6
CONTINUOUS
 62
     7
 10
747.25000000000102
 20
223.97385179033131
 30
0.0
 40
625.25000000000102
 50
177.43091849221719
 51
179.8143303570364
  0
ARC
  5
E1
  8
PATTERN_FILL
  6
CONTINUOUS
 62
     7
 10
747.15511396063755
 20
213.10098862356099
 30
0.0
 40
623.25000000000068
 50
176.4216627334753
 51
178.81410078891639
  0
ARC
  5
E2
  8
PATTERN_FILL
  6
CONTINUOUS
 62
     7
 10
746.87149958417774
 20
202.26927431038831
 30
0.0
 40
621.2500000000008
 50
175.40859142077261
 51
177.81086310428731
  0
ARC
  5
E3
  8
PATTERN_FILL
  6
CONTINUOUS
 62
     7
 10
746.40044573234525
 20
191.4803113612509
 30
0.0
 40
619.25000000000068
 50
174.3914953990521
 51
176.80442755867421
  0
ARC
  5
E4
  8
PATTERN_FILL
  6
CONTINUOUS
 62
     7
 10
745.74330135383411
 20
180.73609574566399
 30
0.0
 40
617.2500000000008
 50
173.37019546087191
 51
175.79463638621979
  0
ARC
  5
E5
  8
PATTERN_FILL
  6
CONTINUOUS
 62
     7
 10
744.90148115807062
 20
170.03975598724551
 30
0.0
 40
615.25000000000057
 50
172.3446121221065
 51
174.78143323256069
  0
ARC
  5
E6
  8
PATTERN_FILL
  6
CONTINUOUS
 62
     7
 10
743.87645523677782
 20
159.39445477718601
 30
0.0
 40
613.25000000000102
 50
171.3721728594648
 51
173.76476214715061
  0
ARC
  5
E7
  8
PATTERN_FILL
  6
CONTINUOUS
 62
     7
 10
742.66974763606049
 20
148.80331809301001
 30
0.0
 40
611.25000000000068
 50
170.7683336985279
 51
172.7445608806201
  0
ARC
  5
E8
  8
PATTERN_FILL
  6
CONTINUOUS
 62
     7
 10
741.28293552303433
 20
138.2694342819168
 30
0.0
 40
609.2500000000008
 50
170.24508885102489
 51
171.7207606068495
  0
ARC
  5
E9
  8
PATTERN_FILL
  6
CONTINUOUS
 62
     7
 10
739.71764833695431
 20
127.7958531620194
 30
0.0
 40
607.25000000000114
 50
169.79605339655021
 51
170.69328561139449
  0
ARC
  5
EA
  8
PATTERN_FILL
  6
CONTINUOUS
 62
     7
 10
737.97556692520482
 20
117.3855851417445
 30
0.0
 40
605.2500000000008
 50
169.4781787022718
 51
169.66205294322191
  0
ARC
  5
EB
  8
PATTERN_FILL
  6
CONTINUOUS
 62
     7
 10
120.0
 20
217.97385179033131
 30
0.0
 40
29.99999999999995
 50
44.476331051993277
 51
135.52366894800571
  0
ARC
  5
EC
  8
PATTERN_FILL
  6
CONTINUOUS
 62
     7
 10
120.0
 20
217.97385179033131
 30
0.0
 40
31.999999999999972
 50
49.923813226405152
 51
130.0761867735979
  0
ARC
  5
ED
  8
PATTERN_FILL
  6
CONTINUOUS
 62
     7
 10
120.0
 20
217.97385179033131
 30
0.0
 40
33.999999999999972
 50
54.583456868931727
 51
125.41654313106859
  0
ARC
  5
EE
  8
PATTERN_FILL
  6
CONTINUOUS
 62
     7
 10
120.0
 20
217.97385179033131
 30
0.0
 40
35.999999999999979
 50
58.672633930715342
 51
70.938887752911313
  0
ARC
  5
EF
  8
PATTERN_FILL
  6
CONTINUOUS
 62
     7
 10
120.0
 20
217.97385179033131
 30
0.0
 40
35.999999999999957
 50
109.0611122470887
 51
121.3273660692865
  0
ARC
  5
F0
  8
PATTERN_FILL
  6
CONTINUOUS
 62
     7
 10
-507.2500000000008
 20
223.97385179033131
 30
0.0
 40
625.2500000000008
 50
0.1856696427620432
 51
2.5690815077826019
  0
ARC
  5
F1
  8
PATTERN_FILL
  6
CONTINUOUS
 62
     7
 10
-507.15511396063732
 20
213.10098862356099
 30
0.0
 40
623.25000000000068
 50
1.185899210875144
 51
3.5783372665245361
  0
ARC
  5
F2
  8
PATTERN_FILL
  6
CONTINUOUS
 62
     7
 10
-506.8714995841774
 20
202.26927431038831
 30
0.0
 40
621.25000000000045
 50
2.1891368955482311
 51
4.5914085792274193
  0
ARC
  5
F3
  8
PATTERN_FILL
  6
CONTINUOUS
 62
     7
 10
-506.40044573234491
 20
191.4803113612509
 30
0.0
 40
619.25000000000057
 50
3.195572441412176
 51
5.6085046009479438
  0
ARC
  5
F4
  8
PATTERN_FILL
  6
CONTINUOUS
 62
     7
 10
-505.74330135383389
 20
180.73609574566399
 30
0.0
 40
617.2500000000008
 50
4.2053636137397561
 51
6.629804539128223
  0
ARC
  5
F5
  8
PATTERN_FILL
  6
CONTINUOUS
 62
     7
 10
-504.90148115807028
 20
170.03975598724551
 30
0.0
 40
615.25000000000057
 50
5.2185667674325682
 51
7.6553878778934923
  0
ARC
  5
F6
  8
PATTERN_FILL
  6
CONTINUOUS
 62
     7
 10
-503.87645523677747
 20
159.39445477718601
 30
0.0
 40
613.2500000000008
 50
6.2352378531966259
 51
8.627827140537736
  0
ARC
  5
F7
  8
PATTERN_FILL
  6
CONTINUOUS
 62
     7
 10
-502.66974763605998
 20
148.80331809301001
 30
0.0
 40
611.25000000000068
 50
7.2554391195034293
 51
9.2316663014725187
  0
ARC
  5
F8
  8
PATTERN_FILL
  6
CONTINUOUS
 62
     7
 10
-501.28293552303398
 20
138.2694342819168
 30
0.0
 40
609.25000000000045
 50
8.2792393934980861
 51
9.754911148974406
  0
ARC
  5
F9
  8
PATTERN_FILL
  6
CONTINUOUS
 62
     7
 10
-499.71764833695391
 20
127.7958531620194
 30
0.0
 40
607.25000000000068
 50
9.3067143885766423
 51
10.203946603450269
  0
ARC
  5
FA
  8
PATTERN_FILL
  6
CONTINUOUS
 62
     7
 10
-497.97556692520442
 20
117.3855851417445
 30
0.0
 40
605.25000000000125
 50
10.337947056717139
 51
10.521821297727071
  0
ARC
  5
FB
  8
PATTERN_FILL
  6
CONTINUOUS
 62
     7
 10
120.0
 20
230.02614820971979
 30
0.0
 40
10.0
 50
244.50393124714159
 51
295.49606875285838
  0
ARC
  5
FC
  8
PATTERN_FILL
  6
CONTINUOUS
 62
     7
 10
120.0
 20
230.02614820971979
 30
0.0
 40
12.0
 50
228.77948529542871
 51
311.2205147045716
  0
ARC
  5
FD
  8
PATTERN_FILL
  6
CONTINUOUS
 62
     7
 10
120.0
 20
230.02614820971979
 30
0.0
 40
14.0
 50
220.14505046064971
 51
319.85494953935017
  0
ARC
  5
FE
  8
PATTERN_FILL
  6
CONTINUOUS
 62
     7
 10
120.0
 20
230.02614820971979
 30
0.0
 40
15.99999999999998
 50
214.34219457143249
 51
325.65780542856749
  0
ARC
  5
FF
  8
PATTERN_FILL
  6
CONTINUOUS
 62
     7
 10
120.0
 20
230.02614820971979
 30
0.0
 40
18.0
 50
210.09615505238159
 51
329.90384494761838
  0
ARC
  5
100
  8
PATTERN_FILL
  6
CONTINUOUS
 62
     7
 10
120.0
 20
230.02614820971979
 30
0.0
 40
20.0
 50
206.8275970356467
 51
333.17240296435318
  0
ARC
  5
101
  8
PATTERN_FILL
  6
CONTINUOUS
 62
     7
 10
120.0
 20
230.02614820971979
 30
0.0
 40
22.000000000000011
 50
204.22239150520559
 51
335.77760849479438
  0
ARC
  5
102
  8
PATTERN_FILL
  6
CONTINUOUS
 62
     7
 10
120.0
 20
230.02614820971979
 30
0.0
 40
23.999999999999989
 50
202.0916671430887
 51
337.90833285691122
  0
ARC
  5
103
  8
PATTERN_FILL
  6
CONTINUOUS
 62
     7
 10
120.0
 20
230.02614820971979
 30
0.0
 40
25.999999999999972
 50
208.3443864871046
 51
331.65561351291842
  0
ARC
  5
104
  8
PATTERN_FILL
  6
CONTINUOUS
 62
     7
 10
120.0
 20
230.02614820971979
 30
0.0
 40
27.99999999999994
 50
216.63856962072921
 51
323.3614303792744
  0
LINE
  5
105
  8
PATTERN_FILL
  6
CONTINUOUS
 62
     7
 10
120.0
 20
198.0
 30
0.0
 11
120.0
 21
221.0
 31
0.0
  0
ARC
  5
106
  8
PATTERN_FILL
  6
CONTINUOUS
 62
     7
 10
747.25000000000102
 20
224.02614820971971
 30
0.0
 40
625.25000000000114
 50
180.2773069932324
 51
182.38563679325219
  0
ARC
  5
107
  8
PATTERN_FILL
  6
CONTINUOUS
 62
     7
 10
747.15511396063755
 20
234.89901137648999
 30
0.0
 40
623.25000000000102
 50
181.27785112611329
 51
183.39413500297749
  0
ARC
  5
108
  8
PATTERN_FILL
  6
CONTINUOUS
 62
     7
 10
746.87149958417774
 20
245.73072568966279
 30
0.0
 40
621.2500000000008
 50
182.28143374251641
 51
184.40638519948291
  0
ARC
  5
109
  8
PATTERN_FILL
  6
CONTINUOUS
 62
     7
 10
746.40044573234525
 20
256.51968863880012
 30
0.0
 40
619.25000000000068
 50
183.28824523113309
 51
185.42259484067671
  0
ARC
  5
10A
  8
PATTERN_FILL
  6
CONTINUOUS
 62
     7
 10
745.74330135383411
 20
267.26390425438711
 30
0.0
 40
617.2500000000008
 50
184.2984440754316
 51
186.44294127025651
  0
ARC
  5
10B
  8
PATTERN_FILL
  6
CONTINUOUS
 62
     7
 10
744.90148115807062
 20
277.96024401280562
 30
0.0
 40
615.25000000000057
 50
185.31208740914411
 51
187.46750197133679
  0
ARC
  5
10C
  8
PATTERN_FILL
  6
CONTINUOUS
 62
     7
 10
743.87645523677782
 20
288.6055452228652
 30
0.0
 40
613.25000000000114
 50
186.32923203084999
 51
188.49635582971169
  0
ARC
  5
10D
  8
PATTERN_FILL
  6
CONTINUOUS
 62
     7
 10
742.66974763606049
 20
299.19668190704112
 30
0.0
 40
611.25000000000068
 50
187.3499411118334
 51
189.36302628898881
  0
ARC
  5
10E
  8
PATTERN_FILL
  6
CONTINUOUS
 62
     7
 10
741.28293552303433
 20
309.7305657181343
 30
0.0
 40
609.25000000000114
 50
188.37428447923051
 51
189.87091161596811
  0
ARC
  5
10F
  8
PATTERN_FILL
  6
CONTINUOUS
 62
     7
 10
739.71764833695431
 20
320.20414683803182
 30
0.0
 40
607.25000000000125
 50
189.4023389335573
 51
190.29622666915279
  0
ARC
  5
110
  8
PATTERN_FILL
  6
CONTINUOUS
 62
     7
 10
737.97556692520482
 20
330.61441485830659
 30
0.0
 40
605.2500000000008
 50
190.43418860335899
 51
190.5665501387021
  0
ARC
  5
111
  8
PATTERN_FILL
  6
CONTINUOUS
 62
     7
 10
120.0
 20
230.02614820971979
 30
0.0
 40
29.999999999999961
 50
223.09432671075911
 51
316.9056732892418
  0
ARC
  5
112
  8
PATTERN_FILL
  6
CONTINUOUS
 62
     7
 10
120.0
 20
230.02614820971979
 30
0.0
 40
31.999999999999972
 50
228.43509669556261
 51
311.56490330443791
  0
ARC
  5
113
  8
PATTERN_FILL
  6
CONTINUOUS
 62
     7
 10
120.0
 20
230.02614820971979
 30
0.0
 40
33.999999999999972
 50
233.0163854968954
 51
250.38089326998161
  0
ARC
  5
114
  8
PATTERN_FILL
  6
CONTINUOUS
 62
     7
 10
120.0
 20
230.02614820971979
 30
0.0
 40
33.999999999999972
 50
289.6191067300183
 51
306.98361450310603
  0
ARC
  5
115
  8
PATTERN_FILL
  6
CONTINUOUS
 62
     7
 10
120.0
 20
230.02614820971979
 30
0.0
 40
35.999999999999979
 50
297.17506362580127
 51
302.95543008817828
  0
ARC
  5
116
  8
PATTERN_FILL
  6
CONTINUOUS
 62
     7
 10
120.0
 20
230.02614820971979
 30
0.0
 40
35.999999999999957
 50
237.0445699118207
 51
242.82493637419839
  0
ARC
  5
117
  8
PATTERN_FILL
  6
CONTINUOUS
 62
     7
 10
-507.2500000000008
 20
224.02614820971971
 30
0.0
 40
625.2500000000008
 50
357.61436320674858
 51
359.72269300676402
  0
ARC
  5
118
  8
PATTERN_FILL
  6
CONTINUOUS
 62
     7
 10
-507.15511396063732
 20
234.89901137648999
 30
0.0
 40
623.25000000000068
 50
356.60586499701981
 51
358.72214887388247
  0
ARC
  5
119
  8
PATTERN_FILL
  6
CONTINUOUS
 62
     7
 10
-506.8714995841774
 20
245.73072568966279
 30
0.0
 40
621.25000000000011
 50
355.59361480051729
 51
357.71856625748597
  0
ARC
  5
11A
  8
PATTERN_FILL
  6
CONTINUOUS
 62
     7
 10
-506.40044573234491
 20
256.51968863880012
 30
0.0
 40
619.25000000000068
 50
354.5774051593263
 51
356.71175476885992
  0
ARC
  5
11B
  8
PATTERN_FILL
  6
CONTINUOUS
 62
     7
 10
-505.74330135383389
 20
267.26390425438711
 30
0.0
 40
617.2500000000008
 50
353.55705872974357
 51
355.70155592456109
  0
ARC
  5
11C
  8
PATTERN_FILL
  6
CONTINUOUS
 62
     7
 10
-504.90148115807028
 20
277.96024401280562
 30
0.0
 40
615.25000000000011
 50
352.53249802866111
 51
354.6879125908539
  0
ARC
  5
11D
  8
PATTERN_FILL
  6
CONTINUOUS
 62
     7
 10
-503.87645523677747
 20
288.6055452228652
 30
0.0
 40
613.2500000000008
 50
351.50364417029311
 51
353.67076796914699
  0
ARC
  5
11E
  8
PATTERN_FILL
  6
CONTINUOUS
 62
     7
 10
-501.28293552303398
 20
309.7305657181343
 30
0.0
 40
609.2500000000008
 50
350.12908838403541
 51
351.62571552076901
  0
ARC
  5
11F
  8
PATTERN_FILL
  6
CONTINUOUS
 62
     7
 10
-499.71764833695391
 20
320.20414683803182
 30
0.0
 40
607.25000000000068
 50
349.70377333084792
 51
350.59766106644969
  0
ARC
  5
120
  8
PATTERN_FILL
  6
CONTINUOUS
 62
     7
 10
-497.97556692520442
 20
330.61441485830659
 30
0.0
 40
605.25000000000125
 50
349.43344986129762
 51
349.5658113966353
  0
ARC
  5
121
  8
PATTERN_FILL
  6
CONTINUOUS
 62
     7
 10
240.00000000000011
 20
217.97385179033131
 30
0.0
 40
10.000000000000011
 50
53.380529869726409
 51
126.61947013027149
  0
ARC
  5
122
  8
PATTERN_FILL
  6
CONTINUOUS
 62
     7
 10
240.00000000000011
 20
217.97385179033131
 30
0.0
 40
12.0
 50
41.978036550102601
 51
138.02196344989599
  0
ARC
  5
123
  8
PATTERN_FILL
  6
CONTINUOUS
 62
     7
 10
240.00000000000011
 20
217.97385179033131
 30
0.0
 40
13.999999999999989
 50
34.980408191510818
 51
145.0195918084884
  0
ARC
  5
124
  8
PATTERN_FILL
  6
CONTINUOUS
 62
     7
 10
240.00000000000011
 20
217.97385179033131
 30
0.0
 40
15.999999999999989
 50
30.108181005260839
 51
149.89181899473161
  0
ARC
  5
125
  8
PATTERN_FILL
  6
CONTINUOUS
 62
     7
 10
240.00000000000011
 20
217.97385179033131
 30
0.0
 40
17.999999999999989
 50
26.480750716242749
 51
153.51924928375681
  0
ARC
  5
126
  8
PATTERN_FILL
  6
CONTINUOUS
 62
     7
 10
240.00000000000011
 20
217.97385179033131
 30
0.0
 40
19.999999999999972
 50
23.65993649611908
 51
156.34006350388009
  0
ARC
  5
127
  8
PATTERN_FILL
  6
CONTINUOUS
 62
     7
 10
240.00000000000011
 20
217.97385179033131
 30
0.0
 40
21.999999999999989
 50
21.396808296465281
 51
158.603191703541
  0
ARC
  5
128
  8
PATTERN_FILL
  6
CONTINUOUS
 62
     7
 10
240.00000000000011
 20
217.97385179033131
 30
0.0
 40
23.999999999999972
 50
19.53744509878786
 51
160.4625549012118
  0
ARC
  5
129
  8
PATTERN_FILL
  6
CONTINUOUS
 62
     7
 10
240.00000000000011
 20
217.97385179033131
 30
0.0
 40
25.999999999999979
 50
29.284414519136192
 51
150.71558548087771
  0
ARC
  5
12A
  8
PATTERN_FILL
  6
CONTINUOUS
 62
     7
 10
240.00000000000011
 20
217.97385179033131
 30
0.0
 40
27.999999999999972
 50
37.861154481182439
 51
142.138845518821
  0
LINE
  5
12B
  8
PATTERN_FILL
  6
CONTINUOUS
 62
     7
 10
240.00000000000011
 20
252.00000000002549
 30
0.0
 11
240.00000000000011
 21
225.97385179033131
 31
0.0
  0
ARC
  5
12C
  8
PATTERN_FILL
  6
CONTINUOUS
 62
     7
 10
867.25000000000102
 20
223.97385179033131
 30
0.0
 40
625.25000000000102
 50
177.43091849221719
 51
179.8143303570364
  0
ARC
  5
12D
  8
PATTERN_FILL
  6
CONTINUOUS
 62
     7
 10
867.15511396063766
 20
213.10098862356099
 30
0.0
 40
623.25000000000068
 50
176.4216627334753
 51
178.81410078891639
  0
ARC
  5
12E
  8
PATTERN_FILL
  6
CONTINUOUS
 62
     7
 10
866.87149958417785
 20
202.26927431038831
 30
0.0
 40
621.2500000000008
 50
175.40859142077261
 51
177.81086310428731
  0
ARC
  5
12F
  8
PATTERN_FILL
  6
CONTINUOUS
 62
     7
 10
866.40044573234525
 20
191.4803113612509
 30
0.0
 40
619.25000000000068
 50
174.3914953990521
 51
176.80442755867421
  0
ARC
  5
130
  8
PATTERN_FILL
  6
CONTINUOUS
 62
     7
 10
865.74330135383434
 20
180.73609574566399
 30
0.0
 40
617.2500000000008
 50
173.37019546087191
 51
175.79463638621979
  0
ARC
  5
131
  8
PATTERN_FILL
  6
CONTINUOUS
 62
     7
 10
864.90148115807051
 20
170.03975598724551
 30
0.0
 40
615.25000000000057
 50
172.3446121221065
 51
174.78143323256069
  0
ARC
  5
132
  8
PATTERN_FILL
  6
CONTINUOUS
 62
     7
 10
863.87645523677782
 20
159.39445477718601
 30
0.0
 40
613.25000000000102
 50
171.3721728594648
 51
173.76476214715061
  0
ARC
  5
133
  8
PATTERN_FILL
  6
CONTINUOUS
 62
     7
 10
862.66974763606061
 20
148.80331809301001
 30
0.0
 40
611.25000000000068
 50
170.7683336985279
 51
172.7445608806201
  0
ARC
  5
134
  8
PATTERN_FILL
  6
CONTINUOUS
 62
     7
 10
861.28293552303444
 20
138.2694342819168
 30
0.0
 40
609.2500000000008
 50
170.24508885102489
 51
171.7207606068495
  0
ARC
  5
135
  8
PATTERN_FILL
  6
CONTINUOUS
 62
     7
 10
859.7176483369542
 20
127.7958531620194
 30
0.0
 40
607.25000000000114
 50
169.79605339655021
 51
170.69328561139449
  0
ARC
  5
136
  8
PATTERN_FILL
  6
CONTINUOUS
 62
     7
 10
857.97556692520482
 20
117.3855851417445
 30
0.0
 40
605.2500000000008
 50
169.4781787022718
 51
169.66205294322191
  0
ARC
  5
137
  8
PATTERN_FILL
  6
CONTINUOUS
 62
     7
 10
240.00000000000011
 20
217.97385179033131
 30
0.0
 40
29.99999999999995
 50
44.476331051993277
 51
135.52366894800571
  0
ARC
  5
138
  8
PATTERN_FILL
  6
CONTINUOUS
 62
     7
 10
240.00000000000011
 20
217.97385179033131
 30
0.0
 40
31.999999999999972
 50
49.923813226405173
 51
130.07618677359781
  0
ARC
  5
139
  8
PATTERN_FILL
  6
CONTINUOUS
 62
     7
 10
240.00000000000011
 20
217.97385179033131
 30
0.0
 40
33.999999999999972
 50
54.583456868931783
 51
125.41654313106859
  0
ARC
  5
13A
  8
PATTERN_FILL
  6
CONTINUOUS
 62
     7
 10
240.00000000000011
 20
217.97385179033131
 30
0.0
 40
35.999999999999979
 50
58.672633930715342
 51
70.938887752911313
  0
ARC
  5
13B
  8
PATTERN_FILL
  6
CONTINUOUS
 62
     7
 10
240.00000000000011
 20
217.97385179033131
 30
0.0
 40
35.999999999999957
 50
109.0611122470887
 51
121.3273660692865
  0
ARC
  5
13C
  8
PATTERN_FILL
  6
CONTINUOUS
 62
     7
 10
-387.25000000000091
 20
223.97385179033131
 30
0.0
 40
625.2500000000008
 50
0.1856696427620432
 51
2.5690815077826019
  0
ARC
  5
13D
  8
PATTERN_FILL
  6
CONTINUOUS
 62
     7
 10
-387.15511396063732
 20
213.10098862356099
 30
0.0
 40
623.25000000000068
 50
1.185899210875144
 51
3.5783372665245361
  0
ARC
  5
13E
  8
PATTERN_FILL
  6
CONTINUOUS
 62
     7
 10
-386.87149958417751
 20
202.26927431038831
 30
0.0
 40
621.25000000000045
 50
2.1891368955482311
 51
4.5914085792274193
  0
ARC
  5
13F
  8
PATTERN_FILL
  6
CONTINUOUS
 62
     7
 10
-386.40044573234502
 20
191.4803113612509
 30
0.0
 40
619.25000000000057
 50
3.195572441412176
 51
5.6085046009479438
  0
ARC
  5
140
  8
PATTERN_FILL
  6
CONTINUOUS
 62
     7
 10
-385.743301353834
 20
180.73609574566399
 30
0.0
 40
617.2500000000008
 50
4.2053636137397561
 51
6.629804539128223
  0
ARC
  5
141
  8
PATTERN_FILL
  6
CONTINUOUS
 62
     7
 10
-384.9014811580704
 20
170.03975598724551
 30
0.0
 40
615.25000000000057
 50
5.2185667674325682
 51
7.6553878778934923
  0
ARC
  5
142
  8
PATTERN_FILL
  6
CONTINUOUS
 62
     7
 10
-383.87645523677747
 20
159.39445477718601
 30
0.0
 40
613.2500000000008
 50
6.2352378531966259
 51
8.627827140537736
  0
ARC
  5
143
  8
PATTERN_FILL
  6
CONTINUOUS
 62
     7
 10
-382.66974763605998
 20
148.80331809301001
 30
0.0
 40
611.25000000000068
 50
7.2554391195034293
 51
9.2316663014725187
  0
ARC
  5
144
  8
PATTERN_FILL
  6
CONTINUOUS
 62
     7
 10
-381.28293552303398
 20
138.2694342819168
 30
0.0
 40
609.25000000000045
 50
8.2792393934980861
 51
9.754911148974406
  0
ARC
  5
145
  8
PATTERN_FILL
  6
CONTINUOUS
 62
     7
 10
-379.71764833695403
 20
127.7958531620194
 30
0.0
 40
607.25000000000068
 50
9.3067143885766423
 51
10.203946603450269
  0
ARC
  5
146
  8
PATTERN_FILL
  6
CONTINUOUS
 62
     7
 10
-377.97556692520448
 20
117.3855851417445
 30
0.0
 40
605.25000000000125
 50
10.337947056717139
 51
10.521821297727071
  0
ARC
  5
147
  8
PATTERN_FILL
  6
CONTINUOUS
 62
     7
 10
240.00000000000011
 20
230.02614820971979
 30
0.0
 40
10.0
 50
244.50393124714159
 51
295.49606875285838
  0
ARC
  5
148
  8
PATTERN_FILL
  6
CONTINUOUS
 62
     7
 10
240.00000000000011
 20
230.02614820971979
 30
0.0
 40
12.0
 50
228.77948529542871
 51
311.2205147045716
  0
ARC
  5
149
  8
PATTERN_FILL
  6
CONTINUOUS
 62
     7
 10
240.00000000000011
 20
230.02614820971979
 30
0.0
 40
14.0
 50
220.14505046064971
 51
319.85494953935017
  0
ARC
  5
14A
  8
PATTERN_FILL
  6
CONTINUOUS
 62
     7
 10
240.00000000000011
 20
230.02614820971979
 30
0.0
 40
15.99999999999998
 50
214.34219457143249
 51
325.65780542856749
  0
ARC
  5
14B
  8
PATTERN_FILL
  6
CONTINUOUS
 62
     7
 10
240.00000000000011
 20
230.02614820971979
 30
0.0
 40
18.0
 50
210.09615505238159
 51
329.90384494761838
  0
ARC
  5
14C
  8
PATTERN_FILL
  6
CONTINUOUS
 62
     7
 10
240.00000000000011
 20
230.02614820971979
 30
0.0
 40
20.0
 50
206.8275970356467
 51
333.17240296435318
  0
ARC
  5
14D
  8
PATTERN_FILL
  6
CONTINUOUS
 62
     7
 10
240.00000000000011
 20
230.02614820971979
 30
0.0
 40
22.000000000000011
 50
204.22239150520559
 51
335.77760849479438
  0
ARC
  5
14E
  8
PATTERN_FILL
  6
CONTINUOUS
 62
     7
 10
240.00000000000011
 20
230.02614820971979
 30
0.0
 40
23.999999999999989
 50
202.0916671430887
 51
337.90833285691122
  0
ARC
  5
14F
  8
PATTERN_FILL
  6
CONTINUOUS
 62
     7
 10
240.00000000000011
 20
230.02614820971979
 30
0.0
 40
25.999999999999972
 50
208.3443864871046
 51
331.65561351291842
  0
ARC
  5
150
  8
PATTERN_FILL
  6
CONTINUOUS
 62
     7
 10
240.00000000000011
 20
230.02614820971979
 30
0.0
 40
27.99999999999994
 50
216.63856962072921
 51
323.3614303792744
  0
LINE
  5
151
  8
PATTERN_FILL
  6
CONTINUOUS
 62
     7
 10
240.0
 20
198.0
 30
0.0
 11
240.0
 21
221.0
 31
0.0
  0
ARC
  5
152
  8
PATTERN_FILL
  6
CONTINUOUS
 62
     7
 10
867.25000000000102
 20
224.02614820971971
 30
0.0
 40
625.25000000000114
 50
180.2773069932324
 51
182.38563679325219
  0
ARC
  5
153
  8
PATTERN_FILL
  6
CONTINUOUS
 62
     7
 10
867.15511396063766
 20
234.89901137648999
 30
0.0
 40
623.25000000000102
 50
181.27785112611329
 51
183.39413500297749
  0
ARC
  5
154
  8
PATTERN_FILL
  6
CONTINUOUS
 62
     7
 10
866.87149958417785
 20
245.73072568966279
 30
0.0
 40
621.2500000000008
 50
182.28143374251641
 51
184.40638519948291
  0
ARC
  5
155
  8
PATTERN_FILL
  6
CONTINUOUS
 62
     7
 10
866.40044573234525
 20
256.51968863880012
 30
0.0
 40
619.25000000000068
 50
183.28824523113309
 51
185.42259484067671
  0
ARC
  5
156
  8
PATTERN_FILL
  6
CONTINUOUS
 62
     7
 10
865.74330135383434
 20
267.26390425438711
 30
0.0
 40
617.2500000000008
 50
184.2984440754316
 51
186.44294127025651
  0
ARC
  5
157
  8
PATTERN_FILL
  6
CONTINUOUS
 62
     7
 10
864.90148115807051
 20
277.96024401280562
 30
0.0
 40
615.25000000000057
 50
185.31208740914411
 51
187.46750197133679
  0
ARC
  5
158
  8
PATTERN_FILL
  6
CONTINUOUS
 62
     7
 10
863.87645523677782
 20
288.6055452228652
 30
0.0
 40
613.25000000000114
 50
186.32923203084999
 51
188.49635582971169
  0
ARC
  5
159
  8
PATTERN_FILL
  6
CONTINUOUS
 62
     7
 10
862.66974763606061
 20
299.19668190704112
 30
0.0
 40
611.25000000000068
 50
187.3499411118334
 51
189.36302628898881
  0
ARC
  5
15A
  8
PATTERN_FILL
  6
CONTINUOUS
 62
     7
 10
861.28293552303444
 20
309.7305657181343
 30
0.0
 40
609.25000000000114
 50
188.37428447923051
 51
189.87091161596811
  0
ARC
  5
15B
  8
PATTERN_FILL
  6
CONTINUOUS
 62
     7
 10
859.7176483369542
 20
320.20414683803182
 30
0.0
 40
607.25000000000125
 50
189.4023389335573
 51
190.29622666915279
  0
ARC
  5
15C
  8
PATTERN_FILL
  6
CONTINUOUS
 62
     7
 10
857.97556692520482
 20
330.61441485830659
 30
0.0
 40
605.2500000000008
 50
190.43418860335899
 51
190.5665501387021
  0
ARC
  5
15D
  8
PATTERN_FILL
  6
CONTINUOUS
 62
     7
 10
240.00000000000011
 20
230.02614820971979
 30
0.0
 40
29.999999999999961
 50
223.09432671075911
 51
316.9056732892418
  0
ARC
  5
15E
  8
PATTERN_FILL
  6
CONTINUOUS
 62
     7
 10
240.00000000000011
 20
230.02614820971979
 30
0.0
 40
31.999999999999972
 50
228.43509669556261
 51
311.56490330443791
  0
ARC
  5
15F
  8
PATTERN_FILL
  6
CONTINUOUS
 62
     7
 10
240.00000000000011
 20
230.02614820971979
 30
0.0
 40
33.999999999999972
 50
233.0163854968954
 51
250.38089326998161
  0
ARC
  5
160
  8
PATTERN_FILL
  6
CONTINUOUS
 62
     7
 10
240.00000000000011
 20
230.02614820971979
 30
0.0
 40
33.999999999999972
 50
289.61910673001842
 51
306.98361450310603
  0
ARC
  5
161
  8
PATTERN_FILL
  6
CONTINUOUS
 62
     7
 10
240.00000000000011
 20
230.02614820971979
 30
0.0
 40
35.999999999999979
 50
297.17506362580127
 51
302.95543008817828
  0
ARC
  5
162
  8
PATTERN_FILL
  6
CONTINUOUS
 62
     7
 10
240.00000000000011
 20
230.02614820971979
 30
0.0
 40
35.999999999999957
 50
237.0445699118207
 51
242.82493637419839
  0
ARC
  5
163
  8
PATTERN_FILL
  6
CONTINUOUS
 62
     7
 10
-387.25000000000091
 20
224.02614820971971
 30
0.0
 40
625.2500000000008
 50
357.61436320674858
 51
359.72269300676402
  0
ARC
  5
164
  8
PATTERN_FILL
  6
CONTINUOUS
 62
     7
 10
-387.15511396063732
 20
234.89901137648999
 30
0.0
 40
623.25000000000068
 50
356.60586499701981
 51
358.72214887388247
  0
ARC
  5
165
  8
PATTERN_FILL
  6
CONTINUOUS
 62
     7
 10
-386.87149958417751
 20
245.73072568966279
 30
0.0
 40
621.25000000000011
 50
355.59361480051729
 51
357.71856625748597
  0
ARC
  5
166
  8
PATTERN_FILL
  6
CONTINUOUS
 62
     7
 10
-386.40044573234502
 20
256.51968863880012
 30
0.0
 40
619.25000000000068
 50
354.5774051593263
 51
356.71175476885992
  0
ARC
  5
167
  8
PATTERN_FILL
  6
CONTINUOUS
 62
     7
 10
-385.743301353834
 20
267.26390425438711
 30
0.0
 40
617.2500000000008
 50
353.55705872974357
 51
355.70155592456109
  0
ARC
  5
168
  8
PATTERN_FILL
  6
CONTINUOUS
 62
     7
 10
-384.9014811580704
 20
277.96024401280562
 30
0.0
 40
615.25000000000011
 50
352.53249802866111
 51
354.6879125908539
  0
ARC
  5
169
  8
PATTERN_FILL
  6
CONTINUOUS
 62
     7
 10
-383.87645523677747
 20
288.6055452228652
 30
0.0
 40
613.2500000000008
 50
351.50364417029311
 51
353.67076796914699
  0
ARC
  5
16A
  8
PATTERN_FILL
  6
CONTINUOUS
 62
     7
 10
-381.28293552303398
 20
309.7305657181343
 30
0.0
 40
609.2500000000008
 50
350.12908838403541
 51
351.62571552076901
  0
ARC
  5
16B
  8
PATTERN_FILL
  6
CONTINUOUS
 62
     7
 10
-379.71764833695403
 20
320.20414683803182
 30
0.0
 40
607.25000000000068
 50
349.70377333084792
 51
350.59766106644969
  0
ARC
  5
16C
  8
PATTERN_FILL
  6
CONTINUOUS
 62
     7
 10
-377.97556692520448
 20
330.61441485830659
 30
0.0
 40
605.25000000000125
 50
349.43344986129762
 51
349.5658113966353
  0
LINE
  5
16D
  8
SPEC
  6
CONTINUOUS
 62
     7
 10
-130.0
 20
494.5
 30
0.0
 11
300.0
 21
494.5
 31
0.0
  0
LINE
  5
16E
  8
SPEC
  6
CONTINUOUS
 62
     7
 10
-130.0
 20
483.25
 30
0.0
 11
300.0
 21
483.25
 31
0.0
  0
LINE
  5
16F
  8
SPEC
  6
CONTINUOUS
 62
     7
 10
-130.0
 20
415.74999999999989
 30
0.0
 11
300.0
 21
415.74999999999989
 31
0.0
  0
LINE
  5
170
  8
SPEC
  6
CONTINUOUS
 62
     7
 10
-130.0
 20
427.0
 30
0.0
 11
300.0
 21
427.0
 31
0.0
  0
LINE
  5
171
  8
SPEC
  6
CONTINUOUS
 62
     7
 10
-130.0
 20
438.25
 30
0.0
 11
300.0
 21
438.25
 31
0.0
  0
LINE
  5
172
  8
SPEC
  6
CONTINUOUS
 62
     7
 10
-130.0
 20
404.49999999999989
 30
0.0
 11
300.0
 21
404.49999999999989
 31
0.0
  0
LINE
  5
173
  8
SPEC
  6
CONTINUOUS
 62
     7
 10
-130.0
 20
382.0
 30
0.0
 11
300.0
 21
382.0
 31
0.0
  0
LINE
  5
174
  8
SPEC
  6
CONTINUOUS
 62
     7
 10
-130.0
 20
393.25
 30
0.0
 11
300.0
 21
393.25
 31
0.0
  0
LINE
  5
175
  8
SPEC
  6
CONTINUOUS
 62
     7
 10
-130.0
 20
348.25
 30
0.0
 11
300.0
 21
348.25
 31
0.0
  0
LINE
  5
176
  8
SPEC
  6
CONTINUOUS
 62
     7
 10
-130.0
 20
449.5
 30
0.0
 11
300.0
 21
449.5
 31
0.0
  0
TEXT
  5
177
  8
SPEC
 62
     7
 10
-29.800000000000011
 20
485.61373833333329
 30
0.0
 40
5.7009440104166647
  1
F3E
 41
0.7
 11
-29.800000000000011
 21
491.31468234374989
 31
0.0
 73
     3
  0
LINE
  5
178
  8
SPEC
  6
CONTINUOUS
 62
     7
 10
-130.0
 20
494.5
 30
0.0
 11
-130.0
 21
314.5
 31
0.0
  0
TEXT
  5
179
  8
SPEC
 62
     7
 10
-126.25
 20
498.67979499999979
 30
0.0
 40
7.3297851562499989
  1
仕様
 41
0.7
 11
-126.25
 21
506.00958015624991
 31
0.0
 73
     3
  0
LINE
  5
17A
  8
SPEC
  6
CONTINUOUS
 62
     7
 10
-32.5
 20
494.5
 30
0.0
 11
-32.5
 21
314.5
 31
0.0
  0
LINE
  5
17B
  8
SPEC
  6
CONTINUOUS
 62
     7
 10
300.0
 20
494.5
 30
0.0
 11
300.0
 21
314.5
 31
0.0
  0
TEXT
  5
17C
  8
SPEC
 62
     7
 10
-29.800000000000011
 20
373.11375333333342
 30
0.0
 40
5.7009440104166647
  1
+4.8dBu(1kHz、ゲイン最小、1%%%THD、パッド無し)
 41
0.7
 11
-29.800000000000011
 21
378.81469734375003
 31
0.0
 73
     3
  0
TEXT
  5
17D
  8
SPEC
 62
     7
 10
-127.3
 20
418.11375333333331
 30
0.0
 40
5.7009440104166647
  1
アンテナ形式
 41
0.7
 11
-127.3
 21
423.81469734374991
 31
0.0
 73
     3
  0
TEXT
  5
17E
  8
SPEC
 62
     7
 10
-127.3
 20
485.61373833333329
 30
0.0
 40
5.7009440104166647
  1
電波型式
 41
0.7
 11
-127.3
 21
491.31468234374989
 31
0.0
 73
     3
  0
TEXT
  5
17F
  8
SPEC
 62
     7
 10
-127.3
 20
395.61375333333331
 30
0.0
 40
5.7009440104166647
  1
トーン信号周波数
 41
0.7
 11
-127.3
 21
401.31469734375003
 31
0.0
 73
     3
  0
TEXT
  5
180
  8
SPEC
 62
     7
 10
-127.3
 20
384.36375333333342
 30
0.0
 40
5.7009440104166647
  1
周波数特性
 41
0.7
 11
-127.3
 21
390.06469734375003
 31
0.0
 73
     3
  0
TEXT
  5
181
  8
SPEC
 62
     7
 10
-127.3
 20
429.36375333333331
 30
0.0
 40
5.7009440104166647
  1
空中線電力
 41
0.7
 11
-127.3
 21
435.06469734375003
 31
0.0
 73
     3
  0
TEXT
  5
182
  8
SPEC
 62
     7
 10
-127.3
 20
406.86375333333331
 30
0.0
 40
5.7009440104166647
  1
到達距離
 41
0.7
 11
-127.3
 21
412.56469734375003
 31
0.0
 73
     3
  0
TEXT
  5
183
  8
SPEC
 62
     7
 10
-127.3
 20
474.36375333333331
 30
0.0
 40
5.7009440104166647
  1
送信周波数
 41
0.7
 11
-127.3
 21
480.06469734375003
 31
0.0
 73
     3
  0
TEXT
  5
184
  8
SPEC
 62
     7
 10
-127.3
 20
440.61375333333342
 30
0.0
 40
5.7009440104166647
  1
発振方式
 41
0.7
 11
-127.3
 21
446.31469734375003
 31
0.0
 73
     3
  0
TEXT
  5
185
  8
SPEC
 62
     7
 10
-127.3
 20
373.11375333333342
 30
0.0
 40
5.7009440104166647
  1
最大入力レベル
 41
0.7
 11
-127.3
 21
378.81469734375003
 31
0.0
 73
     3
  0
TEXT
  5
186
  8
SPEC
 62
     7
 10
-29.800000000000011
 20
418.11375333333331
 30
0.0
 40
5.7009440104166647
  1
1/4波長ヘリカル、50\U+03A9
 41
0.7
 11
-29.800000000000011
 21
423.81469734374991
 31
0.0
 73
     3
  0
TEXT
  5
187
  8
SPEC
 62
     7
 10
-29.800000000000011
 20
395.61375333333331
 30
0.0
 40
5.7009440104166647
  1
32.768kHz
 41
0.7
 11
-29.800000000000011
 21
401.31469734375003
 31
0.0
 73
     3
  0
TEXT
  5
188
  8
SPEC
 62
     7
 10
-29.800000000000011
 20
384.36375333333342
 30
0.0
 40
5.7009440104166647
  1
40Hz～15kHz +1/-3dB（システム全体の帯域幅はマイクヘッドにより変動）
 41
0.7
 11
-29.800000000000011
 21
390.06469734375003
 31
0.0
 73
     3
  0
TEXT
  5
189
  8
SPEC
 62
     7
 10
-29.800000000000011
 20
429.36375333333331
 30
0.0
 40
5.7009440104166647
  1
10mW/2mW
 41
0.7
 11
-29.800000000000011
 21
435.06469734375003
 31
0.0
 73
     3
  0
TEXT
  5
18A
  8
SPEC
 62
     7
 10
-29.800000000000011
 20
406.86375333333331
 30
0.0
 40
5.7009440104166647
  1
約100m(標準環境における最大値)
 41
0.7
 11
-29.800000000000011
 21
412.56469734375003
 31
0.0
 73
     3
  0
TEXT
  5
18B
  8
SPEC
 62
     7
 10
-29.800000000000011
 20
440.61375333333342
 30
0.0
 40
5.7009440104166647
  1
水晶制御PLLシンセサイザー方式
 41
0.7
 11
-29.800000000000011
 21
446.31469734375003
 31
0.0
 73
     3
  0
TEXT
  5
18C
  8
SPEC
 62
     7
 10
-29.800000000000011
 20
474.36375333333331
 30
0.0
 40
5.7009440104166647
  1
MW2/KSM9-MJBX:B型 (806～810MHz)30チャンネルのうち任意の1チャンネル
 41
0.7
 11
-29.800000000000011
 21
480.06469734375003
 31
0.0
 73
     3
  0
LINE
  5
18D
  8
SPEC
  6
CONTINUOUS
 62
     7
 10
-130.0
 20
337.0
 30
0.0
 11
300.0
 21
337.0
 31
0.0
  0
LINE
  5
18E
  8
SPEC
  6
CONTINUOUS
 62
     7
 10
-130.0
 20
325.75
 30
0.0
 11
300.0
 21
325.75
 31
0.0
  0
TEXT
  5
18F
  8
SPEC
 62
     7
 10
-29.800000000000011
 20
339.36375333333342
 30
0.0
 40
5.7009440104166647
  1
単3形アルカリ乾電池\U+00D72
 41
0.7
 11
-29.800000000000011
 21
345.06469734375008
 31
0.0
 73
     3
  0
TEXT
  5
190
  8
SPEC
 62
     7
 10
-127.3
 20
339.36375333333342
 30
0.0
 40
5.7009440104166647
  1
電源
 41
0.7
 11
-127.3
 21
345.06469734375008
 31
0.0
 73
     3
  0
LINE
  5
191
  8
SPEC
  6
CONTINUOUS
 62
     7
 10
-130.0
 20
314.5
 30
0.0
 11
300.0
 21
314.5
 31
0.0
  0
TEXT
  5
192
  8
SPEC
 62
     7
 10
-29.800000000000011
 20
328.11375333333342
 30
0.0
 40
5.7009440104166647
  1
\U+03C649\U+00D7252mm
 41
0.7
 11
-29.800000000000011
 21
333.81469734375008
 31
0.0
 73
     3
  0
TEXT
  5
193
  8
SPEC
 62
     7
 10
-127.3
 20
328.11375333333342
 30
0.0
 40
5.7009440104166647
  1
寸法(W\U+00D7H\U+00D7D)
 41
0.7
 11
-127.3
 21
333.81469734375008
 31
0.0
 73
     3
  0
TEXT
  5
194
  8
SPEC
 62
     7
 10
-29.800000000000011
 20
316.86375333333342
 30
0.0
 40
5.7009440104166647
  1
約410g(電池除く)
 41
0.7
 11
-29.800000000000011
 21
322.56469734375008
 31
0.0
 73
     3
  0
TEXT
  5
195
  8
SPEC
 62
     7
 10
-127.3
 20
316.86375333333342
 30
0.0
 40
5.7009440104166647
  1
質量
 41
0.7
 11
-127.3
 21
322.56469734375008
 31
0.0
 73
     3
  0
TEXT
  5
196
  8
SPEC
 62
     7
 10
-29.800000000000011
 20
361.86375333333342
 30
0.0
 40
5.7009440104166647
  1
-10～+20dB
 41
0.7
 11
-29.800000000000011
 21
367.56469734375003
 31
0.0
 73
     3
  0
TEXT
  5
197
  8
SPEC
 62
     7
 10
-127.3
 20
361.86375333333342
 30
0.0
 40
5.7009440104166647
  1
ゲイン調整範囲
 41
0.7
 11
-127.3
 21
367.56469734375003
 31
0.0
 73
     3
  0
LINE
  5
198
  8
SPEC
  6
CONTINUOUS
 62
     7
 10
-130.0
 20
370.75
 30
0.0
 11
300.0
 21
370.75
 31
0.0
  0
TEXT
  5
199
  8
SPEC
 62
     7
 10
-29.800000000000011
 20
463.11375333333331
 30
0.0
 40
5.7009440104166647
  1
MW2/KSM9-MA24:A型 (797～806MHz)71チャンネルとA2型(779～788MHz)71チャンネル
 41
0.7
 11
-29.800000000000011
 21
468.81469734375003
 31
0.0
 73
     3
  0
TEXT
  5
19A
  8
SPEC
 62
     7
 10
18.199999999999989
 20
451.86375333333331
 30
0.0
 40
5.7009440104166647
  1
合計142チャンネルのうち任意の1チャンネル
 41
0.7
 11
18.199999999999989
 21
457.56469734375003
 31
0.0
 73
     3
  0
LINE
  5
19B
  8
SPEC
  6
CONTINUOUS
 62
     7
 10
-130.0
 20
359.5
 30
0.0
 11
300.0
 21
359.5
 31
0.0
  0
TEXT
  5
19C
  8
SPEC
 62
     7
 10
-29.800000000000011
 20
350.61375333333342
 30
0.0
 40
5.7009440104166647
  1
MW2/KSM9/SL:シャンパンゴールド、MW2/KSM9/BK:ブラック
 41
0.7
 11
-29.800000000000011
 21
356.31469734375008
 31
0.0
 73
     3
  0
TEXT
  5
19D
  8
SPEC
 62
     7
 10
-127.3
 20
350.61375333333342
 30
0.0
 40
5.7009440104166647
  1
外装色
 41
0.7
 11
-127.3
 21
356.31469734375008
 31
0.0
 73
     3
  0
TEXT
  5
19E
  8
DIMNSIONS
 62
     7
 10
57.499984999999981
 20
-218.69151500000001
 30
0.0
 40
7.3297851562499989
  1
(単位：mm)
 41
0.7
 11
57.499984999999981
 21
-211.36172984375
 31
0.0
 73
     3
  0
LINE
  5
19F
  8
DIMNSIONS
  6
CONTINUOUS
 62
     7
 10
-24.499999977648251
 20
176.0
 30
0.0
 11
-65.999999977648244
 21
176.0
 31
0.0
  0
LINE
  5
1A0
  8
DIMNSIONS
  6
CONTINUOUS
 62
     7
 10
-15.05309312801816
 20
0.0
 30
0.0
 11
-65.999999977648244
 21
0.0
 31
0.0
  0
LINE
  5
1A1
  8
DIMNSIONS
  6
CONTINUOUS
 62
     7
 10
-60.0
 20
176.0
 30
0.0
 11
-60.0
 21
0.0
 31
0.0
  0
LINE
  5
1A2
  8
DIMNSIONS
  6
CONTINUOUS
 62
     7
 10
-60.0
 20
176.0
 30
0.0
 11
-57.447783942093572
 21
166.47499999999999
 31
0.0
  0
LINE
  5
1A3
  8
DIMNSIONS
  6
CONTINUOUS
 62
     7
 10
-60.0
 20
176.0
 30
0.0
 11
-62.552216057906442
 21
166.47499999999999
 31
0.0
  0
LINE
  5
1A4
  8
DIMNSIONS
  6
CONTINUOUS
 62
     7
 10
-60.0
 20
0.0
 30
0.0
 11
-62.552216057906442
 21
9.5250000000000021
 31
0.0
  0
LINE
  5
1A5
  8
DIMNSIONS
  6
CONTINUOUS
 62
     7
 10
-60.0
 20
0.0
 30
0.0
 11
-57.447783942093572
 21
9.5250000000000021
 31
0.0
  0
TEXT
  5
1A6
  8
DIMNSIONS
 62
     7
 10
-64.48166665549077
 20
80.062499999999986
 30
0.0
 40
8.1442057291666661
  1
176
 50
90.0
 41
0.7
 11
-72.625872384657441
 21
80.062499999999986
 31
0.0
 73
     3
  0
LINE
  5
1A7
  8
DIMNSIONS
  6
CONTINUOUS
 62
     7
 10
-22.129630980158019
 20
252.0
 30
0.0
 11
-95.999999977648244
 21
252.0
 31
0.0
  0
LINE
  5
1A8
  8
DIMNSIONS
  6
CONTINUOUS
 62
     7
 10
-15.05309312801816
 20
0.0
 30
0.0
 11
-95.999999977648244
 21
0.0
 31
0.0
  0
LINE
  5
1A9
  8
DIMNSIONS
  6
CONTINUOUS
 62
     7
 10
-90.0
 20
252.0
 30
0.0
 11
-90.0
 21
0.0
 31
0.0
  0
LINE
  5
1AA
  8
DIMNSIONS
  6
CONTINUOUS
 62
     7
 10
-90.0
 20
252.0
 30
0.0
 11
-87.447783942093565
 21
242.47499999999999
 31
0.0
  0
LINE
  5
1AB
  8
DIMNSIONS
  6
CONTINUOUS
 62
     7
 10
-90.0
 20
252.0
 30
0.0
 11
-92.552216057906435
 21
242.47499999999999
 31
0.0
  0
LINE
  5
1AC
  8
DIMNSIONS
  6
CONTINUOUS
 62
     7
 10
-90.0
 20
0.0
 30
0.0
 11
-92.552216057906435
 21
9.5250000000000021
 31
0.0
  0
LINE
  5
1AD
  8
DIMNSIONS
  6
CONTINUOUS
 62
     7
 10
-90.0
 20
0.0
 30
0.0
 11
-87.447783942093565
 21
9.5250000000000021
 31
0.0
  0
TEXT
  5
1AE
  8
DIMNSIONS
 62
     7
 10
-94.48166665549077
 20
118.0625
 30
0.0
 40
8.1442057291666661
  1
252
 50
90.0
 41
0.7
 11
-102.6258723846574
 21
118.0625
 31
0.0
 73
     3
  0
LINE
  5
1AF
  8
DIMNSIONS
  6
CONTINUOUS
 62
     7
 10
-24.499999977648251
 20
176.0
 30
0.0
 11
-65.999999977648244
 21
176.0
 31
0.0
  0
LINE
  5
1B0
  8
DIMNSIONS
  6
CONTINUOUS
 62
     7
 10
-22.129630980158019
 20
252.0
 30
0.0
 11
-65.999999977648244
 21
252.0
 31
0.0
  0
LINE
  5
1B1
  8
DIMNSIONS
  6
CONTINUOUS
 62
     7
 10
-60.0
 20
176.0
 30
0.0
 11
-60.0
 21
252.0
 31
0.0
  0
LINE
  5
1B2
  8
DIMNSIONS
  6
CONTINUOUS
 62
     7
 10
-60.0
 20
176.0
 30
0.0
 11
-62.552216057906442
 21
185.52500000000001
 31
0.0
  0
LINE
  5
1B3
  8
DIMNSIONS
  6
CONTINUOUS
 62
     7
 10
-60.0
 20
176.0
 30
0.0
 11
-57.447783942093572
 21
185.52500000000001
 31
0.0
  0
LINE
  5
1B4
  8
DIMNSIONS
  6
CONTINUOUS
 62
     7
 10
-60.0
 20
252.0
 30
0.0
 11
-57.447783942093572
 21
242.47499999999999
 31
0.0
  0
LINE
  5
1B5
  8
DIMNSIONS
  6
CONTINUOUS
 62
     7
 10
-60.0
 20
252.0
 30
0.0
 11
-62.552216057906442
 21
242.47499999999999
 31
0.0
  0
TEXT
  5
1B6
  8
DIMNSIONS
 62
     7
 10
-64.48166665549077
 20
208.70833333333329
 30
0.0
 40
8.1442057291666661
  1
76
 50
90.0
 41
0.7
 11
-72.625872384657441
 21
208.70833333333329
 31
0.0
 73
     3
  0
LINE
  5
1B7
  8
DIMNSIONS
  6
CONTINUOUS
 62
     7
 10
-24.5
 20
-94.000000022351742
 30
0.0
 11
-24.5
 21
-34.000000022351749
 31
0.0
  0
LINE
  5
1B8
  8
DIMNSIONS
  6
CONTINUOUS
 62
     7
 10
24.500000000000011
 20
-94.000000022351742
 30
0.0
 11
24.500000000000011
 21
-34.000000022351749
 31
0.0
  0
LINE
  5
1B9
  8
DIMNSIONS
  6
CONTINUOUS
 62
     7
 10
-24.5
 20
-40.0
 30
0.0
 11
24.500000000000011
 21
-40.0
 31
0.0
  0
LINE
  5
1BA
  8
DIMNSIONS
  6
CONTINUOUS
 62
     7
 10
-24.5
 20
-40.0
 30
0.0
 11
-14.974999999999991
 21
-37.447783942093572
 31
0.0
  0
LINE
  5
1BB
  8
DIMNSIONS
  6
CONTINUOUS
 62
     7
 10
-24.5
 20
-40.0
 30
0.0
 11
-14.974999999999991
 21
-42.552216057906442
 31
0.0
  0
LINE
  5
1BC
  8
DIMNSIONS
  6
CONTINUOUS
 62
     7
 10
24.500000000000011
 20
-40.0
 30
0.0
 11
14.975000000000019
 21
-42.552216057906442
 31
0.0
  0
LINE
  5
1BD
  8
DIMNSIONS
  6
CONTINUOUS
 62
     7
 10
24.500000000000011
 20
-40.0
 30
0.0
 11
14.975000000000019
 21
-37.447783942093572
 31
0.0
  0
TEXT
  5
1BE
  8
DIMNSIONS
 62
     7
 10
-5.2916666666666732
 20
-35.518333344509202
 30
0.0
 40
8.1442057291666661
  1
49
 41
0.7
 11
-5.2916666666666723
 21
-27.37412761534253
 31
0.0
 73
     3
  0
TEXT
  5
1BF
  8
DATA
 62
     7
 10
239.99996999999999
 20
-221.19716333333329
 30
0.0
 40
6.5153645833333318
  1
MW2/KSM9-MJBX 、 MW2/KSM9-MA24
 41
0.7
 11
239.99996999999999
 21
-214.68179875000001
 31
0.0
 73
     3
  0
TEXT
  5
1C0
  8
DATA
 62
     7
 10
259.99997000000002
 20
-200.35732999999999
 30
0.0
 40
7.3297851562499989
  1
SHURE
 41
0.7
 11
259.99997000000002
 21
-193.02754484375001
 31
0.0
 73
     3
  0
TEXT
  5
1C1
  8
DATA
 62
     7
 10
239.99996999999999
 20
-210.3581574561403
 30
0.0
 40
6.5153645833333318
  1
ハンドヘルド型送信機
 41
0.7
 11
239.99996999999999
 21
-203.84279287280691
 31
0.0
 73
     3
  0
CIRCLE
  5
1C2
  8
DATA
  6
CONTINUOUS
 62
     7
 10
0.0
 20
-100.0
 30
0.0
 40
24.500000000000011
  0
CIRCLE
  5
1C3
  8
DATA
  6
CONTINUOUS
 62
     7
 10
0.0
 20
-100.0
 30
0.0
 40
24.0
  0
CIRCLE
  5
1C4
  8
DATA
  6
CONTINUOUS
 62
     7
 10
0.0
 20
-100.0
 30
0.0
 40
12.5
  0
CIRCLE
  5
1C5
  8
DATA
  6
CONTINUOUS
 62
     7
 10
0.0
 20
-100.0
 30
0.0
 40
18.5
  0
CIRCLE
  5
1C6
  8
DATA
  6
CONTINUOUS
 62
     7
 10
0.0
 20
-100.0
 30
0.0
 40
19.75
  0
CIRCLE
  5
1C7
  8
DATA
  6
CONTINUOUS
 62
     7
 10
0.0
 20
-100.0
 30
0.0
 40
17.0
  0
LINE
  5
1C8
  8
DATA
  6
CONTINUOUS
 62
     7
 10
-18.5
 20
176.5
 30
0.0
 11
18.5
 21
176.5
 31
0.0
  0
TEXT
  5
1C9
  8
DATA
 62
     7
 10
-5.2916666666666572
 20
181.74083333333331
 30
0.0
 40
4.072102864583333
  1
KSM9
 41
0.7
 11
-5.2916666666666572
 21
185.8129361979166
 31
0.0
 73
     3
  0
LINE
  5
1CA
  8
DATA
  6
CONTINUOUS
 62
     7
 10
-18.5
 20
176.5
 30
0.0
 11
-18.5
 21
190.5
 31
0.0
  0
LINE
  5
1CB
  8
DATA
  6
CONTINUOUS
 62
     7
 10
18.5
 20
176.5
 30
0.0
 11
18.5
 21
190.5
 31
0.0
  0
LINE
  5
1CC
  8
DATA
  6
CONTINUOUS
 62
     7
 10
-19.75
 20
196.5
 30
0.0
 11
19.75
 21
196.5
 31
0.0
  0
LINE
  5
1CD
  8
DATA
  6
CONTINUOUS
 62
     7
 10
-18.5
 20
176.0
 30
0.0
 11
18.5
 21
176.0
 31
0.0
  0
LINE
  5
1CE
  8
DATA
  6
CONTINUOUS
 62
     7
 10
-17.5
 20
102.0
 30
0.0
 11
17.5
 21
102.0
 31
0.0
  0
LINE
  5
1CF
  8
DATA
  6
CONTINUOUS
 62
     7
 10
-17.5
 20
136.0
 30
0.0
 11
-17.5
 21
102.0
 31
0.0
  0
LINE
  5
1D0
  8
DATA
  6
CONTINUOUS
 62
     7
 10
17.5
 20
136.0
 30
0.0
 11
17.5
 21
102.0
 31
0.0
  0
ARC
  5
1D1
  8
DATA
  6
CONTINUOUS
 62
     7
 10
151.17307692307691
 20
171.88461538461539
 30
0.0
 40
169.72297847691971
 50
178.61057540006649
 51
187.0513242185213
  0
LINE
  5
1D2
  8
DATA
  6
CONTINUOUS
 62
     7
 10
17.5
 20
136.0
 30
0.0
 11
17.5
 21
102.0
 31
0.0
  0
ARC
  5
1D3
  8
DATA
  6
CONTINUOUS
 62
     7
 10
-91.204948301329424
 20
138.32865583456419
 30
0.0
 40
108.7298874421865
 50
358.77280887296558
 51
4.5740453520401161
  0
LINE
  5
1D4
  8
DATA
  6
CONTINUOUS
 62
     7
 10
-17.5
 20
176.5
 30
0.0
 11
-17.5
 21
176.0
 31
0.0
  0
LINE
  5
1D5
  8
DATA
  6
CONTINUOUS
 62
     7
 10
17.5
 20
176.5
 30
0.0
 11
17.5
 21
176.0
 31
0.0
  0
LINE
  5
1D6
  8
DATA
  6
CONTINUOUS
 62
     7
 10
-17.5
 20
102.5
 30
0.0
 11
17.5
 21
102.5
 31
0.0
  0
LINE
  5
1D7
  8
DATA
  6
CONTINUOUS
 62
     7
 10
-17.0
 20
37.0
 30
0.0
 11
17.0
 21
37.0
 31
0.0
  0
LINE
  5
1D8
  8
DATA
  6
CONTINUOUS
 62
     7
 10
-16.0
 20
28.0
 30
0.0
 11
16.0
 21
28.0
 31
0.0
  0
LINE
  5
1D9
  8
DATA
  6
CONTINUOUS
 62
     7
 10
-17.0
 20
29.0
 30
0.0
 11
-17.0
 21
37.0
 31
0.0
  0
LINE
  5
1DA
  8
DATA
  6
CONTINUOUS
 62
     7
 10
17.0
 20
29.0
 30
0.0
 11
17.0
 21
37.0
 31
0.0
  0
LINE
  5
1DB
  8
DATA
  6
CONTINUOUS
 62
     7
 10
-17.0
 20
37.5
 30
0.0
 11
17.0
 21
37.5
 31
0.0
  0
LINE
  5
1DC
  8
DATA
  6
CONTINUOUS
 62
     7
 10
-17.5
 20
102.0
 30
0.0
 11
-17.0
 21
37.5
 31
0.0
  0
LINE
  5
1DD
  8
DATA
  6
CONTINUOUS
 62
     7
 10
17.5
 20
102.0
 30
0.0
 11
17.0
 21
37.5
 31
0.0
  0
LINE
  5
1DE
  8
DATA
  6
CONTINUOUS
 62
     7
 10
-17.0
 20
37.5
 30
0.0
 11
-16.5
 21
37.25
 31
0.0
  0
LINE
  5
1DF
  8
DATA
  6
CONTINUOUS
 62
     7
 10
-16.5
 20
37.25
 30
0.0
 11
-17.0
 21
37.0
 31
0.0
  0
LINE
  5
1E0
  8
DATA
  6
CONTINUOUS
 62
     7
 10
17.0
 20
37.5
 30
0.0
 11
16.5
 21
37.25
 31
0.0
  0
LINE
  5
1E1
  8
DATA
  6
CONTINUOUS
 62
     7
 10
16.5
 20
37.25
 30
0.0
 11
17.0
 21
37.0
 31
0.0
  0
LINE
  5
1E2
  8
DATA
  6
CONTINUOUS
 62
     7
 10
-16.5
 20
37.25
 30
0.0
 11
16.5
 21
37.25
 31
0.0
  0
ARC
  5
1E3
  8
DATA
  6
CONTINUOUS
 62
     7
 10
-16.0
 20
29.0
 30
0.0
 40
1.0
 50
180.0
 51
270.0
  0
ARC
  5
1E4
  8
DATA
  6
CONTINUOUS
 62
     7
 10
16.0
 20
29.0
 30
0.0
 40
1.0
 50
270.0
 51
0.0
  0
LINE
  5
1E5
  8
DATA
  6
CONTINUOUS
 62
     7
 10
-9.0530931503699037
 20
0.0
 30
0.0
 11
9.0530931503699037
 21
0.0
 31
0.0
  0
LINE
  5
1E6
  8
DATA
  6
CONTINUOUS
 62
     7
 10
-12.5
 20
28.0
 30
0.0
 11
-12.052614948406241
 21
2.9464371107493572
 31
0.0
  0
LINE
  5
1E7
  8
DATA
  6
CONTINUOUS
 62
     7
 10
12.5
 20
28.0
 30
0.0
 11
12.052614948406241
 21
2.9464371107493572
 31
0.0
  0
ARC
  5
1E8
  8
DATA
  6
CONTINUOUS
 62
     7
 10
-9.0530931503699037
 20
3.0
 30
0.0
 40
3.0000000000000062
 50
181.0230301886676
 51
270.0
  0
ARC
  5
1E9
  8
DATA
  6
CONTINUOUS
 62
     7
 10
9.0530931503699037
 20
2.9999999999999849
 30
0.0
 40
2.9999999999999849
 50
270.0
 51
358.97696981133248
  0
LINE
  5
1EA
  8
DATA
  6
CONTINUOUS
 62
     7
 10
-9.5
 20
104.5
 30
0.0
 11
9.5
 21
104.5
 31
0.0
  0
LINE
  5
1EB
  8
DATA
  6
CONTINUOUS
 62
     7
 10
-9.5
 20
128.5
 30
0.0
 11
9.5
 21
128.5
 31
0.0
  0
LINE
  5
1EC
  8
DATA
  6
CONTINUOUS
 62
     7
 10
-11.0
 20
127.0
 30
0.0
 11
-11.0
 21
106.0
 31
0.0
  0
LINE
  5
1ED
  8
DATA
  6
CONTINUOUS
 62
     7
 10
11.0
 20
127.0
 30
0.0
 11
11.0
 21
106.0
 31
0.0
  0
LINE
  5
1EE
  8
DATA
  6
CONTINUOUS
 62
     7
 10
-8.5
 20
108.5
 30
0.0
 11
8.5
 21
108.5
 31
0.0
  0
LINE
  5
1EF
  8
DATA
  6
CONTINUOUS
 62
     7
 10
-8.5
 20
125.5
 30
0.0
 11
8.5
 21
125.5
 31
0.0
  0
LINE
  5
1F0
  8
DATA
  6
CONTINUOUS
 62
     7
 10
-8.5
 20
108.5
 30
0.0
 11
-8.5
 21
125.5
 31
0.0
  0
LINE
  5
1F1
  8
DATA
  6
CONTINUOUS
 62
     7
 10
8.5
 20
108.5
 30
0.0
 11
8.5
 21
125.5
 31
0.0
  0
ARC
  5
1F2
  8
DATA
  6
CONTINUOUS
 62
     7
 10
-9.5
 20
127.0
 30
0.0
 40
1.5
 50
90.0
 51
180.0
  0
ARC
  5
1F3
  8
DATA
  6
CONTINUOUS
 62
     7
 10
-9.5
 20
106.0
 30
0.0
 40
1.5
 50
180.0
 51
270.0
  0
ARC
  5
1F4
  8
DATA
  6
CONTINUOUS
 62
     7
 10
9.5
 20
106.0
 30
0.0
 40
1.5
 50
270.0
 51
0.0
  0
ARC
  5
1F5
  8
DATA
  6
CONTINUOUS
 62
     7
 10
9.5
 20
127.0
 30
0.0
 40
1.5
 50
0.0
 51
90.0
  0
TEXT
  5
1F6
  8
DATA
 62
     7
 10
-2.785662895322957
 20
30.659518004825529
 30
0.0
 40
3.2576822916666659
  1
MW2
 41
0.7
 11
-2.785662895322957
 21
33.917200296492197
 31
0.0
 73
     3
  0
LINE
  5
1F7
  8
DATA
  6
CONTINUOUS
 62
     7
 10
101.5
 20
176.0
 30
0.0
 11
138.5
 21
176.0
 31
0.0
  0
LINE
  5
1F8
  8
DATA
  6
CONTINUOUS
 62
     7
 10
102.5
 20
102.0
 30
0.0
 11
137.5
 21
102.0
 31
0.0
  0
LINE
  5
1F9
  8
DATA
  6
CONTINUOUS
 62
     7
 10
102.5
 20
136.0
 30
0.0
 11
102.5
 21
102.0
 31
0.0
  0
LINE
  5
1FA
  8
DATA
  6
CONTINUOUS
 62
     7
 10
137.5
 20
136.0
 30
0.0
 11
137.5
 21
102.0
 31
0.0
  0
ARC
  5
1FB
  8
DATA
  6
CONTINUOUS
 62
     7
 10
271.17307692307691
 20
171.88461538461539
 30
0.0
 40
169.72297847691971
 50
178.61057540006649
 51
187.0513242185213
  0
LINE
  5
1FC
  8
DATA
  6
CONTINUOUS
 62
     7
 10
137.5
 20
136.0
 30
0.0
 11
137.5
 21
102.0
 31
0.0
  0
ARC
  5
1FD
  8
DATA
  6
CONTINUOUS
 62
     7
 10
28.795051698670591
 20
138.32865583456419
 30
0.0
 40
108.7298874421865
 50
358.77280887296558
 51
4.5740453520388646
  0
LINE
  5
1FE
  8
DATA
  6
CONTINUOUS
 62
     7
 10
102.5
 20
176.5
 30
0.0
 11
102.5
 21
176.0
 31
0.0
  0
LINE
  5
1FF
  8
DATA
  6
CONTINUOUS
 62
     7
 10
137.5
 20
176.5
 30
0.0
 11
137.5
 21
176.0
 31
0.0
  0
LINE
  5
200
  8
DATA
  6
CONTINUOUS
 62
     7
 10
102.5
 20
102.5
 30
0.0
 11
137.5
 21
102.5
 31
0.0
  0
LINE
  5
201
  8
DATA
  6
CONTINUOUS
 62
     7
 10
103.0
 20
37.0
 30
0.0
 11
137.0
 21
37.0
 31
0.0
  0
LINE
  5
202
  8
DATA
  6
CONTINUOUS
 62
     7
 10
104.0
 20
28.0
 30
0.0
 11
136.0
 21
28.0
 31
0.0
  0
LINE
  5
203
  8
DATA
  6
CONTINUOUS
 62
     7
 10
103.0
 20
29.0
 30
0.0
 11
103.0
 21
37.0
 31
0.0
  0
LINE
  5
204
  8
DATA
  6
CONTINUOUS
 62
     7
 10
137.0
 20
29.0
 30
0.0
 11
137.0
 21
37.0
 31
0.0
  0
LINE
  5
205
  8
DATA
  6
CONTINUOUS
 62
     7
 10
103.0
 20
37.5
 30
0.0
 11
137.0
 21
37.5
 31
0.0
  0
LINE
  5
206
  8
DATA
  6
CONTINUOUS
 62
     7
 10
102.5
 20
102.0
 30
0.0
 11
103.0
 21
37.5
 31
0.0
  0
LINE
  5
207
  8
DATA
  6
CONTINUOUS
 62
     7
 10
137.5
 20
102.0
 30
0.0
 11
137.0
 21
37.5
 31
0.0
  0
LINE
  5
208
  8
DATA
  6
CONTINUOUS
 62
     7
 10
103.0
 20
37.5
 30
0.0
 11
103.5
 21
37.25
 31
0.0
  0
LINE
  5
209
  8
DATA
  6
CONTINUOUS
 62
     7
 10
103.5
 20
37.25
 30
0.0
 11
103.0
 21
37.0
 31
0.0
  0
LINE
  5
20A
  8
DATA
  6
CONTINUOUS
 62
     7
 10
137.0
 20
37.5
 30
0.0
 11
136.5
 21
37.25
 31
0.0
  0
LINE
  5
20B
  8
DATA
  6
CONTINUOUS
 62
     7
 10
136.5
 20
37.25
 30
0.0
 11
137.0
 21
37.0
 31
0.0
  0
LINE
  5
20C
  8
DATA
  6
CONTINUOUS
 62
     7
 10
103.5
 20
37.25
 30
0.0
 11
136.5
 21
37.25
 31
0.0
  0
ARC
  5
20D
  8
DATA
  6
CONTINUOUS
 62
     7
 10
104.0
 20
29.0
 30
0.0
 40
1.0
 50
180.0
 51
270.0
  0
ARC
  5
20E
  8
DATA
  6
CONTINUOUS
 62
     7
 10
136.0
 20
29.0
 30
0.0
 40
1.0
 50
270.0
 51
0.0
  0
LINE
  5
20F
  8
DATA
  6
CONTINUOUS
 62
     7
 10
110.9469068496301
 20
0.0
 30
0.0
 11
129.0530931503699
 21
0.0
 31
0.0
  0
LINE
  5
210
  8
DATA
  6
CONTINUOUS
 62
     7
 10
107.5
 20
28.0
 30
0.0
 11
107.9473850515937
 21
2.9464371107493572
 31
0.0
  0
LINE
  5
211
  8
DATA
  6
CONTINUOUS
 62
     7
 10
132.5
 20
28.0
 30
0.0
 11
132.05261494840619
 21
2.9464371107493572
 31
0.0
  0
ARC
  5
212
  8
DATA
  6
CONTINUOUS
 62
     7
 10
110.9469068496301
 20
3.0
 30
0.0
 40
3.0000000000000062
 50
181.0230301886676
 51
270.0
  0
ARC
  5
213
  8
DATA
  6
CONTINUOUS
 62
     7
 10
129.0530931503699
 20
2.9999999999999849
 30
0.0
 40
2.9999999999999849
 50
270.0
 51
358.97696981133248
  0
LINE
  5
214
  8
DATA
  6
CONTINUOUS
 62
     7
 10
102.5
 20
104.5
 30
0.0
 11
104.5
 21
104.5
 31
0.0
  0
LINE
  5
215
  8
DATA
  6
CONTINUOUS
 62
     7
 10
102.5
 20
128.5
 30
0.0
 11
104.5
 21
128.5
 31
0.0
  0
LINE
  5
216
  8
DATA
  6
CONTINUOUS
 62
     7
 10
107.5
 20
125.5
 30
0.0
 11
107.5
 21
107.5
 31
0.0
  0
LINE
  5
217
  8
DATA
  6
CONTINUOUS
 62
     7
 10
102.5
 20
108.5
 30
0.0
 11
105.5
 21
108.5
 31
0.0
  0
LINE
  5
218
  8
DATA
  6
CONTINUOUS
 62
     7
 10
102.5
 20
125.5
 30
0.0
 11
105.5
 21
125.5
 31
0.0
  0
ARC
  5
219
  8
DATA
  6
CONTINUOUS
 62
     7
 10
104.5
 20
125.5
 30
0.0
 40
3.0
 50
0.0
 51
90.0
  0
ARC
  5
21A
  8
DATA
  6
CONTINUOUS
 62
     7
 10
104.5
 20
107.5
 30
0.0
 40
3.0
 50
270.0
 51
0.0
  0
LINE
  5
21B
  8
DATA
  6
CONTINUOUS
 62
     7
 10
105.5
 20
125.5
 30
0.0
 11
105.5
 21
108.5
 31
0.0
  0
LINE
  5
21C
  8
DATA
  6
CONTINUOUS
 62
     7
 10
221.5
 20
176.0
 30
0.0
 11
258.5
 21
176.0
 31
0.0
  0
LINE
  5
21D
  8
DATA
  6
CONTINUOUS
 62
     7
 10
222.5
 20
102.0
 30
0.0
 11
257.5
 21
102.0
 31
0.0
  0
LINE
  5
21E
  8
DATA
  6
CONTINUOUS
 62
     7
 10
222.5
 20
136.0
 30
0.0
 11
222.5
 21
102.0
 31
0.0
  0
LINE
  5
21F
  8
DATA
  6
CONTINUOUS
 62
     7
 10
257.5
 20
136.0
 30
0.0
 11
257.5
 21
102.0
 31
0.0
  0
ARC
  5
220
  8
DATA
  6
CONTINUOUS
 62
     7
 10
391.17307692307702
 20
171.88461538461539
 30
0.0
 40
169.72297847691971
 50
178.61057540006649
 51
187.0513242185211
  0
LINE
  5
221
  8
DATA
  6
CONTINUOUS
 62
     7
 10
257.5
 20
136.0
 30
0.0
 11
257.5
 21
102.0
 31
0.0
  0
ARC
  5
222
  8
DATA
  6
CONTINUOUS
 62
     7
 10
148.79505169867059
 20
138.32865583456419
 30
0.0
 40
108.7298874421865
 50
358.77280887296558
 51
4.5740453520401161
  0
LINE
  5
223
  8
DATA
  6
CONTINUOUS
 62
     7
 10
222.5
 20
176.5
 30
0.0
 11
222.5
 21
176.0
 31
0.0
  0
LINE
  5
224
  8
DATA
  6
CONTINUOUS
 62
     7
 10
257.5
 20
176.5
 30
0.0
 11
257.5
 21
176.0
 31
0.0
  0
LINE
  5
225
  8
DATA
  6
CONTINUOUS
 62
     7
 10
222.5
 20
102.5
 30
0.0
 11
257.5
 21
102.5
 31
0.0
  0
LINE
  5
226
  8
DATA
  6
CONTINUOUS
 62
     7
 10
223.0
 20
37.0
 30
0.0
 11
257.0
 21
37.0
 31
0.0
  0
LINE
  5
227
  8
DATA
  6
CONTINUOUS
 62
     7
 10
224.0
 20
28.0
 30
0.0
 11
256.0
 21
28.0
 31
0.0
  0
LINE
  5
228
  8
DATA
  6
CONTINUOUS
 62
     7
 10
223.0
 20
29.0
 30
0.0
 11
223.0
 21
37.0
 31
0.0
  0
LINE
  5
229
  8
DATA
  6
CONTINUOUS
 62
     7
 10
257.0
 20
29.0
 30
0.0
 11
257.0
 21
37.0
 31
0.0
  0
LINE
  5
22A
  8
DATA
  6
CONTINUOUS
 62
     7
 10
223.0
 20
37.5
 30
0.0
 11
257.0
 21
37.5
 31
0.0
  0
LINE
  5
22B
  8
DATA
  6
CONTINUOUS
 62
     7
 10
222.5
 20
102.0
 30
0.0
 11
223.0
 21
37.5
 31
0.0
  0
LINE
  5
22C
  8
DATA
  6
CONTINUOUS
 62
     7
 10
257.5
 20
102.0
 30
0.0
 11
257.0
 21
37.5
 31
0.0
  0
LINE
  5
22D
  8
DATA
  6
CONTINUOUS
 62
     7
 10
223.0
 20
37.5
 30
0.0
 11
223.5
 21
37.25
 31
0.0
  0
LINE
  5
22E
  8
DATA
  6
CONTINUOUS
 62
     7
 10
223.5
 20
37.25
 30
0.0
 11
223.0
 21
37.0
 31
0.0
  0
LINE
  5
22F
  8
DATA
  6
CONTINUOUS
 62
     7
 10
257.0
 20
37.5
 30
0.0
 11
256.5
 21
37.25
 31
0.0
  0
LINE
  5
230
  8
DATA
  6
CONTINUOUS
 62
     7
 10
256.5
 20
37.25
 30
0.0
 11
257.0
 21
37.0
 31
0.0
  0
LINE
  5
231
  8
DATA
  6
CONTINUOUS
 62
     7
 10
223.5
 20
37.25
 30
0.0
 11
256.5
 21
37.25
 31
0.0
  0
ARC
  5
232
  8
DATA
  6
CONTINUOUS
 62
     7
 10
224.0
 20
29.0
 30
0.0
 40
1.0
 50
180.0
 51
270.0
  0
ARC
  5
233
  8
DATA
  6
CONTINUOUS
 62
     7
 10
256.0
 20
29.0
 30
0.0
 40
1.0
 50
270.0
 51
0.0
  0
LINE
  5
234
  8
DATA
  6
CONTINUOUS
 62
     7
 10
230.9469068496301
 20
0.0
 30
0.0
 11
249.0530931503699
 21
0.0
 31
0.0
  0
LINE
  5
235
  8
DATA
  6
CONTINUOUS
 62
     7
 10
227.5
 20
28.0
 30
0.0
 11
227.9473850515937
 21
2.9464371107493572
 31
0.0
  0
LINE
  5
236
  8
DATA
  6
CONTINUOUS
 62
     7
 10
252.5
 20
28.0
 30
0.0
 11
252.05261494840619
 21
2.9464371107493572
 31
0.0
  0
ARC
  5
237
  8
DATA
  6
CONTINUOUS
 62
     7
 10
230.9469068496301
 20
3.0
 30
0.0
 40
3.0000000000000062
 50
181.0230301886676
 51
270.0
  0
ARC
  5
238
  8
DATA
  6
CONTINUOUS
 62
     7
 10
249.0530931503699
 20
2.9999999999999849
 30
0.0
 40
2.9999999999999849
 50
270.0
 51
358.97696981133248
  0
TEXT
  5
239
  8
DATA
 62
     7
 10
237.21433710467701
 20
30.659518004825529
 30
0.0
 40
3.2576822916666659
  1
MW2
 41
0.7
 11
237.21433710467701
 21
33.917200296492197
 31
0.0
 73
     3
  0
LINE
  5
23A
  8
DATA
  6
CONTINUOUS
 62
     7
 10
232.5
 20
21.0
 30
0.0
 11
247.5
 21
21.0
 31
0.0
  0
LINE
  5
23B
  8
DATA
  6
CONTINUOUS
 62
     7
 10
232.5
 20
21.0
 30
0.0
 11
232.5
 21
28.0
 31
0.0
  0
LINE
  5
23C
  8
DATA
  6
CONTINUOUS
 62
     7
 10
247.5
 20
21.0
 30
0.0
 11
247.5
 21
28.0
 31
0.0
  0
LINE
  5
23D
  8
DATA
  6
CONTINUOUS
 62
     7
 10
234.5
 20
23.0
 30
0.0
 11
245.5
 21
23.0
 31
0.0
  0
LINE
  5
23E
  8
DATA
  6
CONTINUOUS
 62
     7
 10
234.5
 20
23.0
 30
0.0
 11
234.5
 21
28.0
 31
0.0
  0
LINE
  5
23F
  8
DATA
  6
CONTINUOUS
 62
     7
 10
245.5
 20
23.0
 30
0.0
 11
245.5
 21
28.0
 31
0.0
  0
LINE
  5
240
  8
DATA
  6
CONTINUOUS
 62
     7
 10
235.0
 20
26.5
 30
0.0
 11
245.0
 21
26.5
 31
0.0
  0
LINE
  5
241
  8
DATA
  6
CONTINUOUS
 62
     7
 10
245.0
 20
26.5
 30
0.0
 11
245.0
 21
24.5
 31
0.0
  0
LINE
  5
242
  8
DATA
  6
CONTINUOUS
 62
     7
 10
235.0
 20
26.5
 30
0.0
 11
235.0
 21
24.5
 31
0.0
  0
LINE
  5
243
  8
DATA
  6
CONTINUOUS
 62
     7
 10
235.0
 20
24.5
 30
0.0
 11
245.0
 21
24.5
 31
0.0
  0
LINE
  5
244
  8
DATA
  6
CONTINUOUS
 62
     7
 10
237.0
 20
26.5
 30
0.0
 11
237.0
 21
24.5
 31
0.0
  0
LINE
  5
245
  8
DATA
  6
CONTINUOUS
 62
     7
 10
240.0
 20
26.5
 30
0.0
 11
240.5
 21
25.5
 31
0.0
  0
LINE
  5
246
  8
DATA
  6
CONTINUOUS
 62
     7
 10
240.5
 20
25.5
 30
0.0
 11
240.0
 21
24.5
 31
0.0
  0
LINE
  5
247
  8
DATA
  6
CONTINUOUS
 62
     7
 10
242.0
 20
26.5
 30
0.0
 11
241.5
 21
25.5
 31
0.0
  0
LINE
  5
248
  8
DATA
  6
CONTINUOUS
 62
     7
 10
241.5
 20
25.5
 30
0.0
 11
242.0
 21
24.5
 31
0.0
  0
TEXT
  5
249
  8
DATA
 62
     7
 10
237.550000025332
 20
24.866235380116962
 30
0.0
 40
1.154296875
  1
OFF
 41
0.7
 11
237.550000025332
 21
26.020532255116962
 31
0.0
 73
     3
  0
TEXT
  5
24A
  8
DATA
 62
     7
 10
242.550000025332
 20
24.866235380116962
 30
0.0
 40
1.154296875
  1
ON
 41
0.7
 11
242.550000025332
 21
26.020532255116962
 31
0.0
 73
     3
  0
CIRCLE
  5
24B
  8
DATA
  6
CONTINUOUS
 62
     7
 10
236.0
 20
25.5
 30
0.0
 40
0.5
  0
CIRCLE
  5
24C
  8
DATA
  6
CONTINUOUS
 62
     7
 10
0.0
 20
-100.0
 30
0.0
 40
9.0
  0
ARC
  5
24D
  8
DATA
  6
CONTINUOUS
 62
     7
 10
-37.1149480715763
 20
148.5945272404534
 30
0.0
 40
19.99999999999018
 50
355.42595464795721
 51
7.0513242185242007
  0
ARC
  5
24E
  8
DATA
  6
CONTINUOUS
 62
     7
 10
91.204948301329395
 20
138.32865583456419
 30
0.0
 40
108.7298874421865
 50
175.42595464796011
 51
181.22719112703439
  0
ARC
  5
24F
  8
DATA
  6
CONTINUOUS
 62
     7
 10
37.114948071586241
 20
148.59452724045369
 30
0.0
 40
20.000000000000021
 50
172.9486757814791
 51
184.5740453520404
  0
ARC
  5
250
  8
DATA
  6
CONTINUOUS
 62
     7
 10
-151.17307692307691
 20
171.88461538461539
 30
0.0
 40
169.72297847691971
 50
352.94867578147881
 51
1.3894245999334769
  0
ARC
  5
251
  8
DATA
  6
CONTINUOUS
 62
     7
 10
82.885051928413802
 20
148.59452724045309
 30
0.0
 40
20.00000000000005
 50
355.42595464796022
 51
7.0513242185213016
  0
ARC
  5
252
  8
DATA
  6
CONTINUOUS
 62
     7
 10
211.20494830132941
 20
138.32865583456419
 30
0.0
 40
108.7298874421865
 50
175.42595464796011
 51
181.22719112703439
  0
ARC
  5
253
  8
DATA
  6
CONTINUOUS
 62
     7
 10
157.1149480715857
 20
148.59452724045079
 30
0.0
 40
19.99999999999984
 50
172.94867578147779
 51
184.57404535203881
  0
ARC
  5
254
  8
DATA
  6
CONTINUOUS
 62
     7
 10
-31.173076923076959
 20
171.88461538461539
 30
0.0
 40
169.72297847691971
 50
352.94867578147802
 51
1.3894245999334769
  0
ARC
  5
255
  8
DATA
  6
CONTINUOUS
 62
     7
 10
202.8850519284137
 20
148.59452724045349
 30
0.0
 40
20.0
 50
355.42595464796011
 51
7.0513242185213576
  0
ARC
  5
256
  8
DATA
  6
CONTINUOUS
 62
     7
 10
331.20494830132941
 20
138.32865583456419
 30
0.0
 40
108.7298874421865
 50
175.4259546479598
 51
181.22719112703439
  0
ARC
  5
257
  8
DATA
  6
CONTINUOUS
 62
     7
 10
277.11494807157231
 20
148.5945272404538
 30
0.0
 40
19.999999999986109
 50
172.94867578147461
 51
184.5740453520439
  0
ARC
  5
258
  8
DATA
  6
CONTINUOUS
 62
     7
 10
88.826923076923052
 20
171.88461538461539
 30
0.0
 40
169.72297847691971
 50
352.94867578147881
 51
1.3894245999334769
  0
LINE
  5
259
  8
DATA
  6
CONTINUOUS
 62
     7
 10
-18.5
 20
190.5
 30
0.0
 11
18.5
 21
190.5
 31
0.0
  0
LINE
  5
25A
  8
DATA
  6
CONTINUOUS
 62
     7
 10
-18.5
 20
191.0
 30
0.0
 11
18.5
 21
191.0
 31
0.0
  0
LINE
  5
25B
  8
DATA
  6
CONTINUOUS
 62
     7
 10
-19.75
 20
196.5
 30
0.0
 11
-18.5
 21
191.0
 31
0.0
  0
LINE
  5
25C
  8
DATA
  6
CONTINUOUS
 62
     7
 10
19.75
 20
196.5
 30
0.0
 11
18.5
 21
191.0
 31
0.0
  0
LINE
  5
25D
  8
DATA
  6
CONTINUOUS
 62
     7
 10
-18.5
 20
190.5
 30
0.0
 11
-18.0
 21
191.0
 31
0.0
  0
LINE
  5
25E
  8
DATA
  6
CONTINUOUS
 62
     7
 10
18.5
 20
190.5
 30
0.0
 11
18.0
 21
191.0
 31
0.0
  0
LINE
  5
25F
  8
DATA
  6
CONTINUOUS
 62
     7
 10
-19.75
 20
198.0
 30
0.0
 11
19.75
 21
198.0
 31
0.0
  0
LINE
  5
260
  8
DATA
  6
CONTINUOUS
 62
     7
 10
-19.75
 20
198.0
 30
0.0
 11
-19.75
 21
196.5
 31
0.0
  0
LINE
  5
261
  8
DATA
  6
CONTINUOUS
 62
     7
 10
19.75
 20
198.0
 30
0.0
 11
19.75
 21
196.5
 31
0.0
  0
LINE
  5
262
  8
DATA
  6
CONTINUOUS
 62
     7
 10
-24.0
 20
221.0
 30
0.0
 11
24.0
 21
221.0
 31
0.0
  0
LINE
  5
263
  8
DATA
  6
CONTINUOUS
 62
     7
 10
-24.5
 20
222.5
 30
0.0
 11
24.5
 21
222.5
 31
0.0
  0
LINE
  5
264
  8
DATA
  6
CONTINUOUS
 62
     7
 10
-24.5
 20
224.5
 30
0.0
 11
24.5
 21
224.5
 31
0.0
  0
LINE
  5
265
  8
DATA
  6
CONTINUOUS
 62
     7
 10
-24.0
 20
226.0
 30
0.0
 11
24.0
 21
226.0
 31
0.0
  0
LINE
  5
266
  8
DATA
  6
CONTINUOUS
 62
     7
 10
-24.5
 20
224.5
 30
0.0
 11
-24.5
 21
222.5
 31
0.0
  0
LINE
  5
267
  8
DATA
  6
CONTINUOUS
 62
     7
 10
24.5
 20
224.5
 30
0.0
 11
24.5
 21
222.5
 31
0.0
  0
LINE
  5
268
  8
DATA
  6
CONTINUOUS
 62
     7
 10
-24.0
 20
226.0
 30
0.0
 11
-24.5
 21
224.5
 31
0.0
  0
LINE
  5
269
  8
DATA
  6
CONTINUOUS
 62
     7
 10
24.0
 20
226.0
 30
0.0
 11
24.5
 21
224.5
 31
0.0
  0
LINE
  5
26A
  8
DATA
  6
CONTINUOUS
 62
     7
 10
24.5
 20
222.5
 30
0.0
 11
24.0
 21
221.0
 31
0.0
  0
LINE
  5
26B
  8
DATA
  6
CONTINUOUS
 62
     7
 10
-24.5
 20
222.5
 30
0.0
 11
-24.0
 21
221.0
 31
0.0
  0
LINE
  5
26C
  8
DATA
  6
CONTINUOUS
 62
     7
 10
-16.129631002509772
 20
252.0
 30
0.0
 11
16.129631002509772
 21
252.0
 31
0.0
  0
ARC
  5
26D
  8
DATA
  6
CONTINUOUS
 62
     7
 10
55.63372093023257
 20
222.94767441860469
 30
0.0
 40
78.692939701021061
 50
159.34527540413629
 51
177.77706543690419
  0
ARC
  5
26E
  8
DATA
  6
CONTINUOUS
 62
     7
 10
55.63372093023257
 20
222.94767441860469
 30
0.0
 40
78.692939701021061
 50
181.41823295586011
 51
198.48313927140771
  0
ARC
  5
26F
  8
DATA
  6
CONTINUOUS
 62
     7
 10
-55.633720930232577
 20
222.94767441860469
 30
0.0
 40
78.692939701021061
 50
341.51686072859218
 51
358.58176704414041
  0
ARC
  5
270
  8
DATA
  6
CONTINUOUS
 62
     7
 10
-55.633720930232577
 20
222.94767441860469
 30
0.0
 40
78.692939701021061
 50
2.2229345630957371
 51
20.654724595863691
  0
ARC
  5
271
  8
DATA
  6
CONTINUOUS
 62
     7
 10
-16.129631002509772
 20
250.0
 30
0.0
 40
2.0
 50
90.0
 51
159.3452754041362
  0
ARC
  5
272
  8
DATA
  6
CONTINUOUS
 62
     7
 10
16.129631002509772
 20
250.00000000000011
 30
0.0
 40
1.999999999999978
 50
20.654724595862021
 51
90.0
  0
LINE
  5
273
  8
DATA
  6
CONTINUOUS
 62
     7
 10
101.5
 20
176.5
 30
0.0
 11
138.5
 21
176.5
 31
0.0
  0
LINE
  5
274
  8
DATA
  6
CONTINUOUS
 62
     7
 10
101.5
 20
176.5
 30
0.0
 11
101.5
 21
190.5
 31
0.0
  0
LINE
  5
275
  8
DATA
  6
CONTINUOUS
 62
     7
 10
138.5
 20
176.5
 30
0.0
 11
138.5
 21
190.5
 31
0.0
  0
LINE
  5
276
  8
DATA
  6
CONTINUOUS
 62
     7
 10
100.25
 20
196.5
 30
0.0
 11
139.75
 21
196.5
 31
0.0
  0
LINE
  5
277
  8
DATA
  6
CONTINUOUS
 62
     7
 10
101.5
 20
190.5
 30
0.0
 11
138.5
 21
190.5
 31
0.0
  0
LINE
  5
278
  8
DATA
  6
CONTINUOUS
 62
     7
 10
101.5
 20
191.0
 30
0.0
 11
138.5
 21
191.0
 31
0.0
  0
LINE
  5
279
  8
DATA
  6
CONTINUOUS
 62
     7
 10
100.25
 20
196.5
 30
0.0
 11
101.5
 21
191.0
 31
0.0
  0
LINE
  5
27A
  8
DATA
  6
CONTINUOUS
 62
     7
 10
139.75
 20
196.5
 30
0.0
 11
138.5
 21
191.0
 31
0.0
  0
LINE
  5
27B
  8
DATA
  6
CONTINUOUS
 62
     7
 10
101.5
 20
190.5
 30
0.0
 11
102.0
 21
191.0
 31
0.0
  0
LINE
  5
27C
  8
DATA
  6
CONTINUOUS
 62
     7
 10
138.5
 20
190.5
 30
0.0
 11
138.0
 21
191.0
 31
0.0
  0
LINE
  5
27D
  8
DATA
  6
CONTINUOUS
 62
     7
 10
100.25
 20
198.0
 30
0.0
 11
139.75
 21
198.0
 31
0.0
  0
LINE
  5
27E
  8
DATA
  6
CONTINUOUS
 62
     7
 10
100.25
 20
198.0
 30
0.0
 11
100.25
 21
196.5
 31
0.0
  0
LINE
  5
27F
  8
DATA
  6
CONTINUOUS
 62
     7
 10
139.75
 20
198.0
 30
0.0
 11
139.75
 21
196.5
 31
0.0
  0
LINE
  5
280
  8
DATA
  6
CONTINUOUS
 62
     7
 10
96.0
 20
221.0
 30
0.0
 11
144.0
 21
221.0
 31
0.0
  0
LINE
  5
281
  8
DATA
  6
CONTINUOUS
 62
     7
 10
95.5
 20
222.5
 30
0.0
 11
144.5
 21
222.5
 31
0.0
  0
LINE
  5
282
  8
DATA
  6
CONTINUOUS
 62
     7
 10
95.5
 20
224.5
 30
0.0
 11
144.5
 21
224.5
 31
0.0
  0
LINE
  5
283
  8
DATA
  6
CONTINUOUS
 62
     7
 10
96.0
 20
226.0
 30
0.0
 11
144.0
 21
226.0
 31
0.0
  0
LINE
  5
284
  8
DATA
  6
CONTINUOUS
 62
     7
 10
95.5
 20
224.5
 30
0.0
 11
95.5
 21
222.5
 31
0.0
  0
LINE
  5
285
  8
DATA
  6
CONTINUOUS
 62
     7
 10
144.5
 20
224.5
 30
0.0
 11
144.5
 21
222.5
 31
0.0
  0
LINE
  5
286
  8
DATA
  6
CONTINUOUS
 62
     7
 10
96.0
 20
226.0
 30
0.0
 11
95.5
 21
224.5
 31
0.0
  0
LINE
  5
287
  8
DATA
  6
CONTINUOUS
 62
     7
 10
144.0
 20
226.0
 30
0.0
 11
144.5
 21
224.5
 31
0.0
  0
LINE
  5
288
  8
DATA
  6
CONTINUOUS
 62
     7
 10
144.5
 20
222.5
 30
0.0
 11
144.0
 21
221.0
 31
0.0
  0
LINE
  5
289
  8
DATA
  6
CONTINUOUS
 62
     7
 10
95.5
 20
222.5
 30
0.0
 11
96.0
 21
221.0
 31
0.0
  0
LINE
  5
28A
  8
DATA
  6
CONTINUOUS
 62
     7
 10
103.8703689974902
 20
252.0
 30
0.0
 11
136.12963100250971
 21
252.0
 31
0.0
  0
ARC
  5
28B
  8
DATA
  6
CONTINUOUS
 62
     7
 10
175.63372093023261
 20
222.94767441860469
 30
0.0
 40
78.692939701021061
 50
159.34527540413629
 51
177.77706543690419
  0
ARC
  5
28C
  8
DATA
  6
CONTINUOUS
 62
     7
 10
175.63372093023261
 20
222.94767441860469
 30
0.0
 40
78.692939701021061
 50
181.41823295586011
 51
198.48313927140771
  0
ARC
  5
28D
  8
DATA
  6
CONTINUOUS
 62
     7
 10
64.366279069767415
 20
222.94767441860469
 30
0.0
 40
78.692939701021061
 50
341.51686072859218
 51
358.58176704414041
  0
ARC
  5
28E
  8
DATA
  6
CONTINUOUS
 62
     7
 10
64.366279069767415
 20
222.94767441860469
 30
0.0
 40
78.692939701021061
 50
2.2229345630957371
 51
20.654724595863691
  0
ARC
  5
28F
  8
DATA
  6
CONTINUOUS
 62
     7
 10
103.8703689974902
 20
250.0
 30
0.0
 40
2.0
 50
90.0
 51
159.3452754041362
  0
ARC
  5
290
  8
DATA
  6
CONTINUOUS
 62
     7
 10
136.12963100250971
 20
250.00000000000011
 30
0.0
 40
1.999999999999978
 50
20.654724595862021
 51
90.0
  0
LINE
  5
291
  8
DATA
  6
CONTINUOUS
 62
     7
 10
221.5
 20
176.5
 30
0.0
 11
258.5
 21
176.5
 31
0.0
  0
TEXT
  5
292
  8
DATA
 62
     7
 10
234.70833333333329
 20
181.74083333333331
 30
0.0
 40
4.072102864583333
  1
KSM9
 41
0.7
 11
234.70833333333329
 21
185.8129361979166
 31
0.0
 73
     3
  0
LINE
  5
293
  8
DATA
  6
CONTINUOUS
 62
     7
 10
221.5
 20
176.5
 30
0.0
 11
221.5
 21
190.5
 31
0.0
  0
LINE
  5
294
  8
DATA
  6
CONTINUOUS
 62
     7
 10
258.5
 20
176.5
 30
0.0
 11
258.5
 21
190.5
 31
0.0
  0
LINE
  5
295
  8
DATA
  6
CONTINUOUS
 62
     7
 10
220.25
 20
196.5
 30
0.0
 11
259.75
 21
196.5
 31
0.0
  0
LINE
  5
296
  8
DATA
  6
CONTINUOUS
 62
     7
 10
221.5
 20
190.5
 30
0.0
 11
258.5
 21
190.5
 31
0.0
  0
LINE
  5
297
  8
DATA
  6
CONTINUOUS
 62
     7
 10
221.5
 20
191.0
 30
0.0
 11
258.5
 21
191.0
 31
0.0
  0
LINE
  5
298
  8
DATA
  6
CONTINUOUS
 62
     7
 10
220.25
 20
196.5
 30
0.0
 11
221.5
 21
191.0
 31
0.0
  0
LINE
  5
299
  8
DATA
  6
CONTINUOUS
 62
     7
 10
259.75
 20
196.5
 30
0.0
 11
258.5
 21
191.0
 31
0.0
  0
LINE
  5
29A
  8
DATA
  6
CONTINUOUS
 62
     7
 10
221.5
 20
190.5
 30
0.0
 11
222.0
 21
191.0
 31
0.0
  0
LINE
  5
29B
  8
DATA
  6
CONTINUOUS
 62
     7
 10
258.5
 20
190.5
 30
0.0
 11
258.0
 21
191.0
 31
0.0
  0
LINE
  5
29C
  8
DATA
  6
CONTINUOUS
 62
     7
 10
220.25
 20
198.0
 30
0.0
 11
259.75
 21
198.0
 31
0.0
  0
LINE
  5
29D
  8
DATA
  6
CONTINUOUS
 62
     7
 10
220.25
 20
198.0
 30
0.0
 11
220.25
 21
196.5
 31
0.0
  0
LINE
  5
29E
  8
DATA
  6
CONTINUOUS
 62
     7
 10
259.75
 20
198.0
 30
0.0
 11
259.75
 21
196.5
 31
0.0
  0
LINE
  5
29F
  8
DATA
  6
CONTINUOUS
 62
     7
 10
216.0
 20
221.0
 30
0.0
 11
264.0
 21
221.0
 31
0.0
  0
LINE
  5
2A0
  8
DATA
  6
CONTINUOUS
 62
     7
 10
215.5
 20
222.5
 30
0.0
 11
264.5
 21
222.5
 31
0.0
  0
LINE
  5
2A1
  8
DATA
  6
CONTINUOUS
 62
     7
 10
215.5
 20
224.5
 30
0.0
 11
264.5
 21
224.5
 31
0.0
  0
LINE
  5
2A2
  8
DATA
  6
CONTINUOUS
 62
     7
 10
216.0
 20
226.0
 30
0.0
 11
264.0
 21
226.0
 31
0.0
  0
LINE
  5
2A3
  8
DATA
  6
CONTINUOUS
 62
     7
 10
215.5
 20
224.5
 30
0.0
 11
215.5
 21
222.5
 31
0.0
  0
LINE
  5
2A4
  8
DATA
  6
CONTINUOUS
 62
     7
 10
264.5
 20
224.5
 30
0.0
 11
264.5
 21
222.5
 31
0.0
  0
LINE
  5
2A5
  8
DATA
  6
CONTINUOUS
 62
     7
 10
216.0
 20
226.0
 30
0.0
 11
215.5
 21
224.5
 31
0.0
  0
LINE
  5
2A6
  8
DATA
  6
CONTINUOUS
 62
     7
 10
264.0
 20
226.0
 30
0.0
 11
264.5
 21
224.5
 31
0.0
  0
LINE
  5
2A7
  8
DATA
  6
CONTINUOUS
 62
     7
 10
264.5
 20
222.5
 30
0.0
 11
264.0
 21
221.0
 31
0.0
  0
LINE
  5
2A8
  8
DATA
  6
CONTINUOUS
 62
     7
 10
215.5
 20
222.5
 30
0.0
 11
216.0
 21
221.0
 31
0.0
  0
LINE
  5
2A9
  8
DATA
  6
CONTINUOUS
 62
     7
 10
223.8703689974902
 20
252.0
 30
0.0
 11
256.12963100250983
 21
252.0
 31
0.0
  0
ARC
  5
2AA
  8
DATA
  6
CONTINUOUS
 62
     7
 10
295.63372093023253
 20
222.94767441860469
 30
0.0
 40
78.692939701021061
 50
159.34527540413629
 51
177.77706543690419
  0
ARC
  5
2AB
  8
DATA
  6
CONTINUOUS
 62
     7
 10
295.63372093023253
 20
222.94767441860469
 30
0.0
 40
78.692939701021061
 50
181.41823295586011
 51
198.48313927140771
  0
ARC
  5
2AC
  8
DATA
  6
CONTINUOUS
 62
     7
 10
184.36627906976739
 20
222.94767441860469
 30
0.0
 40
78.692939701021061
 50
341.51686072859218
 51
358.58176704414041
  0
ARC
  5
2AD
  8
DATA
  6
CONTINUOUS
 62
     7
 10
184.36627906976739
 20
222.94767441860469
 30
0.0
 40
78.692939701021061
 50
2.2229345630957358
 51
20.654724595863701
  0
ARC
  5
2AE
  8
DATA
  6
CONTINUOUS
 62
     7
 10
223.8703689974902
 20
250.0
 30
0.0
 40
2.0
 50
90.0
 51
159.3452754041362
  0
ARC
  5
2AF
  8
DATA
  6
CONTINUOUS
 62
     7
 10
256.12963100250983
 20
250.00000000000011
 30
0.0
 40
1.999999999999964
 50
20.654724595862159
 51
90.000000000000028
  0
TEXT
  5
2B0
  8
DATA
 62
     7
 10
-122.50003
 20
-242.78599249999999
 30
0.0
 40
4.8865234374999993
  1
仕様および外観は予告なく変更されることがありますので、ご了承ください。
 41
0.7
 11
-122.50003
 21
-237.8994690625
 31
0.0
 73
     3
  0
ENDSEC
  0
EOF
