  0
SECTION
  2
HEADER
  9
$ACADVER
  1
AC1009
  9
$INSBASE
 10
0.0
 20
0.0
 30
0.0
  9
$EXTMIN
 10
-152.51647823400589
 20
-276.71530853927351
 30
-0.0015258207003583
  9
$EXTMAX
 10
387.51645074857652
 20
524.52445227010935
 30
0.0000000349246037
  9
$LIMMIN
 10
0.0
 20
0.0
  9
$LIMMAX
 10
0.0
 20
0.0
  9
$ORTHOMODE
 70
     0
  9
$REGENMODE
 70
     1
  9
$FILLMODE
 70
     1
  9
$QTEXTMODE
 70
     0
  9
$MIRRTEXT
 70
     1
  9
$DRAGMODE
 70
     2
  9
$LTSCALE
 40
15.24
  9
$OSMODE
 70
   231
  9
$ATTMODE
 70
     1
  9
$TEXTSIZE
 40
0.0
  9
$TRACEWID
 40
1.0
  9
$TEXTSTYLE
  7
STANDARD
  9
$CLAYER
  8
DATA
  9
$CELTYPE
  6
BYLAYER
  9
$CECOLOR
 62
   256
  9
$DIMSCALE
 40
1.0
  9
$DIMASZ
 40
0.18
  9
$DIMEXO
 40
0.0625
  9
$DIMDLI
 40
0.38
  9
$DIMRND
 40
0.0
  9
$DIMDLE
 40
0.0
  9
$DIMEXE
 40
0.18
  9
$DIMTP
 40
0.0
  9
$DIMTM
 40
0.0
  9
$DIMTXT
 40
0.18
  9
$DIMCEN
 40
0.09
  9
$DIMTSZ
 40
0.0
  9
$DIMTOL
 70
     0
  9
$DIMLIM
 70
     0
  9
$DIMTIH
 70
     1
  9
$DIMTOH
 70
     1
  9
$DIMSE1
 70
     0
  9
$DIMSE2
 70
     0
  9
$DIMTAD
 70
     0
  9
$DIMZIN
 70
     0
  9
$DIMBLK
  1

  9
$DIMASO
 70
     1
  9
$DIMSHO
 70
     1
  9
$DIMPOST
  1

  9
$DIMAPOST
  1

  9
$DIMALT
 70
     0
  9
$DIMALTD
 70
     2
  9
$DIMALTF
 40
25.399999999999999
  9
$DIMLFAC
 40
1.0
  9
$DIMTOFL
 70
     0
  9
$DIMTVP
 40
0.0
  9
$DIMTIX
 70
     0
  9
$DIMSOXD
 70
     0
  9
$DIMSAH
 70
     0
  9
$DIMBLK1
  1

  9
$DIMBLK2
  1

  9
$DIMSTYLE
  2
STANDARD
  9
$DIMCLRD
 70
     0
  9
$DIMCLRE
 70
     0
  9
$DIMCLRT
 70
     0
  9
$DIMTFAC
 40
1.0
  9
$DIMGAP
 40
0.09
  9
$LUNITS
 70
     2
  9
$LUPREC
 70
     4
  9
$SKETCHINC
 40
0.1
  9
$FILLETRAD
 40
0.0
  9
$AUNITS
 70
     0
  9
$AUPREC
 70
     0
  9
$MENU
  1
acad
  9
$ELEVATION
 40
0.0
  9
$PELEVATION
 40
0.0
  9
$THICKNESS
 40
0.0
  9
$LIMCHECK
 70
     0
  9
$BLIPMODE
 70
     0
  9
$CHAMFERA
 40
0.0
  9
$CHAMFERB
 40
0.0
  9
$SKPOLY
 70
     0
  9
$TDCREATE
 40
2455184.8087152778
  9
$TDUPDATE
 40
2455184.8130078819
  9
$TDINDWG
 40
0.0001978472
  9
$TDUSRTIMER
 40
0.0001978472
  9
$USRTIMER
 70
     1
  9
$ANGBASE
 50
0.0
  9
$ANGDIR
 70
     0
  9
$PDMODE
 70
     1
  9
$PDSIZE
 40
-2.0
  9
$PLINEWID
 40
0.0
  9
$COORDS
 70
     0
  9
$SPLFRAME
 70
     0
  9
$SPLINETYPE
 70
     6
  9
$SPLINESEGS
 70
     8
  9
$ATTDIA
 70
     0
  9
$ATTREQ
 70
     1
  9
$HANDLING
 70
     1
  9
$HANDSEED
  5
38C
  9
$SURFTAB1
 70
     6
  9
$SURFTAB2
 70
     6
  9
$SURFTYPE
 70
     6
  9
$SURFU
 70
     6
  9
$SURFV
 70
     6
  9
$UCSNAME
  2

  9
$UCSORG
 10
0.0
 20
0.0
 30
0.0
  9
$UCSXDIR
 10
1.0
 20
0.0
 30
0.0
  9
$UCSYDIR
 10
0.0
 20
1.0
 30
0.0
  9
$PUCSNAME
  2

  9
$PUCSORG
 10
0.0
 20
0.0
 30
0.0
  9
$PUCSXDIR
 10
1.0
 20
0.0
 30
0.0
  9
$PUCSYDIR
 10
0.0
 20
1.0
 30
0.0
  9
$USERI1
 70
     0
  9
$USERI2
 70
     0
  9
$USERI3
 70
     0
  9
$USERI4
 70
     0
  9
$USERI5
 70
     0
  9
$USERR1
 40
0.0
  9
$USERR2
 40
0.0
  9
$USERR3
 40
0.0
  9
$USERR4
 40
0.0
  9
$USERR5
 40
0.0
  9
$WORLDVIEW
 70
     1
  9
$SHADEDGE
 70
     3
  9
$SHADEDIF
 70
    70
  9
$TILEMODE
 70
     1
  9
$MAXACTVP
 70
    64
  9
$PLIMCHECK
 70
     0
  9
$PEXTMIN
 10
1.0000000000000000E+020
 20
1.0000000000000000E+020
 30
1.0000000000000000E+020
  9
$PEXTMAX
 10
-1.0000000000000000E+020
 20
-1.0000000000000000E+020
 30
-1.0000000000000000E+020
  9
$PLIMMIN
 10
0.0
 20
0.0
  9
$PLIMMAX
 10
12.0
 20
9.0
  9
$UNITMODE
 70
     0
  9
$VISRETAIN
 70
     0
  9
$PLINEGEN
 70
     1
  9
$PSLTSCALE
 70
     0
  0
ENDSEC
  0
SECTION
  2
TABLES
  0
TABLE
  2
VPORT
 70
     1
  0
VPORT
  2
*ACTIVE
 70
     0
 10
0.0
 20
0.0
 11
1.0
 21
1.0
 12
117.4999862572851
 22
123.90457186541791
 13
0.0
 23
0.0
 14
1.0
 24
1.0
 15
0.0
 25
0.0
 16
0.0
 26
0.0
 36
1.0
 17
0.0
 27
0.0
 37
0.0
 40
807.21173418187527
 41
1.9863184079601981
 42
50.0
 43
0.0
 44
0.0
 50
0.0
 51
0.0
 71
     0
 72
  2000
 73
     1
 74
     1
 75
     0
 76
     0
 77
     0
 78
     0
  0
ENDTAB
  0
TABLE
  2
LTYPE
 70
    11
  0
LTYPE
  2
CONTINUOUS
 70
     0
  3
Solid line
 72
    65
 73
     0
 40
0.0
  0
ENDTAB
  0
TABLE
  2
LAYER
 70
     6
  0
LAYER
  2
0
 70
     0
 62
     7
  6
CONTINUOUS
  0
LAYER
  2
DATA
 70
     0
 62
     7
  6
CONTINUOUS
  0
LAYER
  2
HIBINO-BASE
 70
     0
 62
     7
  6
CONTINUOUS
  0
LAYER
  2
PATTERN_FILL
 70
     0
 62
     7
  6
CONTINUOUS
  0
LAYER
  2
SPEC
 70
     0
 62
     7
  6
CONTINUOUS
  0
LAYER
  2
DIMNSIONS
 70
     0
 62
     7
  6
CONTINUOUS
  0
ENDTAB
  0
TABLE
  2
STYLE
 70
     3
  0
STYLE
  2
STANDARD
 70
     0
 40
0.0
 41
1.0
 50
0.0
 71
     0
 42
0.0
  3
txt
  4
BIGFONT.SHX
  0
STYLE
  2
_______
 70
     0
 40
0.0
 41
1.0
 50
0.0
 71
     0
 42
0.0
  3
txt
  4
ＭＳ ゴシック
  0
ENDTAB
  0
TABLE
  2
VIEW
 70
     0
  0
ENDTAB
  0
TABLE
  2
UCS
 70
     0
  0
ENDTAB
  0
TABLE
  2
APPID
 70
     3
  0
APPID
  2
ACAD
 70
     0
  0
APPID
  2
ACADANNOTATIVE
 70
     0
  0
APPID
  2
ACAD_MLEADERVER
 70
     0
  0
ENDTAB
  0
TABLE
  2
DIMSTYLE
 70
     2
  0
DIMSTYLE
  2
STANDARD
 70
     0
  3

  4

  5

  6

  7

 40
1.0
 41
0.18
 42
0.0625
 43
0.38
 44
0.18
 45
0.0
 46
0.0
 47
0.0
 48
0.0
140
0.18
141
0.09
142
0.0
143
25.399999999999999
144
1.0
145
0.0
146
1.0
147
0.09
 71
     0
 72
     0
 73
     1
 74
     1
 75
     0
 76
     0
 77
     0
 78
     0
170
     0
171
     2
172
     0
173
     0
174
     0
175
     0
176
     0
177
     0
178
     0
  0
ENDTAB
  0
ENDSEC
  0
SECTION
  2
BLOCKS
  0
BLOCK
  8
0
  2
$MODEL_SPACE
 70
     0
 10
0.0
 20
0.0
 30
0.0
  3
$MODEL_SPACE
  1

  0
ENDBLK
  5
32A
  8
0
  0
BLOCK
 67
     1
  8
0
  2
$PAPER_SPACE
 70
     0
 10
0.0
 20
0.0
 30
0.0
  3
$PAPER_SPACE
  1

  0
ENDBLK
  5
326
 67
     1
  8
0
  0
ENDSEC
  0
SECTION
  2
ENTITIES
  0
LINE
  5
2D
  8
HIBINO-BASE
  6
CONTINUOUS
 62
     7
 10
-152.5
 20
524.5
 30
0.0
 11
387.49997000000002
 21
524.5
 31
0.0
  0
LINE
  5
2E
  8
HIBINO-BASE
  6
CONTINUOUS
 62
     7
 10
387.49997000000002
 20
-255.49998500000001
 30
0.0
 11
-152.5
 21
-255.49998500000001
 31
0.0
  0
LINE
  5
2F
  8
HIBINO-BASE
  6
CONTINUOUS
 62
     7
 10
-152.5
 20
-255.49998500000001
 30
0.0
 11
-152.5
 21
524.5
 31
0.0
  0
TEXT
  5
30
  8
HIBINO-BASE
 62
     7
 10
-130.94799999999989
 20
-274.72600549999999
 30
0.0
 40
10.800120996093741
  1
Hibino Corporation
  7
_______
 11
-130.94799999999989
 21
-263.92588450390627
 31
0.0
 73
     3
  0
LINE
  5
31
  8
HIBINO-BASE
  6
CONTINUOUS
 62
     7
 10
387.49997000000002
 20
524.5
 30
0.0
 11
387.49997000000002
 21
-255.49998500000001
 31
0.0
  0
LINE
  5
32
  8
HIBINO-BASE
  6
CONTINUOUS
 62
     7
 10
117.499985
 20
-188.0
 30
0.0
 11
387.49997000000002
 21
-188.0
 31
0.0
  0
LINE
  5
33
  8
HIBINO-BASE
  6
CONTINUOUS
 62
     7
 10
117.499985
 20
-255.49998500000001
 30
0.0
 11
117.499985
 21
-188.0
 31
0.0
  0
TEXT
  5
34
  8
HIBINO-BASE
 62
     7
 10
120.19996999999999
 20
-196.10000959999999
 30
0.0
 40
5.4000778125000002
  1
NOTE
  7
_______
 11
120.19996999999999
 21
-190.69993178749999
 31
0.0
 73
     3
  0
LINE
  5
35
  8
HIBINO-BASE
  6
CONTINUOUS
 62
     7
 10
222.49998500000001
 20
-255.49998500000001
 30
0.0
 11
222.49998500000001
 21
-188.0
 31
0.0
  0
TEXT
  5
36
  8
HIBINO-BASE
 62
     7
 10
225.199985
 20
-196.10000959999999
 30
0.0
 40
5.4000778125000002
  1
TITLE
  7
_______
 11
225.199985
 21
-190.69993178749999
 31
0.0
 73
     3
  0
TEXT
  5
37
  8
HIBINO-BASE
 62
     7
 10
267.70513999999997
 20
-274.72600549999999
 30
0.0
 40
10.800120996093741
  1
ヒビノ株式会社
  7
_______
 11
267.70513999999997
 21
-263.92588450390627
 31
0.0
 73
     3
  0
LINE
  5
38
  8
HIBINO-BASE
  6
CONTINUOUS
 62
     7
 10
117.499985
 20
-225.5
 30
0.0
 11
387.49997000000002
 21
-225.5
 31
0.0
  0
TEXT
  5
39
  8
HIBINO-BASE
 62
     7
 10
262.69998500000003
 20
-233.43103459999989
 30
0.0
 40
5.4000778125000002
  1
DRAWN
  7
_______
 11
262.69998500000003
 21
-228.03095678749989
 31
0.0
 73
     3
  0
TEXT
  5
3A
  8
HIBINO-BASE
 62
     7
 10
187.699985
 20
-233.43103459999989
 30
0.0
 40
5.4000778125000002
  1
DATE
  7
_______
 11
187.699985
 21
-228.03095678749989
 31
0.0
 73
     3
  0
TEXT
  5
3B
  8
HIBINO-BASE
 62
     7
 10
120.7999699999999
 20
-233.3583406999999
 30
0.0
 40
4.8865195898437506
  1
図面サイズ
  7
_______
 11
120.7999699999999
 21
-228.47182111015621
 31
0.0
 73
     3
  0
TEXT
  5
3C
  8
HIBINO-BASE
 62
     7
 10
157.69996999999989
 20
-233.43103459999989
 30
0.0
 40
5.4000778125000002
  1
SCALE
  7
_______
 11
157.69996999999989
 21
-228.03095678749989
 31
0.0
 73
     3
  0
TEXT
  5
3D
  8
HIBINO-BASE
 62
     7
 10
225.199985
 20
-233.43103459999989
 30
0.0
 40
5.4000778125000002
  1
DESIGN
  7
_______
 11
225.199985
 21
-228.03095678749989
 31
0.0
 73
     3
  0
TEXT
  5
3E
  8
HIBINO-BASE
 62
     7
 10
337.69996999999989
 20
-233.43103459999989
 30
0.0
 40
5.4000778125000002
  1
DRAWING NO.
  7
_______
 11
337.69996999999989
 21
-228.03095678749989
 31
0.0
 73
     3
  0
TEXT
  5
3F
  8
HIBINO-BASE
 62
     7
 10
300.19997000000001
 20
-233.43103459999989
 30
0.0
 40
5.4000778125000002
  1
CHECK
  7
_______
 11
300.19997000000001
 21
-228.03095678749989
 31
0.0
 73
     3
  0
LINE
  5
40
  8
HIBINO-BASE
  6
CONTINUOUS
 62
     7
 10
160.62496999999991
 20
-251.75
 30
0.0
 11
171.8749849999999
 21
-240.5
 31
0.0
  0
TEXT
  5
41
  8
HIBINO-BASE
 62
     7
 10
158.74996999999991
 20
-245.6471426
 30
0.0
 40
6.515359453124999
  1
1
  7
_______
 11
158.74996999999991
 21
-239.13178314687499
 31
0.0
 73
     3
  0
LINE
  5
42
  8
HIBINO-BASE
  6
CONTINUOUS
 62
     7
 10
154.99996999999991
 20
-255.49998500000001
 30
0.0
 11
154.99996999999991
 21
-225.5
 31
0.0
  0
LINE
  5
43
  8
HIBINO-BASE
  6
CONTINUOUS
 62
     7
 10
184.99996999999999
 20
-255.49998500000001
 30
0.0
 11
184.99996999999999
 21
-225.5
 31
0.0
  0
LINE
  5
44
  8
HIBINO-BASE
  6
CONTINUOUS
 62
     7
 10
259.99997000000002
 20
-225.5
 30
0.0
 11
259.99997000000002
 21
-255.49998500000001
 31
0.0
  0
LINE
  5
45
  8
HIBINO-BASE
  6
CONTINUOUS
 62
     7
 10
334.99998499999998
 20
-225.5
 30
0.0
 11
334.99998499999998
 21
-255.49998500000001
 31
0.0
  0
LINE
  5
46
  8
HIBINO-BASE
  6
CONTINUOUS
 62
     7
 10
297.49997000000002
 20
-255.49998500000001
 30
0.0
 11
297.49997000000002
 21
-225.5
 31
0.0
  0
TEXT
  5
47
  8
HIBINO-BASE
 62
     7
 10
129.23265499999991
 20
-248.00460349999989
 30
0.0
 40
9.7730276367187496
  1
A4
  7
_______
 11
129.23265499999991
 21
-238.23157586328119
 31
0.0
 73
     3
  0
TEXT
  5
48
  8
HIBINO-BASE
 62
     7
 10
187.569605
 20
-247.48297460000001
 30
0.0
 40
5.4000778125000002
  1
'09.12.
  7
_______
 11
187.569605
 21
-242.0828967875
 31
0.0
 73
     3
  0
TEXT
  5
49
  8
HIBINO-BASE
 62
     7
 10
169.9999849999999
 20
-251.2721426
 30
0.0
 40
6.515359453124999
  1
3
  7
_______
 11
169.9999849999999
 21
-244.75678314687499
 31
0.0
 73
     3
  0
TEXT
  5
4A
  8
HIBINO-BASE
 62
     7
 10
264.51740003310391
 20
-246.9090525
 30
0.0
 40
4.8865234374999993
  1
N.Sasaki
  7
_______
 11
264.51740003310391
 21
-242.02252906250001
 31
0.0
 73
     3
  0
ARC
  5
4B
  8
PATTERN_FILL
  6
CONTINUOUS
 62
     7
 10
0.0
 20
-107.9261482096943
 30
0.0
 40
27.999999999999972
 50
30.011133366889059
 51
150.00161856814779
  0
ARC
  5
4C
  8
PATTERN_FILL
  6
CONTINUOUS
 62
     7
 10
0.0
 20
-107.9261482096943
 30
0.0
 40
29.999999999999989
 50
45.277662991887993
 51
135.17201981309989
  0
LINE
  5
4D
  8
PATTERN_FILL
  6
CONTINUOUS
 62
     7
 10
0.0
 20
-75.0
 30
0.0
 11
0.0
 21
-80.750000000000014
 31
0.0
  0
ARC
  5
4E
  8
PATTERN_FILL
  6
CONTINUOUS
 62
     7
 10
0.0
 20
-107.9261482096943
 30
0.0
 40
21.999999999999972
 50
21.117359857472032
 51
30.359765141684431
  0
ARC
  5
4F
  8
PATTERN_FILL
  6
CONTINUOUS
 62
     7
 10
0.0
 20
-107.9261482096943
 30
0.0
 40
23.999999999999972
 50
19.284325027965089
 51
44.838138377126512
  0
ARC
  5
50
  8
PATTERN_FILL
  6
CONTINUOUS
 62
     7
 10
0.0
 20
-107.9261482096943
 30
0.0
 40
26.0
 50
17.749251326453169
 51
63.315360796917993
  0
ARC
  5
51
  8
PATTERN_FILL
  6
CONTINUOUS
 62
     7
 10
627.25000000000068
 20
-101.9261482096943
 30
0.0
 40
625.2500000000008
 50
177.54474535891799
 51
178.07236328708191
  0
ARC
  5
52
  8
PATTERN_FILL
  6
CONTINUOUS
 62
     7
 10
627.15511396063755
 20
-112.79901137646451
 30
0.0
 40
623.25000000000068
 50
176.5699051017387
 51
177.1060391888447
  0
ARC
  5
53
  8
PATTERN_FILL
  6
CONTINUOUS
 62
     7
 10
626.8714995841774
 20
-123.6307256896374
 30
0.0
 40
621.2500000000008
 50
175.61513962146469
 51
176.16440140997861
  0
ARC
  5
54
  8
PATTERN_FILL
  6
CONTINUOUS
 62
     7
 10
626.40044573234491
 20
-134.41968863877469
 30
0.0
 40
619.25000000000057
 50
174.6803231384614
 51
175.24931768033181
  0
ARC
  5
55
  8
PATTERN_FILL
  6
CONTINUOUS
 62
     7
 10
625.74330135383389
 20
-145.1639042543616
 30
0.0
 40
617.25000000000045
 50
173.76678532326341
 51
174.36406450510981
  0
ARC
  5
56
  8
PATTERN_FILL
  6
CONTINUOUS
 62
     7
 10
624.90148115807028
 20
-155.8602440127801
 30
0.0
 40
615.25000000000057
 50
172.8765067326768
 51
173.5143776862555
  0
ARC
  5
57
  8
PATTERN_FILL
  6
CONTINUOUS
 62
     7
 10
623.8764552367777
 20
-166.50554522283969
 30
0.0
 40
613.2500000000008
 50
172.01194765859
 51
172.71076855907111
  0
ARC
  5
58
  8
PATTERN_FILL
  6
CONTINUOUS
 62
     7
 10
622.66974763606004
 20
-177.09668190701561
 30
0.0
 40
611.25000000000068
 50
171.17785922683811
 51
171.97605915166201
  0
ARC
  5
59
  8
PATTERN_FILL
  6
CONTINUOUS
 62
     7
 10
621.28293552303433
 20
-187.63056571810881
 30
0.0
 40
609.25000000000114
 50
170.3812365926569
 51
171.38572827999889
  0
ARC
  5
5A
  8
PATTERN_FILL
  6
CONTINUOUS
 62
     7
 10
619.71764833695386
 20
-198.1041468380063
 30
0.0
 40
607.25000000000068
 50
169.6352312875961
 51
170.7028466230787
  0
ARC
  5
5B
  8
PATTERN_FILL
  6
CONTINUOUS
 62
     7
 10
617.97556692520448
 20
-208.51441485828099
 30
0.0
 40
605.2500000000008
 50
168.96801662507141
 51
169.67167547154281
  0
ARC
  5
5C
  8
PATTERN_FILL
  6
CONTINUOUS
 62
     7
 10
616.05842266453317
 20
-218.85839964237911
 30
0.0
 40
603.25000000000068
 50
168.48477727829851
 51
168.6366599455921
  0
ARC
  5
5D
  8
PATTERN_FILL
  6
CONTINUOUS
 62
     7
 10
0.0
 20
-107.9261482096943
 30
0.0
 40
31.999999999999989
 50
65.561245320537381
 51
114.4387546794626
  0
ARC
  5
5E
  8
PATTERN_FILL
  6
CONTINUOUS
 62
     7
 10
0.0
 20
-107.9261482096943
 30
0.0
 40
21.999999999999961
 50
149.64023485831561
 51
158.882640142528
  0
ARC
  5
5F
  8
PATTERN_FILL
  6
CONTINUOUS
 62
     7
 10
0.0
 20
-107.9261482096943
 30
0.0
 40
23.999999999999961
 50
135.16186162287349
 51
160.71567497203489
  0
ARC
  5
60
  8
PATTERN_FILL
  6
CONTINUOUS
 62
     7
 10
0.0
 20
-107.9261482096943
 30
0.0
 40
26.0
 50
116.684639203082
 51
162.25074867354681
  0
ARC
  5
61
  8
PATTERN_FILL
  6
CONTINUOUS
 62
     7
 10
-627.25000000000068
 20
-101.9261482096943
 30
0.0
 40
625.2500000000008
 50
1.927636712918156
 51
2.4552546410819831
  0
ARC
  5
62
  8
PATTERN_FILL
  6
CONTINUOUS
 62
     7
 10
-627.15511396063755
 20
-112.79901137646451
 30
0.0
 40
623.25000000000068
 50
2.893960811155222
 51
3.4300948982612729
  0
ARC
  5
63
  8
PATTERN_FILL
  6
CONTINUOUS
 62
     7
 10
-626.8714995841774
 20
-123.6307256896374
 30
0.0
 40
621.2500000000008
 50
3.8355985900213101
 51
4.3848603785352367
  0
ARC
  5
64
  8
PATTERN_FILL
  6
CONTINUOUS
 62
     7
 10
-626.40044573234491
 20
-134.41968863877469
 30
0.0
 40
619.25000000000057
 50
4.7506823196681536
 51
5.319676861538575
  0
ARC
  5
65
  8
PATTERN_FILL
  6
CONTINUOUS
 62
     7
 10
-625.74330135383389
 20
-145.1639042543616
 30
0.0
 40
617.25000000000045
 50
5.6359354948901554
 51
6.2332146767365826
  0
ARC
  5
66
  8
PATTERN_FILL
  6
CONTINUOUS
 62
     7
 10
-624.90148115807028
 20
-155.8602440127801
 30
0.0
 40
615.25000000000057
 50
6.4856223137444946
 51
7.1234932673232461
  0
ARC
  5
67
  8
PATTERN_FILL
  6
CONTINUOUS
 62
     7
 10
-623.8764552367777
 20
-166.50554522283969
 30
0.0
 40
613.2500000000008
 50
7.2892314409288961
 51
7.988052341410051
  0
ARC
  5
68
  8
PATTERN_FILL
  6
CONTINUOUS
 62
     7
 10
-622.66974763606004
 20
-177.09668190701561
 30
0.0
 40
611.25000000000068
 50
8.0239408483380021
 51
8.8221407731618324
  0
ARC
  5
69
  8
PATTERN_FILL
  6
CONTINUOUS
 62
     7
 10
-621.28293552303433
 20
-187.63056571810881
 30
0.0
 40
609.25000000000125
 50
8.6142717200010743
 51
9.6187634073431401
  0
ARC
  5
6A
  8
PATTERN_FILL
  6
CONTINUOUS
 62
     7
 10
-619.71764833695386
 20
-198.1041468380063
 30
0.0
 40
607.25000000000068
 50
9.2971533769213561
 51
10.36476871240389
  0
ARC
  5
6B
  8
PATTERN_FILL
  6
CONTINUOUS
 62
     7
 10
-617.97556692520448
 20
-208.51441485828099
 30
0.0
 40
605.2500000000008
 50
10.328324528457211
 51
11.03198337492865
  0
ARC
  5
6C
  8
PATTERN_FILL
  6
CONTINUOUS
 62
     7
 10
-616.05842266453317
 20
-218.85839964237911
 30
0.0
 40
603.25000000000068
 50
11.36334005440783
 51
11.51522272170144
  0
ARC
  5
6D
  8
PATTERN_FILL
  6
CONTINUOUS
 62
     7
 10
0.0
 20
-92.073851790305724
 30
0.0
 40
27.99999999999995
 50
209.9983814318521
 51
329.98886663311089
  0
ARC
  5
6E
  8
PATTERN_FILL
  6
CONTINUOUS
 62
     7
 10
0.0
 20
-92.073851790305724
 30
0.0
 40
29.999999999999989
 50
224.82798018690019
 51
314.72233700811199
  0
LINE
  5
6F
  8
PATTERN_FILL
  6
CONTINUOUS
 62
     7
 10
0.0
 20
-125.0
 30
0.0
 11
0.0
 21
-119.25
 31
0.0
  0
ARC
  5
70
  8
PATTERN_FILL
  6
CONTINUOUS
 62
     7
 10
0.0
 20
-92.073851790305724
 30
0.0
 40
21.999999999999961
 50
329.64023485831569
 51
338.88264014252798
  0
ARC
  5
71
  8
PATTERN_FILL
  6
CONTINUOUS
 62
     7
 10
0.0
 20
-92.073851790305724
 30
0.0
 40
23.999999999999961
 50
315.1618616228734
 51
340.71567497203489
  0
ARC
  5
72
  8
PATTERN_FILL
  6
CONTINUOUS
 62
     7
 10
0.0
 20
-92.073851790305724
 30
0.0
 40
26.0
 50
296.68463920308199
 51
342.25074867354681
  0
ARC
  5
73
  8
PATTERN_FILL
  6
CONTINUOUS
 62
     7
 10
627.25000000000068
 20
-98.073851790305653
 30
0.0
 40
625.2500000000008
 50
181.92763671291809
 51
182.45525464108201
  0
ARC
  5
74
  8
PATTERN_FILL
  6
CONTINUOUS
 62
     7
 10
627.15511396063755
 20
-87.200988623535423
 30
0.0
 40
623.25000000000068
 50
182.89396081115521
 51
183.4300948982613
  0
ARC
  5
75
  8
PATTERN_FILL
  6
CONTINUOUS
 62
     7
 10
626.8714995841774
 20
-76.369274310362613
 30
0.0
 40
621.2500000000008
 50
183.83559859002131
 51
184.38486037853519
  0
ARC
  5
76
  8
PATTERN_FILL
  6
CONTINUOUS
 62
     7
 10
626.40044573234491
 20
-65.580311361225341
 30
0.0
 40
619.25000000000057
 50
184.7506823196681
 51
185.31967686153851
  0
ARC
  5
77
  8
PATTERN_FILL
  6
CONTINUOUS
 62
     7
 10
625.74330135383389
 20
-54.83609574563836
 30
0.0
 40
617.25000000000045
 50
185.63593549489011
 51
186.23321467673651
  0
ARC
  5
78
  8
PATTERN_FILL
  6
CONTINUOUS
 62
     7
 10
624.90148115807028
 20
-44.139755987219871
 30
0.0
 40
615.25000000000057
 50
186.4856223137445
 51
187.1234932673232
  0
ARC
  5
79
  8
PATTERN_FILL
  6
CONTINUOUS
 62
     7
 10
623.8764552367777
 20
-33.494454777160293
 30
0.0
 40
613.2500000000008
 50
187.28923144092889
 51
187.98805234141
  0
ARC
  5
7A
  8
PATTERN_FILL
  6
CONTINUOUS
 62
     7
 10
622.66974763606004
 20
-22.90331809298436
 30
0.0
 40
611.25000000000068
 50
188.02394084833799
 51
188.82214077316181
  0
ARC
  5
7B
  8
PATTERN_FILL
  6
CONTINUOUS
 62
     7
 10
621.28293552303433
 20
-12.369434281891239
 30
0.0
 40
609.25000000000125
 50
188.61427172000111
 51
189.6187634073431
  0
ARC
  5
7C
  8
PATTERN_FILL
  6
CONTINUOUS
 62
     7
 10
619.71764833695386
 20
-1.8958531619937271
 30
0.0
 40
607.25000000000068
 50
189.29715337692139
 51
190.36476871240399
  0
ARC
  5
7D
  8
PATTERN_FILL
  6
CONTINUOUS
 62
     7
 10
617.97556692520448
 20
8.5144148582810431
 30
0.0
 40
605.2500000000008
 50
190.32832452845719
 51
191.0319833749287
  0
ARC
  5
7E
  8
PATTERN_FILL
  6
CONTINUOUS
 62
     7
 10
616.05842266453317
 20
18.85839964237914
 30
0.0
 40
603.25000000000068
 50
191.36334005440779
 51
191.51522272170141
  0
ARC
  5
7F
  8
PATTERN_FILL
  6
CONTINUOUS
 62
     7
 10
0.0
 20
-92.073851790305724
 30
0.0
 40
31.999999999999989
 50
245.56124532053741
 51
294.4387546794627
  0
ARC
  5
80
  8
PATTERN_FILL
  6
CONTINUOUS
 62
     7
 10
0.0
 20
-92.073851790305724
 30
0.0
 40
21.999999999999972
 50
201.117359857472
 51
210.35976514168451
  0
ARC
  5
81
  8
PATTERN_FILL
  6
CONTINUOUS
 62
     7
 10
0.0
 20
-92.073851790305724
 30
0.0
 40
23.999999999999972
 50
199.28432502796511
 51
224.83813837712651
  0
ARC
  5
82
  8
PATTERN_FILL
  6
CONTINUOUS
 62
     7
 10
0.0
 20
-92.073851790305724
 30
0.0
 40
25.999999999999979
 50
197.74925132645311
 51
243.31536079691799
  0
ARC
  5
83
  8
PATTERN_FILL
  6
CONTINUOUS
 62
     7
 10
-627.25000000000068
 20
-98.073851790305653
 30
0.0
 40
625.2500000000008
 50
357.54474535891802
 51
358.07236328708183
  0
ARC
  5
84
  8
PATTERN_FILL
  6
CONTINUOUS
 62
     7
 10
-627.15511396063755
 20
-87.200988623535423
 30
0.0
 40
623.25000000000068
 50
356.56990510173881
 51
357.10603918884482
  0
ARC
  5
85
  8
PATTERN_FILL
  6
CONTINUOUS
 62
     7
 10
-626.8714995841774
 20
-76.369274310362613
 30
0.0
 40
621.2500000000008
 50
355.61513962146478
 51
356.16440140997872
  0
ARC
  5
86
  8
PATTERN_FILL
  6
CONTINUOUS
 62
     7
 10
-626.40044573234491
 20
-65.580311361225341
 30
0.0
 40
619.25000000000057
 50
354.68032313846152
 51
355.2493176803319
  0
ARC
  5
87
  8
PATTERN_FILL
  6
CONTINUOUS
 62
     7
 10
-625.74330135383389
 20
-54.83609574563836
 30
0.0
 40
617.25000000000045
 50
353.76678532326349
 51
354.36406450510981
  0
ARC
  5
88
  8
PATTERN_FILL
  6
CONTINUOUS
 62
     7
 10
-624.90148115807028
 20
-44.139755987219871
 30
0.0
 40
615.25000000000057
 50
352.87650673267677
 51
353.51437768625539
  0
ARC
  5
89
  8
PATTERN_FILL
  6
CONTINUOUS
 62
     7
 10
-623.8764552367777
 20
-33.494454777160293
 30
0.0
 40
613.2500000000008
 50
352.01194765858997
 51
352.7107685590712
  0
ARC
  5
8A
  8
PATTERN_FILL
  6
CONTINUOUS
 62
     7
 10
-622.66974763606004
 20
-22.90331809298436
 30
0.0
 40
611.25000000000068
 50
351.17785922683811
 51
351.97605915166201
  0
ARC
  5
8B
  8
PATTERN_FILL
  6
CONTINUOUS
 62
     7
 10
-621.28293552303433
 20
-12.369434281891239
 30
0.0
 40
609.25000000000114
 50
350.38123659265682
 51
351.385728279999
  0
ARC
  5
8C
  8
PATTERN_FILL
  6
CONTINUOUS
 62
     7
 10
-619.71764833695386
 20
-1.8958531619937271
 30
0.0
 40
607.25000000000068
 50
349.63523128759613
 51
350.70284662307859
  0
ARC
  5
8D
  8
PATTERN_FILL
  6
CONTINUOUS
 62
     7
 10
-617.97556692520448
 20
8.5144148582810431
 30
0.0
 40
605.2500000000008
 50
348.9680166250713
 51
349.67167547154281
  0
ARC
  5
8E
  8
PATTERN_FILL
  6
CONTINUOUS
 62
     7
 10
-616.05842266453317
 20
18.85839964237914
 30
0.0
 40
603.25000000000068
 50
348.48477727829862
 51
348.63665994559221
  0
ARC
  5
8F
  8
PATTERN_FILL
  6
CONTINUOUS
 62
     7
 10
0.0
 20
221.0
 30
0.0
 40
11.99999999999998
 50
42.124351230594172
 51
137.87564876940391
  0
ARC
  5
90
  8
PATTERN_FILL
  6
CONTINUOUS
 62
     7
 10
0.0
 20
221.0
 30
0.0
 40
13.999999999999989
 50
35.094144276795198
 51
144.9058557232045
  0
ARC
  5
91
  8
PATTERN_FILL
  6
CONTINUOUS
 62
     7
 10
0.0
 20
221.0
 30
0.0
 40
16.000000000000021
 50
30.20241855225245
 51
149.7975814477482
  0
ARC
  5
92
  8
PATTERN_FILL
  6
CONTINUOUS
 62
     7
 10
0.0
 20
221.0
 30
0.0
 40
18.0
 50
26.561699322938878
 51
153.43494882292211
  0
ARC
  5
93
  8
PATTERN_FILL
  6
CONTINUOUS
 62
     7
 10
0.0
 20
221.0
 30
0.0
 40
19.999999999999979
 50
23.731125427057378
 51
156.26887457294339
  0
ARC
  5
94
  8
PATTERN_FILL
  6
CONTINUOUS
 62
     7
 10
0.0
 20
221.0
 30
0.0
 40
21.999999999999972
 50
21.46047018826064
 51
158.53952981173799
  0
ARC
  5
95
  8
PATTERN_FILL
  6
CONTINUOUS
 62
     7
 10
0.0
 20
221.0
 30
0.0
 40
23.999999999999972
 50
19.59509694437584
 51
160.40490305562571
  0
ARC
  5
96
  8
PATTERN_FILL
  6
CONTINUOUS
 62
     7
 10
0.0
 20
221.0
 30
0.0
 40
26.0
 50
18.033510641120849
 51
161.9664893588785
  0
ARC
  5
97
  8
PATTERN_FILL
  6
CONTINUOUS
 62
     7
 10
0.0
 20
221.0
 30
0.0
 40
27.999999999999972
 50
31.73867705312561
 51
148.25510271161659
  0
ARC
  5
98
  8
PATTERN_FILL
  6
CONTINUOUS
 62
     7
 10
0.0
 20
221.0
 30
0.0
 40
29.999999999999989
 50
49.936953190654783
 51
130.06304680934571
  0
LINE
  5
99
  8
PATTERN_FILL
  6
CONTINUOUS
 62
     7
 10
0.0
 20
253.06889486544429
 30
0.0
 11
0.0
 21
229.04890285905071
 31
0.0
  0
ARC
  5
9A
  8
PATTERN_FILL
  6
CONTINUOUS
 62
     7
 10
627.25000000000068
 20
227.00000000000011
 30
0.0
 40
625.25000000000125
 50
177.62228234378679
 51
179.81224518743269
  0
ARC
  5
9B
  8
PATTERN_FILL
  6
CONTINUOUS
 62
     7
 10
627.15511396063755
 20
216.12713683322971
 30
0.0
 40
623.25000000000102
 50
176.64787135243429
 51
178.8120084901951
  0
ARC
  5
9C
  8
PATTERN_FILL
  6
CONTINUOUS
 62
     7
 10
626.87149958417763
 20
205.295422520057
 30
0.0
 40
621.2500000000008
 50
175.6925185254936
 51
177.80876298600049
  0
ARC
  5
9D
  8
PATTERN_FILL
  6
CONTINUOUS
 62
     7
 10
626.40044573234513
 20
194.5064595709197
 30
0.0
 40
619.25000000000068
 50
174.7568967864261
 51
176.802318915803
  0
ARC
  5
9E
  8
PATTERN_FILL
  6
CONTINUOUS
 62
     7
 10
625.743301353834
 20
183.76224395533271
 30
0.0
 40
617.2500000000008
 50
173.84215089977079
 51
175.79251849750759
  0
ARC
  5
9F
  8
PATTERN_FILL
  6
CONTINUOUS
 62
     7
 10
624.90148115807051
 20
173.0659041969142
 30
0.0
 40
615.25000000000068
 50
172.9501261623839
 51
174.77930535910889
  0
ARC
  5
A0
  8
PATTERN_FILL
  6
CONTINUOUS
 62
     7
 10
623.8764552367777
 20
162.42060298685459
 30
0.0
 40
613.2500000000008
 50
172.08355841610469
 51
173.7626235308629
  0
ARC
  5
A1
  8
PATTERN_FILL
  6
CONTINUOUS
 62
     7
 10
622.66974763606026
 20
151.8294663026787
 30
0.0
 40
611.25000000000068
 50
171.24661687742449
 51
172.7424107425291
  0
ARC
  5
A2
  8
PATTERN_FILL
  6
CONTINUOUS
 62
     7
 10
621.28293552303433
 20
141.29558249158549
 30
0.0
 40
609.2500000000008
 50
170.44604891570879
 51
171.7185981453211
  0
ARC
  5
A3
  8
PATTERN_FILL
  6
CONTINUOUS
 62
     7
 10
619.71764833695431
 20
130.82200137168809
 30
0.0
 40
607.25000000000068
 50
169.69395782133449
 51
170.69111000020271
  0
ARC
  5
A4
  8
PATTERN_FILL
  6
CONTINUOUS
 62
     7
 10
617.97556692520448
 20
120.4117333514133
 30
0.0
 40
605.2500000000008
 50
169.0163545526573
 51
169.65986332947989
  0
ARC
  5
A5
  8
PATTERN_FILL
  6
CONTINUOUS
 62
     7
 10
-627.25000000000068
 20
227.00000000000011
 30
0.0
 40
625.25000000000102
 50
0.1877548125672655
 51
2.377717656213254
  0
ARC
  5
A6
  8
PATTERN_FILL
  6
CONTINUOUS
 62
     7
 10
-627.15511396063755
 20
216.12713683322971
 30
0.0
 40
623.25000000000102
 50
1.187991509804905
 51
3.352128647565686
  0
ARC
  5
A7
  8
PATTERN_FILL
  6
CONTINUOUS
 62
     7
 10
-626.87149958417763
 20
205.295422520057
 30
0.0
 40
621.2500000000008
 50
2.1912370139994799
 51
4.3074814745063748
  0
ARC
  5
A8
  8
PATTERN_FILL
  6
CONTINUOUS
 62
     7
 10
-626.40044573234513
 20
194.5064595709197
 30
0.0
 40
619.25000000000068
 50
3.197681084196994
 51
5.243103213573856
  0
ARC
  5
A9
  8
PATTERN_FILL
  6
CONTINUOUS
 62
     7
 10
-625.743301353834
 20
183.76224395533271
 30
0.0
 40
617.2500000000008
 50
4.2074815024923868
 51
6.1578491002291988
  0
ARC
  5
AA
  8
PATTERN_FILL
  6
CONTINUOUS
 62
     7
 10
-624.90148115807051
 20
173.0659041969142
 30
0.0
 40
615.25000000000068
 50
5.2206946408911401
 51
7.049873837616107
  0
ARC
  5
AB
  8
PATTERN_FILL
  6
CONTINUOUS
 62
     7
 10
-623.8764552367777
 20
162.42060298685459
 30
0.0
 40
613.2500000000008
 50
6.2373764691370619
 51
7.9164415838952307
  0
ARC
  5
AC
  8
PATTERN_FILL
  6
CONTINUOUS
 62
     7
 10
-622.66974763606026
 20
151.8294663026787
 30
0.0
 40
611.25000000000068
 50
7.2575892574709089
 51
8.7533831225754888
  0
ARC
  5
AD
  8
PATTERN_FILL
  6
CONTINUOUS
 62
     7
 10
-621.28293552303433
 20
141.29558249158549
 30
0.0
 40
609.2500000000008
 50
8.2814018546788546
 51
9.5539510842911604
  0
ARC
  5
AE
  8
PATTERN_FILL
  6
CONTINUOUS
 62
     7
 10
-619.71764833695431
 20
130.82200137168809
 30
0.0
 40
607.25000000000068
 50
9.3088899997973122
 51
10.306042178665489
  0
ARC
  5
AF
  8
PATTERN_FILL
  6
CONTINUOUS
 62
     7
 10
-617.97556692520448
 20
120.4117333514133
 30
0.0
 40
605.2500000000008
 50
10.34013667052001
 51
10.983645447342751
  0
ARC
  5
B0
  8
PATTERN_FILL
  6
CONTINUOUS
 62
     7
 10
0.0
 20
233.0978057181014
 30
0.0
 40
9.9999999999999911
 50
233.59966096376371
 51
306.40033903623629
  0
ARC
  5
B1
  8
PATTERN_FILL
  6
CONTINUOUS
 62
     7
 10
0.0
 20
233.0978057181014
 30
0.0
 40
12.0
 50
222.12435123059609
 51
317.87564876940581
  0
ARC
  5
B2
  8
PATTERN_FILL
  6
CONTINUOUS
 62
     7
 10
0.0
 20
233.0978057181014
 30
0.0
 40
14.0
 50
215.0941442767955
 51
324.90585572320481
  0
ARC
  5
B3
  8
PATTERN_FILL
  6
CONTINUOUS
 62
     7
 10
0.0
 20
233.0978057181014
 30
0.0
 40
16.0
 50
210.20241855225169
 51
329.79758144774752
  0
ARC
  5
B4
  8
PATTERN_FILL
  6
CONTINUOUS
 62
     7
 10
0.0
 20
233.0978057181014
 30
0.0
 40
18.0
 50
206.56505117707781
 51
333.43830067706119
  0
ARC
  5
B5
  8
PATTERN_FILL
  6
CONTINUOUS
 62
     7
 10
0.0
 20
233.0978057181014
 30
0.0
 40
19.999999999999979
 50
203.73112542705661
 51
336.26887457294259
  0
ARC
  5
B6
  8
PATTERN_FILL
  6
CONTINUOUS
 62
     7
 10
0.0
 20
233.0978057181014
 30
0.0
 40
21.999999999999972
 50
201.46047018826201
 51
338.53952981173938
  0
ARC
  5
B7
  8
PATTERN_FILL
  6
CONTINUOUS
 62
     7
 10
0.0
 20
233.0978057181014
 30
0.0
 40
23.99999999999995
 50
199.59509694437421
 51
340.40490305562412
  0
ARC
  5
B8
  8
PATTERN_FILL
  6
CONTINUOUS
 62
     7
 10
0.0
 20
233.0978057181014
 30
0.0
 40
25.999999999999972
 50
198.03351064112141
 51
247.6619927951929
  0
ARC
  5
B9
  8
PATTERN_FILL
  6
CONTINUOUS
 62
     7
 10
0.0
 20
233.0978057181014
 30
0.0
 40
26.0
 50
292.33800720480701
 51
341.96648935887919
  0
ARC
  5
BA
  8
PATTERN_FILL
  6
CONTINUOUS
 62
     7
 10
0.0
 20
233.0978057181014
 30
0.0
 40
27.999999999999961
 50
211.7448972883833
 51
239.1921111921055
  0
ARC
  5
BB
  8
PATTERN_FILL
  6
CONTINUOUS
 62
     7
 10
0.0
 20
233.0978057181014
 30
0.0
 40
27.99999999999995
 50
300.8078888078943
 51
328.26132294687432
  0
ARC
  5
BC
  8
PATTERN_FILL
  6
CONTINUOUS
 62
     7
 10
0.0
 20
233.0978057181014
 30
0.0
 40
30.0
 50
229.93695319065429
 51
233.28604814697221
  0
ARC
  5
BD
  8
PATTERN_FILL
  6
CONTINUOUS
 62
     7
 10
0.0
 20
233.0978057181014
 30
0.0
 40
30.0
 50
306.71395185302782
 51
310.06304680934522
  0
LINE
  5
BE
  8
PATTERN_FILL
  6
CONTINUOUS
 62
     7
 10
0.0
 20
209.04890285905071
 30
0.0
 11
0.0
 21
225.04890285905071
 31
0.0
  0
ARC
  5
BF
  8
PATTERN_FILL
  6
CONTINUOUS
 62
     7
 10
627.25000000000068
 20
227.0978057181014
 30
0.0
 40
625.2500000000008
 50
180.18775481256731
 51
181.6541697449602
  0
ARC
  5
C0
  8
PATTERN_FILL
  6
CONTINUOUS
 62
     7
 10
627.15511396063755
 20
237.97066888487171
 30
0.0
 40
623.25000000000102
 50
181.18799150980479
 51
182.6597520068936
  0
ARC
  5
C1
  8
PATTERN_FILL
  6
CONTINUOUS
 62
     7
 10
626.87149958417763
 20
248.8023831980444
 30
0.0
 40
621.25000000000102
 50
182.1912370139994
 51
183.66883528374879
  0
ARC
  5
C2
  8
PATTERN_FILL
  6
CONTINUOUS
 62
     7
 10
626.40044573234513
 20
259.5913461471817
 30
0.0
 40
619.25000000000068
 50
183.19768108419689
 51
184.6816206117181
  0
ARC
  5
C3
  8
PATTERN_FILL
  6
CONTINUOUS
 62
     7
 10
625.743301353834
 20
270.33556176276869
 30
0.0
 40
617.2500000000008
 50
184.2074815024923
 51
185.69827826682129
  0
ARC
  5
C4
  8
PATTERN_FILL
  6
CONTINUOUS
 62
     7
 10
624.90148115807051
 20
281.03190152118719
 30
0.0
 40
615.25000000000057
 50
185.22069464089111
 51
186.71887813101441
  0
ARC
  5
C5
  8
PATTERN_FILL
  6
CONTINUOUS
 62
     7
 10
623.8764552367777
 20
291.67720273124678
 30
0.0
 40
613.2500000000008
 50
186.23737646913699
 51
187.74349084927459
  0
ARC
  5
C6
  8
PATTERN_FILL
  6
CONTINUOUS
 62
     7
 10
622.66974763606026
 20
302.26833941542259
 30
0.0
 40
611.25000000000068
 50
187.2575892574709
 51
188.7533831225754
  0
ARC
  5
C7
  8
PATTERN_FILL
  6
CONTINUOUS
 62
     7
 10
621.28293552303433
 20
312.80222322651588
 30
0.0
 40
609.2500000000008
 50
188.28140185467879
 51
189.55395108429121
  0
ARC
  5
C8
  8
PATTERN_FILL
  6
CONTINUOUS
 62
     7
 10
619.71764833695431
 20
323.27580434641328
 30
0.0
 40
607.25000000000068
 50
189.30888999979729
 51
190.30604217866551
  0
ARC
  5
C9
  8
PATTERN_FILL
  6
CONTINUOUS
 62
     7
 10
617.97556692520448
 20
333.68607236668811
 30
0.0
 40
605.2500000000008
 50
190.34013667051991
 51
190.9836454473427
  0
ARC
  5
CA
  8
PATTERN_FILL
  6
CONTINUOUS
 62
     7
 10
616.05842266453351
 20
344.03005715078621
 30
0.0
 40
603.25000000000068
 50
191.3752324718011
 51
191.49880199687439
  0
ARC
  5
CB
  8
PATTERN_FILL
  6
CONTINUOUS
 62
     7
 10
-627.25000000000068
 20
227.0978057181014
 30
0.0
 40
625.25000000000125
 50
358.34583025504003
 51
359.81224518743272
  0
ARC
  5
CC
  8
PATTERN_FILL
  6
CONTINUOUS
 62
     7
 10
-627.15511396063755
 20
237.97066888487171
 30
0.0
 40
623.25000000000102
 50
357.340247993106
 51
358.8120084901953
  0
ARC
  5
CD
  8
PATTERN_FILL
  6
CONTINUOUS
 62
     7
 10
-626.87149958417763
 20
248.8023831980444
 30
0.0
 40
621.2500000000008
 50
356.33116471625101
 51
357.80876298600037
  0
ARC
  5
CE
  8
PATTERN_FILL
  6
CONTINUOUS
 62
     7
 10
-626.40044573234513
 20
259.5913461471817
 30
0.0
 40
619.25000000000068
 50
355.31837938827618
 51
356.8023189158032
  0
ARC
  5
CF
  8
PATTERN_FILL
  6
CONTINUOUS
 62
     7
 10
-625.743301353834
 20
270.33556176276869
 30
0.0
 40
617.2500000000008
 50
354.30172173317879
 51
355.79251849750727
  0
ARC
  5
D0
  8
PATTERN_FILL
  6
CONTINUOUS
 62
     7
 10
-624.90148115807051
 20
281.03190152118719
 30
0.0
 40
615.25000000000068
 50
353.28112186898028
 51
354.77930535910878
  0
ARC
  5
D1
  8
PATTERN_FILL
  6
CONTINUOUS
 62
     7
 10
-623.8764552367777
 20
291.67720273124678
 30
0.0
 40
613.2500000000008
 50
352.25650915072691
 51
353.76262353086258
  0
ARC
  5
D2
  8
PATTERN_FILL
  6
CONTINUOUS
 62
     7
 10
-622.66974763606026
 20
302.26833941542259
 30
0.0
 40
611.25000000000068
 50
351.24661687742457
 51
352.74241074252922
  0
ARC
  5
D3
  8
PATTERN_FILL
  6
CONTINUOUS
 62
     7
 10
-621.28293552303433
 20
312.80222322651588
 30
0.0
 40
609.2500000000008
 50
350.44604891570879
 51
351.71859814532121
  0
ARC
  5
D4
  8
PATTERN_FILL
  6
CONTINUOUS
 62
     7
 10
-619.71764833695431
 20
323.27580434641328
 30
0.0
 40
607.25000000000068
 50
349.69395782133449
 51
350.69111000020263
  0
ARC
  5
D5
  8
PATTERN_FILL
  6
CONTINUOUS
 62
     7
 10
-617.97556692520448
 20
333.68607236668811
 30
0.0
 40
605.2500000000008
 50
349.01635455265722
 51
349.65986332948
  0
ARC
  5
D6
  8
PATTERN_FILL
  6
CONTINUOUS
 62
     7
 10
-616.05842266453351
 20
344.03005715078621
 30
0.0
 40
603.25000000000068
 50
348.50119800312558
 51
348.6247675281989
  0
ARC
  5
D7
  8
PATTERN_FILL
  6
CONTINUOUS
 62
     7
 10
0.0
 20
221.0
 30
0.0
 40
9.9999999999999911
 50
53.599660963763732
 51
126.4003390362363
  0
ARC
  5
D8
  8
PATTERN_FILL
  6
CONTINUOUS
 62
     7
 10
616.05842266453351
 20
110.06774856731521
 30
0.0
 40
603.25000000000068
 50
168.50119800312569
 51
168.6247675281989
  0
ARC
  5
D9
  8
PATTERN_FILL
  6
CONTINUOUS
 62
     7
 10
-616.05842266453351
 20
110.06774856731521
 30
0.0
 40
603.25000000000068
 50
11.37523247180108
 51
11.498801996874329
  0
ARC
  5
DA
  8
PATTERN_FILL
  6
CONTINUOUS
 62
     7
 10
120.0
 20
221.0
 30
0.0
 40
11.99999999999998
 50
42.124351230594172
 51
137.87564876940391
  0
ARC
  5
DB
  8
PATTERN_FILL
  6
CONTINUOUS
 62
     7
 10
120.0
 20
221.0
 30
0.0
 40
13.999999999999989
 50
35.094144276795198
 51
144.9058557232045
  0
ARC
  5
DC
  8
PATTERN_FILL
  6
CONTINUOUS
 62
     7
 10
120.0
 20
221.0
 30
0.0
 40
16.000000000000021
 50
30.20241855225245
 51
149.7975814477482
  0
ARC
  5
DD
  8
PATTERN_FILL
  6
CONTINUOUS
 62
     7
 10
120.0
 20
221.0
 30
0.0
 40
18.0
 50
26.561699322938878
 51
153.43494882292211
  0
ARC
  5
DE
  8
PATTERN_FILL
  6
CONTINUOUS
 62
     7
 10
120.0
 20
221.0
 30
0.0
 40
19.999999999999979
 50
23.731125427057378
 51
156.26887457294339
  0
ARC
  5
DF
  8
PATTERN_FILL
  6
CONTINUOUS
 62
     7
 10
120.0
 20
221.0
 30
0.0
 40
21.999999999999972
 50
21.46047018826064
 51
158.53952981173799
  0
ARC
  5
E0
  8
PATTERN_FILL
  6
CONTINUOUS
 62
     7
 10
120.0
 20
221.0
 30
0.0
 40
23.999999999999972
 50
19.59509694437584
 51
160.40490305562571
  0
ARC
  5
E1
  8
PATTERN_FILL
  6
CONTINUOUS
 62
     7
 10
120.0
 20
221.0
 30
0.0
 40
26.0
 50
18.033510641120849
 51
161.9664893588785
  0
ARC
  5
E2
  8
PATTERN_FILL
  6
CONTINUOUS
 62
     7
 10
120.0
 20
221.0
 30
0.0
 40
27.999999999999972
 50
31.73867705312561
 51
148.25510271161659
  0
ARC
  5
E3
  8
PATTERN_FILL
  6
CONTINUOUS
 62
     7
 10
120.0
 20
221.0
 30
0.0
 40
29.999999999999989
 50
49.936953190654783
 51
130.06304680934571
  0
LINE
  5
E4
  8
PATTERN_FILL
  6
CONTINUOUS
 62
     7
 10
120.0
 20
253.06889486544429
 30
0.0
 11
120.0
 21
229.04890285905071
 31
0.0
  0
ARC
  5
E5
  8
PATTERN_FILL
  6
CONTINUOUS
 62
     7
 10
747.25000000000102
 20
227.00000000000011
 30
0.0
 40
625.25000000000125
 50
177.62228234378679
 51
179.81224518743269
  0
ARC
  5
E6
  8
PATTERN_FILL
  6
CONTINUOUS
 62
     7
 10
747.15511396063755
 20
216.12713683322971
 30
0.0
 40
623.25000000000102
 50
176.64787135243429
 51
178.8120084901951
  0
ARC
  5
E7
  8
PATTERN_FILL
  6
CONTINUOUS
 62
     7
 10
746.87149958417751
 20
205.295422520057
 30
0.0
 40
621.2500000000008
 50
175.6925185254936
 51
177.80876298600049
  0
ARC
  5
E8
  8
PATTERN_FILL
  6
CONTINUOUS
 62
     7
 10
746.40044573234513
 20
194.5064595709197
 30
0.0
 40
619.25000000000068
 50
174.7568967864261
 51
176.802318915803
  0
ARC
  5
E9
  8
PATTERN_FILL
  6
CONTINUOUS
 62
     7
 10
745.74330135383411
 20
183.76224395533271
 30
0.0
 40
617.2500000000008
 50
173.84215089977079
 51
175.79251849750759
  0
ARC
  5
EA
  8
PATTERN_FILL
  6
CONTINUOUS
 62
     7
 10
744.9014811580704
 20
173.0659041969142
 30
0.0
 40
615.25000000000068
 50
172.9501261623839
 51
174.77930535910889
  0
ARC
  5
EB
  8
PATTERN_FILL
  6
CONTINUOUS
 62
     7
 10
743.87645523677782
 20
162.42060298685459
 30
0.0
 40
613.2500000000008
 50
172.08355841610469
 51
173.7626235308629
  0
ARC
  5
EC
  8
PATTERN_FILL
  6
CONTINUOUS
 62
     7
 10
742.66974763606015
 20
151.8294663026787
 30
0.0
 40
611.25000000000068
 50
171.24661687742449
 51
172.7424107425291
  0
ARC
  5
ED
  8
PATTERN_FILL
  6
CONTINUOUS
 62
     7
 10
741.28293552303421
 20
141.29558249158549
 30
0.0
 40
609.2500000000008
 50
170.44604891570879
 51
171.7185981453211
  0
ARC
  5
EE
  8
PATTERN_FILL
  6
CONTINUOUS
 62
     7
 10
739.71764833695408
 20
130.82200137168809
 30
0.0
 40
607.25000000000068
 50
169.69395782133449
 51
170.69111000020271
  0
ARC
  5
EF
  8
PATTERN_FILL
  6
CONTINUOUS
 62
     7
 10
737.97556692520448
 20
120.4117333514133
 30
0.0
 40
605.2500000000008
 50
169.0163545526573
 51
169.65986332947989
  0
ARC
  5
F0
  8
PATTERN_FILL
  6
CONTINUOUS
 62
     7
 10
-507.25000000000091
 20
227.00000000000011
 30
0.0
 40
625.25000000000102
 50
0.1877548125672655
 51
2.377717656213254
  0
ARC
  5
F1
  8
PATTERN_FILL
  6
CONTINUOUS
 62
     7
 10
-507.15511396063738
 20
216.12713683322971
 30
0.0
 40
623.25000000000102
 50
1.187991509804905
 51
3.352128647565686
  0
ARC
  5
F2
  8
PATTERN_FILL
  6
CONTINUOUS
 62
     7
 10
-506.87149958417763
 20
205.295422520057
 30
0.0
 40
621.2500000000008
 50
2.1912370139994799
 51
4.3074814745063748
  0
ARC
  5
F3
  8
PATTERN_FILL
  6
CONTINUOUS
 62
     7
 10
-506.40044573234508
 20
194.5064595709197
 30
0.0
 40
619.25000000000068
 50
3.197681084196994
 51
5.243103213573856
  0
ARC
  5
F4
  8
PATTERN_FILL
  6
CONTINUOUS
 62
     7
 10
-505.74330135383411
 20
183.76224395533271
 30
0.0
 40
617.2500000000008
 50
4.2074815024923868
 51
6.1578491002291988
  0
ARC
  5
F5
  8
PATTERN_FILL
  6
CONTINUOUS
 62
     7
 10
-504.90148115807051
 20
173.0659041969142
 30
0.0
 40
615.25000000000068
 50
5.2206946408911401
 51
7.049873837616107
  0
ARC
  5
F6
  8
PATTERN_FILL
  6
CONTINUOUS
 62
     7
 10
-503.87645523677759
 20
162.42060298685459
 30
0.0
 40
613.2500000000008
 50
6.2373764691370619
 51
7.9164415838952307
  0
ARC
  5
F7
  8
PATTERN_FILL
  6
CONTINUOUS
 62
     7
 10
-502.66974763606021
 20
151.8294663026787
 30
0.0
 40
611.25000000000068
 50
7.2575892574709089
 51
8.7533831225754888
  0
ARC
  5
F8
  8
PATTERN_FILL
  6
CONTINUOUS
 62
     7
 10
-501.28293552303421
 20
141.29558249158549
 30
0.0
 40
609.2500000000008
 50
8.2814018546788546
 51
9.5539510842911604
  0
ARC
  5
F9
  8
PATTERN_FILL
  6
CONTINUOUS
 62
     7
 10
-499.71764833695443
 20
130.82200137168809
 30
0.0
 40
607.25000000000068
 50
9.3088899997973122
 51
10.306042178665489
  0
ARC
  5
FA
  8
PATTERN_FILL
  6
CONTINUOUS
 62
     7
 10
-497.97556692520442
 20
120.4117333514133
 30
0.0
 40
605.2500000000008
 50
10.34013667052001
 51
10.983645447342751
  0
ARC
  5
FB
  8
PATTERN_FILL
  6
CONTINUOUS
 62
     7
 10
120.0
 20
233.0978057181014
 30
0.0
 40
12.0
 50
222.12435123059609
 51
317.87564876940581
  0
ARC
  5
FC
  8
PATTERN_FILL
  6
CONTINUOUS
 62
     7
 10
120.0
 20
233.0978057181014
 30
0.0
 40
14.0
 50
215.0941442767955
 51
324.90585572320481
  0
ARC
  5
FD
  8
PATTERN_FILL
  6
CONTINUOUS
 62
     7
 10
120.0
 20
233.0978057181014
 30
0.0
 40
16.0
 50
210.20241855225169
 51
329.79758144774752
  0
ARC
  5
FE
  8
PATTERN_FILL
  6
CONTINUOUS
 62
     7
 10
120.0
 20
233.0978057181014
 30
0.0
 40
18.0
 50
206.56505117707781
 51
333.43830067706119
  0
ARC
  5
FF
  8
PATTERN_FILL
  6
CONTINUOUS
 62
     7
 10
120.0
 20
233.0978057181014
 30
0.0
 40
19.999999999999979
 50
203.73112542705661
 51
336.26887457294259
  0
ARC
  5
100
  8
PATTERN_FILL
  6
CONTINUOUS
 62
     7
 10
120.0
 20
233.0978057181014
 30
0.0
 40
21.999999999999972
 50
201.46047018826201
 51
338.53952981173938
  0
ARC
  5
101
  8
PATTERN_FILL
  6
CONTINUOUS
 62
     7
 10
120.0
 20
233.0978057181014
 30
0.0
 40
23.99999999999995
 50
199.59509694437421
 51
340.40490305562412
  0
ARC
  5
102
  8
PATTERN_FILL
  6
CONTINUOUS
 62
     7
 10
120.0
 20
233.0978057181014
 30
0.0
 40
25.999999999999972
 50
198.03351064112141
 51
247.6619927951929
  0
ARC
  5
103
  8
PATTERN_FILL
  6
CONTINUOUS
 62
     7
 10
120.0
 20
233.0978057181014
 30
0.0
 40
26.0
 50
292.33800720480701
 51
341.96648935887919
  0
ARC
  5
104
  8
PATTERN_FILL
  6
CONTINUOUS
 62
     7
 10
120.0
 20
233.0978057181014
 30
0.0
 40
27.999999999999961
 50
211.7448972883833
 51
239.1921111921055
  0
ARC
  5
105
  8
PATTERN_FILL
  6
CONTINUOUS
 62
     7
 10
120.0
 20
233.0978057181014
 30
0.0
 40
27.99999999999995
 50
300.8078888078943
 51
328.26132294687432
  0
ARC
  5
106
  8
PATTERN_FILL
  6
CONTINUOUS
 62
     7
 10
120.0
 20
233.0978057181014
 30
0.0
 40
30.0
 50
229.93695319065429
 51
233.28604814697221
  0
ARC
  5
107
  8
PATTERN_FILL
  6
CONTINUOUS
 62
     7
 10
120.0
 20
233.0978057181014
 30
0.0
 40
30.0
 50
306.71395185302782
 51
310.06304680934522
  0
LINE
  5
108
  8
PATTERN_FILL
  6
CONTINUOUS
 62
     7
 10
120.0
 20
209.04890285905071
 30
0.0
 11
120.0
 21
225.04890285905071
 31
0.0
  0
ARC
  5
109
  8
PATTERN_FILL
  6
CONTINUOUS
 62
     7
 10
747.25000000000102
 20
227.0978057181014
 30
0.0
 40
625.2500000000008
 50
180.18775481256731
 51
181.6541697449602
  0
ARC
  5
10A
  8
PATTERN_FILL
  6
CONTINUOUS
 62
     7
 10
747.15511396063755
 20
237.97066888487171
 30
0.0
 40
623.25000000000102
 50
181.18799150980479
 51
182.6597520068936
  0
ARC
  5
10B
  8
PATTERN_FILL
  6
CONTINUOUS
 62
     7
 10
746.87149958417751
 20
248.8023831980444
 30
0.0
 40
621.25000000000102
 50
182.1912370139994
 51
183.66883528374879
  0
ARC
  5
10C
  8
PATTERN_FILL
  6
CONTINUOUS
 62
     7
 10
746.40044573234513
 20
259.5913461471817
 30
0.0
 40
619.25000000000068
 50
183.19768108419689
 51
184.6816206117181
  0
ARC
  5
10D
  8
PATTERN_FILL
  6
CONTINUOUS
 62
     7
 10
745.74330135383411
 20
270.33556176276869
 30
0.0
 40
617.2500000000008
 50
184.2074815024923
 51
185.69827826682129
  0
ARC
  5
10E
  8
PATTERN_FILL
  6
CONTINUOUS
 62
     7
 10
744.9014811580704
 20
281.03190152118719
 30
0.0
 40
615.25000000000057
 50
185.22069464089111
 51
186.71887813101441
  0
ARC
  5
10F
  8
PATTERN_FILL
  6
CONTINUOUS
 62
     7
 10
743.87645523677782
 20
291.67720273124678
 30
0.0
 40
613.2500000000008
 50
186.23737646913699
 51
187.74349084927459
  0
ARC
  5
110
  8
PATTERN_FILL
  6
CONTINUOUS
 62
     7
 10
742.66974763606015
 20
302.26833941542259
 30
0.0
 40
611.25000000000068
 50
187.2575892574709
 51
188.7533831225754
  0
ARC
  5
111
  8
PATTERN_FILL
  6
CONTINUOUS
 62
     7
 10
741.28293552303421
 20
312.80222322651588
 30
0.0
 40
609.2500000000008
 50
188.28140185467879
 51
189.55395108429121
  0
ARC
  5
112
  8
PATTERN_FILL
  6
CONTINUOUS
 62
     7
 10
739.71764833695408
 20
323.27580434641328
 30
0.0
 40
607.25000000000068
 50
189.30888999979729
 51
190.30604217866551
  0
ARC
  5
113
  8
PATTERN_FILL
  6
CONTINUOUS
 62
     7
 10
737.97556692520448
 20
333.68607236668811
 30
0.0
 40
605.2500000000008
 50
190.34013667051991
 51
190.9836454473427
  0
ARC
  5
114
  8
PATTERN_FILL
  6
CONTINUOUS
 62
     7
 10
-507.25000000000091
 20
227.0978057181014
 30
0.0
 40
625.25000000000125
 50
358.34583025504003
 51
359.81224518743272
  0
ARC
  5
115
  8
PATTERN_FILL
  6
CONTINUOUS
 62
     7
 10
-507.15511396063738
 20
237.97066888487171
 30
0.0
 40
623.25000000000102
 50
357.340247993106
 51
358.8120084901953
  0
ARC
  5
116
  8
PATTERN_FILL
  6
CONTINUOUS
 62
     7
 10
-506.87149958417763
 20
248.8023831980444
 30
0.0
 40
621.2500000000008
 50
356.33116471625101
 51
357.80876298600037
  0
ARC
  5
117
  8
PATTERN_FILL
  6
CONTINUOUS
 62
     7
 10
-506.40044573234508
 20
259.5913461471817
 30
0.0
 40
619.25000000000068
 50
355.31837938827618
 51
356.8023189158032
  0
ARC
  5
118
  8
PATTERN_FILL
  6
CONTINUOUS
 62
     7
 10
-505.74330135383411
 20
270.33556176276869
 30
0.0
 40
617.2500000000008
 50
354.30172173317879
 51
355.79251849750727
  0
ARC
  5
119
  8
PATTERN_FILL
  6
CONTINUOUS
 62
     7
 10
-504.90148115807051
 20
281.03190152118719
 30
0.0
 40
615.25000000000068
 50
353.28112186898028
 51
354.77930535910878
  0
ARC
  5
11A
  8
PATTERN_FILL
  6
CONTINUOUS
 62
     7
 10
-503.87645523677759
 20
291.67720273124678
 30
0.0
 40
613.2500000000008
 50
352.25650915072691
 51
353.76262353086258
  0
ARC
  5
11B
  8
PATTERN_FILL
  6
CONTINUOUS
 62
     7
 10
-502.66974763606021
 20
302.26833941542259
 30
0.0
 40
611.25000000000068
 50
351.24661687742457
 51
352.74241074252922
  0
ARC
  5
11C
  8
PATTERN_FILL
  6
CONTINUOUS
 62
     7
 10
-501.28293552303421
 20
312.80222322651588
 30
0.0
 40
609.2500000000008
 50
350.44604891570879
 51
351.71859814532121
  0
ARC
  5
11D
  8
PATTERN_FILL
  6
CONTINUOUS
 62
     7
 10
-499.71764833695443
 20
323.27580434641328
 30
0.0
 40
607.25000000000068
 50
349.69395782133449
 51
350.69111000020263
  0
ARC
  5
11E
  8
PATTERN_FILL
  6
CONTINUOUS
 62
     7
 10
-497.97556692520442
 20
333.68607236668811
 30
0.0
 40
605.2500000000008
 50
349.01635455265722
 51
349.65986332948
  0
ARC
  5
11F
  8
PATTERN_FILL
  6
CONTINUOUS
 62
     7
 10
120.0
 20
221.0
 30
0.0
 40
9.9999999999999911
 50
53.599660963763732
 51
126.4003390362363
  0
ARC
  5
120
  8
PATTERN_FILL
  6
CONTINUOUS
 62
     7
 10
120.0
 20
233.0978057181014
 30
0.0
 40
9.9999999999999911
 50
233.59966096376371
 51
306.40033903623629
  0
ARC
  5
121
  8
PATTERN_FILL
  6
CONTINUOUS
 62
     7
 10
736.05842266453351
 20
110.06774856731521
 30
0.0
 40
603.25000000000068
 50
168.50119800312569
 51
168.6247675281989
  0
ARC
  5
122
  8
PATTERN_FILL
  6
CONTINUOUS
 62
     7
 10
-496.05842266453362
 20
110.06774856731521
 30
0.0
 40
603.25000000000068
 50
11.37523247180108
 51
11.498801996874329
  0
ARC
  5
123
  8
PATTERN_FILL
  6
CONTINUOUS
 62
     7
 10
736.05842266453351
 20
344.03005715078621
 30
0.0
 40
603.25000000000068
 50
191.3752324718011
 51
191.49880199687439
  0
ARC
  5
124
  8
PATTERN_FILL
  6
CONTINUOUS
 62
     7
 10
-496.05842266453362
 20
344.03005715078621
 30
0.0
 40
603.25000000000068
 50
348.50119800312558
 51
348.6247675281989
  0
ARC
  5
125
  8
PATTERN_FILL
  6
CONTINUOUS
 62
     7
 10
240.0
 20
221.0
 30
0.0
 40
9.9999999999999911
 50
53.599660963763732
 51
126.4003390362363
  0
ARC
  5
126
  8
PATTERN_FILL
  6
CONTINUOUS
 62
     7
 10
240.0
 20
221.0
 30
0.0
 40
11.99999999999998
 50
42.124351230594172
 51
137.87564876940391
  0
ARC
  5
127
  8
PATTERN_FILL
  6
CONTINUOUS
 62
     7
 10
240.0
 20
221.0
 30
0.0
 40
13.999999999999989
 50
35.094144276795198
 51
144.9058557232045
  0
ARC
  5
128
  8
PATTERN_FILL
  6
CONTINUOUS
 62
     7
 10
240.0
 20
221.0
 30
0.0
 40
16.000000000000021
 50
30.20241855225245
 51
149.7975814477482
  0
ARC
  5
129
  8
PATTERN_FILL
  6
CONTINUOUS
 62
     7
 10
240.0
 20
221.0
 30
0.0
 40
18.0
 50
26.561699322938878
 51
153.43494882292211
  0
ARC
  5
12A
  8
PATTERN_FILL
  6
CONTINUOUS
 62
     7
 10
240.0
 20
221.0
 30
0.0
 40
19.999999999999979
 50
23.731125427057378
 51
156.26887457294339
  0
ARC
  5
12B
  8
PATTERN_FILL
  6
CONTINUOUS
 62
     7
 10
240.0
 20
221.0
 30
0.0
 40
21.999999999999972
 50
21.46047018826064
 51
158.53952981173799
  0
ARC
  5
12C
  8
PATTERN_FILL
  6
CONTINUOUS
 62
     7
 10
240.0
 20
221.0
 30
0.0
 40
23.999999999999972
 50
19.59509694437584
 51
160.40490305562571
  0
ARC
  5
12D
  8
PATTERN_FILL
  6
CONTINUOUS
 62
     7
 10
240.0
 20
221.0
 30
0.0
 40
26.000000000000011
 50
18.033510641120831
 51
161.96648935887859
  0
ARC
  5
12E
  8
PATTERN_FILL
  6
CONTINUOUS
 62
     7
 10
240.0
 20
221.0
 30
0.0
 40
27.999999999999972
 50
31.73867705312561
 51
148.25510271161659
  0
ARC
  5
12F
  8
PATTERN_FILL
  6
CONTINUOUS
 62
     7
 10
240.0
 20
221.0
 30
0.0
 40
29.999999999999989
 50
49.936953190654783
 51
130.06304680934571
  0
LINE
  5
130
  8
PATTERN_FILL
  6
CONTINUOUS
 62
     7
 10
240.0
 20
253.06889486544429
 30
0.0
 11
240.0
 21
229.04890285905071
 31
0.0
  0
ARC
  5
131
  8
PATTERN_FILL
  6
CONTINUOUS
 62
     7
 10
867.25000000000102
 20
227.00000000000011
 30
0.0
 40
625.25000000000125
 50
177.62228234378679
 51
179.81224518743269
  0
ARC
  5
132
  8
PATTERN_FILL
  6
CONTINUOUS
 62
     7
 10
867.15511396063755
 20
216.12713683322971
 30
0.0
 40
623.25000000000102
 50
176.64787135243429
 51
178.8120084901951
  0
ARC
  5
133
  8
PATTERN_FILL
  6
CONTINUOUS
 62
     7
 10
866.8714995841774
 20
205.295422520057
 30
0.0
 40
621.2500000000008
 50
175.6925185254936
 51
177.80876298600049
  0
ARC
  5
134
  8
PATTERN_FILL
  6
CONTINUOUS
 62
     7
 10
866.40044573234525
 20
194.5064595709197
 30
0.0
 40
619.25000000000068
 50
174.7568967864261
 51
176.802318915803
  0
ARC
  5
135
  8
PATTERN_FILL
  6
CONTINUOUS
 62
     7
 10
865.74330135383411
 20
183.76224395533271
 30
0.0
 40
617.2500000000008
 50
173.84215089977079
 51
175.79251849750759
  0
ARC
  5
136
  8
PATTERN_FILL
  6
CONTINUOUS
 62
     7
 10
864.90148115807051
 20
173.0659041969142
 30
0.0
 40
615.25000000000068
 50
172.9501261623839
 51
174.77930535910889
  0
ARC
  5
137
  8
PATTERN_FILL
  6
CONTINUOUS
 62
     7
 10
863.87645523677782
 20
162.42060298685459
 30
0.0
 40
613.2500000000008
 50
172.08355841610469
 51
173.7626235308629
  0
ARC
  5
138
  8
PATTERN_FILL
  6
CONTINUOUS
 62
     7
 10
862.66974763606015
 20
151.8294663026787
 30
0.0
 40
611.25000000000068
 50
171.24661687742449
 51
172.7424107425291
  0
ARC
  5
139
  8
PATTERN_FILL
  6
CONTINUOUS
 62
     7
 10
861.28293552303421
 20
141.29558249158549
 30
0.0
 40
609.2500000000008
 50
170.44604891570879
 51
171.7185981453211
  0
ARC
  5
13A
  8
PATTERN_FILL
  6
CONTINUOUS
 62
     7
 10
859.7176483369542
 20
130.82200137168809
 30
0.0
 40
607.25000000000068
 50
169.69395782133449
 51
170.69111000020271
  0
ARC
  5
13B
  8
PATTERN_FILL
  6
CONTINUOUS
 62
     7
 10
857.97556692520436
 20
120.4117333514133
 30
0.0
 40
605.2500000000008
 50
169.0163545526573
 51
169.65986332947989
  0
ARC
  5
13C
  8
PATTERN_FILL
  6
CONTINUOUS
 62
     7
 10
856.05842266453351
 20
110.06774856731521
 30
0.0
 40
603.25000000000068
 50
168.50119800312569
 51
168.6247675281989
  0
ARC
  5
13D
  8
PATTERN_FILL
  6
CONTINUOUS
 62
     7
 10
-387.25000000000091
 20
227.00000000000011
 30
0.0
 40
625.25000000000102
 50
0.1877548125672655
 51
2.377717656213254
  0
ARC
  5
13E
  8
PATTERN_FILL
  6
CONTINUOUS
 62
     7
 10
-387.15511396063749
 20
216.12713683322971
 30
0.0
 40
623.25000000000102
 50
1.187991509804905
 51
3.352128647565686
  0
ARC
  5
13F
  8
PATTERN_FILL
  6
CONTINUOUS
 62
     7
 10
-386.87149958417768
 20
205.295422520057
 30
0.0
 40
621.2500000000008
 50
2.1912370139994799
 51
4.3074814745063748
  0
ARC
  5
140
  8
PATTERN_FILL
  6
CONTINUOUS
 62
     7
 10
-386.40044573234519
 20
194.5064595709197
 30
0.0
 40
619.25000000000068
 50
3.197681084196994
 51
5.243103213573856
  0
ARC
  5
141
  8
PATTERN_FILL
  6
CONTINUOUS
 62
     7
 10
-385.74330135383423
 20
183.76224395533271
 30
0.0
 40
617.2500000000008
 50
4.2074815024923868
 51
6.1578491002291988
  0
ARC
  5
142
  8
PATTERN_FILL
  6
CONTINUOUS
 62
     7
 10
-384.90148115807051
 20
173.0659041969142
 30
0.0
 40
615.25000000000068
 50
5.2206946408911401
 51
7.049873837616107
  0
ARC
  5
143
  8
PATTERN_FILL
  6
CONTINUOUS
 62
     7
 10
-383.8764552367777
 20
162.42060298685459
 30
0.0
 40
613.2500000000008
 50
6.2373764691370619
 51
7.9164415838952307
  0
ARC
  5
144
  8
PATTERN_FILL
  6
CONTINUOUS
 62
     7
 10
-382.66974763606032
 20
151.8294663026787
 30
0.0
 40
611.25000000000068
 50
7.2575892574709089
 51
8.7533831225754888
  0
ARC
  5
145
  8
PATTERN_FILL
  6
CONTINUOUS
 62
     7
 10
-381.28293552303433
 20
141.29558249158549
 30
0.0
 40
609.2500000000008
 50
8.2814018546788546
 51
9.5539510842911604
  0
ARC
  5
146
  8
PATTERN_FILL
  6
CONTINUOUS
 62
     7
 10
-379.71764833695443
 20
130.82200137168809
 30
0.0
 40
607.25000000000068
 50
9.3088899997973122
 51
10.306042178665489
  0
ARC
  5
147
  8
PATTERN_FILL
  6
CONTINUOUS
 62
     7
 10
-377.97556692520448
 20
120.4117333514133
 30
0.0
 40
605.2500000000008
 50
10.34013667052001
 51
10.983645447342751
  0
ARC
  5
148
  8
PATTERN_FILL
  6
CONTINUOUS
 62
     7
 10
-376.05842266453362
 20
110.06774856731521
 30
0.0
 40
603.25000000000068
 50
11.37523247180108
 51
11.498801996874329
  0
ARC
  5
149
  8
PATTERN_FILL
  6
CONTINUOUS
 62
     7
 10
240.0
 20
233.0978057181014
 30
0.0
 40
9.9999999999999911
 50
233.59966096376371
 51
306.40033903623629
  0
ARC
  5
14A
  8
PATTERN_FILL
  6
CONTINUOUS
 62
     7
 10
240.0
 20
233.0978057181014
 30
0.0
 40
12.0
 50
222.12435123059609
 51
317.87564876940581
  0
ARC
  5
14B
  8
PATTERN_FILL
  6
CONTINUOUS
 62
     7
 10
240.0
 20
233.0978057181014
 30
0.0
 40
14.0
 50
215.0941442767955
 51
324.90585572320481
  0
ARC
  5
14C
  8
PATTERN_FILL
  6
CONTINUOUS
 62
     7
 10
240.0
 20
233.0978057181014
 30
0.0
 40
16.0
 50
210.20241855225169
 51
329.79758144774752
  0
ARC
  5
14D
  8
PATTERN_FILL
  6
CONTINUOUS
 62
     7
 10
240.0
 20
233.0978057181014
 30
0.0
 40
18.0
 50
206.56505117707781
 51
333.43830067706119
  0
ARC
  5
14E
  8
PATTERN_FILL
  6
CONTINUOUS
 62
     7
 10
240.0
 20
233.0978057181014
 30
0.0
 40
19.999999999999979
 50
203.73112542705661
 51
336.26887457294259
  0
ARC
  5
14F
  8
PATTERN_FILL
  6
CONTINUOUS
 62
     7
 10
240.0
 20
233.0978057181014
 30
0.0
 40
21.999999999999972
 50
201.46047018826201
 51
338.53952981173938
  0
ARC
  5
150
  8
PATTERN_FILL
  6
CONTINUOUS
 62
     7
 10
240.0
 20
233.0978057181014
 30
0.0
 40
23.99999999999995
 50
199.59509694437421
 51
340.40490305562412
  0
ARC
  5
151
  8
PATTERN_FILL
  6
CONTINUOUS
 62
     7
 10
240.0
 20
233.0978057181014
 30
0.0
 40
25.999999999999972
 50
198.03351064112141
 51
247.6619927951929
  0
ARC
  5
152
  8
PATTERN_FILL
  6
CONTINUOUS
 62
     7
 10
240.0
 20
233.0978057181014
 30
0.0
 40
26.0
 50
292.33800720480701
 51
341.96648935887919
  0
ARC
  5
153
  8
PATTERN_FILL
  6
CONTINUOUS
 62
     7
 10
240.0
 20
233.0978057181014
 30
0.0
 40
27.999999999999961
 50
211.7448972883833
 51
239.1921111921055
  0
ARC
  5
154
  8
PATTERN_FILL
  6
CONTINUOUS
 62
     7
 10
240.0
 20
233.0978057181014
 30
0.0
 40
27.99999999999995
 50
300.8078888078943
 51
328.26132294687432
  0
ARC
  5
155
  8
PATTERN_FILL
  6
CONTINUOUS
 62
     7
 10
240.0
 20
233.0978057181014
 30
0.0
 40
30.0
 50
229.93695319065429
 51
233.28604814697221
  0
ARC
  5
156
  8
PATTERN_FILL
  6
CONTINUOUS
 62
     7
 10
240.0
 20
233.0978057181014
 30
0.0
 40
30.0
 50
306.71395185302782
 51
310.06304680934522
  0
LINE
  5
157
  8
PATTERN_FILL
  6
CONTINUOUS
 62
     7
 10
240.0
 20
209.04890285905071
 30
0.0
 11
240.0
 21
225.04890285905071
 31
0.0
  0
ARC
  5
158
  8
PATTERN_FILL
  6
CONTINUOUS
 62
     7
 10
867.25000000000102
 20
227.0978057181014
 30
0.0
 40
625.2500000000008
 50
180.18775481256731
 51
181.6541697449602
  0
ARC
  5
159
  8
PATTERN_FILL
  6
CONTINUOUS
 62
     7
 10
867.15511396063755
 20
237.97066888487171
 30
0.0
 40
623.25000000000102
 50
181.18799150980479
 51
182.6597520068936
  0
ARC
  5
15A
  8
PATTERN_FILL
  6
CONTINUOUS
 62
     7
 10
866.8714995841774
 20
248.8023831980444
 30
0.0
 40
621.25000000000102
 50
182.1912370139994
 51
183.66883528374879
  0
ARC
  5
15B
  8
PATTERN_FILL
  6
CONTINUOUS
 62
     7
 10
866.40044573234525
 20
259.5913461471817
 30
0.0
 40
619.25000000000068
 50
183.19768108419689
 51
184.6816206117181
  0
ARC
  5
15C
  8
PATTERN_FILL
  6
CONTINUOUS
 62
     7
 10
865.74330135383411
 20
270.33556176276869
 30
0.0
 40
617.2500000000008
 50
184.2074815024923
 51
185.69827826682129
  0
ARC
  5
15D
  8
PATTERN_FILL
  6
CONTINUOUS
 62
     7
 10
864.90148115807051
 20
281.03190152118719
 30
0.0
 40
615.25000000000057
 50
185.22069464089111
 51
186.71887813101441
  0
ARC
  5
15E
  8
PATTERN_FILL
  6
CONTINUOUS
 62
     7
 10
863.87645523677782
 20
291.67720273124678
 30
0.0
 40
613.2500000000008
 50
186.23737646913699
 51
187.74349084927459
  0
ARC
  5
15F
  8
PATTERN_FILL
  6
CONTINUOUS
 62
     7
 10
862.66974763606015
 20
302.26833941542259
 30
0.0
 40
611.25000000000068
 50
187.2575892574709
 51
188.7533831225754
  0
ARC
  5
160
  8
PATTERN_FILL
  6
CONTINUOUS
 62
     7
 10
861.28293552303421
 20
312.80222322651588
 30
0.0
 40
609.2500000000008
 50
188.28140185467879
 51
189.55395108429121
  0
ARC
  5
161
  8
PATTERN_FILL
  6
CONTINUOUS
 62
     7
 10
859.7176483369542
 20
323.27580434641328
 30
0.0
 40
607.25000000000068
 50
189.30888999979729
 51
190.30604217866551
  0
ARC
  5
162
  8
PATTERN_FILL
  6
CONTINUOUS
 62
     7
 10
857.97556692520436
 20
333.68607236668811
 30
0.0
 40
605.2500000000008
 50
190.34013667051991
 51
190.9836454473427
  0
ARC
  5
163
  8
PATTERN_FILL
  6
CONTINUOUS
 62
     7
 10
856.05842266453351
 20
344.03005715078621
 30
0.0
 40
603.25000000000068
 50
191.3752324718011
 51
191.49880199687439
  0
ARC
  5
164
  8
PATTERN_FILL
  6
CONTINUOUS
 62
     7
 10
-387.25000000000091
 20
227.0978057181014
 30
0.0
 40
625.25000000000125
 50
358.34583025504003
 51
359.81224518743272
  0
ARC
  5
165
  8
PATTERN_FILL
  6
CONTINUOUS
 62
     7
 10
-387.15511396063749
 20
237.97066888487171
 30
0.0
 40
623.25000000000102
 50
357.340247993106
 51
358.8120084901953
  0
ARC
  5
166
  8
PATTERN_FILL
  6
CONTINUOUS
 62
     7
 10
-386.87149958417768
 20
248.8023831980444
 30
0.0
 40
621.2500000000008
 50
356.33116471625101
 51
357.80876298600037
  0
ARC
  5
167
  8
PATTERN_FILL
  6
CONTINUOUS
 62
     7
 10
-386.40044573234519
 20
259.5913461471817
 30
0.0
 40
619.25000000000068
 50
355.31837938827618
 51
356.8023189158032
  0
ARC
  5
168
  8
PATTERN_FILL
  6
CONTINUOUS
 62
     7
 10
-385.74330135383423
 20
270.33556176276869
 30
0.0
 40
617.2500000000008
 50
354.30172173317879
 51
355.79251849750727
  0
ARC
  5
169
  8
PATTERN_FILL
  6
CONTINUOUS
 62
     7
 10
-384.90148115807051
 20
281.03190152118719
 30
0.0
 40
615.25000000000068
 50
353.28112186898028
 51
354.77930535910878
  0
ARC
  5
16A
  8
PATTERN_FILL
  6
CONTINUOUS
 62
     7
 10
-383.8764552367777
 20
291.67720273124678
 30
0.0
 40
613.2500000000008
 50
352.25650915072691
 51
353.76262353086258
  0
ARC
  5
16B
  8
PATTERN_FILL
  6
CONTINUOUS
 62
     7
 10
-382.66974763606032
 20
302.26833941542259
 30
0.0
 40
611.25000000000068
 50
351.24661687742457
 51
352.74241074252922
  0
ARC
  5
16C
  8
PATTERN_FILL
  6
CONTINUOUS
 62
     7
 10
-381.28293552303433
 20
312.80222322651588
 30
0.0
 40
609.2500000000008
 50
350.44604891570879
 51
351.71859814532121
  0
ARC
  5
16D
  8
PATTERN_FILL
  6
CONTINUOUS
 62
     7
 10
-379.71764833695443
 20
323.27580434641328
 30
0.0
 40
607.25000000000068
 50
349.69395782133449
 51
350.69111000020263
  0
ARC
  5
16E
  8
PATTERN_FILL
  6
CONTINUOUS
 62
     7
 10
-377.97556692520448
 20
333.68607236668811
 30
0.0
 40
605.2500000000008
 50
349.01635455265722
 51
349.65986332948
  0
ARC
  5
16F
  8
PATTERN_FILL
  6
CONTINUOUS
 62
     7
 10
-376.05842266453362
 20
344.03005715078621
 30
0.0
 40
603.25000000000068
 50
348.50119800312558
 51
348.6247675281989
  0
LINE
  5
170
  8
SPEC
  6
CONTINUOUS
 62
     7
 10
-130.0
 20
494.5
 30
0.0
 11
300.0
 21
494.5
 31
0.0
  0
LINE
  5
171
  8
SPEC
  6
CONTINUOUS
 62
     7
 10
-130.0
 20
483.25
 30
0.0
 11
300.0
 21
483.25
 31
0.0
  0
LINE
  5
172
  8
SPEC
  6
CONTINUOUS
 62
     7
 10
-130.0
 20
415.74999999999989
 30
0.0
 11
300.0
 21
415.74999999999989
 31
0.0
  0
LINE
  5
173
  8
SPEC
  6
CONTINUOUS
 62
     7
 10
-130.0
 20
427.0
 30
0.0
 11
300.0
 21
427.0
 31
0.0
  0
LINE
  5
174
  8
SPEC
  6
CONTINUOUS
 62
     7
 10
-130.0
 20
438.25
 30
0.0
 11
300.0
 21
438.25
 31
0.0
  0
LINE
  5
175
  8
SPEC
  6
CONTINUOUS
 62
     7
 10
-130.0
 20
404.49999999999989
 30
0.0
 11
300.0
 21
404.49999999999989
 31
0.0
  0
LINE
  5
176
  8
SPEC
  6
CONTINUOUS
 62
     7
 10
-130.0
 20
382.0
 30
0.0
 11
300.0
 21
382.0
 31
0.0
  0
LINE
  5
177
  8
SPEC
  6
CONTINUOUS
 62
     7
 10
-130.0
 20
393.25
 30
0.0
 11
300.0
 21
393.25
 31
0.0
  0
LINE
  5
178
  8
SPEC
  6
CONTINUOUS
 62
     7
 10
-130.0
 20
359.5
 30
0.0
 11
300.0
 21
359.5
 31
0.0
  0
LINE
  5
179
  8
SPEC
  6
CONTINUOUS
 62
     7
 10
-130.0
 20
449.5
 30
0.0
 11
300.0
 21
449.5
 31
0.0
  0
TEXT
  5
17A
  8
SPEC
 62
     7
 10
-29.800000000000011
 20
485.61373833333329
 30
0.0
 40
5.7009440104166673
  1
F3E
  7
_______
 11
-29.800000000000011
 21
491.31468234374989
 31
0.0
 73
     3
  0
LINE
  5
17B
  8
SPEC
  6
CONTINUOUS
 62
     7
 10
-130.0
 20
494.5
 30
0.0
 11
-130.0
 21
325.74999999999989
 31
0.0
  0
TEXT
  5
17C
  8
SPEC
 62
     7
 10
-126.25
 20
498.67979499999979
 30
0.0
 40
7.3297851562499989
  1
仕様
  7
_______
 11
-126.25
 21
506.00958015624991
 31
0.0
 73
     3
  0
LINE
  5
17D
  8
SPEC
  6
CONTINUOUS
 62
     7
 10
-32.5
 20
494.5
 30
0.0
 11
-32.5
 21
325.74999999999989
 31
0.0
  0
LINE
  5
17E
  8
SPEC
  6
CONTINUOUS
 62
     7
 10
300.0
 20
494.5
 30
0.0
 11
300.0
 21
325.75
 31
0.0
  0
TEXT
  5
17F
  8
SPEC
 62
     7
 10
-29.800000000000011
 20
373.11375333333342
 30
0.0
 40
5.7009440104166673
  1
+4.8dBu(1kHz、ゲイン最小、1%%%THD、パッド無し)
  7
_______
 11
-29.800000000000011
 21
378.81469734375003
 31
0.0
 73
     3
  0
TEXT
  5
180
  8
SPEC
 62
     7
 10
-127.3
 20
418.11375333333331
 30
0.0
 40
5.7009440104166673
  1
アンテナ形式
  7
_______
 11
-127.3
 21
423.81469734374991
 31
0.0
 73
     3
  0
TEXT
  5
181
  8
SPEC
 62
     7
 10
-127.3
 20
485.61373833333329
 30
0.0
 40
5.7009440104166673
  1
電波型式
  7
_______
 11
-127.3
 21
491.31468234374989
 31
0.0
 73
     3
  0
TEXT
  5
182
  8
SPEC
 62
     7
 10
-127.3
 20
395.61375333333331
 30
0.0
 40
5.7009440104166673
  1
トーン信号周波数
  7
_______
 11
-127.3
 21
401.31469734375003
 31
0.0
 73
     3
  0
TEXT
  5
183
  8
SPEC
 62
     7
 10
-127.3
 20
384.36375333333342
 30
0.0
 40
5.7009440104166673
  1
周波数特性
  7
_______
 11
-127.3
 21
390.06469734375003
 31
0.0
 73
     3
  0
TEXT
  5
184
  8
SPEC
 62
     7
 10
-127.3
 20
429.36375333333331
 30
0.0
 40
5.7009440104166673
  1
空中線電力
  7
_______
 11
-127.3
 21
435.06469734375003
 31
0.0
 73
     3
  0
TEXT
  5
185
  8
SPEC
 62
     7
 10
-127.3
 20
406.86375333333331
 30
0.0
 40
5.7009440104166673
  1
到達距離
  7
_______
 11
-127.3
 21
412.56469734375003
 31
0.0
 73
     3
  0
TEXT
  5
186
  8
SPEC
 62
     7
 10
-127.3
 20
474.36375333333331
 30
0.0
 40
5.7009440104166673
  1
送信周波数
  7
_______
 11
-127.3
 21
480.06469734375003
 31
0.0
 73
     3
  0
TEXT
  5
187
  8
SPEC
 62
     7
 10
-127.3
 20
440.61375333333342
 30
0.0
 40
5.7009440104166673
  1
発振方式
  7
_______
 11
-127.3
 21
446.31469734375003
 31
0.0
 73
     3
  0
TEXT
  5
188
  8
SPEC
 62
     7
 10
-127.3
 20
373.11375333333342
 30
0.0
 40
5.7009440104166673
  1
最大入力レベル
  7
_______
 11
-127.3
 21
378.81469734375003
 31
0.0
 73
     3
  0
TEXT
  5
189
  8
SPEC
 62
     7
 10
-29.800000000000011
 20
418.11375333333331
 30
0.0
 40
5.7009440104166673
  1
1/4波長ヘリカル、50\U+03A9
  7
_______
 11
-29.800000000000011
 21
423.81469734374991
 31
0.0
 73
     3
  0
TEXT
  5
18A
  8
SPEC
 62
     7
 10
-29.800000000000011
 20
395.61375333333331
 30
0.0
 40
5.7009440104166673
  1
32.768kHz
  7
_______
 11
-29.800000000000011
 21
401.31469734375003
 31
0.0
 73
     3
  0
TEXT
  5
18B
  8
SPEC
 62
     7
 10
-29.800000000000011
 20
384.36375333333342
 30
0.0
 40
5.7009440104166647
  1
40Hz～15kHz +1/-3dB（システム全体の帯域幅はマイクヘッドにより変動）
  7
_______
 11
-29.800000000000011
 21
390.06469734375003
 31
0.0
 73
     3
  0
TEXT
  5
18C
  8
SPEC
 62
     7
 10
-29.800000000000011
 20
429.36375333333331
 30
0.0
 40
5.7009440104166673
  1
10mW/2mW
  7
_______
 11
-29.800000000000011
 21
435.06469734375003
 31
0.0
 73
     3
  0
TEXT
  5
18D
  8
SPEC
 62
     7
 10
-29.800000000000011
 20
406.86375333333331
 30
0.0
 40
5.7009440104166673
  1
約100m(標準環境における最大値)
  7
_______
 11
-29.800000000000011
 21
412.56469734375003
 31
0.0
 73
     3
  0
TEXT
  5
18E
  8
SPEC
 62
     7
 10
-29.800000000000011
 20
440.61375333333342
 30
0.0
 40
5.7009440104166673
  1
水晶制御PLLシンセサイザー方式
  7
_______
 11
-29.800000000000011
 21
446.31469734375003
 31
0.0
 73
     3
  0
TEXT
  5
18F
  8
SPEC
 62
     7
 10
-29.800000000000011
 20
474.36375333333331
 30
0.0
 40
5.7009440104166647
  1
MW2/SM58-MJBX:B型 (806～810MHz)30チャンネルのうち任意の1チャンネル
  7
_______
 11
-29.800000000000011
 21
480.06469734375003
 31
0.0
 73
     3
  0
LINE
  5
190
  8
SPEC
  6
CONTINUOUS
 62
     7
 10
-130.0
 20
348.25
 30
0.0
 11
300.0
 21
348.25
 31
0.0
  0
LINE
  5
191
  8
SPEC
  6
CONTINUOUS
 62
     7
 10
-130.0
 20
337.0
 30
0.0
 11
300.0
 21
337.0
 31
0.0
  0
TEXT
  5
192
  8
SPEC
 62
     7
 10
-29.800000000000011
 20
350.61375333333342
 30
0.0
 40
5.7009440104166673
  1
単3形アルカリ乾電池\U+00D72
  7
_______
 11
-29.800000000000011
 21
356.31469734375008
 31
0.0
 73
     3
  0
TEXT
  5
193
  8
SPEC
 62
     7
 10
-127.3
 20
350.61375333333342
 30
0.0
 40
5.7009440104166673
  1
電源
  7
_______
 11
-127.3
 21
356.31469734375008
 31
0.0
 73
     3
  0
LINE
  5
194
  8
SPEC
  6
CONTINUOUS
 62
     7
 10
-130.0
 20
325.75
 30
0.0
 11
300.0
 21
325.75
 31
0.0
  0
TEXT
  5
195
  8
SPEC
 62
     7
 10
-29.800000000000011
 20
339.36375333333342
 30
0.0
 40
5.7009440104166647
  1
\U+03C651\U+00D7253mm
  7
_______
 11
-29.800000000000011
 21
345.06469734375008
 31
0.0
 73
     3
  0
TEXT
  5
196
  8
SPEC
 62
     7
 10
-127.3
 20
339.36375333333342
 30
0.0
 40
5.7009440104166673
  1
寸法(W\U+00D7H\U+00D7D)
  7
_______
 11
-127.3
 21
345.06469734375008
 31
0.0
 73
     3
  0
TEXT
  5
197
  8
SPEC
 62
     7
 10
-29.800000000000011
 20
328.11375333333342
 30
0.0
 40
5.7009440104166673
  1
約356g(電池除く)
  7
_______
 11
-29.800000000000011
 21
333.81469734375008
 31
0.0
 73
     3
  0
TEXT
  5
198
  8
SPEC
 62
     7
 10
-127.3
 20
328.11375333333342
 30
0.0
 40
5.7009440104166673
  1
質量
  7
_______
 11
-127.3
 21
333.81469734375008
 31
0.0
 73
     3
  0
TEXT
  5
199
  8
SPEC
 62
     7
 10
-29.800000000000011
 20
361.86375333333342
 30
0.0
 40
5.7009440104166673
  1
-10～+20dB
  7
_______
 11
-29.800000000000011
 21
367.56469734375003
 31
0.0
 73
     3
  0
TEXT
  5
19A
  8
SPEC
 62
     7
 10
-127.3
 20
361.86375333333342
 30
0.0
 40
5.7009440104166673
  1
ゲイン調整範囲
  7
_______
 11
-127.3
 21
367.56469734375003
 31
0.0
 73
     3
  0
LINE
  5
19B
  8
SPEC
  6
CONTINUOUS
 62
     7
 10
-130.0
 20
370.75
 30
0.0
 11
300.0
 21
370.75
 31
0.0
  0
TEXT
  5
19C
  8
SPEC
 62
     7
 10
-29.800000000000011
 20
463.11375333333331
 30
0.0
 40
5.7009440104166647
  1
MW2/SM58-MA24:A型 (797～806MHz)71チャンネルとA2型(779～788MHz)71チャンネル
  7
_______
 11
-29.800000000000011
 21
468.81469734375003
 31
0.0
 73
     3
  0
TEXT
  5
19D
  8
SPEC
 62
     7
 10
18.199999999999989
 20
451.86375333333331
 30
0.0
 40
5.7009440104166647
  1
合計142チャンネルのうち任意の1チャンネル
  7
_______
 11
18.199999999999989
 21
457.56469734375003
 31
0.0
 73
     3
  0
TEXT
  5
19E
  8
DIMNSIONS
 62
     7
 10
57.499984999999981
 20
-218.69151500000001
 30
0.0
 40
7.3297851562499989
  1
(単位：mm)
  7
_______
 11
57.499984999999981
 21
-211.36172984375
 31
0.0
 73
     3
  0
LINE
  5
19F
  8
DIMNSIONS
  6
CONTINUOUS
 62
     7
 10
-25.5
 20
-94.000000022351742
 30
0.0
 11
-25.5
 21
-34.000000022351749
 31
0.0
  0
LINE
  5
1A0
  8
DIMNSIONS
  6
CONTINUOUS
 62
     7
 10
25.5
 20
-94.000000022351742
 30
0.0
 11
25.5
 21
-34.000000022351749
 31
0.0
  0
LINE
  5
1A1
  8
DIMNSIONS
  6
CONTINUOUS
 62
     7
 10
-25.5
 20
-40.0
 30
0.0
 11
25.5
 21
-40.0
 31
0.0
  0
LINE
  5
1A2
  8
DIMNSIONS
  6
CONTINUOUS
 62
     7
 10
-25.5
 20
-40.0
 30
0.0
 11
-15.974999999999991
 21
-37.447783942093572
 31
0.0
  0
LINE
  5
1A3
  8
DIMNSIONS
  6
CONTINUOUS
 62
     7
 10
-25.5
 20
-40.0
 30
0.0
 11
-15.974999999999991
 21
-42.552216057906442
 31
0.0
  0
LINE
  5
1A4
  8
DIMNSIONS
  6
CONTINUOUS
 62
     7
 10
25.5
 20
-40.0
 30
0.0
 11
15.974999999999991
 21
-42.552216057906442
 31
0.0
  0
LINE
  5
1A5
  8
DIMNSIONS
  6
CONTINUOUS
 62
     7
 10
25.5
 20
-40.0
 30
0.0
 11
15.974999999999991
 21
-37.447783942093572
 31
0.0
  0
TEXT
  5
1A6
  8
DIMNSIONS
 62
     7
 10
-5.2916666666666732
 20
-35.518333344509202
 30
0.0
 40
8.1442057291666661
  1
51
  7
_______
 11
-5.2916666666666723
 21
-27.37412761534253
 31
0.0
 73
     3
  0
LINE
  5
1A7
  8
DIMNSIONS
  6
CONTINUOUS
 62
     7
 10
-5.9999999776482573
 20
253.06889486544429
 30
0.0
 11
-65.999999977648244
 21
253.06889486544429
 31
0.0
  0
LINE
  5
1A8
  8
DIMNSIONS
  6
CONTINUOUS
 62
     7
 10
-24.499999977648251
 20
176.0
 30
0.0
 11
-65.999999977648244
 21
176.0
 31
0.0
  0
LINE
  5
1A9
  8
DIMNSIONS
  6
CONTINUOUS
 62
     7
 10
-60.0
 20
253.06889486544429
 30
0.0
 11
-60.0
 21
176.0
 31
0.0
  0
LINE
  5
1AA
  8
DIMNSIONS
  6
CONTINUOUS
 62
     7
 10
-60.0
 20
253.06889486544429
 30
0.0
 11
-57.447783942093572
 21
243.54389486544429
 31
0.0
  0
LINE
  5
1AB
  8
DIMNSIONS
  6
CONTINUOUS
 62
     7
 10
-60.0
 20
253.06889486544429
 30
0.0
 11
-62.552216057906442
 21
243.54389486544429
 31
0.0
  0
LINE
  5
1AC
  8
DIMNSIONS
  6
CONTINUOUS
 62
     7
 10
-60.0
 20
176.0
 30
0.0
 11
-62.552216057906442
 21
185.52500000000001
 31
0.0
  0
LINE
  5
1AD
  8
DIMNSIONS
  6
CONTINUOUS
 62
     7
 10
-60.0
 20
176.0
 30
0.0
 11
-57.447783942093572
 21
185.52500000000001
 31
0.0
  0
TEXT
  5
1AE
  8
DIMNSIONS
 62
     7
 10
-64.48166665549077
 20
209.24278076605549
 30
0.0
 40
8.1442057291666661
  1
77
 50
90.0
  7
_______
 11
-72.625872384657441
 21
209.24278076605549
 31
0.0
 73
     3
  0
LINE
  5
1AF
  8
DIMNSIONS
  6
CONTINUOUS
 62
     7
 10
-24.499999977648251
 20
176.0
 30
0.0
 11
-65.999999977648244
 21
176.0
 31
0.0
  0
LINE
  5
1B0
  8
DIMNSIONS
  6
CONTINUOUS
 62
     7
 10
-15.05309312801816
 20
0.0
 30
0.0
 11
-65.999999977648244
 21
0.0
 31
0.0
  0
LINE
  5
1B1
  8
DIMNSIONS
  6
CONTINUOUS
 62
     7
 10
-60.0
 20
176.0
 30
0.0
 11
-60.0
 21
0.0
 31
0.0
  0
LINE
  5
1B2
  8
DIMNSIONS
  6
CONTINUOUS
 62
     7
 10
-60.0
 20
176.0
 30
0.0
 11
-57.447783942093572
 21
166.47499999999999
 31
0.0
  0
LINE
  5
1B3
  8
DIMNSIONS
  6
CONTINUOUS
 62
     7
 10
-60.0
 20
176.0
 30
0.0
 11
-62.552216057906442
 21
166.47499999999999
 31
0.0
  0
LINE
  5
1B4
  8
DIMNSIONS
  6
CONTINUOUS
 62
     7
 10
-60.0
 20
0.0
 30
0.0
 11
-62.552216057906442
 21
9.5250000000000021
 31
0.0
  0
LINE
  5
1B5
  8
DIMNSIONS
  6
CONTINUOUS
 62
     7
 10
-60.0
 20
0.0
 30
0.0
 11
-57.447783942093572
 21
9.5250000000000021
 31
0.0
  0
TEXT
  5
1B6
  8
DIMNSIONS
 62
     7
 10
-64.48166665549077
 20
80.062499999999986
 30
0.0
 40
8.1442057291666661
  1
176
 50
90.0
  7
_______
 11
-72.625872384657441
 21
80.062499999999986
 31
0.0
 73
     3
  0
LINE
  5
1B7
  8
DIMNSIONS
  6
CONTINUOUS
 62
     7
 10
-5.9999999776482573
 20
253.06889486544429
 30
0.0
 11
-95.999999977648244
 21
253.06889486544429
 31
0.0
  0
LINE
  5
1B8
  8
DIMNSIONS
  6
CONTINUOUS
 62
     7
 10
-15.05309312801816
 20
0.0
 30
0.0
 11
-95.999999977648244
 21
0.0
 31
0.0
  0
LINE
  5
1B9
  8
DIMNSIONS
  6
CONTINUOUS
 62
     7
 10
-90.0
 20
253.06889486544429
 30
0.0
 11
-90.0
 21
0.0
 31
0.0
  0
LINE
  5
1BA
  8
DIMNSIONS
  6
CONTINUOUS
 62
     7
 10
-90.0
 20
253.06889486544429
 30
0.0
 11
-87.447783942093565
 21
243.54389486544429
 31
0.0
  0
LINE
  5
1BB
  8
DIMNSIONS
  6
CONTINUOUS
 62
     7
 10
-90.0
 20
253.06889486544429
 30
0.0
 11
-92.552216057906435
 21
243.54389486544429
 31
0.0
  0
LINE
  5
1BC
  8
DIMNSIONS
  6
CONTINUOUS
 62
     7
 10
-90.0
 20
0.0
 30
0.0
 11
-92.552216057906435
 21
9.5250000000000021
 31
0.0
  0
LINE
  5
1BD
  8
DIMNSIONS
  6
CONTINUOUS
 62
     7
 10
-90.0
 20
0.0
 30
0.0
 11
-87.447783942093565
 21
9.5250000000000021
 31
0.0
  0
TEXT
  5
1BE
  8
DIMNSIONS
 62
     7
 10
-94.48166665549077
 20
118.5969474327221
 30
0.0
 40
8.1442057291666661
  1
253
 50
90.0
  7
_______
 11
-102.6258723846574
 21
118.5969474327221
 31
0.0
 73
     3
  0
TEXT
  5
1BF
  8
DATA
 62
     7
 10
239.99996999999999
 20
-221.19716333333329
 30
0.0
 40
6.5153645833333318
  1
MW2/SM58-MJBX 、 MW2/SM58-MA24
  7
_______
 11
239.99996999999999
 21
-214.68179875000001
 31
0.0
 73
     3
  0
TEXT
  5
1C0
  8
DATA
 62
     7
 10
259.99997000000002
 20
-200.35732999999999
 30
0.0
 40
7.3297851562499989
  1
SHURE
  7
_______
 11
259.99997000000002
 21
-193.02754484375001
 31
0.0
 73
     3
  0
TEXT
  5
1C1
  8
DATA
 62
     7
 10
239.99996999999999
 20
-210.3581574561403
 30
0.0
 40
6.5153645833333318
  1
ハンドヘルド型送信機
  7
_______
 11
239.99996999999999
 21
-203.84279287280691
 31
0.0
 73
     3
  0
CIRCLE
  5
1C2
  8
DATA
  6
CONTINUOUS
 62
     7
 10
0.0
 20
-100.0
 30
0.0
 40
25.5
  0
CIRCLE
  5
1C3
  8
DATA
  6
CONTINUOUS
 62
     7
 10
0.0
 20
-100.0
 30
0.0
 40
25.0
  0
CIRCLE
  5
1C4
  8
DATA
  6
CONTINUOUS
 62
     7
 10
0.0
 20
-100.0
 30
0.0
 40
12.5
  0
CIRCLE
  5
1C5
  8
DATA
  6
CONTINUOUS
 62
     7
 10
0.0
 20
-100.0
 30
0.0
 40
18.5
  0
CIRCLE
  5
1C6
  8
DATA
  6
CONTINUOUS
 62
     7
 10
0.0
 20
-100.0
 30
0.0
 40
19.25
  0
CIRCLE
  5
1C7
  8
DATA
  6
CONTINUOUS
 62
     7
 10
0.0
 20
-100.0
 30
0.0
 40
17.0
  0
LINE
  5
1C8
  8
DATA
  6
CONTINUOUS
 62
     7
 10
-17.0
 20
204.5
 30
0.0
 11
17.0
 21
204.5
 31
0.0
  0
LINE
  5
1C9
  8
DATA
  6
CONTINUOUS
 62
     7
 10
17.795842796833341
 20
207.04890285905071
 30
0.0
 11
-17.795842796833139
 21
207.04890285905071
 31
0.0
  0
ARC
  5
1CA
  8
DATA
  6
CONTINUOUS
 62
     7
 10
17.25
 20
209.04890285905071
 30
0.0
 40
2.0000000000000049
 50
295.94447977237081
 51
0.0
  0
LINE
  5
1CB
  8
DATA
  6
CONTINUOUS
 62
     7
 10
-17.0
 20
204.5
 30
0.0
 11
-17.0
 21
205.4520292165663
 31
0.0
  0
ARC
  5
1CC
  8
DATA
  6
CONTINUOUS
 62
     7
 10
-17.25
 20
209.04890285905071
 30
0.0
 40
2.0
 50
180.0
 51
244.05552022762919
  0
ARC
  5
1CD
  8
DATA
  6
CONTINUOUS
 62
     7
 10
-18.999999999999769
 20
205.4520292165663
 30
0.0
 40
1.999999999999772
 50
0.0
 51
64.0555202276351
  0
ARC
  5
1CE
  8
DATA
  6
CONTINUOUS
 62
     7
 10
-17.25
 20
209.04890285905071
 30
0.0
 40
2.0
 50
180.0
 51
244.05552022762919
  0
LINE
  5
1CF
  8
DATA
  6
CONTINUOUS
 62
     7
 10
17.0
 20
204.5
 30
0.0
 11
17.0
 21
205.4520292165663
 31
0.0
  0
ARC
  5
1D0
  8
DATA
  6
CONTINUOUS
 62
     7
 10
18.999999999999769
 20
205.4520292165663
 30
0.0
 40
1.9999999999997791
 50
115.9444797723649
 51
180.0
  0
LINE
  5
1D1
  8
DATA
  6
CONTINUOUS
 62
     7
 10
17.75
 20
204.5
 30
0.0
 11
-17.75
 21
204.5
 31
0.0
  0
LINE
  5
1D2
  8
DATA
  6
CONTINUOUS
 62
     7
 10
-18.5
 20
176.5
 30
0.0
 11
18.5
 21
176.5
 31
0.0
  0
TEXT
  5
1D3
  8
DATA
 62
     7
 10
-5.7861131672015347
 20
194.8738937621832
 30
0.0
 40
4.072102864583333
  1
SM58
  7
_______
 11
-5.7861131672015347
 21
198.94599662676649
 31
0.0
 73
     3
  0
LINE
  5
1D4
  8
DATA
  6
CONTINUOUS
 62
     7
 10
-18.5
 20
176.5
 30
0.0
 11
-18.5
 21
201.0
 31
0.0
  0
LINE
  5
1D5
  8
DATA
  6
CONTINUOUS
 62
     7
 10
18.5
 20
176.5
 30
0.0
 11
18.5
 21
201.0
 31
0.0
  0
LINE
  5
1D6
  8
DATA
  6
CONTINUOUS
 62
     7
 10
-18.5
 20
201.0
 30
0.0
 11
18.5
 21
201.0
 31
0.0
  0
LINE
  5
1D7
  8
DATA
  6
CONTINUOUS
 62
     7
 10
-17.75
 20
204.5
 30
0.0
 11
-18.5
 21
201.0
 31
0.0
  0
LINE
  5
1D8
  8
DATA
  6
CONTINUOUS
 62
     7
 10
17.75
 20
204.5
 30
0.0
 11
18.5
 21
201.0
 31
0.0
  0
LINE
  5
1D9
  8
DATA
  6
CONTINUOUS
 62
     7
 10
-18.5
 20
176.0
 30
0.0
 11
18.5
 21
176.0
 31
0.0
  0
LINE
  5
1DA
  8
DATA
  6
CONTINUOUS
 62
     7
 10
-17.5
 20
102.0
 30
0.0
 11
17.5
 21
102.0
 31
0.0
  0
LINE
  5
1DB
  8
DATA
  6
CONTINUOUS
 62
     7
 10
-17.5
 20
136.0
 30
0.0
 11
-17.5
 21
102.0
 31
0.0
  0
LINE
  5
1DC
  8
DATA
  6
CONTINUOUS
 62
     7
 10
17.5
 20
136.0
 30
0.0
 11
17.5
 21
102.0
 31
0.0
  0
ARC
  5
1DD
  8
DATA
  6
CONTINUOUS
 62
     7
 10
151.17307692307691
 20
171.88461538461539
 30
0.0
 40
169.72297847691971
 50
178.61057540006649
 51
187.0513242185213
  0
LINE
  5
1DE
  8
DATA
  6
CONTINUOUS
 62
     7
 10
17.5
 20
136.0
 30
0.0
 11
17.5
 21
102.0
 31
0.0
  0
ARC
  5
1DF
  8
DATA
  6
CONTINUOUS
 62
     7
 10
-91.204948301329424
 20
138.32865583456419
 30
0.0
 40
108.7298874421865
 50
358.77280887296558
 51
4.5740453520401161
  0
LINE
  5
1E0
  8
DATA
  6
CONTINUOUS
 62
     7
 10
-17.5
 20
176.5
 30
0.0
 11
-17.5
 21
176.0
 31
0.0
  0
LINE
  5
1E1
  8
DATA
  6
CONTINUOUS
 62
     7
 10
17.5
 20
176.5
 30
0.0
 11
17.5
 21
176.0
 31
0.0
  0
LINE
  5
1E2
  8
DATA
  6
CONTINUOUS
 62
     7
 10
-17.5
 20
102.5
 30
0.0
 11
17.5
 21
102.5
 31
0.0
  0
LINE
  5
1E3
  8
DATA
  6
CONTINUOUS
 62
     7
 10
-17.0
 20
37.0
 30
0.0
 11
17.0
 21
37.0
 31
0.0
  0
LINE
  5
1E4
  8
DATA
  6
CONTINUOUS
 62
     7
 10
-16.0
 20
28.0
 30
0.0
 11
16.0
 21
28.0
 31
0.0
  0
LINE
  5
1E5
  8
DATA
  6
CONTINUOUS
 62
     7
 10
-17.0
 20
29.0
 30
0.0
 11
-17.0
 21
37.0
 31
0.0
  0
LINE
  5
1E6
  8
DATA
  6
CONTINUOUS
 62
     7
 10
17.0
 20
29.0
 30
0.0
 11
17.0
 21
37.0
 31
0.0
  0
LINE
  5
1E7
  8
DATA
  6
CONTINUOUS
 62
     7
 10
-17.0
 20
37.5
 30
0.0
 11
17.0
 21
37.5
 31
0.0
  0
LINE
  5
1E8
  8
DATA
  6
CONTINUOUS
 62
     7
 10
-17.5
 20
102.0
 30
0.0
 11
-17.0
 21
37.5
 31
0.0
  0
LINE
  5
1E9
  8
DATA
  6
CONTINUOUS
 62
     7
 10
17.5
 20
102.0
 30
0.0
 11
17.0
 21
37.5
 31
0.0
  0
LINE
  5
1EA
  8
DATA
  6
CONTINUOUS
 62
     7
 10
-17.0
 20
37.5
 30
0.0
 11
-16.5
 21
37.25
 31
0.0
  0
LINE
  5
1EB
  8
DATA
  6
CONTINUOUS
 62
     7
 10
-16.5
 20
37.25
 30
0.0
 11
-17.0
 21
37.0
 31
0.0
  0
LINE
  5
1EC
  8
DATA
  6
CONTINUOUS
 62
     7
 10
17.0
 20
37.5
 30
0.0
 11
16.5
 21
37.25
 31
0.0
  0
LINE
  5
1ED
  8
DATA
  6
CONTINUOUS
 62
     7
 10
16.5
 20
37.25
 30
0.0
 11
17.0
 21
37.0
 31
0.0
  0
LINE
  5
1EE
  8
DATA
  6
CONTINUOUS
 62
     7
 10
-16.5
 20
37.25
 30
0.0
 11
16.5
 21
37.25
 31
0.0
  0
ARC
  5
1EF
  8
DATA
  6
CONTINUOUS
 62
     7
 10
-16.0
 20
29.0
 30
0.0
 40
1.0
 50
180.0
 51
270.0
  0
ARC
  5
1F0
  8
DATA
  6
CONTINUOUS
 62
     7
 10
16.0
 20
29.0
 30
0.0
 40
1.0
 50
270.0
 51
0.0
  0
LINE
  5
1F1
  8
DATA
  6
CONTINUOUS
 62
     7
 10
-9.0530931503699037
 20
0.0
 30
0.0
 11
9.0530931503699037
 21
0.0
 31
0.0
  0
LINE
  5
1F2
  8
DATA
  6
CONTINUOUS
 62
     7
 10
-12.5
 20
28.0
 30
0.0
 11
-12.052614948406241
 21
2.9464371107493572
 31
0.0
  0
LINE
  5
1F3
  8
DATA
  6
CONTINUOUS
 62
     7
 10
12.5
 20
28.0
 30
0.0
 11
12.052614948406241
 21
2.9464371107493572
 31
0.0
  0
ARC
  5
1F4
  8
DATA
  6
CONTINUOUS
 62
     7
 10
-9.0530931503699037
 20
3.0
 30
0.0
 40
3.0000000000000062
 50
181.0230301886676
 51
270.0
  0
ARC
  5
1F5
  8
DATA
  6
CONTINUOUS
 62
     7
 10
9.0530931503699037
 20
2.9999999999999849
 30
0.0
 40
2.9999999999999849
 50
270.0
 51
358.97696981133248
  0
LINE
  5
1F6
  8
DATA
  6
CONTINUOUS
 62
     7
 10
-9.5
 20
104.5
 30
0.0
 11
9.5
 21
104.5
 31
0.0
  0
LINE
  5
1F7
  8
DATA
  6
CONTINUOUS
 62
     7
 10
-9.5
 20
128.5
 30
0.0
 11
9.5
 21
128.5
 31
0.0
  0
LINE
  5
1F8
  8
DATA
  6
CONTINUOUS
 62
     7
 10
-11.0
 20
127.0
 30
0.0
 11
-11.0
 21
106.0
 31
0.0
  0
LINE
  5
1F9
  8
DATA
  6
CONTINUOUS
 62
     7
 10
11.0
 20
127.0
 30
0.0
 11
11.0
 21
106.0
 31
0.0
  0
LINE
  5
1FA
  8
DATA
  6
CONTINUOUS
 62
     7
 10
-8.5
 20
108.5
 30
0.0
 11
8.5
 21
108.5
 31
0.0
  0
LINE
  5
1FB
  8
DATA
  6
CONTINUOUS
 62
     7
 10
-8.5
 20
125.5
 30
0.0
 11
8.5
 21
125.5
 31
0.0
  0
LINE
  5
1FC
  8
DATA
  6
CONTINUOUS
 62
     7
 10
-8.5
 20
108.5
 30
0.0
 11
-8.5
 21
125.5
 31
0.0
  0
LINE
  5
1FD
  8
DATA
  6
CONTINUOUS
 62
     7
 10
8.5
 20
108.5
 30
0.0
 11
8.5
 21
125.5
 31
0.0
  0
ARC
  5
1FE
  8
DATA
  6
CONTINUOUS
 62
     7
 10
-9.5
 20
127.0
 30
0.0
 40
1.5
 50
90.0
 51
180.0
  0
ARC
  5
1FF
  8
DATA
  6
CONTINUOUS
 62
     7
 10
-9.5
 20
106.0
 30
0.0
 40
1.5
 50
180.0
 51
270.0
  0
ARC
  5
200
  8
DATA
  6
CONTINUOUS
 62
     7
 10
9.5
 20
106.0
 30
0.0
 40
1.5
 50
270.0
 51
0.0
  0
ARC
  5
201
  8
DATA
  6
CONTINUOUS
 62
     7
 10
9.5
 20
127.0
 30
0.0
 40
1.5
 50
0.0
 51
90.0
  0
TEXT
  5
202
  8
DATA
 62
     7
 10
-2.785662895322957
 20
30.659518004825529
 30
0.0
 40
3.2576822916666659
  1
MW2
  7
_______
 11
-2.785662895322957
 21
33.917200296492197
 31
0.0
 73
     3
  0
LINE
  5
203
  8
DATA
  6
CONTINUOUS
 62
     7
 10
103.0
 20
204.5
 30
0.0
 11
137.0
 21
204.5
 31
0.0
  0
LINE
  5
204
  8
DATA
  6
CONTINUOUS
 62
     7
 10
137.79584279683331
 20
207.04890285905071
 30
0.0
 11
102.2041572031668
 21
207.04890285905071
 31
0.0
  0
ARC
  5
205
  8
DATA
  6
CONTINUOUS
 62
     7
 10
137.25
 20
209.04890285905071
 30
0.0
 40
2.0000000000000049
 50
295.94447977237081
 51
0.0
  0
LINE
  5
206
  8
DATA
  6
CONTINUOUS
 62
     7
 10
103.0
 20
204.5
 30
0.0
 11
103.0
 21
205.4520292165663
 31
0.0
  0
ARC
  5
207
  8
DATA
  6
CONTINUOUS
 62
     7
 10
102.75
 20
209.04890285905071
 30
0.0
 40
2.0
 50
180.0
 51
244.05552022762919
  0
ARC
  5
208
  8
DATA
  6
CONTINUOUS
 62
     7
 10
101.0000000000002
 20
205.4520292165663
 30
0.0
 40
1.999999999999772
 50
0.0
 51
64.0555202276351
  0
ARC
  5
209
  8
DATA
  6
CONTINUOUS
 62
     7
 10
102.75
 20
209.04890285905071
 30
0.0
 40
2.0
 50
180.0
 51
244.05552022762919
  0
LINE
  5
20A
  8
DATA
  6
CONTINUOUS
 62
     7
 10
137.0
 20
204.5
 30
0.0
 11
137.0
 21
205.4520292165663
 31
0.0
  0
ARC
  5
20B
  8
DATA
  6
CONTINUOUS
 62
     7
 10
138.99999999999969
 20
205.4520292165663
 30
0.0
 40
1.9999999999997791
 50
115.9444797723649
 51
180.0
  0
LINE
  5
20C
  8
DATA
  6
CONTINUOUS
 62
     7
 10
137.75
 20
204.5
 30
0.0
 11
102.25
 21
204.5
 31
0.0
  0
LINE
  5
20D
  8
DATA
  6
CONTINUOUS
 62
     7
 10
101.5
 20
176.5
 30
0.0
 11
138.5
 21
176.5
 31
0.0
  0
LINE
  5
20E
  8
DATA
  6
CONTINUOUS
 62
     7
 10
101.5
 20
176.5
 30
0.0
 11
101.5
 21
201.0
 31
0.0
  0
LINE
  5
20F
  8
DATA
  6
CONTINUOUS
 62
     7
 10
138.5
 20
176.5
 30
0.0
 11
138.5
 21
201.0
 31
0.0
  0
LINE
  5
210
  8
DATA
  6
CONTINUOUS
 62
     7
 10
101.5
 20
201.0
 30
0.0
 11
138.5
 21
201.0
 31
0.0
  0
LINE
  5
211
  8
DATA
  6
CONTINUOUS
 62
     7
 10
102.25
 20
204.5
 30
0.0
 11
101.5
 21
201.0
 31
0.0
  0
LINE
  5
212
  8
DATA
  6
CONTINUOUS
 62
     7
 10
137.75
 20
204.5
 30
0.0
 11
138.5
 21
201.0
 31
0.0
  0
LINE
  5
213
  8
DATA
  6
CONTINUOUS
 62
     7
 10
101.5
 20
176.0
 30
0.0
 11
138.5
 21
176.0
 31
0.0
  0
LINE
  5
214
  8
DATA
  6
CONTINUOUS
 62
     7
 10
102.5
 20
102.0
 30
0.0
 11
137.5
 21
102.0
 31
0.0
  0
LINE
  5
215
  8
DATA
  6
CONTINUOUS
 62
     7
 10
102.5
 20
136.0
 30
0.0
 11
102.5
 21
102.0
 31
0.0
  0
LINE
  5
216
  8
DATA
  6
CONTINUOUS
 62
     7
 10
137.5
 20
136.0
 30
0.0
 11
137.5
 21
102.0
 31
0.0
  0
ARC
  5
217
  8
DATA
  6
CONTINUOUS
 62
     7
 10
271.17307692307691
 20
171.88461538461539
 30
0.0
 40
169.72297847691971
 50
178.61057540006649
 51
187.0513242185213
  0
LINE
  5
218
  8
DATA
  6
CONTINUOUS
 62
     7
 10
137.5
 20
136.0
 30
0.0
 11
137.5
 21
102.0
 31
0.0
  0
ARC
  5
219
  8
DATA
  6
CONTINUOUS
 62
     7
 10
28.795051698670591
 20
138.32865583456419
 30
0.0
 40
108.7298874421865
 50
358.77280887296558
 51
4.5740453520388646
  0
LINE
  5
21A
  8
DATA
  6
CONTINUOUS
 62
     7
 10
102.5
 20
176.5
 30
0.0
 11
102.5
 21
176.0
 31
0.0
  0
LINE
  5
21B
  8
DATA
  6
CONTINUOUS
 62
     7
 10
137.5
 20
176.5
 30
0.0
 11
137.5
 21
176.0
 31
0.0
  0
LINE
  5
21C
  8
DATA
  6
CONTINUOUS
 62
     7
 10
102.5
 20
102.5
 30
0.0
 11
137.5
 21
102.5
 31
0.0
  0
LINE
  5
21D
  8
DATA
  6
CONTINUOUS
 62
     7
 10
103.0
 20
37.0
 30
0.0
 11
137.0
 21
37.0
 31
0.0
  0
LINE
  5
21E
  8
DATA
  6
CONTINUOUS
 62
     7
 10
104.0
 20
28.0
 30
0.0
 11
136.0
 21
28.0
 31
0.0
  0
LINE
  5
21F
  8
DATA
  6
CONTINUOUS
 62
     7
 10
103.0
 20
29.0
 30
0.0
 11
103.0
 21
37.0
 31
0.0
  0
LINE
  5
220
  8
DATA
  6
CONTINUOUS
 62
     7
 10
137.0
 20
29.0
 30
0.0
 11
137.0
 21
37.0
 31
0.0
  0
LINE
  5
221
  8
DATA
  6
CONTINUOUS
 62
     7
 10
103.0
 20
37.5
 30
0.0
 11
137.0
 21
37.5
 31
0.0
  0
LINE
  5
222
  8
DATA
  6
CONTINUOUS
 62
     7
 10
102.5
 20
102.0
 30
0.0
 11
103.0
 21
37.5
 31
0.0
  0
LINE
  5
223
  8
DATA
  6
CONTINUOUS
 62
     7
 10
137.5
 20
102.0
 30
0.0
 11
137.0
 21
37.5
 31
0.0
  0
LINE
  5
224
  8
DATA
  6
CONTINUOUS
 62
     7
 10
103.0
 20
37.5
 30
0.0
 11
103.5
 21
37.25
 31
0.0
  0
LINE
  5
225
  8
DATA
  6
CONTINUOUS
 62
     7
 10
103.5
 20
37.25
 30
0.0
 11
103.0
 21
37.0
 31
0.0
  0
LINE
  5
226
  8
DATA
  6
CONTINUOUS
 62
     7
 10
137.0
 20
37.5
 30
0.0
 11
136.5
 21
37.25
 31
0.0
  0
LINE
  5
227
  8
DATA
  6
CONTINUOUS
 62
     7
 10
136.5
 20
37.25
 30
0.0
 11
137.0
 21
37.0
 31
0.0
  0
LINE
  5
228
  8
DATA
  6
CONTINUOUS
 62
     7
 10
103.5
 20
37.25
 30
0.0
 11
136.5
 21
37.25
 31
0.0
  0
ARC
  5
229
  8
DATA
  6
CONTINUOUS
 62
     7
 10
104.0
 20
29.0
 30
0.0
 40
1.0
 50
180.0
 51
270.0
  0
ARC
  5
22A
  8
DATA
  6
CONTINUOUS
 62
     7
 10
136.0
 20
29.0
 30
0.0
 40
1.0
 50
270.0
 51
0.0
  0
LINE
  5
22B
  8
DATA
  6
CONTINUOUS
 62
     7
 10
110.9469068496301
 20
0.0
 30
0.0
 11
129.0530931503699
 21
0.0
 31
0.0
  0
LINE
  5
22C
  8
DATA
  6
CONTINUOUS
 62
     7
 10
107.5
 20
28.0
 30
0.0
 11
107.9473850515937
 21
2.9464371107493572
 31
0.0
  0
LINE
  5
22D
  8
DATA
  6
CONTINUOUS
 62
     7
 10
132.5
 20
28.0
 30
0.0
 11
132.05261494840619
 21
2.9464371107493572
 31
0.0
  0
ARC
  5
22E
  8
DATA
  6
CONTINUOUS
 62
     7
 10
110.9469068496301
 20
3.0
 30
0.0
 40
3.0000000000000062
 50
181.0230301886676
 51
270.0
  0
ARC
  5
22F
  8
DATA
  6
CONTINUOUS
 62
     7
 10
129.0530931503699
 20
2.9999999999999849
 30
0.0
 40
2.9999999999999849
 50
270.0
 51
358.97696981133248
  0
LINE
  5
230
  8
DATA
  6
CONTINUOUS
 62
     7
 10
102.5
 20
104.5
 30
0.0
 11
104.5
 21
104.5
 31
0.0
  0
LINE
  5
231
  8
DATA
  6
CONTINUOUS
 62
     7
 10
102.5
 20
128.5
 30
0.0
 11
104.5
 21
128.5
 31
0.0
  0
LINE
  5
232
  8
DATA
  6
CONTINUOUS
 62
     7
 10
107.5
 20
125.5
 30
0.0
 11
107.5
 21
107.5
 31
0.0
  0
LINE
  5
233
  8
DATA
  6
CONTINUOUS
 62
     7
 10
102.5
 20
108.5
 30
0.0
 11
105.5
 21
108.5
 31
0.0
  0
LINE
  5
234
  8
DATA
  6
CONTINUOUS
 62
     7
 10
102.5
 20
125.5
 30
0.0
 11
105.5
 21
125.5
 31
0.0
  0
ARC
  5
235
  8
DATA
  6
CONTINUOUS
 62
     7
 10
104.5
 20
125.5
 30
0.0
 40
3.0
 50
0.0
 51
90.0
  0
ARC
  5
236
  8
DATA
  6
CONTINUOUS
 62
     7
 10
104.5
 20
107.5
 30
0.0
 40
3.0
 50
270.0
 51
0.0
  0
LINE
  5
237
  8
DATA
  6
CONTINUOUS
 62
     7
 10
105.5
 20
125.5
 30
0.0
 11
105.5
 21
108.5
 31
0.0
  0
LINE
  5
238
  8
DATA
  6
CONTINUOUS
 62
     7
 10
223.0
 20
204.5
 30
0.0
 11
257.0
 21
204.5
 31
0.0
  0
LINE
  5
239
  8
DATA
  6
CONTINUOUS
 62
     7
 10
257.7958427968332
 20
207.04890285905071
 30
0.0
 11
222.20415720316689
 21
207.04890285905071
 31
0.0
  0
ARC
  5
23A
  8
DATA
  6
CONTINUOUS
 62
     7
 10
257.25
 20
209.04890285905071
 30
0.0
 40
2.0000000000000049
 50
295.94447977237081
 51
0.0
  0
LINE
  5
23B
  8
DATA
  6
CONTINUOUS
 62
     7
 10
223.0
 20
204.5
 30
0.0
 11
223.0
 21
205.4520292165663
 31
0.0
  0
ARC
  5
23C
  8
DATA
  6
CONTINUOUS
 62
     7
 10
222.75
 20
209.04890285905071
 30
0.0
 40
2.0
 50
180.0
 51
244.05552022762919
  0
ARC
  5
23D
  8
DATA
  6
CONTINUOUS
 62
     7
 10
221.00000000000031
 20
205.4520292165663
 30
0.0
 40
1.999999999999772
 50
0.0
 51
64.0555202276351
  0
ARC
  5
23E
  8
DATA
  6
CONTINUOUS
 62
     7
 10
222.75
 20
209.04890285905071
 30
0.0
 40
2.0
 50
180.0
 51
244.05552022762919
  0
LINE
  5
23F
  8
DATA
  6
CONTINUOUS
 62
     7
 10
257.0
 20
204.5
 30
0.0
 11
257.0
 21
205.4520292165663
 31
0.0
  0
ARC
  5
240
  8
DATA
  6
CONTINUOUS
 62
     7
 10
258.99999999999972
 20
205.4520292165663
 30
0.0
 40
1.9999999999997791
 50
115.9444797723649
 51
180.0
  0
LINE
  5
241
  8
DATA
  6
CONTINUOUS
 62
     7
 10
257.75
 20
204.5
 30
0.0
 11
222.25
 21
204.5
 31
0.0
  0
LINE
  5
242
  8
DATA
  6
CONTINUOUS
 62
     7
 10
221.5
 20
176.5
 30
0.0
 11
258.5
 21
176.5
 31
0.0
  0
TEXT
  5
243
  8
DATA
 62
     7
 10
234.21388683279849
 20
194.8738937621832
 30
0.0
 40
4.072102864583333
  1
SM58
  7
_______
 11
234.21388683279849
 21
198.94599662676649
 31
0.0
 73
     3
  0
LINE
  5
244
  8
DATA
  6
CONTINUOUS
 62
     7
 10
221.5
 20
176.5
 30
0.0
 11
221.5
 21
201.0
 31
0.0
  0
LINE
  5
245
  8
DATA
  6
CONTINUOUS
 62
     7
 10
258.5
 20
176.5
 30
0.0
 11
258.5
 21
201.0
 31
0.0
  0
LINE
  5
246
  8
DATA
  6
CONTINUOUS
 62
     7
 10
221.5
 20
201.0
 30
0.0
 11
258.5
 21
201.0
 31
0.0
  0
LINE
  5
247
  8
DATA
  6
CONTINUOUS
 62
     7
 10
222.25
 20
204.5
 30
0.0
 11
221.5
 21
201.0
 31
0.0
  0
LINE
  5
248
  8
DATA
  6
CONTINUOUS
 62
     7
 10
257.75
 20
204.5
 30
0.0
 11
258.5
 21
201.0
 31
0.0
  0
LINE
  5
249
  8
DATA
  6
CONTINUOUS
 62
     7
 10
221.5
 20
176.0
 30
0.0
 11
258.5
 21
176.0
 31
0.0
  0
LINE
  5
24A
  8
DATA
  6
CONTINUOUS
 62
     7
 10
222.5
 20
102.0
 30
0.0
 11
257.5
 21
102.0
 31
0.0
  0
LINE
  5
24B
  8
DATA
  6
CONTINUOUS
 62
     7
 10
222.5
 20
136.0
 30
0.0
 11
222.5
 21
102.0
 31
0.0
  0
LINE
  5
24C
  8
DATA
  6
CONTINUOUS
 62
     7
 10
257.5
 20
136.0
 30
0.0
 11
257.5
 21
102.0
 31
0.0
  0
ARC
  5
24D
  8
DATA
  6
CONTINUOUS
 62
     7
 10
391.17307692307702
 20
171.88461538461539
 30
0.0
 40
169.72297847691971
 50
178.61057540006649
 51
187.0513242185211
  0
LINE
  5
24E
  8
DATA
  6
CONTINUOUS
 62
     7
 10
257.5
 20
136.0
 30
0.0
 11
257.5
 21
102.0
 31
0.0
  0
ARC
  5
24F
  8
DATA
  6
CONTINUOUS
 62
     7
 10
148.79505169867059
 20
138.32865583456419
 30
0.0
 40
108.7298874421865
 50
358.77280887296558
 51
4.5740453520401161
  0
LINE
  5
250
  8
DATA
  6
CONTINUOUS
 62
     7
 10
222.5
 20
176.5
 30
0.0
 11
222.5
 21
176.0
 31
0.0
  0
LINE
  5
251
  8
DATA
  6
CONTINUOUS
 62
     7
 10
257.5
 20
176.5
 30
0.0
 11
257.5
 21
176.0
 31
0.0
  0
LINE
  5
252
  8
DATA
  6
CONTINUOUS
 62
     7
 10
222.5
 20
102.5
 30
0.0
 11
257.5
 21
102.5
 31
0.0
  0
LINE
  5
253
  8
DATA
  6
CONTINUOUS
 62
     7
 10
223.0
 20
37.0
 30
0.0
 11
257.0
 21
37.0
 31
0.0
  0
LINE
  5
254
  8
DATA
  6
CONTINUOUS
 62
     7
 10
224.0
 20
28.0
 30
0.0
 11
256.0
 21
28.0
 31
0.0
  0
LINE
  5
255
  8
DATA
  6
CONTINUOUS
 62
     7
 10
223.0
 20
29.0
 30
0.0
 11
223.0
 21
37.0
 31
0.0
  0
LINE
  5
256
  8
DATA
  6
CONTINUOUS
 62
     7
 10
257.0
 20
29.0
 30
0.0
 11
257.0
 21
37.0
 31
0.0
  0
LINE
  5
257
  8
DATA
  6
CONTINUOUS
 62
     7
 10
223.0
 20
37.5
 30
0.0
 11
257.0
 21
37.5
 31
0.0
  0
LINE
  5
258
  8
DATA
  6
CONTINUOUS
 62
     7
 10
222.5
 20
102.0
 30
0.0
 11
223.0
 21
37.5
 31
0.0
  0
LINE
  5
259
  8
DATA
  6
CONTINUOUS
 62
     7
 10
257.5
 20
102.0
 30
0.0
 11
257.0
 21
37.5
 31
0.0
  0
LINE
  5
25A
  8
DATA
  6
CONTINUOUS
 62
     7
 10
223.0
 20
37.5
 30
0.0
 11
223.5
 21
37.25
 31
0.0
  0
LINE
  5
25B
  8
DATA
  6
CONTINUOUS
 62
     7
 10
223.5
 20
37.25
 30
0.0
 11
223.0
 21
37.0
 31
0.0
  0
LINE
  5
25C
  8
DATA
  6
CONTINUOUS
 62
     7
 10
257.0
 20
37.5
 30
0.0
 11
256.5
 21
37.25
 31
0.0
  0
LINE
  5
25D
  8
DATA
  6
CONTINUOUS
 62
     7
 10
256.5
 20
37.25
 30
0.0
 11
257.0
 21
37.0
 31
0.0
  0
LINE
  5
25E
  8
DATA
  6
CONTINUOUS
 62
     7
 10
223.5
 20
37.25
 30
0.0
 11
256.5
 21
37.25
 31
0.0
  0
ARC
  5
25F
  8
DATA
  6
CONTINUOUS
 62
     7
 10
224.0
 20
29.0
 30
0.0
 40
1.0
 50
180.0
 51
270.0
  0
ARC
  5
260
  8
DATA
  6
CONTINUOUS
 62
     7
 10
256.0
 20
29.0
 30
0.0
 40
1.0
 50
270.0
 51
0.0
  0
LINE
  5
261
  8
DATA
  6
CONTINUOUS
 62
     7
 10
230.9469068496301
 20
0.0
 30
0.0
 11
249.0530931503699
 21
0.0
 31
0.0
  0
LINE
  5
262
  8
DATA
  6
CONTINUOUS
 62
     7
 10
227.5
 20
28.0
 30
0.0
 11
227.9473850515937
 21
2.9464371107493572
 31
0.0
  0
LINE
  5
263
  8
DATA
  6
CONTINUOUS
 62
     7
 10
252.5
 20
28.0
 30
0.0
 11
252.05261494840619
 21
2.9464371107493572
 31
0.0
  0
ARC
  5
264
  8
DATA
  6
CONTINUOUS
 62
     7
 10
230.9469068496301
 20
3.0
 30
0.0
 40
3.0000000000000062
 50
181.0230301886676
 51
270.0
  0
ARC
  5
265
  8
DATA
  6
CONTINUOUS
 62
     7
 10
249.0530931503699
 20
2.9999999999999849
 30
0.0
 40
2.9999999999999849
 50
270.0
 51
358.97696981133248
  0
TEXT
  5
266
  8
DATA
 62
     7
 10
237.21433710467701
 20
30.659518004825529
 30
0.0
 40
3.2576822916666659
  1
MW2
  7
_______
 11
237.21433710467701
 21
33.917200296492197
 31
0.0
 73
     3
  0
LINE
  5
267
  8
DATA
  6
CONTINUOUS
 62
     7
 10
232.5
 20
21.0
 30
0.0
 11
247.5
 21
21.0
 31
0.0
  0
LINE
  5
268
  8
DATA
  6
CONTINUOUS
 62
     7
 10
232.5
 20
21.0
 30
0.0
 11
232.5
 21
28.0
 31
0.0
  0
LINE
  5
269
  8
DATA
  6
CONTINUOUS
 62
     7
 10
247.5
 20
21.0
 30
0.0
 11
247.5
 21
28.0
 31
0.0
  0
LINE
  5
26A
  8
DATA
  6
CONTINUOUS
 62
     7
 10
234.5
 20
23.0
 30
0.0
 11
245.5
 21
23.0
 31
0.0
  0
LINE
  5
26B
  8
DATA
  6
CONTINUOUS
 62
     7
 10
234.5
 20
23.0
 30
0.0
 11
234.5
 21
28.0
 31
0.0
  0
LINE
  5
26C
  8
DATA
  6
CONTINUOUS
 62
     7
 10
245.5
 20
23.0
 30
0.0
 11
245.5
 21
28.0
 31
0.0
  0
LINE
  5
26D
  8
DATA
  6
CONTINUOUS
 62
     7
 10
235.0
 20
26.5
 30
0.0
 11
245.0
 21
26.5
 31
0.0
  0
LINE
  5
26E
  8
DATA
  6
CONTINUOUS
 62
     7
 10
245.0
 20
26.5
 30
0.0
 11
245.0
 21
24.5
 31
0.0
  0
LINE
  5
26F
  8
DATA
  6
CONTINUOUS
 62
     7
 10
235.0
 20
26.5
 30
0.0
 11
235.0
 21
24.5
 31
0.0
  0
LINE
  5
270
  8
DATA
  6
CONTINUOUS
 62
     7
 10
235.0
 20
24.5
 30
0.0
 11
245.0
 21
24.5
 31
0.0
  0
LINE
  5
271
  8
DATA
  6
CONTINUOUS
 62
     7
 10
237.0
 20
26.5
 30
0.0
 11
237.0
 21
24.5
 31
0.0
  0
LINE
  5
272
  8
DATA
  6
CONTINUOUS
 62
     7
 10
240.0
 20
26.5
 30
0.0
 11
240.5
 21
25.5
 31
0.0
  0
LINE
  5
273
  8
DATA
  6
CONTINUOUS
 62
     7
 10
240.5
 20
25.5
 30
0.0
 11
240.0
 21
24.5
 31
0.0
  0
LINE
  5
274
  8
DATA
  6
CONTINUOUS
 62
     7
 10
242.0
 20
26.5
 30
0.0
 11
241.5
 21
25.5
 31
0.0
  0
LINE
  5
275
  8
DATA
  6
CONTINUOUS
 62
     7
 10
241.5
 20
25.5
 30
0.0
 11
242.0
 21
24.5
 31
0.0
  0
TEXT
  5
276
  8
DATA
 62
     7
 10
237.550000025332
 20
24.866235380116962
 30
0.0
 40
1.154296875
  1
OFF
  7
_______
 11
237.550000025332
 21
26.020532255116962
 31
0.0
 73
     3
  0
TEXT
  5
277
  8
DATA
 62
     7
 10
242.550000025332
 20
24.866235380116962
 30
0.0
 40
1.154296875
  1
ON
  7
_______
 11
242.550000025332
 21
26.020532255116962
 31
0.0
 73
     3
  0
CIRCLE
  5
278
  8
DATA
  6
CONTINUOUS
 62
     7
 10
236.0
 20
25.5
 30
0.0
 40
0.5
  0
LINE
  5
279
  8
DATA
  6
CONTINUOUS
 62
     7
 10
-25.5
 20
228.04890285905071
 30
0.0
 11
25.5
 21
228.04890285905071
 31
0.0
  0
LINE
  5
27A
  8
DATA
  6
CONTINUOUS
 62
     7
 10
-25.5
 20
226.04890285905071
 30
0.0
 11
25.5
 21
226.04890285905071
 31
0.0
  0
LINE
  5
27B
  8
DATA
  6
CONTINUOUS
 62
     7
 10
-25.5
 20
225.04890285905071
 30
0.0
 11
-25.5
 21
226.04890285905071
 31
0.0
  0
LINE
  5
27C
  8
DATA
  6
CONTINUOUS
 62
     7
 10
-25.5
 20
228.04890285905071
 30
0.0
 11
-25.5
 21
229.04890285905071
 31
0.0
  0
LINE
  5
27D
  8
DATA
  6
CONTINUOUS
 62
     7
 10
25.5
 20
229.04890285905071
 30
0.0
 11
25.5
 21
228.04890285905071
 31
0.0
  0
LINE
  5
27E
  8
DATA
  6
CONTINUOUS
 62
     7
 10
25.5
 20
226.04890285905071
 30
0.0
 11
25.5
 21
225.04890285905071
 31
0.0
  0
LINE
  5
27F
  8
DATA
  6
CONTINUOUS
 62
     7
 10
-25.5
 20
229.04890285905071
 30
0.0
 11
25.5
 21
229.04890285905071
 31
0.0
  0
LINE
  5
280
  8
DATA
  6
CONTINUOUS
 62
     7
 10
-25.5
 20
225.04890285905071
 30
0.0
 11
25.5
 21
225.04890285905071
 31
0.0
  0
LINE
  5
281
  8
DATA
  6
CONTINUOUS
 62
     7
 10
-25.0
 20
226.04890285905071
 30
0.0
 11
-25.0
 21
228.04890285905071
 31
0.0
  0
LINE
  5
282
  8
DATA
  6
CONTINUOUS
 62
     7
 10
25.0
 20
226.04890285905071
 30
0.0
 11
25.0
 21
228.04890285905071
 31
0.0
  0
ARC
  5
283
  8
DATA
  6
CONTINUOUS
 62
     7
 10
0.0
 20
228.04890285905071
 30
0.0
 40
25.019992006393611
 50
2.2906100426385292
 51
177.7093899573614
  0
ARC
  5
284
  8
DATA
  6
CONTINUOUS
 62
     7
 10
0.0572087175188472
 20
225.90808140054281
 30
0.0
 40
25.07193443832093
 50
181.96382709775239
 51
222.25506958975089
  0
ARC
  5
285
  8
DATA
  6
CONTINUOUS
 62
     7
 10
-0.0572087175188472
 20
225.90808140054281
 30
0.0
 40
25.07193443832093
 50
317.74493041024908
 51
358.03617290224759
  0
LINE
  5
286
  8
DATA
  6
CONTINUOUS
 62
     7
 10
19.25
 20
209.04890285905071
 30
0.0
 11
-19.25
 21
209.04890285905071
 31
0.0
  0
LINE
  5
287
  8
DATA
  6
CONTINUOUS
 62
     7
 10
94.500000000000014
 20
228.04890285905071
 30
0.0
 11
145.5
 21
228.04890285905071
 31
0.0
  0
LINE
  5
288
  8
DATA
  6
CONTINUOUS
 62
     7
 10
94.500000000000014
 20
226.04890285905071
 30
0.0
 11
145.5
 21
226.04890285905071
 31
0.0
  0
LINE
  5
289
  8
DATA
  6
CONTINUOUS
 62
     7
 10
94.500000000000014
 20
225.04890285905071
 30
0.0
 11
94.500000000000014
 21
226.04890285905071
 31
0.0
  0
LINE
  5
28A
  8
DATA
  6
CONTINUOUS
 62
     7
 10
94.500000000000014
 20
228.04890285905071
 30
0.0
 11
94.500000000000014
 21
229.04890285905071
 31
0.0
  0
LINE
  5
28B
  8
DATA
  6
CONTINUOUS
 62
     7
 10
145.5
 20
229.04890285905071
 30
0.0
 11
145.5
 21
228.04890285905071
 31
0.0
  0
LINE
  5
28C
  8
DATA
  6
CONTINUOUS
 62
     7
 10
145.5
 20
226.04890285905071
 30
0.0
 11
145.5
 21
225.04890285905071
 31
0.0
  0
LINE
  5
28D
  8
DATA
  6
CONTINUOUS
 62
     7
 10
94.500000000000014
 20
229.04890285905071
 30
0.0
 11
145.5
 21
229.04890285905071
 31
0.0
  0
LINE
  5
28E
  8
DATA
  6
CONTINUOUS
 62
     7
 10
94.500000000000014
 20
225.04890285905071
 30
0.0
 11
145.5
 21
225.04890285905071
 31
0.0
  0
LINE
  5
28F
  8
DATA
  6
CONTINUOUS
 62
     7
 10
95.0
 20
226.04890285905071
 30
0.0
 11
95.0
 21
228.04890285905071
 31
0.0
  0
LINE
  5
290
  8
DATA
  6
CONTINUOUS
 62
     7
 10
145.0
 20
226.04890285905071
 30
0.0
 11
145.0
 21
228.04890285905071
 31
0.0
  0
ARC
  5
291
  8
DATA
  6
CONTINUOUS
 62
     7
 10
120.0
 20
228.04890285905071
 30
0.0
 40
25.019992006393611
 50
2.2906100426385292
 51
177.7093899573614
  0
ARC
  5
292
  8
DATA
  6
CONTINUOUS
 62
     7
 10
120.0572087175188
 20
225.90808140054281
 30
0.0
 40
25.07193443832093
 50
181.96382709775239
 51
222.25506958975089
  0
ARC
  5
293
  8
DATA
  6
CONTINUOUS
 62
     7
 10
119.9427912824811
 20
225.90808140054281
 30
0.0
 40
25.07193443832093
 50
317.74493041024908
 51
358.03617290224759
  0
LINE
  5
294
  8
DATA
  6
CONTINUOUS
 62
     7
 10
139.25
 20
209.04890285905071
 30
0.0
 11
100.75
 21
209.04890285905071
 31
0.0
  0
ARC
  5
295
  8
DATA
  6
CONTINUOUS
 62
     7
 10
240.0
 20
228.04890285905071
 30
0.0
 40
25.019992006393611
 50
2.2906100426385292
 51
177.7093899573614
  0
ARC
  5
296
  8
DATA
  6
CONTINUOUS
 62
     7
 10
239.9427912824811
 20
225.90808140054281
 30
0.0
 40
25.07193443832093
 50
317.74493041024908
 51
358.03617290224759
  0
ARC
  5
297
  8
DATA
  6
CONTINUOUS
 62
     7
 10
240.05720871751879
 20
225.90808140054281
 30
0.0
 40
25.07193443832093
 50
181.96382709775239
 51
222.25506958975089
  0
LINE
  5
298
  8
DATA
  6
CONTINUOUS
 62
     7
 10
214.5
 20
228.04890285905071
 30
0.0
 11
265.5
 21
228.04890285905071
 31
0.0
  0
LINE
  5
299
  8
DATA
  6
CONTINUOUS
 62
     7
 10
214.5
 20
226.04890285905071
 30
0.0
 11
265.5
 21
226.04890285905071
 31
0.0
  0
LINE
  5
29A
  8
DATA
  6
CONTINUOUS
 62
     7
 10
214.5
 20
225.04890285905071
 30
0.0
 11
214.5
 21
226.04890285905071
 31
0.0
  0
LINE
  5
29B
  8
DATA
  6
CONTINUOUS
 62
     7
 10
214.5
 20
228.04890285905071
 30
0.0
 11
214.5
 21
229.04890285905071
 31
0.0
  0
LINE
  5
29C
  8
DATA
  6
CONTINUOUS
 62
     7
 10
265.5
 20
229.04890285905071
 30
0.0
 11
265.5
 21
228.04890285905071
 31
0.0
  0
LINE
  5
29D
  8
DATA
  6
CONTINUOUS
 62
     7
 10
265.5
 20
226.04890285905071
 30
0.0
 11
265.5
 21
225.04890285905071
 31
0.0
  0
LINE
  5
29E
  8
DATA
  6
CONTINUOUS
 62
     7
 10
214.5
 20
229.04890285905071
 30
0.0
 11
265.5
 21
229.04890285905071
 31
0.0
  0
LINE
  5
29F
  8
DATA
  6
CONTINUOUS
 62
     7
 10
214.5
 20
225.04890285905071
 30
0.0
 11
265.5
 21
225.04890285905071
 31
0.0
  0
LINE
  5
2A0
  8
DATA
  6
CONTINUOUS
 62
     7
 10
215.0
 20
226.04890285905071
 30
0.0
 11
215.0
 21
228.04890285905071
 31
0.0
  0
LINE
  5
2A1
  8
DATA
  6
CONTINUOUS
 62
     7
 10
265.0
 20
226.04890285905071
 30
0.0
 11
265.0
 21
228.04890285905071
 31
0.0
  0
LINE
  5
2A2
  8
DATA
  6
CONTINUOUS
 62
     7
 10
259.25
 20
209.04890285905071
 30
0.0
 11
220.75
 21
209.04890285905071
 31
0.0
  0
CIRCLE
  5
2A3
  8
DATA
  6
CONTINUOUS
 62
     7
 10
0.0
 20
-100.0
 30
0.0
 40
9.0
  0
ARC
  5
2A4
  8
DATA
  6
CONTINUOUS
 62
     7
 10
-37.1149480715763
 20
148.5945272404534
 30
0.0
 40
19.99999999999018
 50
355.42595464795721
 51
7.0513242185242007
  0
ARC
  5
2A5
  8
DATA
  6
CONTINUOUS
 62
     7
 10
91.204948301329395
 20
138.32865583456419
 30
0.0
 40
108.7298874421865
 50
175.42595464796011
 51
181.22719112703439
  0
ARC
  5
2A6
  8
DATA
  6
CONTINUOUS
 62
     7
 10
37.114948071586241
 20
148.59452724045369
 30
0.0
 40
20.000000000000021
 50
172.9486757814791
 51
184.5740453520404
  0
ARC
  5
2A7
  8
DATA
  6
CONTINUOUS
 62
     7
 10
-151.17307692307691
 20
171.88461538461539
 30
0.0
 40
169.72297847691971
 50
352.94867578147881
 51
1.3894245999334769
  0
ARC
  5
2A8
  8
DATA
  6
CONTINUOUS
 62
     7
 10
82.885051928413802
 20
148.59452724045309
 30
0.0
 40
20.00000000000005
 50
355.42595464796022
 51
7.0513242185213016
  0
ARC
  5
2A9
  8
DATA
  6
CONTINUOUS
 62
     7
 10
211.20494830132941
 20
138.32865583456419
 30
0.0
 40
108.7298874421865
 50
175.42595464796011
 51
181.22719112703439
  0
ARC
  5
2AA
  8
DATA
  6
CONTINUOUS
 62
     7
 10
157.1149480715857
 20
148.59452724045079
 30
0.0
 40
19.99999999999984
 50
172.94867578147779
 51
184.57404535203881
  0
ARC
  5
2AB
  8
DATA
  6
CONTINUOUS
 62
     7
 10
-31.173076923076959
 20
171.88461538461539
 30
0.0
 40
169.72297847691971
 50
352.94867578147802
 51
1.3894245999334769
  0
ARC
  5
2AC
  8
DATA
  6
CONTINUOUS
 62
     7
 10
202.8850519284137
 20
148.59452724045349
 30
0.0
 40
20.0
 50
355.42595464796011
 51
7.0513242185213576
  0
ARC
  5
2AD
  8
DATA
  6
CONTINUOUS
 62
     7
 10
331.20494830132941
 20
138.32865583456419
 30
0.0
 40
108.7298874421865
 50
175.4259546479598
 51
181.22719112703439
  0
ARC
  5
2AE
  8
DATA
  6
CONTINUOUS
 62
     7
 10
277.11494807157231
 20
148.5945272404538
 30
0.0
 40
19.999999999986109
 50
172.94867578147461
 51
184.5740453520439
  0
ARC
  5
2AF
  8
DATA
  6
CONTINUOUS
 62
     7
 10
88.826923076923052
 20
171.88461538461539
 30
0.0
 40
169.72297847691971
 50
352.94867578147881
 51
1.3894245999334769
  0
TEXT
  5
2B0
  8
DATA
 62
     7
 10
-122.50003
 20
-242.78599249999999
 30
0.0
 40
4.8865234374999993
  1
仕様および外観は予告なく変更されることがありますので、ご了承ください。
  7
_______
 11
-122.50003
 21
-237.8994690625
 31
0.0
 73
     3
  0
ENDSEC
  0
EOF
