  0
SECTION
  2
HEADER
  9
$ACADVER
  1
AC1009
  9
$INSBASE
 10
0.0
 20
0.0
 30
0.0
  9
$EXTMIN
 10
-152.51647823400589
 20
-278.36571085595318
 30
-0.0006797775351437
  9
$EXTMAX
 10
387.51645074857652
 20
524.52445227010935
 30
0.0000000155594684
  9
$LIMMIN
 10
0.0
 20
0.0
  9
$LIMMAX
 10
0.0
 20
0.0
  9
$ORTHOMODE
 70
     0
  9
$REGENMODE
 70
     1
  9
$FILLMODE
 70
     1
  9
$QTEXTMODE
 70
     0
  9
$MIRRTEXT
 70
     1
  9
$DRAGMODE
 70
     2
  9
$LTSCALE
 40
15.24
  9
$OSMODE
 70
   231
  9
$ATTMODE
 70
     1
  9
$TEXTSIZE
 40
0.0
  9
$TRACEWID
 40
1.0
  9
$TEXTSTYLE
  7
STANDARD
  9
$CLAYER
  8
DATA
  9
$CELTYPE
  6
BYLAYER
  9
$CECOLOR
 62
   256
  9
$DIMSCALE
 40
1.0
  9
$DIMASZ
 40
0.18
  9
$DIMEXO
 40
0.0625
  9
$DIMDLI
 40
0.38
  9
$DIMRND
 40
0.0
  9
$DIMDLE
 40
0.0
  9
$DIMEXE
 40
0.18
  9
$DIMTP
 40
0.0
  9
$DIMTM
 40
0.0
  9
$DIMTXT
 40
0.18
  9
$DIMCEN
 40
0.09
  9
$DIMTSZ
 40
0.0
  9
$DIMTOL
 70
     0
  9
$DIMLIM
 70
     0
  9
$DIMTIH
 70
     1
  9
$DIMTOH
 70
     1
  9
$DIMSE1
 70
     0
  9
$DIMSE2
 70
     0
  9
$DIMTAD
 70
     0
  9
$DIMZIN
 70
     0
  9
$DIMBLK
  1

  9
$DIMASO
 70
     1
  9
$DIMSHO
 70
     1
  9
$DIMPOST
  1

  9
$DIMAPOST
  1

  9
$DIMALT
 70
     0
  9
$DIMALTD
 70
     2
  9
$DIMALTF
 40
25.399999999999999
  9
$DIMLFAC
 40
1.0
  9
$DIMTOFL
 70
     0
  9
$DIMTVP
 40
0.0
  9
$DIMTIX
 70
     0
  9
$DIMSOXD
 70
     0
  9
$DIMSAH
 70
     0
  9
$DIMBLK1
  1

  9
$DIMBLK2
  1

  9
$DIMSTYLE
  2
STANDARD
  9
$DIMCLRD
 70
     0
  9
$DIMCLRE
 70
     0
  9
$DIMCLRT
 70
     0
  9
$DIMTFAC
 40
1.0
  9
$DIMGAP
 40
0.09
  9
$LUNITS
 70
     2
  9
$LUPREC
 70
     4
  9
$SKETCHINC
 40
0.1
  9
$FILLETRAD
 40
0.0
  9
$AUNITS
 70
     0
  9
$AUPREC
 70
     0
  9
$MENU
  1
acad
  9
$ELEVATION
 40
0.0
  9
$PELEVATION
 40
0.0
  9
$THICKNESS
 40
0.0
  9
$LIMCHECK
 70
     0
  9
$BLIPMODE
 70
     0
  9
$CHAMFERA
 40
0.0
  9
$CHAMFERB
 40
0.0
  9
$SKPOLY
 70
     0
  9
$TDCREATE
 40
2455184.8094328698
  9
$TDUPDATE
 40
2455184.8133281479
  9
$TDINDWG
 40
0.000262037
  9
$TDUSRTIMER
 40
0.000262037
  9
$USRTIMER
 70
     1
  9
$ANGBASE
 50
0.0
  9
$ANGDIR
 70
     0
  9
$PDMODE
 70
     1
  9
$PDSIZE
 40
-2.0
  9
$PLINEWID
 40
0.0
  9
$COORDS
 70
     0
  9
$SPLFRAME
 70
     0
  9
$SPLINETYPE
 70
     6
  9
$SPLINESEGS
 70
     8
  9
$ATTDIA
 70
     0
  9
$ATTREQ
 70
     1
  9
$HANDLING
 70
     1
  9
$HANDSEED
  5
390
  9
$SURFTAB1
 70
     6
  9
$SURFTAB2
 70
     6
  9
$SURFTYPE
 70
     6
  9
$SURFU
 70
     6
  9
$SURFV
 70
     6
  9
$UCSNAME
  2

  9
$UCSORG
 10
0.0
 20
0.0
 30
0.0
  9
$UCSXDIR
 10
1.0
 20
0.0
 30
0.0
  9
$UCSYDIR
 10
0.0
 20
1.0
 30
0.0
  9
$PUCSNAME
  2

  9
$PUCSORG
 10
0.0
 20
0.0
 30
0.0
  9
$PUCSXDIR
 10
1.0
 20
0.0
 30
0.0
  9
$PUCSYDIR
 10
0.0
 20
1.0
 30
0.0
  9
$USERI1
 70
     0
  9
$USERI2
 70
     0
  9
$USERI3
 70
     0
  9
$USERI4
 70
     0
  9
$USERI5
 70
     0
  9
$USERR1
 40
0.0
  9
$USERR2
 40
0.0
  9
$USERR3
 40
0.0
  9
$USERR4
 40
0.0
  9
$USERR5
 40
0.0
  9
$WORLDVIEW
 70
     1
  9
$SHADEDGE
 70
     3
  9
$SHADEDIF
 70
    70
  9
$TILEMODE
 70
     1
  9
$MAXACTVP
 70
    64
  9
$PLIMCHECK
 70
     0
  9
$PEXTMIN
 10
1.0000000000000000E+020
 20
1.0000000000000000E+020
 30
1.0000000000000000E+020
  9
$PEXTMAX
 10
-1.0000000000000000E+020
 20
-1.0000000000000000E+020
 30
-1.0000000000000000E+020
  9
$PLIMMIN
 10
0.0
 20
0.0
  9
$PLIMMAX
 10
12.0
 20
9.0
  9
$UNITMODE
 70
     0
  9
$VISRETAIN
 70
     0
  9
$PLINEGEN
 70
     1
  9
$PSLTSCALE
 70
     0
  0
ENDSEC
  0
SECTION
  2
TABLES
  0
TABLE
  2
VPORT
 70
     1
  0
VPORT
  2
*ACTIVE
 70
     0
 10
0.0
 20
0.0
 11
1.0
 21
1.0
 12
117.4999862572851
 22
123.079370707078
 13
0.0
 23
0.0
 14
1.0
 24
1.0
 15
0.0
 25
0.0
 16
0.0
 26
0.0
 36
1.0
 17
0.0
 27
0.0
 37
0.0
 40
808.87443763383453
 41
1.9863184079601981
 42
50.0
 43
0.0
 44
0.0
 50
0.0
 51
0.0
 71
     0
 72
  2000
 73
     1
 74
     1
 75
     0
 76
     0
 77
     0
 78
     0
  0
ENDTAB
  0
TABLE
  2
LTYPE
 70
    11
  0
LTYPE
  2
CONTINUOUS
 70
     0
  3
Solid line
 72
    65
 73
     0
 40
0.0
  0
ENDTAB
  0
TABLE
  2
LAYER
 70
     6
  0
LAYER
  2
0
 70
     0
 62
     7
  6
CONTINUOUS
  0
LAYER
  2
DATA
 70
     0
 62
     7
  6
CONTINUOUS
  0
LAYER
  2
HIBINO-BASE
 70
     0
 62
     7
  6
CONTINUOUS
  0
LAYER
  2
PATTERN_FILL
 70
     0
 62
     7
  6
CONTINUOUS
  0
LAYER
  2
SPEC
 70
     0
 62
     7
  6
CONTINUOUS
  0
LAYER
  2
DIMNSIONS
 70
     0
 62
     7
  6
CONTINUOUS
  0
ENDTAB
  0
TABLE
  2
STYLE
 70
     3
  0
STYLE
  2
STANDARD
 70
     0
 40
0.0
 41
1.0
 50
0.0
 71
     0
 42
0.0
  3
txt
  4
BIGFONT.SHX
  0
ENDTAB
  0
TABLE
  2
VIEW
 70
     0
  0
ENDTAB
  0
TABLE
  2
UCS
 70
     0
  0
ENDTAB
  0
TABLE
  2
APPID
 70
     3
  0
APPID
  2
ACAD
 70
     0
  0
APPID
  2
ACADANNOTATIVE
 70
     0
  0
APPID
  2
ACAD_MLEADERVER
 70
     0
  0
ENDTAB
  0
TABLE
  2
DIMSTYLE
 70
     2
  0
DIMSTYLE
  2
STANDARD
 70
     0
  3

  4

  5

  6

  7

 40
1.0
 41
0.18
 42
0.0625
 43
0.38
 44
0.18
 45
0.0
 46
0.0
 47
0.0
 48
0.0
140
0.18
141
0.09
142
0.0
143
25.399999999999999
144
1.0
145
0.0
146
1.0
147
0.09
 71
     0
 72
     0
 73
     1
 74
     1
 75
     0
 76
     0
 77
     0
 78
     0
170
     0
171
     2
172
     0
173
     0
174
     0
175
     0
176
     0
177
     0
178
     0
  0
ENDTAB
  0
ENDSEC
  0
SECTION
  2
BLOCKS
  0
BLOCK
  8
0
  2
$MODEL_SPACE
 70
     0
 10
0.0
 20
0.0
 30
0.0
  3
$MODEL_SPACE
  1

  0
ENDBLK
  5
32D
  8
0
  0
BLOCK
 67
     1
  8
0
  2
$PAPER_SPACE
 70
     0
 10
0.0
 20
0.0
 30
0.0
  3
$PAPER_SPACE
  1

  0
ENDBLK
  5
329
 67
     1
  8
0
  0
BLOCK
  8
PATTERN_FILL
  2
____
 70
     0
 10
0.0
 20
0.0
 30
0.0
  3
____
  1

  0
ARC
  5
2F
  8
0
  6
CONTINUOUS
 62
     7
 10
-117.499985
 20
-237.1284182096943
 30
0.0
 40
21.999999999999972
 50
149.8800904263301
 51
158.67631373650201
  0
ARC
  5
30
  8
0
  6
CONTINUOUS
 62
     7
 10
-117.499985
 20
-237.1284182096943
 30
0.0
 40
23.999999999999961
 50
134.93020578540629
 51
160.52877936550931
  0
ARC
  5
31
  8
0
  6
CONTINUOUS
 62
     7
 10
-117.499985
 20
-237.1284182096943
 30
0.0
 40
25.999999999999989
 50
115.39001657831081
 51
149.39717933085191
  0
ARC
  5
32
  8
0
  6
CONTINUOUS
 62
     7
 10
-117.499985
 20
-237.1284182096943
 30
0.0
 40
27.999999999999972
 50
45.728353920330399
 51
134.27164607966969
  0
ARC
  5
33
  8
0
  6
CONTINUOUS
 62
     7
 10
-117.499985
 20
-237.1284182096943
 30
0.0
 40
29.999999999999972
 50
65.814073631362476
 51
114.18592636863779
  0
LINE
  5
34
  8
0
  6
CONTINUOUS
 62
     7
 10
-117.499985
 20
-206.20227
 30
0.0
 11
-117.499985
 21
-210.12737146130641
 31
0.0
  0
ARC
  5
35
  8
0
  6
CONTINUOUS
 62
     7
 10
-744.74998500000061
 20
-231.12841820969439
 30
0.0
 40
625.25000000000102
 50
1.912349155139871
 51
2.2723387098093779
  0
ARC
  5
36
  8
0
  6
CONTINUOUS
 62
     7
 10
-744.6550989606377
 20
-242.00128137646459
 30
0.0
 40
623.25000000000102
 50
2.8794719000980762
 51
3.2441405321321688
  0
ARC
  5
37
  8
0
  6
CONTINUOUS
 62
     7
 10
-744.37148458417755
 20
-252.83299568963739
 30
0.0
 40
621.2500000000008
 50
3.8220227072864952
 51
4.1950949352682887
  0
ARC
  5
38
  8
0
  6
CONTINUOUS
 62
     7
 10
-743.90043073234494
 20
-263.62195863877469
 30
0.0
 40
619.25000000000068
 50
4.7381781922335193
 51
5.1242403083650867
  0
ARC
  5
39
  8
0
  6
CONTINUOUS
 62
     7
 10
-743.24328635383381
 20
-274.36617425436162
 30
0.0
 40
617.2500000000008
 50
5.6247360054188498
 51
6.0299442902286042
  0
ARC
  5
3A
  8
0
  6
CONTINUOUS
 62
     7
 10
-742.40146615807032
 20
-285.06251401278013
 30
0.0
 40
615.25000000000068
 50
6.4760994169397037
 51
6.9095461795590989
  0
ARC
  5
3B
  8
0
  6
CONTINUOUS
 62
     7
 10
-741.37644023677785
 20
-295.70781522283971
 30
0.0
 40
613.2500000000008
 50
7.28206497386837
 51
7.7588923837271251
  0
ARC
  5
3C
  8
0
  6
CONTINUOUS
 62
     7
 10
-740.16973263606019
 20
-306.29895190701569
 30
0.0
 40
611.25000000000068
 50
8.0207145207973962
 51
8.5711432192349104
  0
ARC
  5
3D
  8
0
  6
CONTINUOUS
 62
     7
 10
-738.78292052303425
 20
-316.83283571810881
 30
0.0
 40
609.25000000000125
 50
8.6218022805520835
 51
9.3337972158209954
  0
ARC
  5
3E
  8
0
  6
CONTINUOUS
 62
     7
 10
-737.21763333695424
 20
-327.30641683800633
 30
0.0
 40
607.25000000000068
 50
9.3042143299878077
 51
10.01902477928089
  0
ARC
  5
3F
  8
0
  6
CONTINUOUS
 62
     7
 10
-735.47555192520463
 20
-337.7166848582811
 30
0.0
 40
605.25000000000091
 50
10.33543090944351
 51
10.525119331335411
  0
ARC
  5
40
  8
0
  6
CONTINUOUS
 62
     7
 10
-117.499985
 20
-237.1284182096943
 30
0.0
 40
21.999999999999972
 50
21.323686263497962
 51
30.11990957366984
  0
ARC
  5
41
  8
0
  6
CONTINUOUS
 62
     7
 10
-117.499985
 20
-237.1284182096943
 30
0.0
 40
23.999999999999961
 50
19.471220634490731
 51
45.069794214593713
  0
ARC
  5
42
  8
0
  6
CONTINUOUS
 62
     7
 10
-117.499985
 20
-237.1284182096943
 30
0.0
 40
26.0
 50
30.602820669148119
 51
64.609983421689108
  0
ARC
  5
43
  8
0
  6
CONTINUOUS
 62
     7
 10
509.75001500000081
 20
-231.12841820969439
 30
0.0
 40
625.2500000000008
 50
177.72766129019061
 51
178.08765084486009
  0
ARC
  5
44
  8
0
  6
CONTINUOUS
 62
     7
 10
509.65512896063763
 20
-242.00128137646459
 30
0.0
 40
623.25000000000068
 50
176.75585946786779
 51
177.12052809990189
  0
ARC
  5
45
  8
0
  6
CONTINUOUS
 62
     7
 10
509.37151458417742
 20
-252.83299568963739
 30
0.0
 40
621.2500000000008
 50
175.80490506473171
 51
176.17797729271351
  0
ARC
  5
46
  8
0
  6
CONTINUOUS
 62
     7
 10
508.90046073234498
 20
-263.62195863877469
 30
0.0
 40
619.25000000000068
 50
174.8757596916349
 51
175.26182180776641
  0
ARC
  5
47
  8
0
  6
CONTINUOUS
 62
     7
 10
508.24331635383402
 20
-274.36617425436162
 30
0.0
 40
617.25000000000045
 50
173.9700557097714
 51
174.37526399458119
  0
ARC
  5
48
  8
0
  6
CONTINUOUS
 62
     7
 10
507.4014961580703
 20
-285.06251401278013
 30
0.0
 40
615.25000000000068
 50
173.0904538204409
 51
173.5239005830602
  0
ARC
  5
49
  8
0
  6
CONTINUOUS
 62
     7
 10
506.37647023677772
 20
-295.70781522283971
 30
0.0
 40
613.2500000000008
 50
172.2411076162729
 51
172.71793502613161
  0
ARC
  5
4A
  8
0
  6
CONTINUOUS
 62
     7
 10
505.16976263606011
 20
-306.29895190701569
 30
0.0
 40
611.25000000000068
 50
171.4288567807651
 51
171.97928547920259
  0
ARC
  5
4B
  8
0
  6
CONTINUOUS
 62
     7
 10
503.78295052303429
 20
-316.83283571810881
 30
0.0
 40
609.25000000000125
 50
170.66620278417901
 51
171.37819771944791
  0
ARC
  5
4C
  8
0
  6
CONTINUOUS
 62
     7
 10
502.21766333695399
 20
-327.30641683800633
 30
0.0
 40
607.25000000000068
 50
169.9809752207191
 51
170.69578567001221
  0
ARC
  5
4D
  8
0
  6
CONTINUOUS
 62
     7
 10
500.47558192520461
 20
-337.7166848582811
 30
0.0
 40
605.25000000000091
 50
169.47488066866461
 51
169.66456909055651
  0
ARC
  5
4E
  8
0
  6
CONTINUOUS
 62
     7
 10
-117.499985
 20
-221.27612179030569
 30
0.0
 40
21.999999999999972
 50
201.3236862634979
 51
210.1199095736699
  0
ARC
  5
4F
  8
0
  6
CONTINUOUS
 62
     7
 10
-117.499985
 20
-221.27612179030569
 30
0.0
 40
23.999999999999961
 50
199.47122063449069
 51
225.06979421459371
  0
ARC
  5
50
  8
0
  6
CONTINUOUS
 62
     7
 10
-117.499985
 20
-221.27612179030569
 30
0.0
 40
26.0
 50
210.60282066914809
 51
244.60998342168909
  0
ARC
  5
51
  8
0
  6
CONTINUOUS
 62
     7
 10
-117.499985
 20
-221.27612179030569
 30
0.0
 40
27.999999999999972
 50
225.72835392033039
 51
314.27164607966961
  0
ARC
  5
52
  8
0
  6
CONTINUOUS
 62
     7
 10
-117.499985
 20
-221.27612179030569
 30
0.0
 40
29.999999999999961
 50
245.81407363136231
 51
294.18592636863752
  0
LINE
  5
53
  8
0
  6
CONTINUOUS
 62
     7
 10
-117.499985
 20
-252.20227
 30
0.0
 11
-117.499985
 21
-248.27716853869359
 31
0.0
  0
ARC
  5
54
  8
0
  6
CONTINUOUS
 62
     7
 10
-744.74998500000061
 20
-227.27612179030561
 30
0.0
 40
625.25000000000102
 50
357.72766129019072
 51
358.08765084486009
  0
ARC
  5
55
  8
0
  6
CONTINUOUS
 62
     7
 10
-744.6550989606377
 20
-216.40325862353541
 30
0.0
 40
623.25000000000102
 50
356.75585946786782
 51
357.12052809990189
  0
ARC
  5
56
  8
0
  6
CONTINUOUS
 62
     7
 10
-744.37148458417755
 20
-205.57154431036261
 30
0.0
 40
621.2500000000008
 50
355.80490506473171
 51
356.17797729271348
  0
ARC
  5
57
  8
0
  6
CONTINUOUS
 62
     7
 10
-743.90043073234494
 20
-194.78258136122531
 30
0.0
 40
619.25000000000068
 50
354.87575969163493
 51
355.26182180776652
  0
ARC
  5
58
  8
0
  6
CONTINUOUS
 62
     7
 10
-743.24328635383381
 20
-184.0383657456384
 30
0.0
 40
617.2500000000008
 50
353.97005570977137
 51
354.37526399458119
  0
ARC
  5
59
  8
0
  6
CONTINUOUS
 62
     7
 10
-742.40146615807032
 20
-173.3420259872199
 30
0.0
 40
615.25000000000068
 50
353.09045382044093
 51
353.5239005830602
  0
ARC
  5
5A
  8
0
  6
CONTINUOUS
 62
     7
 10
-741.37644023677785
 20
-162.69672477716031
 30
0.0
 40
613.2500000000008
 50
352.24110761627293
 51
352.71793502613161
  0
ARC
  5
5B
  8
0
  6
CONTINUOUS
 62
     7
 10
-740.16973263606019
 20
-152.10558809298431
 30
0.0
 40
611.25000000000068
 50
351.42885678076522
 51
351.97928547920259
  0
ARC
  5
5C
  8
0
  6
CONTINUOUS
 62
     7
 10
-738.78292052303425
 20
-141.57170428189119
 30
0.0
 40
609.25000000000125
 50
350.66620278417901
 51
351.37819771944788
  0
ARC
  5
5D
  8
0
  6
CONTINUOUS
 62
     7
 10
-737.21763333695424
 20
-131.0981231619937
 30
0.0
 40
607.25000000000068
 50
349.98097522071919
 51
350.6957856700123
  0
ARC
  5
5E
  8
0
  6
CONTINUOUS
 62
     7
 10
-735.47555192520463
 20
-120.6878551417189
 30
0.0
 40
605.25000000000091
 50
349.47488066866458
 51
349.66456909055648
  0
ARC
  5
5F
  8
0
  6
CONTINUOUS
 62
     7
 10
-117.499985
 20
-221.27612179030569
 30
0.0
 40
21.999999999999972
 50
329.88009042633013
 51
338.67631373650198
  0
ARC
  5
60
  8
0
  6
CONTINUOUS
 62
     7
 10
-117.499985
 20
-221.27612179030569
 30
0.0
 40
23.999999999999961
 50
314.93020578540632
 51
340.52877936550931
  0
ARC
  5
61
  8
0
  6
CONTINUOUS
 62
     7
 10
-117.499985
 20
-221.27612179030569
 30
0.0
 40
26.0
 50
295.39001657831091
 51
329.39717933085183
  0
ARC
  5
62
  8
0
  6
CONTINUOUS
 62
     7
 10
509.75001500000081
 20
-227.27612179030561
 30
0.0
 40
625.25000000000102
 50
181.91234915513979
 51
182.2723387098093
  0
ARC
  5
63
  8
0
  6
CONTINUOUS
 62
     7
 10
509.65512896063763
 20
-216.40325862353541
 30
0.0
 40
623.25000000000068
 50
182.879471900098
 51
183.24414053213209
  0
ARC
  5
64
  8
0
  6
CONTINUOUS
 62
     7
 10
509.37151458417742
 20
-205.57154431036261
 30
0.0
 40
621.2500000000008
 50
183.82202270728649
 51
184.19509493526829
  0
ARC
  5
65
  8
0
  6
CONTINUOUS
 62
     7
 10
508.90046073234498
 20
-194.78258136122531
 30
0.0
 40
619.25000000000068
 50
184.73817819223359
 51
185.1242403083651
  0
ARC
  5
66
  8
0
  6
CONTINUOUS
 62
     7
 10
508.24331635383402
 20
-184.0383657456384
 30
0.0
 40
617.2500000000008
 50
185.62473600541881
 51
186.0299442902286
  0
ARC
  5
67
  8
0
  6
CONTINUOUS
 62
     7
 10
507.4014961580703
 20
-173.3420259872199
 30
0.0
 40
615.25000000000068
 50
186.47609941693969
 51
186.90954617955899
  0
ARC
  5
68
  8
0
  6
CONTINUOUS
 62
     7
 10
506.37647023677772
 20
-162.69672477716031
 30
0.0
 40
613.25000000000045
 50
187.28206497386839
 51
187.7588923837271
  0
ARC
  5
69
  8
0
  6
CONTINUOUS
 62
     7
 10
505.16976263606011
 20
-152.10558809298431
 30
0.0
 40
611.25000000000068
 50
188.02071452079741
 51
188.5711432192349
  0
ARC
  5
6A
  8
0
  6
CONTINUOUS
 62
     7
 10
503.78295052303429
 20
-141.57170428189119
 30
0.0
 40
609.25000000000114
 50
188.62180228055209
 51
189.33379721582099
  0
ARC
  5
6B
  8
0
  6
CONTINUOUS
 62
     7
 10
502.21766333695399
 20
-131.0981231619937
 30
0.0
 40
607.25000000000068
 50
189.30421432998779
 51
190.0190247792809
  0
ARC
  5
6C
  8
0
  6
CONTINUOUS
 62
     7
 10
500.47558192520461
 20
-120.6878551417189
 30
0.0
 40
605.25000000000091
 50
190.33543090944349
 51
190.52511933133539
  0
ENDBLK
  5
6D
  8
PATTERN_FILL
  0
ENDSEC
  0
SECTION
  2
ENTITIES
  0
LINE
  5
6E
  8
HIBINO-BASE
  6
CONTINUOUS
 62
     7
 10
-152.5
 20
524.5
 30
0.0
 11
387.49997000000002
 21
524.5
 31
0.0
  0
LINE
  5
6F
  8
HIBINO-BASE
  6
CONTINUOUS
 62
     7
 10
387.49997000000002
 20
-255.49998500000001
 30
0.0
 11
-152.5
 21
-255.49998500000001
 31
0.0
  0
LINE
  5
70
  8
HIBINO-BASE
  6
CONTINUOUS
 62
     7
 10
-152.5
 20
-255.49998500000001
 30
0.0
 11
-152.5
 21
524.5
 31
0.0
  0
TEXT
  5
71
  8
HIBINO-BASE
 62
     7
 10
-130.94799999999989
 20
-274.72600549999999
 30
0.0
 40
10.800120996093741
  1
Hibino Corporation
 41
0.7
 11
-130.94799999999989
 21
-263.92588450390627
 31
0.0
 73
     3
  0
LINE
  5
72
  8
HIBINO-BASE
  6
CONTINUOUS
 62
     7
 10
387.49997000000002
 20
524.5
 30
0.0
 11
387.49997000000002
 21
-255.49998500000001
 31
0.0
  0
LINE
  5
73
  8
HIBINO-BASE
  6
CONTINUOUS
 62
     7
 10
117.499985
 20
-188.0
 30
0.0
 11
387.49997000000002
 21
-188.0
 31
0.0
  0
LINE
  5
74
  8
HIBINO-BASE
  6
CONTINUOUS
 62
     7
 10
117.499985
 20
-255.49998500000001
 30
0.0
 11
117.499985
 21
-188.0
 31
0.0
  0
TEXT
  5
75
  8
HIBINO-BASE
 62
     7
 10
120.19996999999999
 20
-196.10000959999999
 30
0.0
 40
5.4000778125000002
  1
NOTE
 41
0.7
 11
120.19996999999999
 21
-190.69993178749999
 31
0.0
 73
     3
  0
LINE
  5
76
  8
HIBINO-BASE
  6
CONTINUOUS
 62
     7
 10
222.49998500000001
 20
-255.49998500000001
 30
0.0
 11
222.49998500000001
 21
-188.0
 31
0.0
  0
TEXT
  5
77
  8
HIBINO-BASE
 62
     7
 10
225.199985
 20
-196.10000959999999
 30
0.0
 40
5.4000778125000002
  1
TITLE
 41
0.7
 11
225.199985
 21
-190.69993178749999
 31
0.0
 73
     3
  0
TEXT
  5
78
  8
HIBINO-BASE
 62
     7
 10
267.70513999999997
 20
-274.72600549999999
 30
0.0
 40
10.800120996093741
  1
ヒビノ株式会社
 41
0.7
 11
267.70513999999997
 21
-263.92588450390627
 31
0.0
 73
     3
  0
LINE
  5
79
  8
HIBINO-BASE
  6
CONTINUOUS
 62
     7
 10
117.499985
 20
-225.5
 30
0.0
 11
387.49997000000002
 21
-225.5
 31
0.0
  0
TEXT
  5
7A
  8
HIBINO-BASE
 62
     7
 10
262.69998500000003
 20
-233.43103459999989
 30
0.0
 40
5.4000778125000002
  1
DRAWN
 41
0.7
 11
262.69998500000003
 21
-228.03095678749989
 31
0.0
 73
     3
  0
TEXT
  5
7B
  8
HIBINO-BASE
 62
     7
 10
187.699985
 20
-233.43103459999989
 30
0.0
 40
5.4000778125000002
  1
DATE
 41
0.7
 11
187.699985
 21
-228.03095678749989
 31
0.0
 73
     3
  0
TEXT
  5
7C
  8
HIBINO-BASE
 62
     7
 10
120.7999699999999
 20
-233.3583406999999
 30
0.0
 40
4.8865195898437506
  1
図面サイズ
 41
0.7
 11
120.7999699999999
 21
-228.47182111015621
 31
0.0
 73
     3
  0
TEXT
  5
7D
  8
HIBINO-BASE
 62
     7
 10
157.69996999999989
 20
-233.43103459999989
 30
0.0
 40
5.4000778125000002
  1
SCALE
 41
0.7
 11
157.69996999999989
 21
-228.03095678749989
 31
0.0
 73
     3
  0
TEXT
  5
7E
  8
HIBINO-BASE
 62
     7
 10
225.199985
 20
-233.43103459999989
 30
0.0
 40
5.4000778125000002
  1
DESIGN
 41
0.7
 11
225.199985
 21
-228.03095678749989
 31
0.0
 73
     3
  0
TEXT
  5
7F
  8
HIBINO-BASE
 62
     7
 10
337.69996999999989
 20
-233.43103459999989
 30
0.0
 40
5.4000778125000002
  1
DRAWING NO.
 41
0.7
 11
337.69996999999989
 21
-228.03095678749989
 31
0.0
 73
     3
  0
TEXT
  5
80
  8
HIBINO-BASE
 62
     7
 10
300.19997000000001
 20
-233.43103459999989
 30
0.0
 40
5.4000778125000002
  1
CHECK
 41
0.7
 11
300.19997000000001
 21
-228.03095678749989
 31
0.0
 73
     3
  0
LINE
  5
81
  8
HIBINO-BASE
  6
CONTINUOUS
 62
     7
 10
160.62496999999991
 20
-251.75
 30
0.0
 11
171.8749849999999
 21
-240.5
 31
0.0
  0
TEXT
  5
82
  8
HIBINO-BASE
 62
     7
 10
158.74996999999991
 20
-245.6471426
 30
0.0
 40
6.515359453124999
  1
1
 41
0.7
 11
158.74996999999991
 21
-239.13178314687499
 31
0.0
 73
     3
  0
LINE
  5
83
  8
HIBINO-BASE
  6
CONTINUOUS
 62
     7
 10
154.99996999999991
 20
-255.49998500000001
 30
0.0
 11
154.99996999999991
 21
-225.5
 31
0.0
  0
LINE
  5
84
  8
HIBINO-BASE
  6
CONTINUOUS
 62
     7
 10
184.99996999999999
 20
-255.49998500000001
 30
0.0
 11
184.99996999999999
 21
-225.5
 31
0.0
  0
LINE
  5
85
  8
HIBINO-BASE
  6
CONTINUOUS
 62
     7
 10
259.99997000000002
 20
-225.5
 30
0.0
 11
259.99997000000002
 21
-255.49998500000001
 31
0.0
  0
LINE
  5
86
  8
HIBINO-BASE
  6
CONTINUOUS
 62
     7
 10
334.99998499999998
 20
-225.5
 30
0.0
 11
334.99998499999998
 21
-255.49998500000001
 31
0.0
  0
LINE
  5
87
  8
HIBINO-BASE
  6
CONTINUOUS
 62
     7
 10
297.49997000000002
 20
-255.49998500000001
 30
0.0
 11
297.49997000000002
 21
-225.5
 31
0.0
  0
TEXT
  5
88
  8
HIBINO-BASE
 62
     7
 10
129.23265499999991
 20
-248.00460349999989
 30
0.0
 40
9.7730276367187496
  1
A4
 41
0.7
 11
129.23265499999991
 21
-238.23157586328119
 31
0.0
 73
     3
  0
TEXT
  5
89
  8
HIBINO-BASE
 62
     7
 10
187.569605
 20
-247.48297460000001
 30
0.0
 40
5.4000778125000002
  1
'09.12.
 41
0.7
 11
187.569605
 21
-242.0828967875
 31
0.0
 73
     3
  0
TEXT
  5
8A
  8
HIBINO-BASE
 62
     7
 10
169.9999849999999
 20
-251.2721426
 30
0.0
 40
6.515359453124999
  1
3
 41
0.7
 11
169.9999849999999
 21
-244.75678314687499
 31
0.0
 73
     3
  0
TEXT
  5
8B
  8
HIBINO-BASE
 62
     7
 10
264.51740003310391
 20
-246.9090525
 30
0.0
 40
4.8865234374999993
  1
N.Sasaki
 41
0.7
 11
264.51740003310391
 21
-242.02252906250001
 31
0.0
 73
     3
  0
ARC
  5
8C
  8
PATTERN_FILL
  6
CONTINUOUS
 62
     7
 10
0.0000000000000568
 20
212.9738517901641
 30
0.0
 40
10.00000000000002
 50
53.380529869726438
 51
126.61947013027149
  0
ARC
  5
8D
  8
PATTERN_FILL
  6
CONTINUOUS
 62
     7
 10
0.0000000000000568
 20
212.9738517901641
 30
0.0
 40
12.000000000000011
 50
41.978036550102637
 51
138.02196344989599
  0
ARC
  5
8E
  8
PATTERN_FILL
  6
CONTINUOUS
 62
     7
 10
0.0000000000000568
 20
212.9738517901641
 30
0.0
 40
13.999999999999989
 50
34.980408191510818
 51
145.0195918084884
  0
ARC
  5
8F
  8
PATTERN_FILL
  6
CONTINUOUS
 62
     7
 10
0.0000000000000568
 20
212.9738517901641
 30
0.0
 40
16.0
 50
30.108181005260882
 51
149.89181899473161
  0
ARC
  5
90
  8
PATTERN_FILL
  6
CONTINUOUS
 62
     7
 10
0.0000000000000568
 20
212.9738517901641
 30
0.0
 40
17.999999999999989
 50
26.480750716242749
 51
153.51924928375681
  0
ARC
  5
91
  8
PATTERN_FILL
  6
CONTINUOUS
 62
     7
 10
0.0000000000000568
 20
212.9738517901641
 30
0.0
 40
19.999999999999979
 50
23.65993649611913
 51
156.34006350388009
  0
ARC
  5
92
  8
PATTERN_FILL
  6
CONTINUOUS
 62
     7
 10
0.0000000000000568
 20
212.9738517901641
 30
0.0
 40
21.999999999999989
 50
21.396808296465281
 51
158.603191703541
  0
ARC
  5
93
  8
PATTERN_FILL
  6
CONTINUOUS
 62
     7
 10
0.0000000000000568
 20
212.9738517901641
 30
0.0
 40
23.999999999999972
 50
19.53744509878786
 51
160.4625549012118
  0
ARC
  5
94
  8
PATTERN_FILL
  6
CONTINUOUS
 62
     7
 10
0.0000000000000568
 20
212.9738517901641
 30
0.0
 40
25.999999999999989
 50
33.113484623864501
 51
146.8865153761358
  0
ARC
  5
95
  8
PATTERN_FILL
  6
CONTINUOUS
 62
     7
 10
0.0000000000000568
 20
212.9738517901641
 30
0.0
 40
27.999999999999972
 50
41.715203472331041
 51
138.28479652766899
  0
LINE
  5
96
  8
PATTERN_FILL
  6
CONTINUOUS
 62
     7
 10
0.0000000000000568
 20
246.9999999998584
 30
0.0
 11
0.0000000000000568
 21
220.9738517901641
 31
0.0
  0
ARC
  5
97
  8
PATTERN_FILL
  6
CONTINUOUS
 62
     7
 10
627.25000000000102
 20
218.9738517901643
 30
0.0
 40
625.25000000000102
 50
177.43091849221719
 51
179.8143303570364
  0
ARC
  5
98
  8
PATTERN_FILL
  6
CONTINUOUS
 62
     7
 10
627.15511396063755
 20
208.10098862339399
 30
0.0
 40
623.25000000000068
 50
176.4216627334753
 51
178.81410078891639
  0
ARC
  5
99
  8
PATTERN_FILL
  6
CONTINUOUS
 62
     7
 10
626.87149958417774
 20
197.26927431022111
 30
0.0
 40
621.2500000000008
 50
175.40859142077261
 51
177.81086310428731
  0
ARC
  5
9A
  8
PATTERN_FILL
  6
CONTINUOUS
 62
     7
 10
626.40044573234525
 20
186.48031136108381
 30
0.0
 40
619.25000000000068
 50
174.3914953990521
 51
176.80442755867421
  0
ARC
  5
9B
  8
PATTERN_FILL
  6
CONTINUOUS
 62
     7
 10
625.74330135383423
 20
175.73609574549681
 30
0.0
 40
617.2500000000008
 50
173.37019546087191
 51
175.79463638621979
  0
ARC
  5
9C
  8
PATTERN_FILL
  6
CONTINUOUS
 62
     7
 10
624.90148115807051
 20
165.03975598707839
 30
0.0
 40
615.25000000000057
 50
172.3446121221065
 51
174.78143323256069
  0
ARC
  5
9D
  8
PATTERN_FILL
  6
CONTINUOUS
 62
     7
 10
623.8764552367777
 20
154.39445477701881
 30
0.0
 40
613.2500000000008
 50
171.3655831741824
 51
173.76476214715041
  0
ARC
  5
9E
  8
PATTERN_FILL
  6
CONTINUOUS
 62
     7
 10
622.66974763606026
 20
143.80331809284289
 30
0.0
 40
611.25000000000068
 50
170.8915098787736
 51
172.7445608806201
  0
ARC
  5
9F
  8
PATTERN_FILL
  6
CONTINUOUS
 62
     7
 10
621.28293552303433
 20
133.26943428174971
 30
0.0
 40
609.2500000000008
 50
170.48086107277979
 51
171.72076060684961
  0
ARC
  5
A0
  8
PATTERN_FILL
  6
CONTINUOUS
 62
     7
 10
619.71764833695431
 20
122.79585316185219
 30
0.0
 40
607.25000000000102
 50
170.0324829520365
 51
170.693285611394
  0
ARC
  5
A1
  8
PATTERN_FILL
  6
CONTINUOUS
 62
     7
 10
617.97556692520448
 20
112.38558514157739
 30
0.0
 40
605.2500000000008
 50
169.54872457493099
 51
169.6620529432204
  0
ARC
  5
A2
  8
PATTERN_FILL
  6
CONTINUOUS
 62
     7
 10
0.0000000000000568
 20
212.9738517901641
 30
0.0
 40
29.999999999999961
 50
47.679292826648918
 51
132.32070717335091
  0
ARC
  5
A3
  8
PATTERN_FILL
  6
CONTINUOUS
 62
     7
 10
0.0000000000000568
 20
212.9738517901641
 30
0.0
 40
31.999999999999989
 50
52.277123529664173
 51
127.72287647033571
  0
ARC
  5
A4
  8
PATTERN_FILL
  6
CONTINUOUS
 62
     7
 10
0.0000000000000568
 20
212.9738517901641
 30
0.0
 40
33.999999999999972
 50
56.006526273044599
 51
123.993473726955
  0
ARC
  5
A5
  8
PATTERN_FILL
  6
CONTINUOUS
 62
     7
 10
0.0000000000000568
 20
212.9738517901641
 30
0.0
 40
35.999999999999957
 50
59.126692567565442
 51
70.938887752911313
  0
ARC
  5
A6
  8
PATTERN_FILL
  6
CONTINUOUS
 62
     7
 10
0.0000000000000568
 20
212.9738517901641
 30
0.0
 40
35.999999999999957
 50
109.0611122470887
 51
120.8733074324346
  0
ARC
  5
A7
  8
PATTERN_FILL
  6
CONTINUOUS
 62
     7
 10
-627.25000000000068
 20
218.9738517901643
 30
0.0
 40
625.2500000000008
 50
0.1856696427620432
 51
2.5690815077826041
  0
ARC
  5
A8
  8
PATTERN_FILL
  6
CONTINUOUS
 62
     7
 10
-627.15511396063732
 20
208.10098862339399
 30
0.0
 40
623.25000000000057
 50
1.185899210875144
 51
3.5783372665245361
  0
ARC
  5
A9
  8
PATTERN_FILL
  6
CONTINUOUS
 62
     7
 10
-626.8714995841774
 20
197.26927431022111
 30
0.0
 40
621.25000000000045
 50
2.189136895548232
 51
4.5914085792274193
  0
ARC
  5
AA
  8
PATTERN_FILL
  6
CONTINUOUS
 62
     7
 10
-626.40044573234491
 20
186.48031136108381
 30
0.0
 40
619.25000000000057
 50
3.195572441412176
 51
5.608504600947942
  0
ARC
  5
AB
  8
PATTERN_FILL
  6
CONTINUOUS
 62
     7
 10
-625.74330135383389
 20
175.73609574549681
 30
0.0
 40
617.25000000000045
 50
4.2053636137397561
 51
6.629804539128223
  0
ARC
  5
AC
  8
PATTERN_FILL
  6
CONTINUOUS
 62
     7
 10
-624.90148115807028
 20
165.03975598707839
 30
0.0
 40
615.25000000000034
 50
5.2185667674325709
 51
7.6553878778934941
  0
ARC
  5
AD
  8
PATTERN_FILL
  6
CONTINUOUS
 62
     7
 10
-623.87645523677747
 20
154.39445477701881
 30
0.0
 40
613.2500000000008
 50
6.2352378531966304
 51
8.6344168258178193
  0
ARC
  5
AE
  8
PATTERN_FILL
  6
CONTINUOUS
 62
     7
 10
-622.66974763606004
 20
143.80331809284289
 30
0.0
 40
611.25000000000057
 50
7.2554391195034329
 51
9.1084901212264473
  0
ARC
  5
AF
  8
PATTERN_FILL
  6
CONTINUOUS
 62
     7
 10
-621.28293552303398
 20
133.26943428174971
 30
0.0
 40
609.2500000000008
 50
8.2792393934980808
 51
9.5191389272206308
  0
ARC
  5
B0
  8
PATTERN_FILL
  6
CONTINUOUS
 62
     7
 10
-619.71764833695386
 20
122.79585316185219
 30
0.0
 40
607.25000000000068
 50
9.3067143885766477
 51
9.9675170479629926
  0
ARC
  5
B1
  8
PATTERN_FILL
  6
CONTINUOUS
 62
     7
 10
-617.97556692520448
 20
112.38558514157739
 30
0.0
 40
605.2500000000008
 50
10.337947056717139
 51
10.451275425066621
  0
ARC
  5
B2
  8
PATTERN_FILL
  6
CONTINUOUS
 62
     7
 10
0.0000000000000568
 20
225.0261482095527
 30
0.0
 40
10.0
 50
233.38052986972639
 51
306.61947013027162
  0
ARC
  5
B3
  8
PATTERN_FILL
  6
CONTINUOUS
 62
     7
 10
0.0000000000000568
 20
225.0261482095527
 30
0.0
 40
11.99999999999998
 50
221.9780365501021
 51
318.02196344989591
  0
ARC
  5
B4
  8
PATTERN_FILL
  6
CONTINUOUS
 62
     7
 10
0.0000000000000568
 20
225.0261482095527
 30
0.0
 40
14.0
 50
214.98040819151109
 51
325.01959180848831
  0
ARC
  5
B5
  8
PATTERN_FILL
  6
CONTINUOUS
 62
     7
 10
0.0000000000000568
 20
225.0261482095527
 30
0.0
 40
15.99999999999998
 50
210.10818100526899
 51
329.89181899473169
  0
ARC
  5
B6
  8
PATTERN_FILL
  6
CONTINUOUS
 62
     7
 10
0.0000000000000568
 20
225.0261482095527
 30
0.0
 40
18.000000000000021
 50
206.48075071624319
 51
333.51924928375678
  0
ARC
  5
B7
  8
PATTERN_FILL
  6
CONTINUOUS
 62
     7
 10
0.0000000000000568
 20
225.0261482095527
 30
0.0
 40
20.0
 50
203.6599364961165
 51
336.34006350388017
  0
ARC
  5
B8
  8
PATTERN_FILL
  6
CONTINUOUS
 62
     7
 10
0.0000000000000568
 20
225.0261482095527
 30
0.0
 40
21.999999999999989
 50
201.39680829646531
 51
338.60319170354109
  0
ARC
  5
B9
  8
PATTERN_FILL
  6
CONTINUOUS
 62
     7
 10
0.0000000000000568
 20
225.0261482095527
 30
0.0
 40
23.999999999999989
 50
199.53744509879249
 51
340.462554901212
  0
ARC
  5
BA
  8
PATTERN_FILL
  6
CONTINUOUS
 62
     7
 10
0.0000000000000568
 20
225.0261482095527
 30
0.0
 40
26.0
 50
213.11348462386411
 51
326.88651537613561
  0
ARC
  5
BB
  8
PATTERN_FILL
  6
CONTINUOUS
 62
     7
 10
0.0000000000000568
 20
225.0261482095527
 30
0.0
 40
27.999999999999972
 50
221.71520347233101
 51
318.28479652766907
  0
LINE
  5
BC
  8
PATTERN_FILL
  6
CONTINUOUS
 62
     7
 10
0.0000000000000568
 20
194.0261482095527
 30
0.0
 11
0.0000000000000568
 21
217.0261482095527
 31
0.0
  0
ARC
  5
BD
  8
PATTERN_FILL
  6
CONTINUOUS
 62
     7
 10
627.25000000000102
 20
219.02614820955259
 30
0.0
 40
625.25000000000102
 50
180.18566964276201
 51
182.3856367932523
  0
ARC
  5
BE
  8
PATTERN_FILL
  6
CONTINUOUS
 62
     7
 10
627.15511396063755
 20
229.8990113763229
 30
0.0
 40
623.25000000000102
 50
181.18589921087511
 51
183.39413500297761
  0
ARC
  5
BF
  8
PATTERN_FILL
  6
CONTINUOUS
 62
     7
 10
626.87149958417774
 20
240.7307256894957
 30
0.0
 40
621.25000000000045
 50
182.18913689554819
 51
184.40638519948291
  0
ARC
  5
C0
  8
PATTERN_FILL
  6
CONTINUOUS
 62
     7
 10
626.40044573234525
 20
251.519688638633
 30
0.0
 40
619.25000000000068
 50
183.19557244141211
 51
185.42259484067679
  0
ARC
  5
C1
  8
PATTERN_FILL
  6
CONTINUOUS
 62
     7
 10
625.74330135383423
 20
262.26390425421999
 30
0.0
 40
617.2500000000008
 50
184.2053636138894
 51
186.44294127025691
  0
ARC
  5
C2
  8
PATTERN_FILL
  6
CONTINUOUS
 62
     7
 10
624.90148115807051
 20
272.96024401263838
 30
0.0
 40
615.25000000000057
 50
185.21856676743249
 51
187.4675019713369
  0
ARC
  5
C3
  8
PATTERN_FILL
  6
CONTINUOUS
 62
     7
 10
623.8764552367777
 20
283.60554522269808
 30
0.0
 40
613.25000000000102
 50
186.2352378527516
 51
188.4963558297116
  0
ARC
  5
C4
  8
PATTERN_FILL
  6
CONTINUOUS
 62
     7
 10
622.66974763606026
 20
294.19668190687389
 30
0.0
 40
611.25000000000068
 50
187.25543911950331
 51
189.1084901212264
  0
ARC
  5
C5
  8
PATTERN_FILL
  6
CONTINUOUS
 62
     7
 10
621.28293552303433
 20
304.73056571796712
 30
0.0
 40
609.25000000000102
 50
188.2792393932047
 51
189.51913892722001
  0
ARC
  5
C6
  8
PATTERN_FILL
  6
CONTINUOUS
 62
     7
 10
619.71764833695431
 20
315.20414683786458
 30
0.0
 40
607.25000000000068
 50
189.30671438857661
 51
189.9675170479635
  0
ARC
  5
C7
  8
PATTERN_FILL
  6
CONTINUOUS
 62
     7
 10
617.97556692520448
 20
325.61441485813941
 30
0.0
 40
605.2500000000008
 50
190.3379470567171
 51
190.4512754250666
  0
ARC
  5
C8
  8
PATTERN_FILL
  6
CONTINUOUS
 62
     7
 10
0.0000000000000568
 20
225.0261482095527
 30
0.0
 40
29.999999999999961
 50
227.679292826649
 51
312.32070717335108
  0
ARC
  5
C9
  8
PATTERN_FILL
  6
CONTINUOUS
 62
     7
 10
0.0000000000000568
 20
225.0261482095527
 30
0.0
 40
31.999999999999972
 50
232.2771235296641
 51
307.72287647033568
  0
ARC
  5
CA
  8
PATTERN_FILL
  6
CONTINUOUS
 62
     7
 10
0.0000000000000568
 20
225.0261482095527
 30
0.0
 40
33.999999999999972
 50
236.0065262730449
 51
250.38089326998161
  0
ARC
  5
CB
  8
PATTERN_FILL
  6
CONTINUOUS
 62
     7
 10
0.0000000000000568
 20
225.0261482095527
 30
0.0
 40
33.999999999999972
 50
289.61910673001842
 51
303.9934737269553
  0
ARC
  5
CC
  8
PATTERN_FILL
  6
CONTINUOUS
 62
     7
 10
0.0000000000000568
 20
225.0261482095527
 30
0.0
 40
35.999999999999957
 50
297.17506362580139
 51
300.87330743243461
  0
ARC
  5
CD
  8
PATTERN_FILL
  6
CONTINUOUS
 62
     7
 10
0.0000000000000568
 20
225.0261482095527
 30
0.0
 40
35.999999999999957
 50
239.1266925675653
 51
242.8249363741985
  0
ARC
  5
CE
  8
PATTERN_FILL
  6
CONTINUOUS
 62
     7
 10
-627.25000000000068
 20
219.02614820955259
 30
0.0
 40
625.2500000000008
 50
357.61436320674858
 51
359.81433035703628
  0
ARC
  5
CF
  8
PATTERN_FILL
  6
CONTINUOUS
 62
     7
 10
-627.15511396063732
 20
229.8990113763229
 30
0.0
 40
623.25000000000057
 50
356.60586499701981
 51
358.81410078891662
  0
ARC
  5
D0
  8
PATTERN_FILL
  6
CONTINUOUS
 62
     7
 10
-626.8714995841774
 20
240.7307256894957
 30
0.0
 40
621.25000000000034
 50
355.59361480051729
 51
357.81086310428702
  0
ARC
  5
D1
  8
PATTERN_FILL
  6
CONTINUOUS
 62
     7
 10
-626.40044573234491
 20
251.519688638633
 30
0.0
 40
619.25000000000057
 50
354.5774051593263
 51
356.80442755867409
  0
ARC
  5
D2
  8
PATTERN_FILL
  6
CONTINUOUS
 62
     7
 10
-625.74330135383389
 20
262.26390425421999
 30
0.0
 40
617.25000000000045
 50
353.55705872974357
 51
355.79463638621979
  0
ARC
  5
D3
  8
PATTERN_FILL
  6
CONTINUOUS
 62
     7
 10
-624.90148115807028
 20
272.96024401263838
 30
0.0
 40
615.25000000000011
 50
352.53249802866111
 51
354.78143323256091
  0
ARC
  5
D4
  8
PATTERN_FILL
  6
CONTINUOUS
 62
     7
 10
-623.87645523677747
 20
283.60554522269808
 30
0.0
 40
613.2500000000008
 50
351.50364417029311
 51
353.76476214715052
  0
ARC
  5
D5
  8
PATTERN_FILL
  6
CONTINUOUS
 62
     7
 10
-622.66974763606004
 20
294.19668190687389
 30
0.0
 40
611.25000000000057
 50
350.89150987877349
 51
352.74456088062021
  0
ARC
  5
D6
  8
PATTERN_FILL
  6
CONTINUOUS
 62
     7
 10
-621.28293552303398
 20
304.73056571796712
 30
0.0
 40
609.2500000000008
 50
350.48086107277987
 51
351.72076060684958
  0
ARC
  5
D7
  8
PATTERN_FILL
  6
CONTINUOUS
 62
     7
 10
-619.71764833695386
 20
315.20414683786458
 30
0.0
 40
607.25000000000068
 50
350.03248295203662
 51
350.69328561139412
  0
ARC
  5
D8
  8
PATTERN_FILL
  6
CONTINUOUS
 62
     7
 10
-617.97556692520448
 20
325.61441485813941
 30
0.0
 40
605.2500000000008
 50
349.54872457493099
 51
349.66205294321719
  0
ARC
  5
D9
  8
PATTERN_FILL
  6
CONTINUOUS
 62
     7
 10
120.0
 20
212.9738517901641
 30
0.0
 40
10.00000000000002
 50
53.380529869726438
 51
126.61947013027149
  0
ARC
  5
DA
  8
PATTERN_FILL
  6
CONTINUOUS
 62
     7
 10
120.0
 20
212.9738517901641
 30
0.0
 40
12.000000000000011
 50
41.978036550102637
 51
138.02196344989599
  0
ARC
  5
DB
  8
PATTERN_FILL
  6
CONTINUOUS
 62
     7
 10
120.0
 20
212.9738517901641
 30
0.0
 40
13.999999999999989
 50
34.980408191510818
 51
145.0195918084884
  0
ARC
  5
DC
  8
PATTERN_FILL
  6
CONTINUOUS
 62
     7
 10
120.0
 20
212.9738517901641
 30
0.0
 40
16.0
 50
30.108181005260882
 51
149.89181899473161
  0
ARC
  5
DD
  8
PATTERN_FILL
  6
CONTINUOUS
 62
     7
 10
120.0
 20
212.9738517901641
 30
0.0
 40
17.999999999999989
 50
26.480750716242749
 51
153.51924928375681
  0
ARC
  5
DE
  8
PATTERN_FILL
  6
CONTINUOUS
 62
     7
 10
120.0
 20
212.9738517901641
 30
0.0
 40
19.999999999999979
 50
23.65993649611913
 51
156.34006350388009
  0
ARC
  5
DF
  8
PATTERN_FILL
  6
CONTINUOUS
 62
     7
 10
120.0
 20
212.9738517901641
 30
0.0
 40
21.999999999999989
 50
21.396808296465281
 51
158.603191703541
  0
ARC
  5
E0
  8
PATTERN_FILL
  6
CONTINUOUS
 62
     7
 10
120.0
 20
212.9738517901641
 30
0.0
 40
23.999999999999972
 50
19.53744509878786
 51
160.4625549012118
  0
ARC
  5
E1
  8
PATTERN_FILL
  6
CONTINUOUS
 62
     7
 10
120.0
 20
212.9738517901641
 30
0.0
 40
25.999999999999989
 50
33.113484623864501
 51
146.8865153761358
  0
ARC
  5
E2
  8
PATTERN_FILL
  6
CONTINUOUS
 62
     7
 10
120.0
 20
212.9738517901641
 30
0.0
 40
27.999999999999972
 50
41.715203472331041
 51
138.28479652766899
  0
LINE
  5
E3
  8
PATTERN_FILL
  6
CONTINUOUS
 62
     7
 10
120.0
 20
246.9999999998584
 30
0.0
 11
120.0
 21
220.9738517901641
 31
0.0
  0
ARC
  5
E4
  8
PATTERN_FILL
  6
CONTINUOUS
 62
     7
 10
747.25000000000102
 20
218.9738517901643
 30
0.0
 40
625.25000000000102
 50
177.43091849221719
 51
179.8143303570364
  0
ARC
  5
E5
  8
PATTERN_FILL
  6
CONTINUOUS
 62
     7
 10
747.15511396063755
 20
208.10098862339399
 30
0.0
 40
623.25000000000068
 50
176.4216627334753
 51
178.81410078891639
  0
ARC
  5
E6
  8
PATTERN_FILL
  6
CONTINUOUS
 62
     7
 10
746.87149958417751
 20
197.26927431022111
 30
0.0
 40
621.2500000000008
 50
175.40859142077261
 51
177.81086310428731
  0
ARC
  5
E7
  8
PATTERN_FILL
  6
CONTINUOUS
 62
     7
 10
746.40044573234513
 20
186.48031136108381
 30
0.0
 40
619.25000000000068
 50
174.3914953990521
 51
176.80442755867421
  0
ARC
  5
E8
  8
PATTERN_FILL
  6
CONTINUOUS
 62
     7
 10
745.74330135383411
 20
175.73609574549681
 30
0.0
 40
617.2500000000008
 50
173.37019546087191
 51
175.79463638621979
  0
ARC
  5
E9
  8
PATTERN_FILL
  6
CONTINUOUS
 62
     7
 10
744.9014811580704
 20
165.03975598707839
 30
0.0
 40
615.25000000000034
 50
172.3446121221065
 51
174.78143323256069
  0
ARC
  5
EA
  8
PATTERN_FILL
  6
CONTINUOUS
 62
     7
 10
743.87645523677782
 20
154.39445477701881
 30
0.0
 40
613.2500000000008
 50
171.3655831741824
 51
173.76476214715041
  0
ARC
  5
EB
  8
PATTERN_FILL
  6
CONTINUOUS
 62
     7
 10
742.66974763606015
 20
143.80331809284289
 30
0.0
 40
611.25000000000068
 50
170.8915098787736
 51
172.7445608806201
  0
ARC
  5
EC
  8
PATTERN_FILL
  6
CONTINUOUS
 62
     7
 10
741.28293552303421
 20
133.26943428174971
 30
0.0
 40
609.2500000000008
 50
170.48086107277979
 51
171.72076060684961
  0
ARC
  5
ED
  8
PATTERN_FILL
  6
CONTINUOUS
 62
     7
 10
739.71764833695408
 20
122.79585316185219
 30
0.0
 40
607.25000000000068
 50
170.0324829520365
 51
170.693285611394
  0
ARC
  5
EE
  8
PATTERN_FILL
  6
CONTINUOUS
 62
     7
 10
737.97556692520448
 20
112.38558514157739
 30
0.0
 40
605.2500000000008
 50
169.54872457493099
 51
169.6620529432204
  0
ARC
  5
EF
  8
PATTERN_FILL
  6
CONTINUOUS
 62
     7
 10
120.0
 20
212.9738517901641
 30
0.0
 40
29.999999999999961
 50
47.679292826648918
 51
132.32070717335091
  0
ARC
  5
F0
  8
PATTERN_FILL
  6
CONTINUOUS
 62
     7
 10
120.0
 20
212.9738517901641
 30
0.0
 40
31.999999999999989
 50
52.277123529664173
 51
127.72287647033571
  0
ARC
  5
F1
  8
PATTERN_FILL
  6
CONTINUOUS
 62
     7
 10
120.0
 20
212.9738517901641
 30
0.0
 40
33.999999999999972
 50
56.006526273044599
 51
123.993473726955
  0
ARC
  5
F2
  8
PATTERN_FILL
  6
CONTINUOUS
 62
     7
 10
120.0
 20
212.9738517901641
 30
0.0
 40
35.999999999999957
 50
59.126692567565442
 51
70.938887752911313
  0
ARC
  5
F3
  8
PATTERN_FILL
  6
CONTINUOUS
 62
     7
 10
120.0
 20
212.9738517901641
 30
0.0
 40
35.999999999999957
 50
109.0611122470887
 51
120.8733074324346
  0
ARC
  5
F4
  8
PATTERN_FILL
  6
CONTINUOUS
 62
     7
 10
-507.25000000000063
 20
218.9738517901643
 30
0.0
 40
625.2500000000008
 50
0.1856696427620432
 51
2.5690815077826041
  0
ARC
  5
F5
  8
PATTERN_FILL
  6
CONTINUOUS
 62
     7
 10
-507.15511396063721
 20
208.10098862339399
 30
0.0
 40
623.25000000000057
 50
1.185899210875144
 51
3.5783372665245361
  0
ARC
  5
F6
  8
PATTERN_FILL
  6
CONTINUOUS
 62
     7
 10
-506.87149958417717
 20
197.26927431022111
 30
0.0
 40
621.25000000000045
 50
2.189136895548232
 51
4.5914085792274193
  0
ARC
  5
F7
  8
PATTERN_FILL
  6
CONTINUOUS
 62
     7
 10
-506.40044573234491
 20
186.48031136108381
 30
0.0
 40
619.25000000000057
 50
3.195572441412176
 51
5.608504600947942
  0
ARC
  5
F8
  8
PATTERN_FILL
  6
CONTINUOUS
 62
     7
 10
-505.74330135383377
 20
175.73609574549681
 30
0.0
 40
617.25000000000045
 50
4.2053636137397561
 51
6.629804539128223
  0
ARC
  5
F9
  8
PATTERN_FILL
  6
CONTINUOUS
 62
     7
 10
-504.90148115807023
 20
165.03975598707839
 30
0.0
 40
615.25000000000034
 50
5.2185667674325709
 51
7.6553878778934941
  0
ARC
  5
FA
  8
PATTERN_FILL
  6
CONTINUOUS
 62
     7
 10
-503.87645523677742
 20
154.39445477701881
 30
0.0
 40
613.2500000000008
 50
6.2352378531966304
 51
8.6344168258178193
  0
ARC
  5
FB
  8
PATTERN_FILL
  6
CONTINUOUS
 62
     7
 10
-502.66974763605998
 20
143.80331809284289
 30
0.0
 40
611.25000000000057
 50
7.2554391195034329
 51
9.1084901212264473
  0
ARC
  5
FC
  8
PATTERN_FILL
  6
CONTINUOUS
 62
     7
 10
-501.28293552303393
 20
133.26943428174971
 30
0.0
 40
609.2500000000008
 50
8.2792393934980808
 51
9.5191389272206308
  0
ARC
  5
FD
  8
PATTERN_FILL
  6
CONTINUOUS
 62
     7
 10
-499.71764833695391
 20
122.79585316185219
 30
0.0
 40
607.25000000000068
 50
9.3067143885766477
 51
9.9675170479629926
  0
ARC
  5
FE
  8
PATTERN_FILL
  6
CONTINUOUS
 62
     7
 10
-497.9755669252043
 20
112.38558514157739
 30
0.0
 40
605.2500000000008
 50
10.337947056717139
 51
10.451275425066621
  0
ARC
  5
FF
  8
PATTERN_FILL
  6
CONTINUOUS
 62
     7
 10
120.0
 20
225.0261482095527
 30
0.0
 40
10.0
 50
233.38052986972639
 51
306.61947013027162
  0
ARC
  5
100
  8
PATTERN_FILL
  6
CONTINUOUS
 62
     7
 10
120.0
 20
225.0261482095527
 30
0.0
 40
11.99999999999998
 50
221.9780365501021
 51
318.02196344989591
  0
ARC
  5
101
  8
PATTERN_FILL
  6
CONTINUOUS
 62
     7
 10
120.0
 20
225.0261482095527
 30
0.0
 40
14.0
 50
214.98040819151109
 51
325.01959180848831
  0
ARC
  5
102
  8
PATTERN_FILL
  6
CONTINUOUS
 62
     7
 10
120.0
 20
225.0261482095527
 30
0.0
 40
15.99999999999998
 50
210.10818100526899
 51
329.89181899473169
  0
ARC
  5
103
  8
PATTERN_FILL
  6
CONTINUOUS
 62
     7
 10
120.0
 20
225.0261482095527
 30
0.0
 40
18.000000000000021
 50
206.48075071624319
 51
333.51924928375678
  0
ARC
  5
104
  8
PATTERN_FILL
  6
CONTINUOUS
 62
     7
 10
120.0
 20
225.0261482095527
 30
0.0
 40
20.0
 50
203.6599364961165
 51
336.34006350388017
  0
ARC
  5
105
  8
PATTERN_FILL
  6
CONTINUOUS
 62
     7
 10
120.0
 20
225.0261482095527
 30
0.0
 40
21.999999999999989
 50
201.39680829646531
 51
338.60319170354109
  0
ARC
  5
106
  8
PATTERN_FILL
  6
CONTINUOUS
 62
     7
 10
120.0
 20
225.0261482095527
 30
0.0
 40
23.999999999999989
 50
199.53744509879249
 51
340.462554901212
  0
ARC
  5
107
  8
PATTERN_FILL
  6
CONTINUOUS
 62
     7
 10
120.0
 20
225.0261482095527
 30
0.0
 40
26.0
 50
213.11348462386411
 51
326.88651537613561
  0
ARC
  5
108
  8
PATTERN_FILL
  6
CONTINUOUS
 62
     7
 10
120.0
 20
225.0261482095527
 30
0.0
 40
27.999999999999972
 50
221.71520347233101
 51
318.28479652766907
  0
LINE
  5
109
  8
PATTERN_FILL
  6
CONTINUOUS
 62
     7
 10
120.0
 20
194.0261482095527
 30
0.0
 11
120.0
 21
217.0261482095527
 31
0.0
  0
ARC
  5
10A
  8
PATTERN_FILL
  6
CONTINUOUS
 62
     7
 10
747.25000000000102
 20
219.02614820955259
 30
0.0
 40
625.2500000000008
 50
180.18566964276201
 51
182.3856367932523
  0
ARC
  5
10B
  8
PATTERN_FILL
  6
CONTINUOUS
 62
     7
 10
747.15511396063755
 20
229.8990113763229
 30
0.0
 40
623.25000000000068
 50
181.18589921087511
 51
183.39413500297761
  0
ARC
  5
10C
  8
PATTERN_FILL
  6
CONTINUOUS
 62
     7
 10
746.87149958417751
 20
240.7307256894957
 30
0.0
 40
621.25000000000045
 50
182.18913689554819
 51
184.40638519948291
  0
ARC
  5
10D
  8
PATTERN_FILL
  6
CONTINUOUS
 62
     7
 10
746.40044573234513
 20
251.519688638633
 30
0.0
 40
619.25000000000068
 50
183.19557244141211
 51
185.42259484067679
  0
ARC
  5
10E
  8
PATTERN_FILL
  6
CONTINUOUS
 62
     7
 10
745.74330135383411
 20
262.26390425421999
 30
0.0
 40
617.2500000000008
 50
184.2053636138894
 51
186.44294127025691
  0
ARC
  5
10F
  8
PATTERN_FILL
  6
CONTINUOUS
 62
     7
 10
744.9014811580704
 20
272.96024401263838
 30
0.0
 40
615.25000000000057
 50
185.21856676743249
 51
187.4675019713369
  0
ARC
  5
110
  8
PATTERN_FILL
  6
CONTINUOUS
 62
     7
 10
743.87645523677782
 20
283.60554522269808
 30
0.0
 40
613.2500000000008
 50
186.23523785275171
 51
188.4963558297116
  0
ARC
  5
111
  8
PATTERN_FILL
  6
CONTINUOUS
 62
     7
 10
742.66974763606015
 20
294.19668190687389
 30
0.0
 40
611.25000000000068
 50
187.25543911950331
 51
189.1084901212264
  0
ARC
  5
112
  8
PATTERN_FILL
  6
CONTINUOUS
 62
     7
 10
741.28293552303421
 20
304.73056571796712
 30
0.0
 40
609.2500000000008
 50
188.2792393932047
 51
189.51913892722001
  0
ARC
  5
113
  8
PATTERN_FILL
  6
CONTINUOUS
 62
     7
 10
739.71764833695408
 20
315.20414683786458
 30
0.0
 40
607.25000000000068
 50
189.30671438857661
 51
189.9675170479635
  0
ARC
  5
114
  8
PATTERN_FILL
  6
CONTINUOUS
 62
     7
 10
737.97556692520448
 20
325.61441485813941
 30
0.0
 40
605.2500000000008
 50
190.3379470567171
 51
190.4512754250666
  0
ARC
  5
115
  8
PATTERN_FILL
  6
CONTINUOUS
 62
     7
 10
120.0
 20
225.0261482095527
 30
0.0
 40
29.999999999999961
 50
227.679292826649
 51
312.32070717335108
  0
ARC
  5
116
  8
PATTERN_FILL
  6
CONTINUOUS
 62
     7
 10
120.0
 20
225.0261482095527
 30
0.0
 40
31.999999999999972
 50
232.2771235296641
 51
307.72287647033568
  0
ARC
  5
117
  8
PATTERN_FILL
  6
CONTINUOUS
 62
     7
 10
120.0
 20
225.0261482095527
 30
0.0
 40
33.999999999999972
 50
236.0065262730449
 51
250.38089326998161
  0
ARC
  5
118
  8
PATTERN_FILL
  6
CONTINUOUS
 62
     7
 10
120.0
 20
225.0261482095527
 30
0.0
 40
33.999999999999972
 50
289.61910673001842
 51
303.9934737269553
  0
ARC
  5
119
  8
PATTERN_FILL
  6
CONTINUOUS
 62
     7
 10
120.0
 20
225.0261482095527
 30
0.0
 40
35.999999999999957
 50
297.17506362580139
 51
300.87330743243461
  0
ARC
  5
11A
  8
PATTERN_FILL
  6
CONTINUOUS
 62
     7
 10
120.0
 20
225.0261482095527
 30
0.0
 40
35.999999999999957
 50
239.1266925675653
 51
242.8249363741985
  0
ARC
  5
11B
  8
PATTERN_FILL
  6
CONTINUOUS
 62
     7
 10
-507.25000000000063
 20
219.02614820955259
 30
0.0
 40
625.2500000000008
 50
357.61436320674858
 51
359.81433035703628
  0
ARC
  5
11C
  8
PATTERN_FILL
  6
CONTINUOUS
 62
     7
 10
-507.15511396063721
 20
229.8990113763229
 30
0.0
 40
623.25000000000057
 50
356.60586499701981
 51
358.81410078891662
  0
ARC
  5
11D
  8
PATTERN_FILL
  6
CONTINUOUS
 62
     7
 10
-506.87149958417717
 20
240.7307256894957
 30
0.0
 40
621.25000000000034
 50
355.59361480051729
 51
357.81086310428702
  0
ARC
  5
11E
  8
PATTERN_FILL
  6
CONTINUOUS
 62
     7
 10
-506.40044573234491
 20
251.519688638633
 30
0.0
 40
619.25000000000057
 50
354.5774051593263
 51
356.80442755867409
  0
ARC
  5
11F
  8
PATTERN_FILL
  6
CONTINUOUS
 62
     7
 10
-505.74330135383377
 20
262.26390425421999
 30
0.0
 40
617.25000000000045
 50
353.55705872974357
 51
355.79463638621979
  0
ARC
  5
120
  8
PATTERN_FILL
  6
CONTINUOUS
 62
     7
 10
-504.90148115807023
 20
272.96024401263838
 30
0.0
 40
615.25000000000011
 50
352.53249802866111
 51
354.78143323256091
  0
ARC
  5
121
  8
PATTERN_FILL
  6
CONTINUOUS
 62
     7
 10
-503.87645523677742
 20
283.60554522269808
 30
0.0
 40
613.2500000000008
 50
351.50364417029311
 51
353.76476214715052
  0
ARC
  5
122
  8
PATTERN_FILL
  6
CONTINUOUS
 62
     7
 10
-502.66974763605998
 20
294.19668190687389
 30
0.0
 40
611.25000000000057
 50
350.89150987877349
 51
352.74456088062021
  0
ARC
  5
123
  8
PATTERN_FILL
  6
CONTINUOUS
 62
     7
 10
-501.28293552303393
 20
304.73056571796712
 30
0.0
 40
609.2500000000008
 50
350.48086107277987
 51
351.72076060684958
  0
ARC
  5
124
  8
PATTERN_FILL
  6
CONTINUOUS
 62
     7
 10
-499.71764833695391
 20
315.20414683786458
 30
0.0
 40
607.25000000000068
 50
350.03248295203662
 51
350.69328561139412
  0
ARC
  5
125
  8
PATTERN_FILL
  6
CONTINUOUS
 62
     7
 10
-497.9755669252043
 20
325.61441485813941
 30
0.0
 40
605.2500000000008
 50
349.54872457493099
 51
349.66205294321719
  0
ARC
  5
126
  8
PATTERN_FILL
  6
CONTINUOUS
 62
     7
 10
240.00000000000011
 20
212.9738517901641
 30
0.0
 40
10.00000000000002
 50
53.380529869726438
 51
126.61947013027149
  0
ARC
  5
127
  8
PATTERN_FILL
  6
CONTINUOUS
 62
     7
 10
240.00000000000011
 20
212.9738517901641
 30
0.0
 40
12.000000000000011
 50
41.978036550102637
 51
138.02196344989599
  0
ARC
  5
128
  8
PATTERN_FILL
  6
CONTINUOUS
 62
     7
 10
240.00000000000011
 20
212.9738517901641
 30
0.0
 40
13.999999999999989
 50
34.980408191510818
 51
145.0195918084884
  0
ARC
  5
129
  8
PATTERN_FILL
  6
CONTINUOUS
 62
     7
 10
240.00000000000011
 20
212.9738517901641
 30
0.0
 40
16.0
 50
30.108181005260882
 51
149.89181899473161
  0
ARC
  5
12A
  8
PATTERN_FILL
  6
CONTINUOUS
 62
     7
 10
240.00000000000011
 20
212.9738517901641
 30
0.0
 40
17.999999999999989
 50
26.480750716242749
 51
153.51924928375681
  0
ARC
  5
12B
  8
PATTERN_FILL
  6
CONTINUOUS
 62
     7
 10
240.00000000000011
 20
212.9738517901641
 30
0.0
 40
19.999999999999979
 50
23.65993649611913
 51
156.34006350388009
  0
ARC
  5
12C
  8
PATTERN_FILL
  6
CONTINUOUS
 62
     7
 10
240.00000000000011
 20
212.9738517901641
 30
0.0
 40
21.999999999999989
 50
21.396808296465281
 51
158.603191703541
  0
ARC
  5
12D
  8
PATTERN_FILL
  6
CONTINUOUS
 62
     7
 10
240.00000000000011
 20
212.9738517901641
 30
0.0
 40
23.999999999999972
 50
19.53744509878786
 51
160.4625549012118
  0
ARC
  5
12E
  8
PATTERN_FILL
  6
CONTINUOUS
 62
     7
 10
240.00000000000011
 20
212.9738517901641
 30
0.0
 40
25.999999999999989
 50
33.113484623864501
 51
146.8865153761358
  0
ARC
  5
12F
  8
PATTERN_FILL
  6
CONTINUOUS
 62
     7
 10
240.00000000000011
 20
212.9738517901641
 30
0.0
 40
27.999999999999972
 50
41.715203472331041
 51
138.28479652766899
  0
LINE
  5
130
  8
PATTERN_FILL
  6
CONTINUOUS
 62
     7
 10
240.00000000000011
 20
246.9999999998584
 30
0.0
 11
240.00000000000011
 21
220.9738517901641
 31
0.0
  0
ARC
  5
131
  8
PATTERN_FILL
  6
CONTINUOUS
 62
     7
 10
867.25000000000102
 20
218.9738517901643
 30
0.0
 40
625.25000000000102
 50
177.43091849221719
 51
179.8143303570364
  0
ARC
  5
132
  8
PATTERN_FILL
  6
CONTINUOUS
 62
     7
 10
867.15511396063755
 20
208.10098862339399
 30
0.0
 40
623.25000000000068
 50
176.4216627334753
 51
178.81410078891639
  0
ARC
  5
133
  8
PATTERN_FILL
  6
CONTINUOUS
 62
     7
 10
866.8714995841774
 20
197.26927431022111
 30
0.0
 40
621.2500000000008
 50
175.40859142077261
 51
177.81086310428731
  0
ARC
  5
134
  8
PATTERN_FILL
  6
CONTINUOUS
 62
     7
 10
866.40044573234525
 20
186.48031136108381
 30
0.0
 40
619.25000000000068
 50
174.3914953990521
 51
176.80442755867421
  0
ARC
  5
135
  8
PATTERN_FILL
  6
CONTINUOUS
 62
     7
 10
865.74330135383411
 20
175.73609574549681
 30
0.0
 40
617.2500000000008
 50
173.37019546087191
 51
175.79463638621979
  0
ARC
  5
136
  8
PATTERN_FILL
  6
CONTINUOUS
 62
     7
 10
864.90148115807051
 20
165.03975598707839
 30
0.0
 40
615.25000000000034
 50
172.3446121221065
 51
174.78143323256069
  0
ARC
  5
137
  8
PATTERN_FILL
  6
CONTINUOUS
 62
     7
 10
863.87645523677782
 20
154.39445477701881
 30
0.0
 40
613.2500000000008
 50
171.3655831741824
 51
173.76476214715041
  0
ARC
  5
138
  8
PATTERN_FILL
  6
CONTINUOUS
 62
     7
 10
862.66974763606015
 20
143.80331809284289
 30
0.0
 40
611.25000000000068
 50
170.8915098787736
 51
172.7445608806201
  0
ARC
  5
139
  8
PATTERN_FILL
  6
CONTINUOUS
 62
     7
 10
861.28293552303421
 20
133.26943428174971
 30
0.0
 40
609.2500000000008
 50
170.48086107277979
 51
171.72076060684961
  0
ARC
  5
13A
  8
PATTERN_FILL
  6
CONTINUOUS
 62
     7
 10
859.7176483369542
 20
122.79585316185219
 30
0.0
 40
607.25000000000068
 50
170.0324829520365
 51
170.693285611394
  0
ARC
  5
13B
  8
PATTERN_FILL
  6
CONTINUOUS
 62
     7
 10
857.97556692520436
 20
112.38558514157739
 30
0.0
 40
605.2500000000008
 50
169.54872457493099
 51
169.6620529432204
  0
ARC
  5
13C
  8
PATTERN_FILL
  6
CONTINUOUS
 62
     7
 10
240.00000000000011
 20
212.9738517901641
 30
0.0
 40
29.999999999999961
 50
47.679292826648918
 51
132.32070717335091
  0
ARC
  5
13D
  8
PATTERN_FILL
  6
CONTINUOUS
 62
     7
 10
240.00000000000011
 20
212.9738517901641
 30
0.0
 40
31.999999999999989
 50
52.277123529664173
 51
127.72287647033571
  0
ARC
  5
13E
  8
PATTERN_FILL
  6
CONTINUOUS
 62
     7
 10
240.00000000000011
 20
212.9738517901641
 30
0.0
 40
33.999999999999972
 50
56.006526273044599
 51
123.993473726955
  0
ARC
  5
13F
  8
PATTERN_FILL
  6
CONTINUOUS
 62
     7
 10
240.00000000000011
 20
212.9738517901641
 30
0.0
 40
35.999999999999957
 50
59.126692567565442
 51
70.938887752911313
  0
ARC
  5
140
  8
PATTERN_FILL
  6
CONTINUOUS
 62
     7
 10
240.00000000000011
 20
212.9738517901641
 30
0.0
 40
35.999999999999957
 50
109.0611122470887
 51
120.8733074324346
  0
ARC
  5
141
  8
PATTERN_FILL
  6
CONTINUOUS
 62
     7
 10
-387.25000000000063
 20
218.9738517901643
 30
0.0
 40
625.2500000000008
 50
0.1856696427620432
 51
2.5690815077826041
  0
ARC
  5
142
  8
PATTERN_FILL
  6
CONTINUOUS
 62
     7
 10
-387.15511396063721
 20
208.10098862339399
 30
0.0
 40
623.25000000000057
 50
1.185899210875144
 51
3.5783372665245361
  0
ARC
  5
143
  8
PATTERN_FILL
  6
CONTINUOUS
 62
     7
 10
-386.87149958417717
 20
197.26927431022111
 30
0.0
 40
621.25000000000045
 50
2.189136895548232
 51
4.5914085792274193
  0
ARC
  5
144
  8
PATTERN_FILL
  6
CONTINUOUS
 62
     7
 10
-386.40044573234491
 20
186.48031136108381
 30
0.0
 40
619.25000000000057
 50
3.195572441412176
 51
5.608504600947942
  0
ARC
  5
145
  8
PATTERN_FILL
  6
CONTINUOUS
 62
     7
 10
-385.74330135383377
 20
175.73609574549681
 30
0.0
 40
617.25000000000045
 50
4.2053636137397561
 51
6.629804539128223
  0
ARC
  5
146
  8
PATTERN_FILL
  6
CONTINUOUS
 62
     7
 10
-384.90148115807023
 20
165.03975598707839
 30
0.0
 40
615.25000000000034
 50
5.2185667674325709
 51
7.6553878778934941
  0
ARC
  5
147
  8
PATTERN_FILL
  6
CONTINUOUS
 62
     7
 10
-383.87645523677742
 20
154.39445477701881
 30
0.0
 40
613.2500000000008
 50
6.2352378531966304
 51
8.6344168258178193
  0
ARC
  5
148
  8
PATTERN_FILL
  6
CONTINUOUS
 62
     7
 10
-382.66974763605998
 20
143.80331809284289
 30
0.0
 40
611.25000000000057
 50
7.2554391195034329
 51
9.1084901212264473
  0
ARC
  5
149
  8
PATTERN_FILL
  6
CONTINUOUS
 62
     7
 10
-381.28293552303393
 20
133.26943428174971
 30
0.0
 40
609.2500000000008
 50
8.2792393934980808
 51
9.5191389272206308
  0
ARC
  5
14A
  8
PATTERN_FILL
  6
CONTINUOUS
 62
     7
 10
-379.71764833695403
 20
122.79585316185219
 30
0.0
 40
607.25000000000068
 50
9.3067143885766477
 51
9.9675170479629926
  0
ARC
  5
14B
  8
PATTERN_FILL
  6
CONTINUOUS
 62
     7
 10
-377.97556692520442
 20
112.38558514157739
 30
0.0
 40
605.2500000000008
 50
10.337947056717139
 51
10.451275425066621
  0
ARC
  5
14C
  8
PATTERN_FILL
  6
CONTINUOUS
 62
     7
 10
240.00000000000011
 20
225.0261482095527
 30
0.0
 40
10.0
 50
233.38052986972639
 51
306.61947013027162
  0
ARC
  5
14D
  8
PATTERN_FILL
  6
CONTINUOUS
 62
     7
 10
240.00000000000011
 20
225.0261482095527
 30
0.0
 40
11.99999999999998
 50
221.9780365501021
 51
318.02196344989591
  0
ARC
  5
14E
  8
PATTERN_FILL
  6
CONTINUOUS
 62
     7
 10
240.00000000000011
 20
225.0261482095527
 30
0.0
 40
14.0
 50
214.98040819151109
 51
325.01959180848831
  0
ARC
  5
14F
  8
PATTERN_FILL
  6
CONTINUOUS
 62
     7
 10
240.00000000000011
 20
225.0261482095527
 30
0.0
 40
15.99999999999998
 50
210.10818100526899
 51
329.89181899473169
  0
ARC
  5
150
  8
PATTERN_FILL
  6
CONTINUOUS
 62
     7
 10
240.00000000000011
 20
225.0261482095527
 30
0.0
 40
18.000000000000021
 50
206.48075071624319
 51
333.51924928375678
  0
ARC
  5
151
  8
PATTERN_FILL
  6
CONTINUOUS
 62
     7
 10
240.00000000000011
 20
225.0261482095527
 30
0.0
 40
20.0
 50
203.6599364961165
 51
336.34006350388017
  0
ARC
  5
152
  8
PATTERN_FILL
  6
CONTINUOUS
 62
     7
 10
240.00000000000011
 20
225.0261482095527
 30
0.0
 40
21.999999999999989
 50
201.39680829646531
 51
338.60319170354109
  0
ARC
  5
153
  8
PATTERN_FILL
  6
CONTINUOUS
 62
     7
 10
240.00000000000011
 20
225.0261482095527
 30
0.0
 40
23.999999999999989
 50
199.53744509879249
 51
340.462554901212
  0
ARC
  5
154
  8
PATTERN_FILL
  6
CONTINUOUS
 62
     7
 10
240.00000000000011
 20
225.0261482095527
 30
0.0
 40
26.0
 50
213.11348462386411
 51
326.88651537613561
  0
ARC
  5
155
  8
PATTERN_FILL
  6
CONTINUOUS
 62
     7
 10
240.00000000000011
 20
225.0261482095527
 30
0.0
 40
27.999999999999972
 50
221.71520347233101
 51
318.28479652766907
  0
LINE
  5
156
  8
PATTERN_FILL
  6
CONTINUOUS
 62
     7
 10
240.00000000000011
 20
194.0261482095527
 30
0.0
 11
240.00000000000011
 21
217.0261482095527
 31
0.0
  0
ARC
  5
157
  8
PATTERN_FILL
  6
CONTINUOUS
 62
     7
 10
867.25000000000102
 20
219.02614820955259
 30
0.0
 40
625.2500000000008
 50
180.18566964276201
 51
182.3856367932523
  0
ARC
  5
158
  8
PATTERN_FILL
  6
CONTINUOUS
 62
     7
 10
867.15511396063755
 20
229.8990113763229
 30
0.0
 40
623.25000000000068
 50
181.18589921087511
 51
183.39413500297761
  0
ARC
  5
159
  8
PATTERN_FILL
  6
CONTINUOUS
 62
     7
 10
866.8714995841774
 20
240.7307256894957
 30
0.0
 40
621.25000000000045
 50
182.18913689554819
 51
184.40638519948291
  0
ARC
  5
15A
  8
PATTERN_FILL
  6
CONTINUOUS
 62
     7
 10
866.40044573234525
 20
251.519688638633
 30
0.0
 40
619.25000000000068
 50
183.19557244141211
 51
185.42259484067679
  0
ARC
  5
15B
  8
PATTERN_FILL
  6
CONTINUOUS
 62
     7
 10
865.74330135383411
 20
262.26390425421999
 30
0.0
 40
617.2500000000008
 50
184.2053636138894
 51
186.44294127025691
  0
ARC
  5
15C
  8
PATTERN_FILL
  6
CONTINUOUS
 62
     7
 10
864.90148115807051
 20
272.96024401263838
 30
0.0
 40
615.25000000000057
 50
185.21856676743249
 51
187.4675019713369
  0
ARC
  5
15D
  8
PATTERN_FILL
  6
CONTINUOUS
 62
     7
 10
863.87645523677782
 20
283.60554522269808
 30
0.0
 40
613.2500000000008
 50
186.23523785275171
 51
188.4963558297116
  0
ARC
  5
15E
  8
PATTERN_FILL
  6
CONTINUOUS
 62
     7
 10
862.66974763606015
 20
294.19668190687389
 30
0.0
 40
611.25000000000068
 50
187.25543911950331
 51
189.1084901212264
  0
ARC
  5
15F
  8
PATTERN_FILL
  6
CONTINUOUS
 62
     7
 10
861.28293552303421
 20
304.73056571796712
 30
0.0
 40
609.2500000000008
 50
188.2792393932047
 51
189.51913892722001
  0
ARC
  5
160
  8
PATTERN_FILL
  6
CONTINUOUS
 62
     7
 10
859.7176483369542
 20
315.20414683786458
 30
0.0
 40
607.25000000000068
 50
189.30671438857661
 51
189.9675170479635
  0
ARC
  5
161
  8
PATTERN_FILL
  6
CONTINUOUS
 62
     7
 10
857.97556692520436
 20
325.61441485813941
 30
0.0
 40
605.2500000000008
 50
190.3379470567171
 51
190.4512754250666
  0
ARC
  5
162
  8
PATTERN_FILL
  6
CONTINUOUS
 62
     7
 10
240.00000000000011
 20
225.0261482095527
 30
0.0
 40
29.999999999999961
 50
227.679292826649
 51
312.32070717335108
  0
ARC
  5
163
  8
PATTERN_FILL
  6
CONTINUOUS
 62
     7
 10
240.00000000000011
 20
225.0261482095527
 30
0.0
 40
31.999999999999972
 50
232.2771235296641
 51
307.72287647033568
  0
ARC
  5
164
  8
PATTERN_FILL
  6
CONTINUOUS
 62
     7
 10
240.00000000000011
 20
225.0261482095527
 30
0.0
 40
33.999999999999972
 50
236.0065262730449
 51
250.38089326998161
  0
ARC
  5
165
  8
PATTERN_FILL
  6
CONTINUOUS
 62
     7
 10
240.00000000000011
 20
225.0261482095527
 30
0.0
 40
33.999999999999972
 50
289.61910673001842
 51
303.9934737269553
  0
ARC
  5
166
  8
PATTERN_FILL
  6
CONTINUOUS
 62
     7
 10
240.00000000000011
 20
225.0261482095527
 30
0.0
 40
35.999999999999957
 50
297.17506362580139
 51
300.87330743243461
  0
ARC
  5
167
  8
PATTERN_FILL
  6
CONTINUOUS
 62
     7
 10
240.00000000000011
 20
225.0261482095527
 30
0.0
 40
35.999999999999957
 50
239.1266925675653
 51
242.8249363741985
  0
ARC
  5
168
  8
PATTERN_FILL
  6
CONTINUOUS
 62
     7
 10
-387.25000000000063
 20
219.02614820955259
 30
0.0
 40
625.2500000000008
 50
357.61436320674858
 51
359.81433035703628
  0
ARC
  5
169
  8
PATTERN_FILL
  6
CONTINUOUS
 62
     7
 10
-387.15511396063721
 20
229.8990113763229
 30
0.0
 40
623.25000000000057
 50
356.60586499701981
 51
358.81410078891662
  0
ARC
  5
16A
  8
PATTERN_FILL
  6
CONTINUOUS
 62
     7
 10
-386.87149958417717
 20
240.7307256894957
 30
0.0
 40
621.25000000000034
 50
355.59361480051729
 51
357.81086310428702
  0
ARC
  5
16B
  8
PATTERN_FILL
  6
CONTINUOUS
 62
     7
 10
-386.40044573234491
 20
251.519688638633
 30
0.0
 40
619.25000000000057
 50
354.5774051593263
 51
356.80442755867409
  0
ARC
  5
16C
  8
PATTERN_FILL
  6
CONTINUOUS
 62
     7
 10
-385.74330135383377
 20
262.26390425421999
 30
0.0
 40
617.25000000000045
 50
353.55705872974357
 51
355.79463638621979
  0
ARC
  5
16D
  8
PATTERN_FILL
  6
CONTINUOUS
 62
     7
 10
-384.90148115807023
 20
272.96024401263838
 30
0.0
 40
615.25000000000011
 50
352.53249802866111
 51
354.78143323256091
  0
ARC
  5
16E
  8
PATTERN_FILL
  6
CONTINUOUS
 62
     7
 10
-383.87645523677742
 20
283.60554522269808
 30
0.0
 40
613.2500000000008
 50
351.50364417029311
 51
353.76476214715052
  0
ARC
  5
16F
  8
PATTERN_FILL
  6
CONTINUOUS
 62
     7
 10
-382.66974763605998
 20
294.19668190687389
 30
0.0
 40
611.25000000000057
 50
350.89150987877349
 51
352.74456088062021
  0
ARC
  5
170
  8
PATTERN_FILL
  6
CONTINUOUS
 62
     7
 10
-381.28293552303393
 20
304.73056571796712
 30
0.0
 40
609.2500000000008
 50
350.48086107277987
 51
351.72076060684958
  0
ARC
  5
171
  8
PATTERN_FILL
  6
CONTINUOUS
 62
     7
 10
-379.71764833695403
 20
315.20414683786458
 30
0.0
 40
607.25000000000068
 50
350.03248295203662
 51
350.69328561139412
  0
ARC
  5
172
  8
PATTERN_FILL
  6
CONTINUOUS
 62
     7
 10
-377.97556692520442
 20
325.61441485813941
 30
0.0
 40
605.2500000000008
 50
349.54872457493099
 51
349.66205294321719
  0
INSERT
  5
173
  8
PATTERN_FILL
 62
     7
  2
____
 10
117.499985
 20
129.20227
 30
0.0
  0
LINE
  5
174
  8
SPEC
  6
CONTINUOUS
 62
     7
 10
-130.0
 20
494.5
 30
0.0
 11
300.0
 21
494.5
 31
0.0
  0
LINE
  5
175
  8
SPEC
  6
CONTINUOUS
 62
     7
 10
-130.0
 20
483.25
 30
0.0
 11
300.0
 21
483.25
 31
0.0
  0
LINE
  5
176
  8
SPEC
  6
CONTINUOUS
 62
     7
 10
-130.0
 20
415.74999999999989
 30
0.0
 11
300.0
 21
415.74999999999989
 31
0.0
  0
LINE
  5
177
  8
SPEC
  6
CONTINUOUS
 62
     7
 10
-130.0
 20
427.0
 30
0.0
 11
300.0
 21
427.0
 31
0.0
  0
LINE
  5
178
  8
SPEC
  6
CONTINUOUS
 62
     7
 10
-130.0
 20
438.25
 30
0.0
 11
300.0
 21
438.25
 31
0.0
  0
LINE
  5
179
  8
SPEC
  6
CONTINUOUS
 62
     7
 10
-130.0
 20
404.49999999999989
 30
0.0
 11
300.0
 21
404.49999999999989
 31
0.0
  0
LINE
  5
17A
  8
SPEC
  6
CONTINUOUS
 62
     7
 10
-130.0
 20
382.0
 30
0.0
 11
300.0
 21
382.0
 31
0.0
  0
LINE
  5
17B
  8
SPEC
  6
CONTINUOUS
 62
     7
 10
-130.0
 20
393.25
 30
0.0
 11
300.0
 21
393.25
 31
0.0
  0
LINE
  5
17C
  8
SPEC
  6
CONTINUOUS
 62
     7
 10
-130.0
 20
449.5
 30
0.0
 11
300.0
 21
449.5
 31
0.0
  0
TEXT
  5
17D
  8
SPEC
 62
     7
 10
-29.800000000000011
 20
485.61373833333329
 30
0.0
 40
5.7009440104166647
  1
F3W
 41
0.7
 11
-29.800000000000011
 21
491.31468234374989
 31
0.0
 73
     3
  0
LINE
  5
17E
  8
SPEC
  6
CONTINUOUS
 62
     7
 10
-130.0
 20
494.5
 30
0.0
 11
-130.0
 21
325.74999999999989
 31
0.0
  0
TEXT
  5
17F
  8
SPEC
 62
     7
 10
-126.25
 20
498.67979499999979
 30
0.0
 40
7.3297851562499989
  1
仕様
 41
0.7
 11
-126.25
 21
506.00958015624991
 31
0.0
 73
     3
  0
LINE
  5
180
  8
SPEC
  6
CONTINUOUS
 62
     7
 10
-32.5
 20
494.5
 30
0.0
 11
-32.5
 21
325.74999999999989
 31
0.0
  0
LINE
  5
181
  8
SPEC
  6
CONTINUOUS
 62
     7
 10
300.0
 20
494.5
 30
0.0
 11
300.0
 21
325.75
 31
0.0
  0
TEXT
  5
182
  8
SPEC
 62
     7
 10
-29.800000000000011
 20
373.11375333333342
 30
0.0
 40
5.7009440104166647
  1
+4.8dBu(1kHz、ゲイン最小、1%%%THD、パッド無し)
 41
0.7
 11
-29.800000000000011
 21
378.81469734375003
 31
0.0
 73
     3
  0
TEXT
  5
183
  8
SPEC
 62
     7
 10
-127.3
 20
418.11375333333331
 30
0.0
 40
5.7009440104166647
  1
アンテナ形式
 41
0.7
 11
-127.3
 21
423.81469734374991
 31
0.0
 73
     3
  0
TEXT
  5
184
  8
SPEC
 62
     7
 10
-127.3
 20
485.61373833333329
 30
0.0
 40
5.7009440104166647
  1
電波型式
 41
0.7
 11
-127.3
 21
491.31468234374989
 31
0.0
 73
     3
  0
TEXT
  5
185
  8
SPEC
 62
     7
 10
-127.3
 20
395.61375333333331
 30
0.0
 40
5.7009440104166647
  1
トーン信号周波数
 41
0.7
 11
-127.3
 21
401.31469734375003
 31
0.0
 73
     3
  0
TEXT
  5
186
  8
SPEC
 62
     7
 10
-127.3
 20
384.36375333333342
 30
0.0
 40
5.7009440104166647
  1
周波数特性
 41
0.7
 11
-127.3
 21
390.06469734375003
 31
0.0
 73
     3
  0
TEXT
  5
187
  8
SPEC
 62
     7
 10
-127.3
 20
429.36375333333331
 30
0.0
 40
5.7009440104166647
  1
空中線電力
 41
0.7
 11
-127.3
 21
435.06469734375003
 31
0.0
 73
     3
  0
TEXT
  5
188
  8
SPEC
 62
     7
 10
-127.3
 20
406.86375333333331
 30
0.0
 40
5.7009440104166647
  1
到達距離
 41
0.7
 11
-127.3
 21
412.56469734375003
 31
0.0
 73
     3
  0
TEXT
  5
189
  8
SPEC
 62
     7
 10
-127.3
 20
474.36375333333331
 30
0.0
 40
5.7009440104166647
  1
送信周波数
 41
0.7
 11
-127.3
 21
480.06469734375003
 31
0.0
 73
     3
  0
TEXT
  5
18A
  8
SPEC
 62
     7
 10
-127.3
 20
440.61375333333342
 30
0.0
 40
5.7009440104166647
  1
発振方式
 41
0.7
 11
-127.3
 21
446.31469734375003
 31
0.0
 73
     3
  0
TEXT
  5
18B
  8
SPEC
 62
     7
 10
-127.3
 20
373.11375333333342
 30
0.0
 40
5.7009440104166647
  1
最大入力レベル
 41
0.7
 11
-127.3
 21
378.81469734375003
 31
0.0
 73
     3
  0
TEXT
  5
18C
  8
SPEC
 62
     7
 10
-29.800000000000011
 20
418.11375333333331
 30
0.0
 40
5.7009440104166647
  1
1/4波長ヘリカル、50\U+03A9
 41
0.7
 11
-29.800000000000011
 21
423.81469734374991
 31
0.0
 73
     3
  0
TEXT
  5
18D
  8
SPEC
 62
     7
 10
-29.800000000000011
 20
395.61375333333331
 30
0.0
 40
5.7009440104166647
  1
32.768kHz
 41
0.7
 11
-29.800000000000011
 21
401.31469734375003
 31
0.0
 73
     3
  0
TEXT
  5
18E
  8
SPEC
 62
     7
 10
-29.800000000000011
 20
384.36375333333342
 30
0.0
 40
5.7009440104166647
  1
40Hz～15kHz +1/-3dB（システム全体の帯域幅はマイクヘッドにより変動）
 41
0.7
 11
-29.800000000000011
 21
390.06469734375003
 31
0.0
 73
     3
  0
TEXT
  5
18F
  8
SPEC
 62
     7
 10
-29.800000000000011
 20
429.36375333333331
 30
0.0
 40
5.7009440104166647
  1
10mW/2mW
 41
0.7
 11
-29.800000000000011
 21
435.06469734375003
 31
0.0
 73
     3
  0
TEXT
  5
190
  8
SPEC
 62
     7
 10
-29.800000000000011
 20
406.86375333333331
 30
0.0
 40
5.7009440104166647
  1
約100m(標準環境における最大値)
 41
0.7
 11
-29.800000000000011
 21
412.56469734375003
 31
0.0
 73
     3
  0
TEXT
  5
191
  8
SPEC
 62
     7
 10
-29.800000000000011
 20
440.61375333333342
 30
0.0
 40
5.7009440104166647
  1
水晶制御PLLシンセサイザー方式
 41
0.7
 11
-29.800000000000011
 21
446.31469734375003
 31
0.0
 73
     3
  0
TEXT
  5
192
  8
SPEC
 62
     7
 10
-29.800000000000011
 20
474.36375333333331
 30
0.0
 40
5.7009440104166647
  1
MW2/SM86-MJBX:B型 (806～810MHz)30チャンネルのうち任意の1チャンネル
 41
0.7
 11
-29.800000000000011
 21
480.06469734375003
 31
0.0
 73
     3
  0
LINE
  5
193
  8
SPEC
  6
CONTINUOUS
 62
     7
 10
-130.0
 20
348.25
 30
0.0
 11
300.0
 21
348.25
 31
0.0
  0
LINE
  5
194
  8
SPEC
  6
CONTINUOUS
 62
     7
 10
-130.0
 20
337.0
 30
0.0
 11
300.0
 21
337.0
 31
0.0
  0
TEXT
  5
195
  8
SPEC
 62
     7
 10
-29.800000000000011
 20
350.61375333333342
 30
0.0
 40
5.7009440104166647
  1
単3形アルカリ乾電池\U+00D72
 41
0.7
 11
-29.800000000000011
 21
356.31469734375008
 31
0.0
 73
     3
  0
TEXT
  5
196
  8
SPEC
 62
     7
 10
-127.3
 20
350.61375333333342
 30
0.0
 40
5.7009440104166647
  1
電源
 41
0.7
 11
-127.3
 21
356.31469734375008
 31
0.0
 73
     3
  0
LINE
  5
197
  8
SPEC
  6
CONTINUOUS
 62
     7
 10
-130.0
 20
325.75
 30
0.0
 11
300.0
 21
325.75
 31
0.0
  0
TEXT
  5
198
  8
SPEC
 62
     7
 10
-29.800000000000011
 20
339.36375333333342
 30
0.0
 40
5.7009440104166647
  1
\U+03C649\U+00D7247mm
 41
0.7
 11
-29.800000000000011
 21
345.06469734375008
 31
0.0
 73
     3
  0
TEXT
  5
199
  8
SPEC
 62
     7
 10
-127.3
 20
339.36375333333342
 30
0.0
 40
5.7009440104166647
  1
寸法(W\U+00D7H\U+00D7D)
 41
0.7
 11
-127.3
 21
345.06469734375008
 31
0.0
 73
     3
  0
TEXT
  5
19A
  8
SPEC
 62
     7
 10
-29.800000000000011
 20
328.11375333333342
 30
0.0
 40
5.7009440104166647
  1
約317g(電池除く)
 41
0.7
 11
-29.800000000000011
 21
333.81469734375008
 31
0.0
 73
     3
  0
TEXT
  5
19B
  8
SPEC
 62
     7
 10
-127.3
 20
328.11375333333342
 30
0.0
 40
5.7009440104166647
  1
質量
 41
0.7
 11
-127.3
 21
333.81469734375008
 31
0.0
 73
     3
  0
TEXT
  5
19C
  8
SPEC
 62
     7
 10
-29.800000000000011
 20
361.86375333333342
 30
0.0
 40
5.7009440104166647
  1
-10～+20dB
 41
0.7
 11
-29.800000000000011
 21
367.56469734375003
 31
0.0
 73
     3
  0
TEXT
  5
19D
  8
SPEC
 62
     7
 10
-127.3
 20
361.86375333333342
 30
0.0
 40
5.7009440104166647
  1
ゲイン調整範囲
 41
0.7
 11
-127.3
 21
367.56469734375003
 31
0.0
 73
     3
  0
LINE
  5
19E
  8
SPEC
  6
CONTINUOUS
 62
     7
 10
-130.0
 20
370.75
 30
0.0
 11
300.0
 21
370.75
 31
0.0
  0
TEXT
  5
19F
  8
SPEC
 62
     7
 10
-29.800000000000011
 20
463.11375333333331
 30
0.0
 40
5.7009440104166647
  1
MW2/SM86-MA24:A型 (797～806MHz)71チャンネルとA2型(779～788MHz)71チャンネル
 41
0.7
 11
-29.800000000000011
 21
468.81469734375003
 31
0.0
 73
     3
  0
TEXT
  5
1A0
  8
SPEC
 62
     7
 10
18.199999999999989
 20
451.86375333333331
 30
0.0
 40
5.7009440104166647
  1
合計142チャンネルのうち任意の1チャンネル
 41
0.7
 11
18.199999999999989
 21
457.56469734375003
 31
0.0
 73
     3
  0
LINE
  5
1A1
  8
SPEC
  6
CONTINUOUS
 62
     7
 10
-130.0
 20
359.5
 30
0.0
 11
300.0
 21
359.5
 31
0.0
  0
TEXT
  5
1A2
  8
DIMNSIONS
 62
     7
 10
57.499984999999981
 20
-218.69151500000001
 30
0.0
 40
7.3297851562499989
  1
(単位：mm)
 41
0.7
 11
57.499984999999981
 21
-211.36172984375
 31
0.0
 73
     3
  0
LINE
  5
1A3
  8
DIMNSIONS
  6
CONTINUOUS
 62
     7
 10
-24.499999977648251
 20
176.0
 30
0.0
 11
-65.999999977648244
 21
176.0
 31
0.0
  0
LINE
  5
1A4
  8
DIMNSIONS
  6
CONTINUOUS
 62
     7
 10
-15.05309312801816
 20
0.0
 30
0.0
 11
-65.999999977648244
 21
0.0
 31
0.0
  0
LINE
  5
1A5
  8
DIMNSIONS
  6
CONTINUOUS
 62
     7
 10
-60.0
 20
176.0
 30
0.0
 11
-60.0
 21
0.0
 31
0.0
  0
LINE
  5
1A6
  8
DIMNSIONS
  6
CONTINUOUS
 62
     7
 10
-60.0
 20
176.0
 30
0.0
 11
-57.447783942093572
 21
166.47499999999999
 31
0.0
  0
LINE
  5
1A7
  8
DIMNSIONS
  6
CONTINUOUS
 62
     7
 10
-60.0
 20
176.0
 30
0.0
 11
-62.552216057906442
 21
166.47499999999999
 31
0.0
  0
LINE
  5
1A8
  8
DIMNSIONS
  6
CONTINUOUS
 62
     7
 10
-60.0
 20
0.0
 30
0.0
 11
-62.552216057906442
 21
9.5250000000000021
 31
0.0
  0
LINE
  5
1A9
  8
DIMNSIONS
  6
CONTINUOUS
 62
     7
 10
-60.0
 20
0.0
 30
0.0
 11
-57.447783942093572
 21
9.5250000000000021
 31
0.0
  0
TEXT
  5
1AA
  8
DIMNSIONS
 62
     7
 10
-64.48166665549077
 20
80.062499999999986
 30
0.0
 40
8.1442057291666661
  1
176
 50
90.0
 41
0.7
 11
-72.625872384657441
 21
80.062499999999986
 31
0.0
 73
     3
  0
LINE
  5
1AB
  8
DIMNSIONS
  6
CONTINUOUS
 62
     7
 10
-22.211205228837631
 20
247.0
 30
0.0
 11
-95.999999977648244
 21
247.0
 31
0.0
  0
LINE
  5
1AC
  8
DIMNSIONS
  6
CONTINUOUS
 62
     7
 10
-15.05309312801816
 20
0.0
 30
0.0
 11
-95.999999977648244
 21
0.0
 31
0.0
  0
LINE
  5
1AD
  8
DIMNSIONS
  6
CONTINUOUS
 62
     7
 10
-90.0
 20
247.0
 30
0.0
 11
-90.0
 21
0.0
 31
0.0
  0
LINE
  5
1AE
  8
DIMNSIONS
  6
CONTINUOUS
 62
     7
 10
-90.0
 20
247.0
 30
0.0
 11
-87.447783942093565
 21
237.47499999999999
 31
0.0
  0
LINE
  5
1AF
  8
DIMNSIONS
  6
CONTINUOUS
 62
     7
 10
-90.0
 20
247.0
 30
0.0
 11
-92.552216057906435
 21
237.47499999999999
 31
0.0
  0
LINE
  5
1B0
  8
DIMNSIONS
  6
CONTINUOUS
 62
     7
 10
-90.0
 20
0.0
 30
0.0
 11
-92.552216057906435
 21
9.5250000000000021
 31
0.0
  0
LINE
  5
1B1
  8
DIMNSIONS
  6
CONTINUOUS
 62
     7
 10
-90.0
 20
0.0
 30
0.0
 11
-87.447783942093565
 21
9.5250000000000021
 31
0.0
  0
TEXT
  5
1B2
  8
DIMNSIONS
 62
     7
 10
-94.48166665549077
 20
115.5625
 30
0.0
 40
8.1442057291666661
  1
247
 50
90.0
 41
0.7
 11
-102.6258723846574
 21
115.5625
 31
0.0
 73
     3
  0
LINE
  5
1B3
  8
DIMNSIONS
  6
CONTINUOUS
 62
     7
 10
-24.499999977648251
 20
176.0
 30
0.0
 11
-65.999999977648244
 21
176.0
 31
0.0
  0
LINE
  5
1B4
  8
DIMNSIONS
  6
CONTINUOUS
 62
     7
 10
-22.211205228837631
 20
247.0
 30
0.0
 11
-65.999999977648244
 21
247.0
 31
0.0
  0
LINE
  5
1B5
  8
DIMNSIONS
  6
CONTINUOUS
 62
     7
 10
-60.0
 20
176.0
 30
0.0
 11
-60.0
 21
247.0
 31
0.0
  0
LINE
  5
1B6
  8
DIMNSIONS
  6
CONTINUOUS
 62
     7
 10
-60.0
 20
176.0
 30
0.0
 11
-62.552216057906442
 21
185.52500000000001
 31
0.0
  0
LINE
  5
1B7
  8
DIMNSIONS
  6
CONTINUOUS
 62
     7
 10
-60.0
 20
176.0
 30
0.0
 11
-57.447783942093572
 21
185.52500000000001
 31
0.0
  0
LINE
  5
1B8
  8
DIMNSIONS
  6
CONTINUOUS
 62
     7
 10
-60.0
 20
247.0
 30
0.0
 11
-57.447783942093572
 21
237.47499999999999
 31
0.0
  0
LINE
  5
1B9
  8
DIMNSIONS
  6
CONTINUOUS
 62
     7
 10
-60.0
 20
247.0
 30
0.0
 11
-62.552216057906442
 21
237.47499999999999
 31
0.0
  0
TEXT
  5
1BA
  8
DIMNSIONS
 62
     7
 10
-64.48166665549077
 20
206.20833333333329
 30
0.0
 40
8.1442057291666661
  1
71
 50
90.0
 41
0.7
 11
-72.625872384657441
 21
206.20833333333329
 31
0.0
 73
     3
  0
LINE
  5
1BB
  8
DIMNSIONS
  6
CONTINUOUS
 62
     7
 10
-24.25
 20
-94.000000022351742
 30
0.0
 11
-24.25
 21
-34.000000022351749
 31
0.0
  0
LINE
  5
1BC
  8
DIMNSIONS
  6
CONTINUOUS
 62
     7
 10
24.25
 20
-94.000000022351742
 30
0.0
 11
24.25
 21
-34.000000022351749
 31
0.0
  0
LINE
  5
1BD
  8
DIMNSIONS
  6
CONTINUOUS
 62
     7
 10
-24.25
 20
-40.0
 30
0.0
 11
24.25
 21
-40.0
 31
0.0
  0
LINE
  5
1BE
  8
DIMNSIONS
  6
CONTINUOUS
 62
     7
 10
-24.25
 20
-40.0
 30
0.0
 11
-14.724999999999991
 21
-37.447783942093572
 31
0.0
  0
LINE
  5
1BF
  8
DIMNSIONS
  6
CONTINUOUS
 62
     7
 10
-24.25
 20
-40.0
 30
0.0
 11
-14.724999999999991
 21
-42.552216057906442
 31
0.0
  0
LINE
  5
1C0
  8
DIMNSIONS
  6
CONTINUOUS
 62
     7
 10
24.25
 20
-40.0
 30
0.0
 11
14.724999999999991
 21
-42.552216057906442
 31
0.0
  0
LINE
  5
1C1
  8
DIMNSIONS
  6
CONTINUOUS
 62
     7
 10
24.25
 20
-40.0
 30
0.0
 11
14.724999999999991
 21
-37.447783942093572
 31
0.0
  0
TEXT
  5
1C2
  8
DIMNSIONS
 62
     7
 10
-5.2916666666666732
 20
-35.518333344509202
 30
0.0
 40
8.1442057291666661
  1
49
 41
0.7
 11
-5.2916666666666723
 21
-27.37412761534253
 31
0.0
 73
     3
  0
TEXT
  5
1C3
  8
DATA
 62
     7
 10
239.99996999999999
 20
-221.19716333333329
 30
0.0
 40
6.5153645833333318
  1
MW2/SM86-MJBX 、 MW2/SM86-MA24
 41
0.7
 11
239.99996999999999
 21
-214.68179875000001
 31
0.0
 73
     3
  0
TEXT
  5
1C4
  8
DATA
 62
     7
 10
259.99997000000002
 20
-200.35732999999999
 30
0.0
 40
7.3297851562499989
  1
SHURE
 41
0.7
 11
259.99997000000002
 21
-193.02754484375001
 31
0.0
 73
     3
  0
TEXT
  5
1C5
  8
DATA
 62
     7
 10
239.99996999999999
 20
-210.3581574561403
 30
0.0
 40
6.5153645833333318
  1
ハンドヘルド型送信機
 41
0.7
 11
239.99996999999999
 21
-203.84279287280691
 31
0.0
 73
     3
  0
LINE
  5
1C6
  8
DATA
  6
CONTINUOUS
 62
     7
 10
-18.5
 20
176.0
 30
0.0
 11
18.5
 21
176.0
 31
0.0
  0
LINE
  5
1C7
  8
DATA
  6
CONTINUOUS
 62
     7
 10
-17.5
 20
102.0
 30
0.0
 11
17.5
 21
102.0
 31
0.0
  0
LINE
  5
1C8
  8
DATA
  6
CONTINUOUS
 62
     7
 10
-17.5
 20
136.0
 30
0.0
 11
-17.5
 21
102.0
 31
0.0
  0
LINE
  5
1C9
  8
DATA
  6
CONTINUOUS
 62
     7
 10
17.5
 20
136.0
 30
0.0
 11
17.5
 21
102.0
 31
0.0
  0
ARC
  5
1CA
  8
DATA
  6
CONTINUOUS
 62
     7
 10
151.17307692307691
 20
171.88461538461539
 30
0.0
 40
169.72297847691971
 50
178.61057540006649
 51
187.0513242185213
  0
LINE
  5
1CB
  8
DATA
  6
CONTINUOUS
 62
     7
 10
17.5
 20
136.0
 30
0.0
 11
17.5
 21
102.0
 31
0.0
  0
ARC
  5
1CC
  8
DATA
  6
CONTINUOUS
 62
     7
 10
-91.204948301329424
 20
138.32865583456419
 30
0.0
 40
108.7298874421865
 50
358.77280887296558
 51
4.5740453520401161
  0
LINE
  5
1CD
  8
DATA
  6
CONTINUOUS
 62
     7
 10
-17.5
 20
176.5
 30
0.0
 11
-17.5
 21
176.0
 31
0.0
  0
LINE
  5
1CE
  8
DATA
  6
CONTINUOUS
 62
     7
 10
17.5
 20
176.5
 30
0.0
 11
17.5
 21
176.0
 31
0.0
  0
LINE
  5
1CF
  8
DATA
  6
CONTINUOUS
 62
     7
 10
-17.5
 20
102.5
 30
0.0
 11
17.5
 21
102.5
 31
0.0
  0
LINE
  5
1D0
  8
DATA
  6
CONTINUOUS
 62
     7
 10
-17.0
 20
37.0
 30
0.0
 11
17.0
 21
37.0
 31
0.0
  0
LINE
  5
1D1
  8
DATA
  6
CONTINUOUS
 62
     7
 10
-16.0
 20
28.0
 30
0.0
 11
16.0
 21
28.0
 31
0.0
  0
LINE
  5
1D2
  8
DATA
  6
CONTINUOUS
 62
     7
 10
-17.0
 20
29.0
 30
0.0
 11
-17.0
 21
37.0
 31
0.0
  0
LINE
  5
1D3
  8
DATA
  6
CONTINUOUS
 62
     7
 10
17.0
 20
29.0
 30
0.0
 11
17.0
 21
37.0
 31
0.0
  0
LINE
  5
1D4
  8
DATA
  6
CONTINUOUS
 62
     7
 10
-17.0
 20
37.5
 30
0.0
 11
17.0
 21
37.5
 31
0.0
  0
LINE
  5
1D5
  8
DATA
  6
CONTINUOUS
 62
     7
 10
-17.5
 20
102.0
 30
0.0
 11
-17.0
 21
37.5
 31
0.0
  0
LINE
  5
1D6
  8
DATA
  6
CONTINUOUS
 62
     7
 10
17.5
 20
102.0
 30
0.0
 11
17.0
 21
37.5
 31
0.0
  0
LINE
  5
1D7
  8
DATA
  6
CONTINUOUS
 62
     7
 10
-17.0
 20
37.5
 30
0.0
 11
-16.5
 21
37.25
 31
0.0
  0
LINE
  5
1D8
  8
DATA
  6
CONTINUOUS
 62
     7
 10
-16.5
 20
37.25
 30
0.0
 11
-17.0
 21
37.0
 31
0.0
  0
LINE
  5
1D9
  8
DATA
  6
CONTINUOUS
 62
     7
 10
17.0
 20
37.5
 30
0.0
 11
16.5
 21
37.25
 31
0.0
  0
LINE
  5
1DA
  8
DATA
  6
CONTINUOUS
 62
     7
 10
16.5
 20
37.25
 30
0.0
 11
17.0
 21
37.0
 31
0.0
  0
LINE
  5
1DB
  8
DATA
  6
CONTINUOUS
 62
     7
 10
-16.5
 20
37.25
 30
0.0
 11
16.5
 21
37.25
 31
0.0
  0
ARC
  5
1DC
  8
DATA
  6
CONTINUOUS
 62
     7
 10
-16.0
 20
29.0
 30
0.0
 40
1.0
 50
180.0
 51
270.0
  0
ARC
  5
1DD
  8
DATA
  6
CONTINUOUS
 62
     7
 10
16.0
 20
29.0
 30
0.0
 40
1.0
 50
270.0
 51
0.0
  0
LINE
  5
1DE
  8
DATA
  6
CONTINUOUS
 62
     7
 10
-9.0530931503699037
 20
0.0
 30
0.0
 11
9.0530931503699037
 21
0.0
 31
0.0
  0
LINE
  5
1DF
  8
DATA
  6
CONTINUOUS
 62
     7
 10
-12.5
 20
28.0
 30
0.0
 11
-12.052614948406241
 21
2.9464371107493572
 31
0.0
  0
LINE
  5
1E0
  8
DATA
  6
CONTINUOUS
 62
     7
 10
12.5
 20
28.0
 30
0.0
 11
12.052614948406241
 21
2.9464371107493572
 31
0.0
  0
ARC
  5
1E1
  8
DATA
  6
CONTINUOUS
 62
     7
 10
-9.0530931503699037
 20
3.0
 30
0.0
 40
3.0000000000000062
 50
181.0230301886676
 51
270.0
  0
ARC
  5
1E2
  8
DATA
  6
CONTINUOUS
 62
     7
 10
9.0530931503699037
 20
2.9999999999999849
 30
0.0
 40
2.9999999999999849
 50
270.0
 51
358.97696981133248
  0
LINE
  5
1E3
  8
DATA
  6
CONTINUOUS
 62
     7
 10
-9.5
 20
104.5
 30
0.0
 11
9.5
 21
104.5
 31
0.0
  0
LINE
  5
1E4
  8
DATA
  6
CONTINUOUS
 62
     7
 10
-9.5
 20
128.5
 30
0.0
 11
9.5
 21
128.5
 31
0.0
  0
LINE
  5
1E5
  8
DATA
  6
CONTINUOUS
 62
     7
 10
-11.0
 20
127.0
 30
0.0
 11
-11.0
 21
106.0
 31
0.0
  0
LINE
  5
1E6
  8
DATA
  6
CONTINUOUS
 62
     7
 10
11.0
 20
127.0
 30
0.0
 11
11.0
 21
106.0
 31
0.0
  0
LINE
  5
1E7
  8
DATA
  6
CONTINUOUS
 62
     7
 10
-8.5
 20
108.5
 30
0.0
 11
8.5
 21
108.5
 31
0.0
  0
LINE
  5
1E8
  8
DATA
  6
CONTINUOUS
 62
     7
 10
-8.5
 20
125.5
 30
0.0
 11
8.5
 21
125.5
 31
0.0
  0
LINE
  5
1E9
  8
DATA
  6
CONTINUOUS
 62
     7
 10
-8.5
 20
108.5
 30
0.0
 11
-8.5
 21
125.5
 31
0.0
  0
LINE
  5
1EA
  8
DATA
  6
CONTINUOUS
 62
     7
 10
8.5
 20
108.5
 30
0.0
 11
8.5
 21
125.5
 31
0.0
  0
ARC
  5
1EB
  8
DATA
  6
CONTINUOUS
 62
     7
 10
-9.5
 20
127.0
 30
0.0
 40
1.5
 50
90.0
 51
180.0
  0
ARC
  5
1EC
  8
DATA
  6
CONTINUOUS
 62
     7
 10
-9.5
 20
106.0
 30
0.0
 40
1.5
 50
180.0
 51
270.0
  0
ARC
  5
1ED
  8
DATA
  6
CONTINUOUS
 62
     7
 10
9.5
 20
106.0
 30
0.0
 40
1.5
 50
270.0
 51
0.0
  0
ARC
  5
1EE
  8
DATA
  6
CONTINUOUS
 62
     7
 10
9.5
 20
127.0
 30
0.0
 40
1.5
 50
0.0
 51
90.0
  0
TEXT
  5
1EF
  8
DATA
 62
     7
 10
-2.785662895322957
 20
30.659518004825529
 30
0.0
 40
3.2576822916666659
  1
MW2
 41
0.7
 11
-2.785662895322957
 21
33.917200296492197
 31
0.0
 73
     3
  0
LINE
  5
1F0
  8
DATA
  6
CONTINUOUS
 62
     7
 10
101.5
 20
176.0
 30
0.0
 11
138.5
 21
176.0
 31
0.0
  0
LINE
  5
1F1
  8
DATA
  6
CONTINUOUS
 62
     7
 10
102.5
 20
102.0
 30
0.0
 11
137.5
 21
102.0
 31
0.0
  0
LINE
  5
1F2
  8
DATA
  6
CONTINUOUS
 62
     7
 10
102.5
 20
136.0
 30
0.0
 11
102.5
 21
102.0
 31
0.0
  0
LINE
  5
1F3
  8
DATA
  6
CONTINUOUS
 62
     7
 10
137.5
 20
136.0
 30
0.0
 11
137.5
 21
102.0
 31
0.0
  0
ARC
  5
1F4
  8
DATA
  6
CONTINUOUS
 62
     7
 10
271.17307692307691
 20
171.88461538461539
 30
0.0
 40
169.72297847691971
 50
178.61057540006649
 51
187.0513242185213
  0
LINE
  5
1F5
  8
DATA
  6
CONTINUOUS
 62
     7
 10
137.5
 20
136.0
 30
0.0
 11
137.5
 21
102.0
 31
0.0
  0
ARC
  5
1F6
  8
DATA
  6
CONTINUOUS
 62
     7
 10
28.795051698670591
 20
138.32865583456419
 30
0.0
 40
108.7298874421865
 50
358.77280887296558
 51
4.5740453520388646
  0
LINE
  5
1F7
  8
DATA
  6
CONTINUOUS
 62
     7
 10
102.5
 20
176.5
 30
0.0
 11
102.5
 21
176.0
 31
0.0
  0
LINE
  5
1F8
  8
DATA
  6
CONTINUOUS
 62
     7
 10
137.5
 20
176.5
 30
0.0
 11
137.5
 21
176.0
 31
0.0
  0
LINE
  5
1F9
  8
DATA
  6
CONTINUOUS
 62
     7
 10
102.5
 20
102.5
 30
0.0
 11
137.5
 21
102.5
 31
0.0
  0
LINE
  5
1FA
  8
DATA
  6
CONTINUOUS
 62
     7
 10
103.0
 20
37.0
 30
0.0
 11
137.0
 21
37.0
 31
0.0
  0
LINE
  5
1FB
  8
DATA
  6
CONTINUOUS
 62
     7
 10
104.0
 20
28.0
 30
0.0
 11
136.0
 21
28.0
 31
0.0
  0
LINE
  5
1FC
  8
DATA
  6
CONTINUOUS
 62
     7
 10
103.0
 20
29.0
 30
0.0
 11
103.0
 21
37.0
 31
0.0
  0
LINE
  5
1FD
  8
DATA
  6
CONTINUOUS
 62
     7
 10
137.0
 20
29.0
 30
0.0
 11
137.0
 21
37.0
 31
0.0
  0
LINE
  5
1FE
  8
DATA
  6
CONTINUOUS
 62
     7
 10
103.0
 20
37.5
 30
0.0
 11
137.0
 21
37.5
 31
0.0
  0
LINE
  5
1FF
  8
DATA
  6
CONTINUOUS
 62
     7
 10
102.5
 20
102.0
 30
0.0
 11
103.0
 21
37.5
 31
0.0
  0
LINE
  5
200
  8
DATA
  6
CONTINUOUS
 62
     7
 10
137.5
 20
102.0
 30
0.0
 11
137.0
 21
37.5
 31
0.0
  0
LINE
  5
201
  8
DATA
  6
CONTINUOUS
 62
     7
 10
103.0
 20
37.5
 30
0.0
 11
103.5
 21
37.25
 31
0.0
  0
LINE
  5
202
  8
DATA
  6
CONTINUOUS
 62
     7
 10
103.5
 20
37.25
 30
0.0
 11
103.0
 21
37.0
 31
0.0
  0
LINE
  5
203
  8
DATA
  6
CONTINUOUS
 62
     7
 10
137.0
 20
37.5
 30
0.0
 11
136.5
 21
37.25
 31
0.0
  0
LINE
  5
204
  8
DATA
  6
CONTINUOUS
 62
     7
 10
136.5
 20
37.25
 30
0.0
 11
137.0
 21
37.0
 31
0.0
  0
LINE
  5
205
  8
DATA
  6
CONTINUOUS
 62
     7
 10
103.5
 20
37.25
 30
0.0
 11
136.5
 21
37.25
 31
0.0
  0
ARC
  5
206
  8
DATA
  6
CONTINUOUS
 62
     7
 10
104.0
 20
29.0
 30
0.0
 40
1.0
 50
180.0
 51
270.0
  0
ARC
  5
207
  8
DATA
  6
CONTINUOUS
 62
     7
 10
136.0
 20
29.0
 30
0.0
 40
1.0
 50
270.0
 51
0.0
  0
LINE
  5
208
  8
DATA
  6
CONTINUOUS
 62
     7
 10
110.9469068496301
 20
0.0
 30
0.0
 11
129.0530931503699
 21
0.0
 31
0.0
  0
LINE
  5
209
  8
DATA
  6
CONTINUOUS
 62
     7
 10
107.5
 20
28.0
 30
0.0
 11
107.9473850515937
 21
2.9464371107493572
 31
0.0
  0
LINE
  5
20A
  8
DATA
  6
CONTINUOUS
 62
     7
 10
132.5
 20
28.0
 30
0.0
 11
132.05261494840619
 21
2.9464371107493572
 31
0.0
  0
ARC
  5
20B
  8
DATA
  6
CONTINUOUS
 62
     7
 10
110.9469068496301
 20
3.0
 30
0.0
 40
3.0000000000000062
 50
181.0230301886676
 51
270.0
  0
ARC
  5
20C
  8
DATA
  6
CONTINUOUS
 62
     7
 10
129.0530931503699
 20
2.9999999999999849
 30
0.0
 40
2.9999999999999849
 50
270.0
 51
358.97696981133248
  0
LINE
  5
20D
  8
DATA
  6
CONTINUOUS
 62
     7
 10
102.5
 20
104.5
 30
0.0
 11
104.5
 21
104.5
 31
0.0
  0
LINE
  5
20E
  8
DATA
  6
CONTINUOUS
 62
     7
 10
102.5
 20
128.5
 30
0.0
 11
104.5
 21
128.5
 31
0.0
  0
LINE
  5
20F
  8
DATA
  6
CONTINUOUS
 62
     7
 10
107.5
 20
125.5
 30
0.0
 11
107.5
 21
107.5
 31
0.0
  0
LINE
  5
210
  8
DATA
  6
CONTINUOUS
 62
     7
 10
102.5
 20
108.5
 30
0.0
 11
105.5
 21
108.5
 31
0.0
  0
LINE
  5
211
  8
DATA
  6
CONTINUOUS
 62
     7
 10
102.5
 20
125.5
 30
0.0
 11
105.5
 21
125.5
 31
0.0
  0
ARC
  5
212
  8
DATA
  6
CONTINUOUS
 62
     7
 10
104.5
 20
125.5
 30
0.0
 40
3.0
 50
0.0
 51
90.0
  0
ARC
  5
213
  8
DATA
  6
CONTINUOUS
 62
     7
 10
104.5
 20
107.5
 30
0.0
 40
3.0
 50
270.0
 51
0.0
  0
LINE
  5
214
  8
DATA
  6
CONTINUOUS
 62
     7
 10
105.5
 20
125.5
 30
0.0
 11
105.5
 21
108.5
 31
0.0
  0
LINE
  5
215
  8
DATA
  6
CONTINUOUS
 62
     7
 10
221.5
 20
176.0
 30
0.0
 11
258.5
 21
176.0
 31
0.0
  0
LINE
  5
216
  8
DATA
  6
CONTINUOUS
 62
     7
 10
222.5
 20
102.0
 30
0.0
 11
257.5
 21
102.0
 31
0.0
  0
LINE
  5
217
  8
DATA
  6
CONTINUOUS
 62
     7
 10
222.5
 20
136.0
 30
0.0
 11
222.5
 21
102.0
 31
0.0
  0
LINE
  5
218
  8
DATA
  6
CONTINUOUS
 62
     7
 10
257.5
 20
136.0
 30
0.0
 11
257.5
 21
102.0
 31
0.0
  0
ARC
  5
219
  8
DATA
  6
CONTINUOUS
 62
     7
 10
391.17307692307702
 20
171.88461538461539
 30
0.0
 40
169.72297847691971
 50
178.61057540006649
 51
187.0513242185211
  0
LINE
  5
21A
  8
DATA
  6
CONTINUOUS
 62
     7
 10
257.5
 20
136.0
 30
0.0
 11
257.5
 21
102.0
 31
0.0
  0
ARC
  5
21B
  8
DATA
  6
CONTINUOUS
 62
     7
 10
148.79505169867059
 20
138.32865583456419
 30
0.0
 40
108.7298874421865
 50
358.77280887296558
 51
4.5740453520401161
  0
LINE
  5
21C
  8
DATA
  6
CONTINUOUS
 62
     7
 10
222.5
 20
176.5
 30
0.0
 11
222.5
 21
176.0
 31
0.0
  0
LINE
  5
21D
  8
DATA
  6
CONTINUOUS
 62
     7
 10
257.5
 20
176.5
 30
0.0
 11
257.5
 21
176.0
 31
0.0
  0
LINE
  5
21E
  8
DATA
  6
CONTINUOUS
 62
     7
 10
222.5
 20
102.5
 30
0.0
 11
257.5
 21
102.5
 31
0.0
  0
LINE
  5
21F
  8
DATA
  6
CONTINUOUS
 62
     7
 10
223.0
 20
37.0
 30
0.0
 11
257.0
 21
37.0
 31
0.0
  0
LINE
  5
220
  8
DATA
  6
CONTINUOUS
 62
     7
 10
224.0
 20
28.0
 30
0.0
 11
256.0
 21
28.0
 31
0.0
  0
LINE
  5
221
  8
DATA
  6
CONTINUOUS
 62
     7
 10
223.0
 20
29.0
 30
0.0
 11
223.0
 21
37.0
 31
0.0
  0
LINE
  5
222
  8
DATA
  6
CONTINUOUS
 62
     7
 10
257.0
 20
29.0
 30
0.0
 11
257.0
 21
37.0
 31
0.0
  0
LINE
  5
223
  8
DATA
  6
CONTINUOUS
 62
     7
 10
223.0
 20
37.5
 30
0.0
 11
257.0
 21
37.5
 31
0.0
  0
LINE
  5
224
  8
DATA
  6
CONTINUOUS
 62
     7
 10
222.5
 20
102.0
 30
0.0
 11
223.0
 21
37.5
 31
0.0
  0
LINE
  5
225
  8
DATA
  6
CONTINUOUS
 62
     7
 10
257.5
 20
102.0
 30
0.0
 11
257.0
 21
37.5
 31
0.0
  0
LINE
  5
226
  8
DATA
  6
CONTINUOUS
 62
     7
 10
223.0
 20
37.5
 30
0.0
 11
223.5
 21
37.25
 31
0.0
  0
LINE
  5
227
  8
DATA
  6
CONTINUOUS
 62
     7
 10
223.5
 20
37.25
 30
0.0
 11
223.0
 21
37.0
 31
0.0
  0
LINE
  5
228
  8
DATA
  6
CONTINUOUS
 62
     7
 10
257.0
 20
37.5
 30
0.0
 11
256.5
 21
37.25
 31
0.0
  0
LINE
  5
229
  8
DATA
  6
CONTINUOUS
 62
     7
 10
256.5
 20
37.25
 30
0.0
 11
257.0
 21
37.0
 31
0.0
  0
LINE
  5
22A
  8
DATA
  6
CONTINUOUS
 62
     7
 10
223.5
 20
37.25
 30
0.0
 11
256.5
 21
37.25
 31
0.0
  0
ARC
  5
22B
  8
DATA
  6
CONTINUOUS
 62
     7
 10
224.0
 20
29.0
 30
0.0
 40
1.0
 50
180.0
 51
270.0
  0
ARC
  5
22C
  8
DATA
  6
CONTINUOUS
 62
     7
 10
256.0
 20
29.0
 30
0.0
 40
1.0
 50
270.0
 51
0.0
  0
LINE
  5
22D
  8
DATA
  6
CONTINUOUS
 62
     7
 10
230.9469068496301
 20
0.0
 30
0.0
 11
249.0530931503699
 21
0.0
 31
0.0
  0
LINE
  5
22E
  8
DATA
  6
CONTINUOUS
 62
     7
 10
227.5
 20
28.0
 30
0.0
 11
227.9473850515937
 21
2.9464371107493572
 31
0.0
  0
LINE
  5
22F
  8
DATA
  6
CONTINUOUS
 62
     7
 10
252.5
 20
28.0
 30
0.0
 11
252.05261494840619
 21
2.9464371107493572
 31
0.0
  0
ARC
  5
230
  8
DATA
  6
CONTINUOUS
 62
     7
 10
230.9469068496301
 20
3.0
 30
0.0
 40
3.0000000000000062
 50
181.0230301886676
 51
270.0
  0
ARC
  5
231
  8
DATA
  6
CONTINUOUS
 62
     7
 10
249.0530931503699
 20
2.9999999999999849
 30
0.0
 40
2.9999999999999849
 50
270.0
 51
358.97696981133248
  0
TEXT
  5
232
  8
DATA
 62
     7
 10
237.21433710467701
 20
30.659518004825529
 30
0.0
 40
3.2576822916666659
  1
MW2
 41
0.7
 11
237.21433710467701
 21
33.917200296492197
 31
0.0
 73
     3
  0
LINE
  5
233
  8
DATA
  6
CONTINUOUS
 62
     7
 10
232.5
 20
21.0
 30
0.0
 11
247.5
 21
21.0
 31
0.0
  0
LINE
  5
234
  8
DATA
  6
CONTINUOUS
 62
     7
 10
232.5
 20
21.0
 30
0.0
 11
232.5
 21
28.0
 31
0.0
  0
LINE
  5
235
  8
DATA
  6
CONTINUOUS
 62
     7
 10
247.5
 20
21.0
 30
0.0
 11
247.5
 21
28.0
 31
0.0
  0
LINE
  5
236
  8
DATA
  6
CONTINUOUS
 62
     7
 10
234.5
 20
23.0
 30
0.0
 11
245.5
 21
23.0
 31
0.0
  0
LINE
  5
237
  8
DATA
  6
CONTINUOUS
 62
     7
 10
234.5
 20
23.0
 30
0.0
 11
234.5
 21
28.0
 31
0.0
  0
LINE
  5
238
  8
DATA
  6
CONTINUOUS
 62
     7
 10
245.5
 20
23.0
 30
0.0
 11
245.5
 21
28.0
 31
0.0
  0
LINE
  5
239
  8
DATA
  6
CONTINUOUS
 62
     7
 10
235.0
 20
26.5
 30
0.0
 11
245.0
 21
26.5
 31
0.0
  0
LINE
  5
23A
  8
DATA
  6
CONTINUOUS
 62
     7
 10
245.0
 20
26.5
 30
0.0
 11
245.0
 21
24.5
 31
0.0
  0
LINE
  5
23B
  8
DATA
  6
CONTINUOUS
 62
     7
 10
235.0
 20
26.5
 30
0.0
 11
235.0
 21
24.5
 31
0.0
  0
LINE
  5
23C
  8
DATA
  6
CONTINUOUS
 62
     7
 10
235.0
 20
24.5
 30
0.0
 11
245.0
 21
24.5
 31
0.0
  0
LINE
  5
23D
  8
DATA
  6
CONTINUOUS
 62
     7
 10
237.0
 20
26.5
 30
0.0
 11
237.0
 21
24.5
 31
0.0
  0
LINE
  5
23E
  8
DATA
  6
CONTINUOUS
 62
     7
 10
240.0
 20
26.5
 30
0.0
 11
240.5
 21
25.5
 31
0.0
  0
LINE
  5
23F
  8
DATA
  6
CONTINUOUS
 62
     7
 10
240.5
 20
25.5
 30
0.0
 11
240.0
 21
24.5
 31
0.0
  0
LINE
  5
240
  8
DATA
  6
CONTINUOUS
 62
     7
 10
242.0
 20
26.5
 30
0.0
 11
241.5
 21
25.5
 31
0.0
  0
LINE
  5
241
  8
DATA
  6
CONTINUOUS
 62
     7
 10
241.5
 20
25.5
 30
0.0
 11
242.0
 21
24.5
 31
0.0
  0
TEXT
  5
242
  8
DATA
 62
     7
 10
237.550000025332
 20
24.866235380116962
 30
0.0
 40
1.154296875
  1
OFF
 41
0.7
 11
237.550000025332
 21
26.020532255116962
 31
0.0
 73
     3
  0
TEXT
  5
243
  8
DATA
 62
     7
 10
242.550000025332
 20
24.866235380116962
 30
0.0
 40
1.154296875
  1
ON
 41
0.7
 11
242.550000025332
 21
26.020532255116962
 31
0.0
 73
     3
  0
CIRCLE
  5
244
  8
DATA
  6
CONTINUOUS
 62
     7
 10
236.0
 20
25.5
 30
0.0
 40
0.5
  0
ARC
  5
245
  8
DATA
  6
CONTINUOUS
 62
     7
 10
-37.1149480715763
 20
148.5945272404534
 30
0.0
 40
19.99999999999018
 50
355.42595464795721
 51
7.0513242185242007
  0
ARC
  5
246
  8
DATA
  6
CONTINUOUS
 62
     7
 10
91.204948301329395
 20
138.32865583456419
 30
0.0
 40
108.7298874421865
 50
175.42595464796011
 51
181.22719112703439
  0
ARC
  5
247
  8
DATA
  6
CONTINUOUS
 62
     7
 10
37.114948071586241
 20
148.59452724045369
 30
0.0
 40
20.000000000000021
 50
172.9486757814791
 51
184.5740453520404
  0
ARC
  5
248
  8
DATA
  6
CONTINUOUS
 62
     7
 10
-151.17307692307691
 20
171.88461538461539
 30
0.0
 40
169.72297847691971
 50
352.94867578147881
 51
1.3894245999334769
  0
ARC
  5
249
  8
DATA
  6
CONTINUOUS
 62
     7
 10
82.885051928413802
 20
148.59452724045309
 30
0.0
 40
20.00000000000005
 50
355.42595464796022
 51
7.0513242185213016
  0
ARC
  5
24A
  8
DATA
  6
CONTINUOUS
 62
     7
 10
211.20494830132941
 20
138.32865583456419
 30
0.0
 40
108.7298874421865
 50
175.42595464796011
 51
181.22719112703439
  0
ARC
  5
24B
  8
DATA
  6
CONTINUOUS
 62
     7
 10
157.1149480715857
 20
148.59452724045079
 30
0.0
 40
19.99999999999984
 50
172.94867578147779
 51
184.57404535203881
  0
ARC
  5
24C
  8
DATA
  6
CONTINUOUS
 62
     7
 10
-31.173076923076959
 20
171.88461538461539
 30
0.0
 40
169.72297847691971
 50
352.94867578147802
 51
1.3894245999334769
  0
ARC
  5
24D
  8
DATA
  6
CONTINUOUS
 62
     7
 10
202.8850519284137
 20
148.59452724045349
 30
0.0
 40
20.0
 50
355.42595464796011
 51
7.0513242185213576
  0
ARC
  5
24E
  8
DATA
  6
CONTINUOUS
 62
     7
 10
331.20494830132941
 20
138.32865583456419
 30
0.0
 40
108.7298874421865
 50
175.4259546479598
 51
181.22719112703439
  0
ARC
  5
24F
  8
DATA
  6
CONTINUOUS
 62
     7
 10
277.11494807157231
 20
148.5945272404538
 30
0.0
 40
19.999999999986109
 50
172.94867578147461
 51
184.5740453520439
  0
ARC
  5
250
  8
DATA
  6
CONTINUOUS
 62
     7
 10
88.826923076923052
 20
171.88461538461539
 30
0.0
 40
169.72297847691971
 50
352.94867578147881
 51
1.3894245999334769
  0
LINE
  5
251
  8
DATA
  6
CONTINUOUS
 62
     7
 10
-18.5
 20
176.5
 30
0.0
 11
18.5
 21
176.5
 31
0.0
  0
LINE
  5
252
  8
DATA
  6
CONTINUOUS
 62
     7
 10
-18.5
 20
176.5
 30
0.0
 11
-18.5
 21
184.0
 31
0.0
  0
LINE
  5
253
  8
DATA
  6
CONTINUOUS
 62
     7
 10
18.5
 20
176.5
 30
0.0
 11
18.5
 21
184.0
 31
0.0
  0
LINE
  5
254
  8
DATA
  6
CONTINUOUS
 62
     7
 10
-18.5
 20
184.0
 30
0.0
 11
18.5
 21
184.0
 31
0.0
  0
LINE
  5
255
  8
DATA
  6
CONTINUOUS
 62
     7
 10
-18.0
 20
186.5
 30
0.0
 11
18.0
 21
186.5
 31
0.0
  0
LINE
  5
256
  8
DATA
  6
CONTINUOUS
 62
     7
 10
-18.0
 20
186.5
 30
0.0
 11
-18.5
 21
184.0
 31
0.0
  0
LINE
  5
257
  8
DATA
  6
CONTINUOUS
 62
     7
 10
18.0
 20
186.5
 30
0.0
 11
18.5
 21
184.0
 31
0.0
  0
LINE
  5
258
  8
DATA
  6
CONTINUOUS
 62
     7
 10
-19.25
 20
193.0
 30
0.0
 11
19.25
 21
193.0
 31
0.0
  0
LINE
  5
259
  8
DATA
  6
CONTINUOUS
 62
     7
 10
-19.25
 20
193.0
 30
0.0
 11
-18.0
 21
186.5
 31
0.0
  0
LINE
  5
25A
  8
DATA
  6
CONTINUOUS
 62
     7
 10
19.25
 20
193.0
 30
0.0
 11
18.0
 21
186.5
 31
0.0
  0
LINE
  5
25B
  8
DATA
  6
CONTINUOUS
 62
     7
 10
-16.211205251189369
 20
247.0
 30
0.0
 11
16.211205251189369
 21
247.0
 31
0.0
  0
LINE
  5
25C
  8
DATA
  6
CONTINUOUS
 62
     7
 10
-24.25
 20
221.0
 30
0.0
 11
24.25
 21
221.0
 31
0.0
  0
LINE
  5
25D
  8
DATA
  6
CONTINUOUS
 62
     7
 10
-24.25
 20
221.0
 30
0.0
 11
-24.25
 21
220.0
 31
0.0
  0
LINE
  5
25E
  8
DATA
  6
CONTINUOUS
 62
     7
 10
-24.25
 20
218.0
 30
0.0
 11
-24.25
 21
217.0
 31
0.0
  0
LINE
  5
25F
  8
DATA
  6
CONTINUOUS
 62
     7
 10
-24.25
 20
217.0
 30
0.0
 11
24.25
 21
217.0
 31
0.0
  0
LINE
  5
260
  8
DATA
  6
CONTINUOUS
 62
     7
 10
24.25
 20
221.0
 30
0.0
 11
24.25
 21
220.0
 31
0.0
  0
LINE
  5
261
  8
DATA
  6
CONTINUOUS
 62
     7
 10
24.25
 20
218.0
 30
0.0
 11
24.25
 21
217.0
 31
0.0
  0
LINE
  5
262
  8
DATA
  6
CONTINUOUS
 62
     7
 10
-24.25
 20
220.0
 30
0.0
 11
24.25
 21
220.0
 31
0.0
  0
LINE
  5
263
  8
DATA
  6
CONTINUOUS
 62
     7
 10
-24.25
 20
218.0
 30
0.0
 11
24.25
 21
218.0
 31
0.0
  0
LINE
  5
264
  8
DATA
  6
CONTINUOUS
 62
     7
 10
-23.0
 20
221.0
 30
0.0
 11
23.0
 21
221.0
 31
0.0
  0
LINE
  5
265
  8
DATA
  6
CONTINUOUS
 62
     7
 10
-18.25
 20
193.0
 30
0.0
 11
18.25
 21
193.0
 31
0.0
  0
LINE
  5
266
  8
DATA
  6
CONTINUOUS
 62
     7
 10
-23.0
 20
220.0
 30
0.0
 11
-23.0
 21
218.0
 31
0.0
  0
LINE
  5
267
  8
DATA
  6
CONTINUOUS
 62
     7
 10
23.0
 20
220.0
 30
0.0
 11
23.0
 21
218.0
 31
0.0
  0
LINE
  5
268
  8
DATA
  6
CONTINUOUS
 62
     7
 10
18.25
 20
193.0
 30
0.0
 11
23.0
 21
217.0
 31
0.0
  0
LINE
  5
269
  8
DATA
  6
CONTINUOUS
 62
     7
 10
-18.25
 20
193.0
 30
0.0
 11
-23.0
 21
217.0
 31
0.0
  0
LINE
  5
26A
  8
DATA
  6
CONTINUOUS
 62
     7
 10
18.173148699559292
 20
245.38830130748991
 30
0.0
 11
23.0
 21
221.0
 31
0.0
  0
ARC
  5
26B
  8
DATA
  6
CONTINUOUS
 62
     7
 10
-16.211205251189369
 20
245.0
 30
0.0
 40
2.0
 50
90.0
 51
168.8048885737
  0
ARC
  5
26C
  8
DATA
  6
CONTINUOUS
 62
     7
 10
16.211205251189369
 20
245.0
 30
0.0
 40
2.0000000000000031
 50
11.19511142630004
 51
90.0
  0
LINE
  5
26D
  8
DATA
  6
CONTINUOUS
 62
     7
 10
-18.173148699559299
 20
245.38830130748991
 30
0.0
 11
-23.0
 21
221.0
 31
0.0
  0
TEXT
  5
26E
  8
DATA
 62
     7
 10
-15.23333333333335
 20
178.579125
 30
0.0
 40
3.2576822916666659
  1
SM86
 41
0.7
 11
-15.23333333333335
 21
181.83680729166659
 31
0.0
 73
     3
  0
TEXT
  5
26F
  8
DATA
 62
     7
 10
0.9999999999999996
 20
177.77441666666661
 30
0.0
 40
4.8865234374999993
  1
SHURE
 41
0.7
 11
1.0
 21
182.6609401041666
 31
0.0
 73
     3
  0
LINE
  5
270
  8
DATA
  6
CONTINUOUS
 62
     7
 10
101.5
 20
176.5
 30
0.0
 11
138.5
 21
176.5
 31
0.0
  0
LINE
  5
271
  8
DATA
  6
CONTINUOUS
 62
     7
 10
101.5
 20
176.5
 30
0.0
 11
101.5
 21
184.0
 31
0.0
  0
LINE
  5
272
  8
DATA
  6
CONTINUOUS
 62
     7
 10
138.5
 20
176.5
 30
0.0
 11
138.5
 21
184.0
 31
0.0
  0
LINE
  5
273
  8
DATA
  6
CONTINUOUS
 62
     7
 10
101.5
 20
184.0
 30
0.0
 11
138.5
 21
184.0
 31
0.0
  0
LINE
  5
274
  8
DATA
  6
CONTINUOUS
 62
     7
 10
102.0
 20
186.5
 30
0.0
 11
138.0
 21
186.5
 31
0.0
  0
LINE
  5
275
  8
DATA
  6
CONTINUOUS
 62
     7
 10
102.0
 20
186.5
 30
0.0
 11
101.5
 21
184.0
 31
0.0
  0
LINE
  5
276
  8
DATA
  6
CONTINUOUS
 62
     7
 10
138.0
 20
186.5
 30
0.0
 11
138.5
 21
184.0
 31
0.0
  0
LINE
  5
277
  8
DATA
  6
CONTINUOUS
 62
     7
 10
100.75
 20
193.0
 30
0.0
 11
139.25
 21
193.0
 31
0.0
  0
LINE
  5
278
  8
DATA
  6
CONTINUOUS
 62
     7
 10
100.75
 20
193.0
 30
0.0
 11
102.0
 21
186.5
 31
0.0
  0
LINE
  5
279
  8
DATA
  6
CONTINUOUS
 62
     7
 10
139.25
 20
193.0
 30
0.0
 11
138.0
 21
186.5
 31
0.0
  0
LINE
  5
27A
  8
DATA
  6
CONTINUOUS
 62
     7
 10
103.7887947488106
 20
247.0
 30
0.0
 11
136.21120525118931
 21
247.0
 31
0.0
  0
LINE
  5
27B
  8
DATA
  6
CONTINUOUS
 62
     7
 10
95.750000000000014
 20
221.0
 30
0.0
 11
144.25
 21
221.0
 31
0.0
  0
LINE
  5
27C
  8
DATA
  6
CONTINUOUS
 62
     7
 10
95.750000000000014
 20
221.0
 30
0.0
 11
95.750000000000014
 21
220.0
 31
0.0
  0
LINE
  5
27D
  8
DATA
  6
CONTINUOUS
 62
     7
 10
95.750000000000014
 20
218.0
 30
0.0
 11
95.750000000000014
 21
217.0
 31
0.0
  0
LINE
  5
27E
  8
DATA
  6
CONTINUOUS
 62
     7
 10
95.750000000000014
 20
217.0
 30
0.0
 11
144.25
 21
217.0
 31
0.0
  0
LINE
  5
27F
  8
DATA
  6
CONTINUOUS
 62
     7
 10
144.25
 20
221.0
 30
0.0
 11
144.25
 21
220.0
 31
0.0
  0
LINE
  5
280
  8
DATA
  6
CONTINUOUS
 62
     7
 10
144.25
 20
218.0
 30
0.0
 11
144.25
 21
217.0
 31
0.0
  0
LINE
  5
281
  8
DATA
  6
CONTINUOUS
 62
     7
 10
95.750000000000014
 20
220.0
 30
0.0
 11
144.25
 21
220.0
 31
0.0
  0
LINE
  5
282
  8
DATA
  6
CONTINUOUS
 62
     7
 10
95.750000000000014
 20
218.0
 30
0.0
 11
144.25
 21
218.0
 31
0.0
  0
LINE
  5
283
  8
DATA
  6
CONTINUOUS
 62
     7
 10
97.0
 20
221.0
 30
0.0
 11
143.0
 21
221.0
 31
0.0
  0
LINE
  5
284
  8
DATA
  6
CONTINUOUS
 62
     7
 10
101.75
 20
193.0
 30
0.0
 11
138.25
 21
193.0
 31
0.0
  0
LINE
  5
285
  8
DATA
  6
CONTINUOUS
 62
     7
 10
97.0
 20
220.0
 30
0.0
 11
97.0
 21
218.0
 31
0.0
  0
LINE
  5
286
  8
DATA
  6
CONTINUOUS
 62
     7
 10
143.0
 20
220.0
 30
0.0
 11
143.0
 21
218.0
 31
0.0
  0
LINE
  5
287
  8
DATA
  6
CONTINUOUS
 62
     7
 10
138.25
 20
193.0
 30
0.0
 11
143.0
 21
217.0
 31
0.0
  0
LINE
  5
288
  8
DATA
  6
CONTINUOUS
 62
     7
 10
101.75
 20
193.0
 30
0.0
 11
97.0
 21
217.0
 31
0.0
  0
LINE
  5
289
  8
DATA
  6
CONTINUOUS
 62
     7
 10
138.17314869955931
 20
245.38830130748991
 30
0.0
 11
143.0
 21
221.0
 31
0.0
  0
ARC
  5
28A
  8
DATA
  6
CONTINUOUS
 62
     7
 10
103.7887947488106
 20
245.0
 30
0.0
 40
2.0
 50
90.0
 51
168.8048885737
  0
ARC
  5
28B
  8
DATA
  6
CONTINUOUS
 62
     7
 10
136.21120525118931
 20
245.0
 30
0.0
 40
2.0000000000000031
 50
11.19511142630004
 51
90.0
  0
LINE
  5
28C
  8
DATA
  6
CONTINUOUS
 62
     7
 10
101.82685130044069
 20
245.38830130748991
 30
0.0
 11
97.0
 21
221.0
 31
0.0
  0
LINE
  5
28D
  8
DATA
  6
CONTINUOUS
 62
     7
 10
221.5
 20
176.5
 30
0.0
 11
258.5
 21
176.5
 31
0.0
  0
LINE
  5
28E
  8
DATA
  6
CONTINUOUS
 62
     7
 10
221.5
 20
176.5
 30
0.0
 11
221.5
 21
184.0
 31
0.0
  0
LINE
  5
28F
  8
DATA
  6
CONTINUOUS
 62
     7
 10
258.5
 20
176.5
 30
0.0
 11
258.5
 21
184.0
 31
0.0
  0
LINE
  5
290
  8
DATA
  6
CONTINUOUS
 62
     7
 10
221.5
 20
184.0
 30
0.0
 11
258.5
 21
184.0
 31
0.0
  0
LINE
  5
291
  8
DATA
  6
CONTINUOUS
 62
     7
 10
222.0
 20
186.5
 30
0.0
 11
258.0
 21
186.5
 31
0.0
  0
LINE
  5
292
  8
DATA
  6
CONTINUOUS
 62
     7
 10
222.0
 20
186.5
 30
0.0
 11
221.5
 21
184.0
 31
0.0
  0
LINE
  5
293
  8
DATA
  6
CONTINUOUS
 62
     7
 10
258.0
 20
186.5
 30
0.0
 11
258.5
 21
184.0
 31
0.0
  0
LINE
  5
294
  8
DATA
  6
CONTINUOUS
 62
     7
 10
220.75
 20
193.0
 30
0.0
 11
259.25
 21
193.0
 31
0.0
  0
LINE
  5
295
  8
DATA
  6
CONTINUOUS
 62
     7
 10
220.75
 20
193.0
 30
0.0
 11
222.0
 21
186.5
 31
0.0
  0
LINE
  5
296
  8
DATA
  6
CONTINUOUS
 62
     7
 10
259.25
 20
193.0
 30
0.0
 11
258.0
 21
186.5
 31
0.0
  0
LINE
  5
297
  8
DATA
  6
CONTINUOUS
 62
     7
 10
223.7887947488106
 20
247.0
 30
0.0
 11
256.21120525118943
 21
247.0
 31
0.0
  0
LINE
  5
298
  8
DATA
  6
CONTINUOUS
 62
     7
 10
215.75
 20
221.0
 30
0.0
 11
264.25
 21
221.0
 31
0.0
  0
LINE
  5
299
  8
DATA
  6
CONTINUOUS
 62
     7
 10
215.75
 20
221.0
 30
0.0
 11
215.75
 21
220.0
 31
0.0
  0
LINE
  5
29A
  8
DATA
  6
CONTINUOUS
 62
     7
 10
215.75
 20
218.0
 30
0.0
 11
215.75
 21
217.0
 31
0.0
  0
LINE
  5
29B
  8
DATA
  6
CONTINUOUS
 62
     7
 10
215.75
 20
217.0
 30
0.0
 11
264.25
 21
217.0
 31
0.0
  0
LINE
  5
29C
  8
DATA
  6
CONTINUOUS
 62
     7
 10
264.25
 20
221.0
 30
0.0
 11
264.25
 21
220.0
 31
0.0
  0
LINE
  5
29D
  8
DATA
  6
CONTINUOUS
 62
     7
 10
264.25
 20
218.0
 30
0.0
 11
264.25
 21
217.0
 31
0.0
  0
LINE
  5
29E
  8
DATA
  6
CONTINUOUS
 62
     7
 10
215.75
 20
220.0
 30
0.0
 11
264.25
 21
220.0
 31
0.0
  0
LINE
  5
29F
  8
DATA
  6
CONTINUOUS
 62
     7
 10
215.75
 20
218.0
 30
0.0
 11
264.25
 21
218.0
 31
0.0
  0
LINE
  5
2A0
  8
DATA
  6
CONTINUOUS
 62
     7
 10
217.0
 20
221.0
 30
0.0
 11
263.0
 21
221.0
 31
0.0
  0
LINE
  5
2A1
  8
DATA
  6
CONTINUOUS
 62
     7
 10
221.75
 20
193.0
 30
0.0
 11
258.25
 21
193.0
 31
0.0
  0
LINE
  5
2A2
  8
DATA
  6
CONTINUOUS
 62
     7
 10
217.0
 20
220.0
 30
0.0
 11
217.0
 21
218.0
 31
0.0
  0
LINE
  5
2A3
  8
DATA
  6
CONTINUOUS
 62
     7
 10
263.0
 20
220.0
 30
0.0
 11
263.0
 21
218.0
 31
0.0
  0
LINE
  5
2A4
  8
DATA
  6
CONTINUOUS
 62
     7
 10
258.25
 20
193.0
 30
0.0
 11
263.0
 21
217.0
 31
0.0
  0
LINE
  5
2A5
  8
DATA
  6
CONTINUOUS
 62
     7
 10
221.75
 20
193.0
 30
0.0
 11
217.0
 21
217.0
 31
0.0
  0
LINE
  5
2A6
  8
DATA
  6
CONTINUOUS
 62
     7
 10
258.17314869955931
 20
245.38830130748991
 30
0.0
 11
263.0
 21
221.0
 31
0.0
  0
ARC
  5
2A7
  8
DATA
  6
CONTINUOUS
 62
     7
 10
223.7887947488106
 20
245.0
 30
0.0
 40
2.0
 50
90.0
 51
168.8048885737
  0
ARC
  5
2A8
  8
DATA
  6
CONTINUOUS
 62
     7
 10
256.21120525118943
 20
245.0
 30
0.0
 40
2.0000000000000169
 50
11.19511142629996
 51
90.0
  0
LINE
  5
2A9
  8
DATA
  6
CONTINUOUS
 62
     7
 10
221.82685130044069
 20
245.38830130748991
 30
0.0
 11
217.0
 21
221.0
 31
0.0
  0
TEXT
  5
2AA
  8
DATA
 62
     7
 10
224.76666666666659
 20
178.579125
 30
0.0
 40
3.2576822916666659
  1
SM86
 41
0.7
 11
224.76666666666659
 21
181.83680729166659
 31
0.0
 73
     3
  0
TEXT
  5
2AB
  8
DATA
 62
     7
 10
241.0
 20
177.77441666666661
 30
0.0
 40
4.8865234374999993
  1
SHURE
 41
0.7
 11
241.0
 21
182.6609401041666
 31
0.0
 73
     3
  0
CIRCLE
  5
2AC
  8
DATA
  6
CONTINUOUS
 62
     7
 10
0.0
 20
-100.0
 30
0.0
 40
24.25
  0
CIRCLE
  5
2AD
  8
DATA
  6
CONTINUOUS
 62
     7
 10
0.0
 20
-100.0
 30
0.0
 40
23.0
  0
CIRCLE
  5
2AE
  8
DATA
  6
CONTINUOUS
 62
     7
 10
0.0
 20
-100.0
 30
0.0
 40
12.5
  0
CIRCLE
  5
2AF
  8
DATA
  6
CONTINUOUS
 62
     7
 10
0.0
 20
-100.0
 30
0.0
 40
18.5
  0
CIRCLE
  5
2B0
  8
DATA
  6
CONTINUOUS
 62
     7
 10
0.0
 20
-100.0
 30
0.0
 40
19.25
  0
CIRCLE
  5
2B1
  8
DATA
  6
CONTINUOUS
 62
     7
 10
0.0
 20
-100.0
 30
0.0
 40
17.0
  0
CIRCLE
  5
2B2
  8
DATA
  6
CONTINUOUS
 62
     7
 10
0.0
 20
-100.0
 30
0.0
 40
9.0
  0
TEXT
  5
2B3
  8
DATA
 62
     7
 10
-122.5000299999999
 20
-242.78599249999999
 30
0.0
 40
4.8865234374999993
  1
仕様および外観は予告なく変更されることがありますので、ご了承ください。
 41
0.7
 11
-122.5000299999999
 21
-237.8994690625
 31
0.0
 73
     3
  0
ENDSEC
  0
EOF
