  0
SECTION
  2
HEADER
  9
$ACADVER
  1
AC1009
  9
$INSBASE
 10
0.0
 20
0.0
 30
0.0
  9
$EXTMIN
 10
-80.01097548933717
 20
-131.7119772163976
 30
-0.0015258207003583
  9
$EXTMAX
 10
280.01097716571832
 20
403.54812151310119
 30
0.0000000349246037
  9
$LIMMIN
 10
0.0
 20
0.0
  9
$LIMMAX
 10
0.0
 20
0.0
  9
$ORTHOMODE
 70
     0
  9
$REGENMODE
 70
     1
  9
$FILLMODE
 70
     1
  9
$QTEXTMODE
 70
     0
  9
$MIRRTEXT
 70
     1
  9
$DRAGMODE
 70
     2
  9
$LTSCALE
 40
10.16
  9
$OSMODE
 70
   231
  9
$ATTMODE
 70
     1
  9
$TEXTSIZE
 40
0.0
  9
$TRACEWID
 40
1.0
  9
$TEXTSTYLE
  7
STANDARD
  9
$CLAYER
  8
DATA
  9
$CELTYPE
  6
CONTINUOUS
  9
$CECOLOR
 62
   256
  9
$DIMSCALE
 40
1.0
  9
$DIMASZ
 40
0.18
  9
$DIMEXO
 40
0.0625
  9
$DIMDLI
 40
0.38
  9
$DIMRND
 40
0.0
  9
$DIMDLE
 40
0.0
  9
$DIMEXE
 40
0.18
  9
$DIMTP
 40
0.0
  9
$DIMTM
 40
0.0
  9
$DIMTXT
 40
0.18
  9
$DIMCEN
 40
0.09
  9
$DIMTSZ
 40
0.0
  9
$DIMTOL
 70
     0
  9
$DIMLIM
 70
     0
  9
$DIMTIH
 70
     1
  9
$DIMTOH
 70
     1
  9
$DIMSE1
 70
     0
  9
$DIMSE2
 70
     0
  9
$DIMTAD
 70
     0
  9
$DIMZIN
 70
     0
  9
$DIMBLK
  1

  9
$DIMASO
 70
     1
  9
$DIMSHO
 70
     1
  9
$DIMPOST
  1

  9
$DIMAPOST
  1

  9
$DIMALT
 70
     0
  9
$DIMALTD
 70
     2
  9
$DIMALTF
 40
25.399999999999999
  9
$DIMLFAC
 40
1.0
  9
$DIMTOFL
 70
     0
  9
$DIMTVP
 40
0.0
  9
$DIMTIX
 70
     0
  9
$DIMSOXD
 70
     0
  9
$DIMSAH
 70
     0
  9
$DIMBLK1
  1

  9
$DIMBLK2
  1

  9
$DIMSTYLE
  2
STANDARD
  9
$DIMCLRD
 70
     0
  9
$DIMCLRE
 70
     0
  9
$DIMCLRT
 70
     0
  9
$DIMTFAC
 40
1.0
  9
$DIMGAP
 40
0.09
  9
$LUNITS
 70
     2
  9
$LUPREC
 70
     4
  9
$SKETCHINC
 40
0.1
  9
$FILLETRAD
 40
0.0
  9
$AUNITS
 70
     0
  9
$AUPREC
 70
     0
  9
$MENU
  1
acad
  9
$ELEVATION
 40
0.0
  9
$PELEVATION
 40
0.0
  9
$THICKNESS
 40
0.0
  9
$LIMCHECK
 70
     0
  9
$BLIPMODE
 70
     0
  9
$CHAMFERA
 40
0.0
  9
$CHAMFERB
 40
0.0
  9
$SKPOLY
 70
     0
  9
$TDCREATE
 40
2453875.4686921299
  9
$TDUPDATE
 40
2453875.6349410769
  9
$TDINDWG
 40
0.0002458102
  9
$TDUSRTIMER
 40
0.000245625
  9
$USRTIMER
 70
     1
  9
$ANGBASE
 50
0.0
  9
$ANGDIR
 70
     0
  9
$PDMODE
 70
     1
  9
$PDSIZE
 40
-2.0
  9
$PLINEWID
 40
0.0
  9
$COORDS
 70
     1
  9
$SPLFRAME
 70
     0
  9
$SPLINETYPE
 70
     6
  9
$SPLINESEGS
 70
     8
  9
$ATTDIA
 70
     0
  9
$ATTREQ
 70
     1
  9
$HANDLING
 70
     1
  9
$HANDSEED
  5
AFF
  9
$SURFTAB1
 70
     6
  9
$SURFTAB2
 70
     6
  9
$SURFTYPE
 70
     6
  9
$SURFU
 70
     6
  9
$SURFV
 70
     6
  9
$UCSNAME
  2

  9
$UCSORG
 10
0.0
 20
0.0
 30
0.0
  9
$UCSXDIR
 10
1.0
 20
0.0
 30
0.0
  9
$UCSYDIR
 10
0.0
 20
1.0
 30
0.0
  9
$PUCSNAME
  2

  9
$PUCSORG
 10
0.0
 20
0.0
 30
0.0
  9
$PUCSXDIR
 10
1.0
 20
0.0
 30
0.0
  9
$PUCSYDIR
 10
0.0
 20
1.0
 30
0.0
  9
$USERI1
 70
     0
  9
$USERI2
 70
     0
  9
$USERI3
 70
     0
  9
$USERI4
 70
     0
  9
$USERI5
 70
     0
  9
$USERR1
 40
0.0
  9
$USERR2
 40
0.0
  9
$USERR3
 40
0.0
  9
$USERR4
 40
0.0
  9
$USERR5
 40
0.0
  9
$WORLDVIEW
 70
     1
  9
$SHADEDGE
 70
     3
  9
$SHADEDIF
 70
    70
  9
$TILEMODE
 70
     1
  9
$MAXACTVP
 70
    64
  9
$PLIMCHECK
 70
     0
  9
$PEXTMIN
 10
1.0000000000000000E+020
 20
1.0000000000000000E+020
 30
1.0000000000000000E+020
  9
$PEXTMAX
 10
-1.0000000000000000E+020
 20
-1.0000000000000000E+020
 30
-1.0000000000000000E+020
  9
$PLIMMIN
 10
0.0
 20
0.0
  9
$PLIMMAX
 10
12.0
 20
9.0
  9
$UNITMODE
 70
     0
  9
$VISRETAIN
 70
     0
  9
$PLINEGEN
 70
     1
  9
$PSLTSCALE
 70
     0
  0
ENDSEC
  0
SECTION
  2
TABLES
  0
TABLE
  2
VPORT
 70
     1
  0
VPORT
  2
*ACTIVE
 70
     0
 10
0.0
 20
0.0
 11
1.0
 21
1.0
 12
100.0000008381905
 22
135.9180721483518
 13
0.0
 23
0.0
 14
1.0
 24
1.0
 15
0.0
 25
0.0
 16
0.0
 26
0.0
 36
1.0
 17
0.0
 27
0.0
 37
0.0
 40
539.70209125007557
 41
1.6703601108033239
 42
50.0
 43
0.0
 44
0.0
 50
0.0
 51
0.0
 71
     0
 72
  2000
 73
     1
 74
     1
 75
     0
 76
     0
 77
     0
 78
     0
  0
ENDTAB
  0
TABLE
  2
LTYPE
 70
    11
  0
LTYPE
  2
CONTINUOUS
 70
     0
  3
Solid line
 72
    65
 73
     0
 40
0.0
  0
ENDTAB
  0
TABLE
  2
LAYER
 70
     5
  0
LAYER
  2
0
 70
     0
 62
     7
  6
CONTINUOUS
  0
LAYER
  2
DATA
 70
     0
 62
     7
  6
CONTINUOUS
  0
LAYER
  2
HIBINO-BASE
 70
     0
 62
     7
  6
CONTINUOUS
  0
LAYER
  2
SPEC
 70
     0
 62
     7
  6
CONTINUOUS
  0
LAYER
  2
DIMNSIONS
 70
     0
 62
     7
  6
CONTINUOUS
  0
ENDTAB
  0
TABLE
  2
STYLE
 70
     2
  0
STYLE
  2
STANDARD
 70
     0
 40
0.0
 41
1.0
 50
0.0
 71
     0
 42
0.0
  3
txt
  4
BIGFONT.SHX
  0
ENDTAB
  0
TABLE
  2
VIEW
 70
     0
  0
ENDTAB
  0
TABLE
  2
UCS
 70
     0
  0
ENDTAB
  0
TABLE
  2
APPID
 70
     1
  0
APPID
  2
ACAD
 70
     0
  0
ENDTAB
  0
TABLE
  2
DIMSTYLE
 70
     1
  0
DIMSTYLE
  2
STANDARD
 70
     0
  3

  4

  5

  6

  7

 40
1.0
 41
0.18
 42
0.0625
 43
0.38
 44
0.18
 45
0.0
 46
0.0
 47
0.0
 48
0.0
140
0.18
141
0.09
142
0.0
143
25.399999999999999
144
1.0
145
0.0
146
1.0
147
0.09
 71
     0
 72
     0
 73
     1
 74
     1
 75
     0
 76
     0
 77
     0
 78
     0
170
     0
171
     2
172
     0
173
     0
174
     0
175
     0
176
     0
177
     0
178
     0
  0
ENDTAB
  0
ENDSEC
  0
SECTION
  2
BLOCKS
  0
BLOCK
  8
0
  2
$MODEL_SPACE
 70
     0
 10
0.0
 20
0.0
 30
0.0
  3
$MODEL_SPACE
  1

  0
ENDBLK
  5
6A1
  8
0
  0
BLOCK
 67
     1
  8
0
  2
$PAPER_SPACE
 70
     0
 10
0.0
 20
0.0
 30
0.0
  3
$PAPER_SPACE
  1

  0
ENDBLK
  5
69D
 67
     1
  8
0
  0
ENDSEC
  0
SECTION
  2
ENTITIES
  0
LINE
  5
2C
  8
HIBINO-BASE
  6
CONTINUOUS
 62
     7
 10
-79.999990000000025
 20
403.53181999999993
 30
0.0
 11
279.99999000000003
 21
403.53181999999993
 31
0.0
  0
LINE
  5
2D
  8
HIBINO-BASE
  6
CONTINUOUS
 62
     7
 10
279.99999000000003
 20
-116.46817
 30
0.0
 11
-79.999990000000025
 21
-116.46817
 31
0.0
  0
LINE
  5
2E
  8
HIBINO-BASE
  6
CONTINUOUS
 62
     7
 10
-79.999990000000025
 20
-116.46817
 30
0.0
 11
-79.999990000000025
 21
403.53181999999993
 31
0.0
  0
TEXT
  5
2F
  8
HIBINO-BASE
 62
     7
 10
-65.631980000000013
 20
-129.2855084
 30
0.0
 40
7.2000729687499989
  1
Hibino Corporation
 41
0.8
 11
-65.631980000000013
 21
-122.08543543125
 31
0.0
 73
     3
  0
LINE
  5
30
  8
HIBINO-BASE
  6
CONTINUOUS
 62
     7
 10
279.99999000000003
 20
403.53181999999993
 30
0.0
 11
279.99999000000003
 21
-116.46817
 31
0.0
  0
LINE
  5
31
  8
HIBINO-BASE
  6
CONTINUOUS
 62
     7
 10
100.0
 20
-71.468179999999975
 30
0.0
 11
279.99999000000003
 21
-71.468179999999975
 31
0.0
  0
LINE
  5
32
  8
HIBINO-BASE
  6
CONTINUOUS
 62
     7
 10
100.0
 20
-116.46817
 30
0.0
 11
100.0
 21
-71.468179999999975
 31
0.0
  0
TEXT
  5
33
  8
HIBINO-BASE
 62
     7
 10
101.79998000000001
 20
-76.868186399999985
 30
0.0
 40
3.6000518750000001
  1
NOTE
 41
0.8
 11
101.79998000000001
 21
-73.268134524999965
 31
0.0
 73
     3
  0
LINE
  5
34
  8
HIBINO-BASE
  6
CONTINUOUS
 62
     7
 10
170.0
 20
-116.46817
 30
0.0
 11
170.0
 21
-71.468179999999975
 31
0.0
  0
TEXT
  5
35
  8
HIBINO-BASE
 62
     7
 10
171.7999999999999
 20
-76.868186399999985
 30
0.0
 40
3.6000518750000001
  1
TITLE
 41
0.8
 11
171.7999999999999
 21
-73.268134524999965
 31
0.0
 73
     3
  0
TEXT
  5
36
  8
HIBINO-BASE
 62
     7
 10
200.13676000000001
 20
-129.2855084
 30
0.0
 40
7.2000729687499989
  1
ヒビノ株式会社
 41
0.8
 11
200.13676000000001
 21
-122.08543543125
 31
0.0
 73
     3
  0
LINE
  5
37
  8
HIBINO-BASE
  6
CONTINUOUS
 62
     7
 10
100.0
 20
-96.468180000000004
 30
0.0
 11
279.99999000000003
 21
-96.468180000000004
 31
0.0
  0
TEXT
  5
38
  8
HIBINO-BASE
 62
     7
 10
196.80000000000001
 20
-101.75552639999999
 30
0.0
 40
3.6000518750000001
  1
DRAWN
 41
0.8
 11
196.80000000000001
 21
-98.155474525000002
 31
0.0
 73
     3
  0
TEXT
  5
39
  8
HIBINO-BASE
 62
     7
 10
146.7999999999999
 20
-101.75552639999999
 30
0.0
 40
3.6000518750000001
  1
DATE
 41
0.8
 11
146.7999999999999
 21
-98.155474525000002
 31
0.0
 73
     3
  0
TEXT
  5
3A
  8
HIBINO-BASE
 62
     7
 10
102.19998
 20
-101.7070652
 30
0.0
 40
3.2576720312499998
  1
図面サイズ
 41
0.8
 11
102.19998
 21
-98.449393168750007
 31
0.0
 73
     3
  0
TEXT
  5
3B
  8
HIBINO-BASE
 62
     7
 10
126.79998000000001
 20
-101.75552639999999
 30
0.0
 40
3.6000518750000001
  1
SCALE
 41
0.8
 11
126.79998000000001
 21
-98.155474525000002
 31
0.0
 73
     3
  0
TEXT
  5
3C
  8
HIBINO-BASE
 62
     7
 10
171.7999999999999
 20
-101.75552639999999
 30
0.0
 40
3.6000518750000001
  1
DESIGN
 41
0.8
 11
171.7999999999999
 21
-98.155474525000002
 31
0.0
 73
     3
  0
TEXT
  5
3D
  8
HIBINO-BASE
 62
     7
 10
246.79997999999989
 20
-101.75552639999999
 30
0.0
 40
3.6000518750000001
  1
DRAWING NO.
 41
0.8
 11
246.79997999999989
 21
-98.155474525000002
 31
0.0
 73
     3
  0
TEXT
  5
3E
  8
HIBINO-BASE
 62
     7
 10
221.79999000000001
 20
-101.75552639999999
 30
0.0
 40
3.6000518750000001
  1
CHECK
 41
0.8
 11
221.79999000000001
 21
-98.155474525000002
 31
0.0
 73
     3
  0
LINE
  5
3F
  8
HIBINO-BASE
  6
CONTINUOUS
 62
     7
 10
128.74997999999999
 20
-113.96818
 30
0.0
 11
136.25
 21
-106.46818
 31
0.0
  0
TEXT
  5
40
  8
HIBINO-BASE
 62
     7
 10
127.49997999999999
 20
-109.8995983999999
 30
0.0
 40
4.3435729687500002
  1
1
 41
0.8
 11
127.49997999999999
 21
-105.55602543124991
 31
0.0
 73
     3
  0
LINE
  5
41
  8
HIBINO-BASE
  6
CONTINUOUS
 62
     7
 10
124.99997999999999
 20
-116.46817
 30
0.0
 11
124.99997999999999
 21
-96.468180000000004
 31
0.0
  0
LINE
  5
42
  8
HIBINO-BASE
  6
CONTINUOUS
 62
     7
 10
144.99998999999991
 20
-116.46817
 30
0.0
 11
144.99998999999991
 21
-96.468180000000004
 31
0.0
  0
LINE
  5
43
  8
HIBINO-BASE
  6
CONTINUOUS
 62
     7
 10
194.99999
 20
-96.468180000000004
 30
0.0
 11
194.99999
 21
-116.46817
 31
0.0
  0
LINE
  5
44
  8
HIBINO-BASE
  6
CONTINUOUS
 62
     7
 10
245.0
 20
-96.468180000000004
 30
0.0
 11
245.0
 21
-116.46817
 31
0.0
  0
LINE
  5
45
  8
HIBINO-BASE
  6
CONTINUOUS
 62
     7
 10
219.99997999999999
 20
-116.46817
 30
0.0
 11
219.99997999999999
 21
-96.468180000000004
 31
0.0
  0
TEXT
  5
46
  8
HIBINO-BASE
 62
     7
 10
107.82178
 20
-111.4712389999999
 30
0.0
 40
6.5153517578124989
  1
A4
 41
0.8
 11
107.82178
 21
-104.9558872421874
 31
0.0
 73
     3
  0
TEXT
  5
47
  8
HIBINO-BASE
 62
     7
 10
146.71307999999999
 20
-111.1234863999999
 30
0.0
 40
3.6000518750000001
  1
'06.03.
 41
0.8
 11
146.71307999999999
 21
-107.5234345249999
 31
0.0
 73
     3
  0
TEXT
  5
48
  8
HIBINO-BASE
 62
     7
 10
135.0
 20
-113.6495983999999
 30
0.0
 40
4.3435729687500002
  1
2
 41
0.8
 11
135.0
 21
-109.30602543124991
 31
0.0
 73
     3
  0
TEXT
  5
49
  8
HIBINO-BASE
 62
     7
 10
198.01161002206919
 20
-110.7408816666666
 30
0.0
 40
3.2576822916666659
  1
N.Sasaki
 41
0.8
 11
198.01161002206919
 21
-107.4831993749999
 31
0.0
 73
     3
  0
LINE
  5
4A
  8
SPEC
  6
CONTINUOUS
 62
     7
 10
-64.999990000000011
 20
383.53181999999998
 30
0.0
 11
230.0
 21
383.53181999999998
 31
0.0
  0
LINE
  5
4B
  8
SPEC
  6
CONTINUOUS
 62
     7
 10
-64.999990000000011
 20
383.53181999999998
 30
0.0
 11
-64.999990000000011
 21
271.03179999999998
 31
0.0
  0
LINE
  5
4C
  8
SPEC
  6
CONTINUOUS
 62
     7
 10
0.000009999999989
 20
383.53181999999998
 30
0.0
 11
0.000009999999989
 21
271.03179999999998
 31
0.0
  0
LINE
  5
4D
  8
SPEC
  6
CONTINUOUS
 62
     7
 10
230.0
 20
383.53181999999998
 30
0.0
 11
230.0
 21
271.03179999999998
 31
0.0
  0
TEXT
  5
4E
  8
SPEC
 62
     7
 10
-63.124315565698481
 20
355.45111083774208
 30
0.0
 40
3.8006293402777769
  1
発振方式
 41
0.8
 11
-63.124315565698481
 21
359.25174017801987
 31
0.0
 73
     3
  0
TEXT
  5
4F
  8
SPEC
 62
     7
 10
1.5510437874008709
 20
355.38486271720922
 30
0.0
 40
3.8006293402777769
  1
水晶制御PLLシンセサイザー方式
 41
0.8
 11
1.5510437874008709
 21
359.18549205748701
 31
0.0
 73
     3
  0
LINE
  5
50
  8
SPEC
  6
CONTINUOUS
 62
     7
 10
-64.999990000000011
 20
376.03181999999998
 30
0.0
 11
230.0
 21
376.03181999999998
 31
0.0
  0
TEXT
  5
51
  8
SPEC
 62
     7
 10
-63.088950758960202
 20
377.92937093279431
 30
0.0
 40
3.8006293402777769
  1
電波型式
 41
0.8
 11
-63.088950758960202
 21
381.73000027307199
 31
0.0
 73
     3
  0
TEXT
  5
52
  8
SPEC
 62
     7
 10
2.8585014542842648
 20
377.82494409143032
 30
0.0
 40
3.8006293402777769
  1
F3E
 41
0.8
 11
2.8585014542842648
 21
381.62557343170812
 31
0.0
 73
     3
  0
TEXT
  5
53
  8
SPEC
 62
     7
 10
-63.348294942655293
 20
370.33581159391571
 30
0.0
 40
3.8006293402777769
  1
送信周波数
 41
0.8
 11
-63.348294942655293
 21
374.1364409341935
 31
0.0
 73
     3
  0
TEXT
  5
54
  8
SPEC
 62
     7
 10
2.7879079435708709
 20
370.49870604282631
 30
0.0
 40
3.8006293402777769
  1
ULX1-JB:B型 (806～810MHz)30チャンネルのうち任意の1チャンネル
 41
0.8
 11
2.7879079435708709
 21
374.29933538310411
 31
0.0
 73
     3
  0
LINE
  5
55
  8
SPEC
  6
CONTINUOUS
 62
     7
 10
-64.999990000000011
 20
353.53181999999998
 30
0.0
 11
230.0
 21
353.53181999999998
 31
0.0
  0
TEXT
  5
56
  8
SPEC
 62
     7
 10
-63.08731740710239
 20
348.03920192593489
 30
0.0
 40
3.8006293402777769
  1
空中線電力
 41
0.8
 11
-63.08731740710239
 21
351.8398312662128
 31
0.0
 73
     3
  0
TEXT
  5
57
  8
SPEC
 62
     7
 10
2.6441289397336609
 20
347.9431858319702
 30
0.0
 40
3.8006293402777769
  1
10mW
 41
0.8
 11
2.6441289397336609
 21
351.74381517224799
 31
0.0
 73
     3
  0
LINE
  5
58
  8
SPEC
  6
CONTINUOUS
 62
     7
 10
-64.999990000000011
 20
346.03181999999998
 30
0.0
 11
230.0
 21
346.03181999999998
 31
0.0
  0
TEXT
  5
59
  8
SPEC
 62
     7
 10
2.617283216443496
 20
363.80765555555553
 30
0.0
 40
3.8006293402777769
  1
ULX1-JA:A型 (797～806MHz)71チャンネルのうち任意の1チャンネル
 41
0.8
 11
2.617283216443496
 21
367.60828489583332
 31
0.0
 73
     3
  0
TEXT
  5
5A
  8
SPEC
 62
     7
 10
-62.485427358906733
 20
332.8313848047838
 30
0.0
 40
3.8006293402777769
  1
到達距離
 41
0.8
 11
-62.485427358906733
 21
336.63201414506159
 31
0.0
 73
     3
  0
TEXT
  5
5B
  8
SPEC
 62
     7
 10
1.458928504822935
 20
332.92986897767611
 30
0.0
 40
3.8006293402777769
  1
約70m(標準環境における最大値)
 41
0.8
 11
1.458928504822935
 21
336.73049831795379
 31
0.0
 73
     3
  0
LINE
  5
5C
  8
SPEC
  6
CONTINUOUS
 62
     7
 10
-64.999990000000011
 20
338.53181999999998
 30
0.0
 11
230.0
 21
338.53181999999998
 31
0.0
  0
TEXT
  5
5D
  8
SPEC
 62
     7
 10
-62.803113884489541
 20
325.39751867942778
 30
0.0
 40
3.8006293402777769
  1
トーン信号周波数
 41
0.8
 11
-62.803113884489541
 21
329.19814801970563
 31
0.0
 73
     3
  0
TEXT
  5
5E
  8
SPEC
 62
     7
 10
2.4021319680788888
 20
325.40597616046603
 30
0.0
 40
3.8006293402777769
  1
32.768kHz
 41
0.8
 11
2.4021319680788902
 21
329.20660550074382
 31
0.0
 73
     3
  0
LINE
  5
5F
  8
SPEC
  6
CONTINUOUS
 62
     7
 10
-64.999990000000011
 20
331.03181999999998
 30
0.0
 11
230.0
 21
331.03181999999998
 31
0.0
  0
TEXT
  5
60
  8
SPEC
 62
     7
 10
-62.617835876868362
 20
317.94490281771391
 30
0.0
 40
3.8006293402777769
  1
周波数特性
 41
0.8
 11
-62.617835876868362
 21
321.7455321579917
 31
0.0
 73
     3
  0
TEXT
  5
61
  8
SPEC
 62
     7
 10
2.5935369535223871
 20
317.96325369602908
 30
0.0
 40
3.8006293402777769
  1
25～15,000Hz、±2dB
 41
0.8
 11
2.593536953522388
 21
321.76388303630688
 31
0.0
 73
     3
  0
LINE
  5
62
  8
SPEC
  6
CONTINUOUS
 62
     7
 10
-64.999990000000011
 20
323.53181999999998
 30
0.0
 11
230.0
 21
323.53181999999998
 31
0.0
  0
TEXT
  5
63
  8
SPEC
 62
     7
 10
-63.204353589067452
 20
303.1141309176399
 30
0.0
 40
3.8006293402777769
  1
ゲイン調整スイッチ
 41
0.8
 11
-63.204353589067452
 21
306.91476025791758
 31
0.0
 73
     3
  0
TEXT
  5
64
  8
SPEC
 62
     7
 10
2.8277965338438089
 20
310.3641201133056
 30
0.0
 40
3.8006293402777769
  1
+12dBV(1kHz,THD1%%%)
 41
0.8
 11
2.8277965338438089
 21
314.16474945358351
 31
0.0
 73
     3
  0
LINE
  5
65
  8
SPEC
  6
CONTINUOUS
 62
     7
 10
-64.999990000000011
 20
316.03181999999998
 30
0.0
 11
230.0
 21
316.03181999999998
 31
0.0
  0
TEXT
  5
66
  8
SPEC
 62
     7
 10
-63.013583397266864
 20
340.41208132052122
 30
0.0
 40
3.8006293402777769
  1
アンテナ形式
 41
0.8
 11
-63.013583397266864
 21
344.21271066079902
 31
0.0
 73
     3
  0
TEXT
  5
67
  8
SPEC
 62
     7
 10
2.6103096052938199
 20
340.38357168384579
 30
0.0
 40
3.8006293402777769
  1
1/4波長ホイップ,50Ω
 41
0.8
 11
2.6103096052938208
 21
344.18420102412369
 31
0.0
 73
     3
  0
LINE
  5
68
  8
SPEC
  6
CONTINUOUS
 62
     7
 10
-64.999990000000011
 20
308.53181999999998
 30
0.0
 11
230.0
 21
308.53181999999998
 31
0.0
  0
TEXT
  5
69
  8
SPEC
 62
     7
 10
-63.17771991093953
 20
287.99382951719542
 30
0.0
 40
3.8006293402777769
  1
入力コネクタ 
 41
0.8
 11
-63.17771991093953
 21
291.79445885747322
 31
0.0
 73
     3
  0
TEXT
  5
6A
  8
SPEC
 62
     7
 10
2.8172944760327989
 20
280.27771318679351
 30
0.0
 40
3.8006293402777769
  1
006P形アルカリ乾電池×1
 41
0.8
 11
2.8172944760327989
 21
284.07834252707141
 31
0.0
 73
     3
  0
LINE
  5
6B
  8
SPEC
  6
CONTINUOUS
 62
     7
 10
-64.999990000000011
 20
301.03179999999998
 30
0.0
 11
230.0
 21
301.03179999999998
 31
0.0
  0
TEXT
  5
6C
  8
SPEC
 62
     7
 10
-63.035417358906713
 20
280.44023735888118
 30
0.0
 40
3.8006293402777769
  1
電源
 41
0.8
 11
-63.035417358906713
 21
284.24086669915903
 31
0.0
 73
     3
  0
TEXT
  5
6D
  8
SPEC
 62
     7
 10
2.396608264918171
 20
295.31196995221779
 30
0.0
 40
3.8006293402777769
  1
45dB
 41
0.8
 11
2.396608264918171
 21
299.11259929249559
 31
0.0
 73
     3
  0
LINE
  5
6E
  8
SPEC
  6
CONTINUOUS
 62
     7
 10
-64.999990000000011
 20
293.53179999999998
 30
0.0
 11
230.0
 21
293.53179999999998
 31
0.0
  0
TEXT
  5
6F
  8
SPEC
 62
     7
 10
-62.499990000000011
 20
387.53189555555548
 30
0.0
 40
3.8006293402777769
  1
仕様
 41
0.8
 11
-62.499990000000011
 21
391.33252489583327
 31
0.0
 73
     3
  0
TEXT
  5
70
  8
SPEC
 62
     7
 10
2.6320127076541122
 20
287.89666133372879
 30
0.0
 40
3.8006293402777769
  1
Switchcraft TA4M
 41
0.8
 11
2.6320127076541122
 21
291.69729067400658
 31
0.0
 73
     3
  0
LINE
  5
71
  8
SPEC
  6
CONTINUOUS
 62
     7
 10
-64.999990000000011
 20
286.03179999999998
 30
0.0
 11
230.0
 21
286.03179999999998
 31
0.0
  0
TEXT
  5
72
  8
SPEC
 62
     7
 10
-63.731578634923103
 20
272.94238479938201
 30
0.0
 40
3.8006293402777769
  1
寸法(W×H×D)
 41
0.8
 11
-63.731578634923103
 21
276.74301413965981
 31
0.0
 73
     3
  0
TEXT
  5
73
  8
SPEC
 62
     7
 10
2.6814767208348509
 20
273.16566702859291
 30
0.0
 40
3.8006293402777769
  1
67×97×27mm(除アンテナ部)
 41
0.8
 11
2.6814767208348509
 21
276.96629636887059
 31
0.0
 73
     3
  0
LINE
  5
74
  8
SPEC
  6
CONTINUOUS
 62
     7
 10
-64.999990000000011
 20
278.53179999999998
 30
0.0
 11
230.0
 21
278.53179999999998
 31
0.0
  0
TEXT
  5
75
  8
SPEC
 62
     7
 10
-63.125266558202931
 20
265.48023611992869
 30
0.0
 40
3.8006293402777769
  1
質量
 41
0.8
 11
-63.125266558202931
 21
269.28086546020643
 31
0.0
 73
     3
  0
TEXT
  5
76
  8
SPEC
 62
     7
 10
2.356086647874974
 20
265.55209063476889
 30
0.0
 40
3.8006293402777769
  1
79g(除乾電池)
 41
0.8
 11
2.356086647874974
 21
269.35271997504663
 31
0.0
 73
     3
  0
LINE
  5
77
  8
SPEC
  6
CONTINUOUS
 62
     7
 10
-64.999990000000011
 20
271.03179999999998
 30
0.0
 11
230.0
 21
271.03179999999998
 31
0.0
  0
LINE
  5
78
  8
SPEC
  6
CONTINUOUS
 62
     7
 10
-64.999990000000011
 20
361.03181999999998
 30
0.0
 11
230.0
 21
361.03181999999998
 31
0.0
  0
TEXT
  5
79
  8
SPEC
 62
     7
 10
-63.018993513879167
 20
310.48557895282238
 30
0.0
 40
3.8006293402777769
  1
最大入力レベル
 41
0.8
 11
-63.018993513879167
 21
314.28620829310017
 31
0.0
 73
     3
  0
TEXT
  5
7A
  8
SPEC
 62
     7
 10
-63.403404345241071
 20
295.67439951719541
 30
0.0
 40
3.8006293402777769
  1
ゲイン調整範囲
 41
0.8
 11
-63.403404345241071
 21
299.47502885747332
 31
0.0
 73
     3
  0
LINE
  5
7B
  8
SPEC
  6
CONTINUOUS
 62
     7
 10
-64.999990000000011
 20
263.53179999999998
 30
0.0
 11
230.0
 21
263.53179999999998
 31
0.0
  0
LINE
  5
7C
  8
SPEC
  6
CONTINUOUS
 62
     7
 10
-64.999990000000011
 20
263.53179999999998
 30
0.0
 11
-64.999990000000011
 21
271.2000000000001
 31
0.0
  0
LINE
  5
7D
  8
SPEC
  6
CONTINUOUS
 62
     7
 10
230.0
 20
263.53179999999998
 30
0.0
 11
230.0
 21
271.30000000000001
 31
0.0
  0
LINE
  5
7E
  8
SPEC
  6
CONTINUOUS
 62
     7
 10
0.000009999999989
 20
271.03179999999998
 30
0.0
 11
0.000009999999989
 21
263.53179999999998
 31
0.0
  0
TEXT
  5
7F
  8
SPEC
 62
     7
 10
2.7073941527499832
 20
302.7525555555556
 30
0.0
 40
3.8006293402777769
  1
0dB,-20dBの2段階切替
 41
0.8
 11
2.7073941527499841
 21
306.55318489583328
 31
0.0
 73
     3
  0
TEXT
  5
80
  8
DIMNSIONS
 62
     7
 10
60.0
 20
-91.929190000000006
 30
0.0
 40
4.8865234375000002
  1
(単位：mm)
 41
0.8
 11
60.0
 21
-87.042666562500003
 31
0.0
 73
     3
  0
LINE
  5
81
  8
DIMNSIONS
  6
CONTINUOUS
 62
     7
 10
-9.6799990068030155
 20
-60.301019351987541
 30
0.0
 11
-63.999999985098839
 21
-60.301019351987541
 31
0.0
  0
LINE
  5
82
  8
DIMNSIONS
  6
CONTINUOUS
 62
     7
 10
8.750005014901161
 20
-26.800000000000189
 30
0.0
 11
-63.999999985098839
 21
-26.800000000000189
 31
0.0
  0
LINE
  5
83
  8
DIMNSIONS
  6
CONTINUOUS
 62
     7
 10
-60.000000000000021
 20
-60.301019351987541
 30
0.0
 11
-60.000000000000021
 21
-26.800000000000189
 31
0.0
  0
LINE
  5
84
  8
DIMNSIONS
  6
CONTINUOUS
 62
     7
 10
-60.000000000000021
 20
-60.301019351987541
 30
0.0
 11
-61.701477371937649
 21
-53.95101935198754
 31
0.0
  0
LINE
  5
85
  8
DIMNSIONS
  6
CONTINUOUS
 62
     7
 10
-60.000000000000021
 20
-60.301019351987541
 30
0.0
 11
-58.298522628062372
 21
-53.95101935198754
 31
0.0
  0
LINE
  5
86
  8
DIMNSIONS
  6
CONTINUOUS
 62
     7
 10
-60.000000000000021
 20
-26.800000000000189
 30
0.0
 11
-58.298522628062372
 21
-33.150000000000183
 31
0.0
  0
LINE
  5
87
  8
DIMNSIONS
  6
CONTINUOUS
 62
     7
 10
-60.000000000000021
 20
-26.800000000000189
 30
0.0
 11
-61.701477371937649
 21
-33.150000000000183
 31
0.0
  0
TEXT
  5
88
  8
DIMNSIONS
 62
     7
 10
-62.987777770327178
 20
-50.60606523154938
 30
0.0
 40
5.4294704861111107
  1
33.5
 50
90.0
 41
0.8
 11
-68.417248256438285
 21
-50.60606523154938
 31
0.0
 73
     3
  0
LINE
  5
89
  8
DIMNSIONS
  6
CONTINUOUS
 62
     7
 10
-20.749994985098859
 20
-53.51443158610163
 30
0.0
 11
-43.999999985098839
 21
-53.51443158610163
 31
0.0
  0
LINE
  5
8A
  8
DIMNSIONS
  6
CONTINUOUS
 62
     7
 10
8.750005014901161
 20
-26.800000000000189
 30
0.0
 11
-43.999999985098839
 21
-26.800000000000189
 31
0.0
  0
LINE
  5
8B
  8
DIMNSIONS
  6
CONTINUOUS
 62
     7
 10
-40.000000000000007
 20
-53.51443158610163
 30
0.0
 11
-40.000000000000007
 21
-26.800000000000189
 31
0.0
  0
LINE
  5
8C
  8
DIMNSIONS
  6
CONTINUOUS
 62
     7
 10
-40.000000000000007
 20
-53.51443158610163
 30
0.0
 11
-41.701477371937649
 21
-47.164431586101642
 31
0.0
  0
LINE
  5
8D
  8
DIMNSIONS
  6
CONTINUOUS
 62
     7
 10
-40.000000000000007
 20
-53.51443158610163
 30
0.0
 11
-38.298522628062372
 21
-47.164431586101642
 31
0.0
  0
LINE
  5
8E
  8
DIMNSIONS
  6
CONTINUOUS
 62
     7
 10
-40.000000000000007
 20
-26.800000000000189
 30
0.0
 11
-38.298522628062372
 21
-33.150000000000183
 31
0.0
  0
LINE
  5
8F
  8
DIMNSIONS
  6
CONTINUOUS
 62
     7
 10
-40.000000000000007
 20
-26.800000000000189
 30
0.0
 11
-41.701477371937649
 21
-33.150000000000183
 31
0.0
  0
TEXT
  5
90
  8
DIMNSIONS
 62
     7
 10
-42.98777777032717
 20
-43.684993570828667
 30
0.0
 40
5.4294704861111107
  1
27
 50
90.0
 41
0.8
 11
-48.417248256438292
 21
-43.684993570828667
 31
0.0
 73
     3
  0
LINE
  5
91
  8
DIMNSIONS
  6
CONTINUOUS
 62
     7
 10
-18.24999500000003
 20
-53.40275467558012
 30
0.0
 11
-18.24999500000003
 21
-83.999999985098853
 31
0.0
  0
LINE
  5
92
  8
DIMNSIONS
  6
CONTINUOUS
 62
     7
 10
43.750004999999973
 20
-53.40275467558012
 30
0.0
 11
43.750004999999973
 21
-83.999999985098853
 31
0.0
  0
LINE
  5
93
  8
DIMNSIONS
  6
CONTINUOUS
 62
     7
 10
-18.24999500000003
 20
-80.0
 30
0.0
 11
43.750004999999973
 21
-80.0
 31
0.0
  0
LINE
  5
94
  8
DIMNSIONS
  6
CONTINUOUS
 62
     7
 10
-18.24999500000003
 20
-80.0
 30
0.0
 11
-11.899995000000031
 21
-78.298522628062372
 31
0.0
  0
LINE
  5
95
  8
DIMNSIONS
  6
CONTINUOUS
 62
     7
 10
-18.24999500000003
 20
-80.0
 30
0.0
 11
-11.899995000000031
 21
-81.701477371937628
 31
0.0
  0
LINE
  5
96
  8
DIMNSIONS
  6
CONTINUOUS
 62
     7
 10
43.750004999999973
 20
-80.0
 30
0.0
 11
37.400004999999972
 21
-81.701477371937628
 31
0.0
  0
LINE
  5
97
  8
DIMNSIONS
  6
CONTINUOUS
 62
     7
 10
43.750004999999973
 20
-80.0
 30
0.0
 11
37.400004999999972
 21
-78.298522628062372
 31
0.0
  0
TEXT
  5
98
  8
DIMNSIONS
 62
     7
 10
9.2222272222221982
 20
-77.01222222967283
 30
0.0
 40
5.4294704861111107
  1
62
 41
0.8
 11
9.2222272222221982
 21
-71.582751743561715
 31
0.0
 73
     3
  0
LINE
  5
99
  8
DIMNSIONS
  6
CONTINUOUS
 62
     7
 10
-20.74999500000003
 20
-53.514431571200483
 30
0.0
 11
-20.74999500000003
 21
-93.999999985098853
 31
0.0
  0
LINE
  5
9A
  8
DIMNSIONS
  6
CONTINUOUS
 62
     7
 10
46.250004999999973
 20
-53.514431571200497
 30
0.0
 11
46.250004999999973
 21
-93.999999985098853
 31
0.0
  0
LINE
  5
9B
  8
DIMNSIONS
  6
CONTINUOUS
 62
     7
 10
-20.74999500000003
 20
-90.0
 30
0.0
 11
46.250004999999973
 21
-90.0
 31
0.0
  0
LINE
  5
9C
  8
DIMNSIONS
  6
CONTINUOUS
 62
     7
 10
-20.74999500000003
 20
-90.0
 30
0.0
 11
-14.399995000000031
 21
-88.298522628062386
 31
0.0
  0
LINE
  5
9D
  8
DIMNSIONS
  6
CONTINUOUS
 62
     7
 10
-20.74999500000003
 20
-90.0
 30
0.0
 11
-14.399995000000031
 21
-91.701477371937628
 31
0.0
  0
LINE
  5
9E
  8
DIMNSIONS
  6
CONTINUOUS
 62
     7
 10
46.250004999999973
 20
-90.0
 30
0.0
 11
39.900004999999972
 21
-91.701477371937628
 31
0.0
  0
LINE
  5
9F
  8
DIMNSIONS
  6
CONTINUOUS
 62
     7
 10
46.250004999999973
 20
-90.0
 30
0.0
 11
39.900004999999972
 21
-88.298522628062386
 31
0.0
  0
TEXT
  5
A0
  8
DIMNSIONS
 62
     7
 10
9.2222272222221982
 20
-87.012222229672815
 30
0.0
 40
5.4294704861111107
  1
67
 41
0.8
 11
9.2222272222221982
 21
-81.582751743561701
 31
0.0
 73
     3
  0
LINE
  5
A1
  8
DIMNSIONS
  6
CONTINUOUS
 62
     7
 10
142.7550091467109
 20
9.6047346243936715
 30
0.0
 11
142.7550091467109
 21
-44.499999985098839
 31
0.0
  0
LINE
  5
A2
  8
DIMNSIONS
  6
CONTINUOUS
 62
     7
 10
109.9371253890293
 20
-5.7773102130428811
 30
0.0
 11
109.9371253890293
 21
-44.499999985098839
 31
0.0
  0
LINE
  5
A3
  8
DIMNSIONS
  6
CONTINUOUS
 62
     7
 10
142.7550091467109
 20
-40.499999999999993
 30
0.0
 11
109.9371253890293
 21
-40.499999999999993
 31
0.0
  0
LINE
  5
A4
  8
DIMNSIONS
  6
CONTINUOUS
 62
     7
 10
142.7550091467109
 20
-40.499999999999993
 30
0.0
 11
136.4050091467108
 21
-42.201477371937642
 31
0.0
  0
LINE
  5
A5
  8
DIMNSIONS
  6
CONTINUOUS
 62
     7
 10
142.7550091467109
 20
-40.499999999999993
 30
0.0
 11
136.4050091467108
 21
-38.798522628062358
 31
0.0
  0
LINE
  5
A6
  8
DIMNSIONS
  6
CONTINUOUS
 62
     7
 10
109.9371253890293
 20
-40.499999999999993
 30
0.0
 11
116.2871253890293
 21
-38.798522628062358
 31
0.0
  0
LINE
  5
A7
  8
DIMNSIONS
  6
CONTINUOUS
 62
     7
 10
109.9371253890293
 20
-40.499999999999993
 30
0.0
 11
116.2871253890293
 21
-42.201477371937642
 31
0.0
  0
TEXT
  5
A8
  8
DIMNSIONS
 62
     7
 10
119.2905117123145
 20
-37.51222222967283
 30
0.0
 40
5.4294704861111107
  1
33.5
 41
0.8
 11
119.2905117123145
 21
-32.082751743561722
 31
0.0
 73
     3
  0
LINE
  5
A9
  8
DIMNSIONS
  6
CONTINUOUS
 62
     7
 10
109.9371253890293
 20
-5.7773102130428811
 30
0.0
 11
109.9371253890293
 21
-23.999999985098839
 31
0.0
  0
LINE
  5
AA
  8
DIMNSIONS
  6
CONTINUOUS
 62
     7
 10
136.0
 20
-5.71928337498312
 30
0.0
 11
136.0
 21
-23.999999985098839
 31
0.0
  0
LINE
  5
AB
  8
DIMNSIONS
  6
CONTINUOUS
 62
     7
 10
109.9371253890293
 20
-20.0
 30
0.0
 11
136.0
 21
-20.0
 31
0.0
  0
LINE
  5
AC
  8
DIMNSIONS
  6
CONTINUOUS
 62
     7
 10
109.9371253890293
 20
-20.0
 30
0.0
 11
116.2871253890293
 21
-18.298522628062361
 31
0.0
  0
LINE
  5
AD
  8
DIMNSIONS
  6
CONTINUOUS
 62
     7
 10
109.9371253890293
 20
-20.0
 30
0.0
 11
116.2871253890293
 21
-21.701477371937639
 31
0.0
  0
LINE
  5
AE
  8
DIMNSIONS
  6
CONTINUOUS
 62
     7
 10
136.0
 20
-20.0
 30
0.0
 11
129.65000000000001
 21
-21.701477371937639
 31
0.0
  0
LINE
  5
AF
  8
DIMNSIONS
  6
CONTINUOUS
 62
     7
 10
136.0
 20
-20.0
 30
0.0
 11
129.65000000000001
 21
-18.298522628062361
 31
0.0
  0
TEXT
  5
B0
  8
DIMNSIONS
 62
     7
 10
119.4407849167369
 20
-17.012222229672819
 30
0.0
 40
5.4294704861111107
  1
27
 41
0.8
 11
119.4407849167369
 21
-11.58275174356171
 31
0.0
 73
     3
  0
LINE
  5
B1
  8
DIMNSIONS
  6
CONTINUOUS
 62
     7
 10
-19.544412969588119
 20
-6.7192833898842812
 30
0.0
 11
-43.999999985098839
 21
-6.7192833898842812
 31
0.0
  0
LINE
  5
B2
  8
DIMNSIONS
  6
CONTINUOUS
 62
     7
 10
-14.77999998509884
 20
90.418678882365569
 30
0.0
 11
-43.999999985098839
 21
90.418678882365569
 31
0.0
  0
LINE
  5
B3
  8
DIMNSIONS
  6
CONTINUOUS
 62
     7
 10
-40.000000000000007
 20
-6.7192833898842812
 30
0.0
 11
-40.000000000000007
 21
90.418678882365569
 31
0.0
  0
LINE
  5
B4
  8
DIMNSIONS
  6
CONTINUOUS
 62
     7
 10
-40.000000000000007
 20
-6.7192833898842812
 30
0.0
 11
-41.701477371937649
 21
-0.3692833898842878
 31
0.0
  0
LINE
  5
B5
  8
DIMNSIONS
  6
CONTINUOUS
 62
     7
 10
-40.000000000000007
 20
-6.7192833898842812
 30
0.0
 11
-38.298522628062372
 21
-0.3692833898842878
 31
0.0
  0
LINE
  5
B6
  8
DIMNSIONS
  6
CONTINUOUS
 62
     7
 10
-40.000000000000007
 20
90.418678882365569
 30
0.0
 11
-38.298522628062372
 21
84.06867888236556
 31
0.0
  0
LINE
  5
B7
  8
DIMNSIONS
  6
CONTINUOUS
 62
     7
 10
-40.000000000000007
 20
90.418678882365569
 30
0.0
 11
-41.701477371937649
 21
84.06867888236556
 31
0.0
  0
TEXT
  5
B8
  8
DIMNSIONS
 62
     7
 10
-42.98777777032717
 20
38.321919968462879
 30
0.0
 40
5.4294704861111107
  1
97
 50
90.0
 41
0.8
 11
-48.417248256438292
 21
38.321919968462879
 31
0.0
 73
     3
  0
LINE
  5
B9
  8
DIMNSIONS
  6
CONTINUOUS
 62
     7
 10
-11.25192820639438
 20
185.8862681329725
 30
0.0
 11
-43.999999985098839
 21
185.8862681329725
 31
0.0
  0
LINE
  5
BA
  8
DIMNSIONS
  6
CONTINUOUS
 62
     7
 10
-14.77999998509884
 20
90.418678882365569
 30
0.0
 11
-43.999999985098839
 21
90.418678882365569
 31
0.0
  0
LINE
  5
BB
  8
DIMNSIONS
  6
CONTINUOUS
 62
     7
 10
-40.000000000000007
 20
185.8862681329725
 30
0.0
 11
-40.000000000000007
 21
90.418678882365569
 31
0.0
  0
LINE
  5
BC
  8
DIMNSIONS
  6
CONTINUOUS
 62
     7
 10
-40.000000000000007
 20
185.8862681329725
 30
0.0
 11
-38.298522628062372
 21
179.53626813297251
 31
0.0
  0
LINE
  5
BD
  8
DIMNSIONS
  6
CONTINUOUS
 62
     7
 10
-40.000000000000007
 20
185.8862681329725
 30
0.0
 11
-41.701477371937649
 21
179.53626813297251
 31
0.0
  0
LINE
  5
BE
  8
DIMNSIONS
  6
CONTINUOUS
 62
     7
 10
-40.000000000000007
 20
90.418678882365569
 30
0.0
 11
-41.701477371937649
 21
96.768678882365563
 31
0.0
  0
LINE
  5
BF
  8
DIMNSIONS
  6
CONTINUOUS
 62
     7
 10
-40.000000000000007
 20
90.418678882365569
 30
0.0
 11
-38.298522628062372
 21
96.768678882365563
 31
0.0
  0
TEXT
  5
C0
  8
DIMNSIONS
 62
     7
 10
-42.98777777032717
 20
134.6246957298913
 30
0.0
 40
5.4294704861111107
  1
96
 50
90.0
 41
0.8
 11
-48.417248256438292
 21
134.6246957298913
 31
0.0
 73
     3
  0
LINE
  5
C1
  8
DIMNSIONS
  6
CONTINUOUS
 62
     7
 10
-19.544412969588119
 20
-6.7192833898842812
 30
0.0
 11
-63.999999985098839
 21
-6.7192833898842812
 31
0.0
  0
LINE
  5
C2
  8
DIMNSIONS
  6
CONTINUOUS
 62
     7
 10
-11.25192820639438
 20
185.8862681329725
 30
0.0
 11
-63.999999985098839
 21
185.8862681329725
 31
0.0
  0
LINE
  5
C3
  8
DIMNSIONS
  6
CONTINUOUS
 62
     7
 10
-60.000000000000021
 20
-6.7192833898842812
 30
0.0
 11
-60.000000000000021
 21
185.8862681329725
 31
0.0
  0
LINE
  5
C4
  8
DIMNSIONS
  6
CONTINUOUS
 62
     7
 10
-60.000000000000021
 20
-6.7192833898842812
 30
0.0
 11
-61.701477371937649
 21
-0.3692833898842878
 31
0.0
  0
LINE
  5
C5
  8
DIMNSIONS
  6
CONTINUOUS
 62
     7
 10
-60.000000000000021
 20
-6.7192833898842812
 30
0.0
 11
-58.298522628062372
 21
-0.3692833898842878
 31
0.0
  0
LINE
  5
C6
  8
DIMNSIONS
  6
CONTINUOUS
 62
     7
 10
-60.000000000000021
 20
185.8862681329725
 30
0.0
 11
-58.298522628062372
 21
179.53626813297251
 31
0.0
  0
LINE
  5
C7
  8
DIMNSIONS
  6
CONTINUOUS
 62
     7
 10
-60.000000000000021
 20
185.8862681329725
 30
0.0
 11
-61.701477371937649
 21
179.53626813297251
 31
0.0
  0
TEXT
  5
C8
  8
DIMNSIONS
 62
     7
 10
-62.987777770327178
 20
84.291825704877454
 30
0.0
 40
5.4294704861111107
  1
193
 50
90.0
 41
0.8
 11
-68.417248256438285
 21
84.291825704877454
 31
0.0
 73
     3
  0
TEXT
  5
C9
  8
DIMNSIONS
 62
     7
 10
-59.999990000000011
 20
-107.99217
 30
0.0
 40
3.2576822916666659
  1
仕様および外観は予告なく変更されることがありますので、ご了承ください。
 41
0.8
 11
-59.999990000000011
 21
-104.7344877083333
 31
0.0
 73
     3
  0
TEXT
  5
CA
  8
DATA
 62
     7
 10
189.4843409651906
 20
-94.772269851453743
 30
0.0
 40
4.8865234375000002
  1
ULX1/JB / ULX1/JA
 41
0.8
 11
189.4843409651906
 21
-89.885746413953726
 31
0.0
 73
     3
  0
TEXT
  5
CB
  8
DATA
 62
     7
 10
194.39164384810161
 20
-78.654835096519051
 30
0.0
 40
4.8865234375000002
  1
SHURE
 41
0.8
 11
194.39164384810161
 21
-73.768311659019034
 31
0.0
 73
     3
  0
TEXT
  5
CC
  8
DATA
 62
     7
 10
189.74216548259531
 20
-86.647016501494434
 30
0.0
 40
4.3435763888888879
  1
UCシリーズ ボディパック型 送信機
 41
0.8
 11
189.74216548259531
 21
-82.303440112605529
 31
0.0
 73
     3
  0
CIRCLE
  5
CD
  8
DATA
  6
CONTINUOUS
 62
     7
 10
-7.2472975592878708
 20
216.9979144325288
 30
0.0
 40
3.75
  0
CIRCLE
  5
CE
  8
DATA
  6
CONTINUOUS
 62
     7
 10
-7.2472975592878708
 20
216.9979144325288
 30
0.0
 40
3.2500000000000848
  0
TEXT
  5
CF
  8
DATA
 62
     7
 10
19.02390179166666
 20
214.15248527310831
 30
0.0
 40
2.3085860546874999
  1
OFF
 50
180.0
 41
0.8
 72
     1
 11
16.561409999999992
 21
211.8438992184208
 31
0.0
 73
     3
  0
TEXT
  5
D0
  8
DATA
 62
     7
 10
11.839057369791661
 20
214.17832332534149
 30
0.0
 40
2.3085860546874999
  1
ON
 50
180.0
 41
0.8
 72
     1
 11
10.300000000000001
 21
211.86973727065401
 31
0.0
 73
     3
  0
TEXT
  5
D1
  8
DATA
 62
     7
 10
4.7250857470597953
 20
214.1375933811
 30
0.0
 40
2.3085860546874999
  1
BAT
 50
180.0
 41
0.8
 72
     1
 11
2.262593955393128
 21
211.82900732641241
 31
0.0
 73
     3
  0
CIRCLE
  5
D2
  8
DATA
  6
CONTINUOUS
 62
     7
 10
-7.2472975592878708
 20
216.9979144325288
 30
0.0
 40
2.000000000000056
  0
LINE
  5
D3
  8
DATA
  6
CONTINUOUS
 62
     7
 10
-5.5374895217041882
 20
-53.901039351987542
 30
0.0
 11
-7.1155630217041761
 21
-58.175229351987532
 31
0.0
  0
LINE
  5
D4
  8
DATA
  6
CONTINUOUS
 62
     7
 10
-3.928113521704176
 20
-53.901039351987542
 30
0.0
 11
-5.4604160217041757
 21
-58.036709351987533
 31
0.0
  0
LINE
  5
D5
  8
DATA
  6
CONTINUOUS
 62
     7
 10
31.03750097829581
 20
-53.901039351987542
 30
0.0
 11
32.615583978295817
 21
-58.175229351987532
 31
0.0
  0
LINE
  5
D6
  8
DATA
  6
CONTINUOUS
 62
     7
 10
29.428124978295809
 20
-53.901039351987542
 30
0.0
 11
30.960436978295821
 21
-58.036709351987533
 31
0.0
  0
LINE
  5
D7
  8
DATA
  6
CONTINUOUS
 62
     7
 10
31.483936771622002
 20
230.0668980597093
 30
0.0
 11
32.355692287306752
 21
232.3577490358031
 31
0.0
  0
LINE
  5
D8
  8
DATA
  6
CONTINUOUS
 62
     7
 10
29.817538734803581
 20
230.15290570031931
 30
0.0
 11
30.613432287306761
 21
232.2192290358031
 31
0.0
  0
LINE
  5
D9
  8
DATA
  6
CONTINUOUS
 62
     7
 10
-6.5272949396736371
 20
230.07936880766289
 30
0.0
 11
-7.3943048636867132
 21
232.3577490358031
 31
0.0
  0
LINE
  5
DA
  8
DATA
  6
CONTINUOUS
 62
     7
 10
-4.8609535892850166
 20
230.16537352252161
 30
0.0
 11
-5.6520448636867124
 21
232.2192290358031
 31
0.0
  0
CIRCLE
  5
DB
  8
DATA
  6
CONTINUOUS
 62
     7
 10
31.804751472330281
 20
216.96400497065741
 30
0.0
 40
6.7500000000001981
  0
CIRCLE
  5
DC
  8
DATA
  6
CONTINUOUS
 62
     7
 10
31.804751472330281
 20
216.96400497065741
 30
0.0
 40
0.5
  0
CIRCLE
  5
DD
  8
DATA
  6
CONTINUOUS
 62
     7
 10
31.804751472330281
 20
219.4640049706575
 30
0.0
 40
0.5
  0
CIRCLE
  5
DE
  8
DATA
  6
CONTINUOUS
 62
     7
 10
34.304751472330281
 20
216.46400497065741
 30
0.0
 40
0.5
  0
CIRCLE
  5
DF
  8
DATA
  6
CONTINUOUS
 62
     7
 10
29.304751472330281
 20
216.46400497065741
 30
0.0
 40
0.5
  0
LINE
  5
E0
  8
DATA
  6
CONTINUOUS
 62
     7
 10
32.804751472330281
 20
212.0650149706573
 30
0.0
 11
32.804751472330281
 21
212.83331497065731
 31
0.0
  0
LINE
  5
E1
  8
DATA
  6
CONTINUOUS
 62
     7
 10
30.804751472330281
 20
212.0650149706573
 30
0.0
 11
30.804751472330281
 21
212.83331497065731
 31
0.0
  0
ARC
  5
E2
  8
DATA
  6
CONTINUOUS
 62
     7
 10
31.804751472330281
 20
216.96400497065741
 30
0.0
 40
4.2500117501132939
 50
283.60892228185838
 51
256.65642634532628
  0
CIRCLE
  5
E3
  8
DATA
  6
CONTINUOUS
 62
     7
 10
31.804751472330281
 20
216.96400497065741
 30
0.0
 40
5.0000000000001421
  0
LINE
  5
E4
  8
DATA
  6
CONTINUOUS
 62
     7
 10
-5.6799990217041758
 20
-60.301019351987541
 30
0.0
 11
31.180019978295821
 21
-60.301019351987541
 31
0.0
  0
LINE
  5
E5
  8
DATA
  6
CONTINUOUS
 62
     7
 10
-5.0117880217041764
 20
-58.70101935198754
 30
0.0
 11
30.51179947829581
 21
-58.70101935198754
 31
0.0
  0
POLYLINE
  5
E6
  8
DATA
  6
CONTINUOUS
 62
     7
 66
     1
 10
0.0
 20
0.0
 30
0.0
 70
   128
  0
VERTEX
  5
6BE
  8
DATA
  6
CONTINUOUS
 62
     7
 10
-7.1155630217041761
 20
-58.175229351987532
 30
0.0
  0
VERTEX
  5
6BF
  8
DATA
  6
CONTINUOUS
 62
     7
 10
-7.1193108947682191
 20
-58.18670001176784
 30
0.0
  0
VERTEX
  5
6C0
  8
DATA
  6
CONTINUOUS
 62
     7
 10
-7.122974119304387
 20
-58.198179309414897
 30
0.0
  0
VERTEX
  5
6C1
  8
DATA
  6
CONTINUOUS
 62
     7
 10
-7.1265526953127107
 20
-58.20966724492871
 30
0.0
  0
VERTEX
  5
6C2
  8
DATA
  6
CONTINUOUS
 62
     7
 10
-7.1300466227931869
 20
-58.221163818309272
 30
0.0
  0
VERTEX
  5
6C3
  8
DATA
  6
CONTINUOUS
 62
     7
 10
-7.1334559017458039
 20
-58.232669029556519
 30
0.0
  0
VERTEX
  5
6C4
  8
DATA
  6
CONTINUOUS
 62
     7
 10
-7.1367805321705609
 20
-58.244182878670529
 30
0.0
  0
VERTEX
  5
6C5
  8
DATA
  6
CONTINUOUS
 62
     7
 10
-7.140020514067472
 20
-58.255705365651238
 30
0.0
  0
VERTEX
  5
6C6
  8
DATA
  6
CONTINUOUS
 62
     7
 10
-7.143175847436523
 20
-58.267236490498711
 30
0.0
  0
VERTEX
  5
6C7
  8
DATA
  6
CONTINUOUS
 62
     7
 10
-7.1462465322777291
 20
-58.278776253212868
 30
0.0
  0
VERTEX
  5
6C8
  8
DATA
  6
CONTINUOUS
 62
     7
 10
-7.1492325685910734
 20
-58.290324653793817
 30
0.0
  0
VERTEX
  5
6C9
  8
DATA
  6
CONTINUOUS
 62
     7
 10
-7.1521339563765602
 20
-58.301881692241487
 30
0.0
  0
VERTEX
  5
6CA
  8
DATA
  6
CONTINUOUS
 62
     7
 10
-7.1549506956341844
 20
-58.31344736855587
 30
0.0
  0
VERTEX
  5
6CB
  8
DATA
  6
CONTINUOUS
 62
     7
 10
-7.1576827863639627
 20
-58.325021682736981
 30
0.0
  0
VERTEX
  5
6CC
  8
DATA
  6
CONTINUOUS
 62
     7
 10
-7.1603302285658819
 20
-58.336604634784841
 30
0.0
  0
VERTEX
  5
6CD
  8
DATA
  6
CONTINUOUS
 62
     7
 10
-7.1628930222399561
 20
-58.348196224699421
 30
0.0
  0
VERTEX
  5
6CE
  8
DATA
  6
CONTINUOUS
 62
     7
 10
-7.1653711673861844
 20
-58.359796452480737
 30
0.0
  0
VERTEX
  5
6CF
  8
DATA
  6
CONTINUOUS
 62
     7
 10
-7.16776466400455
 20
-58.371405318128772
 30
0.0
  0
VERTEX
  5
6D0
  8
DATA
  6
CONTINUOUS
 62
     7
 10
-7.1700735120950574
 20
-58.383022821643578
 30
0.0
  0
VERTEX
  5
6D1
  8
DATA
  6
CONTINUOUS
 62
     7
 10
-7.1722977116577189
 20
-58.394648963025077
 30
0.0
  0
VERTEX
  5
6D2
  8
DATA
  6
CONTINUOUS
 62
     7
 10
-7.174437262692507
 20
-58.406283742273331
 30
0.0
  0
VERTEX
  5
6D3
  8
DATA
  6
CONTINUOUS
 62
     7
 10
-7.1764921651994484
 20
-58.417927159388277
 30
0.0
  0
VERTEX
  5
6D4
  8
DATA
  6
CONTINUOUS
 62
     7
 10
-7.1784624191785289
 20
-58.429579214370001
 30
0.0
  0
VERTEX
  5
6D5
  8
DATA
  6
CONTINUOUS
 62
     7
 10
-7.1803480246297644
 20
-58.441239907218403
 30
0.0
  0
VERTEX
  5
6D6
  8
DATA
  6
CONTINUOUS
 62
     7
 10
-7.1821489815531399
 20
-58.452909237933603
 30
0.0
  0
VERTEX
  5
6D7
  8
DATA
  6
CONTINUOUS
 62
     7
 10
-7.1838652899486704
 20
-58.464587206515517
 30
0.0
  0
VERTEX
  5
6D8
  8
DATA
  6
CONTINUOUS
 62
     7
 10
-7.185496949816339
 20
-58.476273812964152
 30
0.0
  0
VERTEX
  5
6D9
  8
DATA
  6
CONTINUOUS
 62
     7
 10
-7.1870439611561476
 20
-58.487969057279493
 30
0.0
  0
VERTEX
  5
6DA
  8
DATA
  6
CONTINUOUS
 62
     7
 10
-7.1885063239680971
 20
-58.499672939461597
 30
0.0
  0
VERTEX
  5
6DB
  8
DATA
  6
CONTINUOUS
 62
     7
 10
-7.1898840382522016
 20
-58.511385459510421
 30
0.0
  0
VERTEX
  5
6DC
  8
DATA
  6
CONTINUOUS
 62
     7
 10
-7.191177104008446
 20
-58.523106617425967
 30
0.0
  0
VERTEX
  5
6DD
  8
DATA
  6
CONTINUOUS
 62
     7
 10
-7.192385521236857
 20
-58.534836413208289
 30
0.0
  0
VERTEX
  5
6DE
  8
DATA
  6
CONTINUOUS
 62
     7
 10
-7.1935092899373947
 20
-58.546574846857339
 30
0.0
  0
VERTEX
  5
6DF
  8
DATA
  6
CONTINUOUS
 62
     7
 10
-7.1945484101100883
 20
-58.55832191837311
 30
0.0
  0
VERTEX
  5
6E0
  8
DATA
  6
CONTINUOUS
 62
     7
 10
-7.1955028817549191
 20
-58.570077627755623
 30
0.0
  0
VERTEX
  5
6E1
  8
DATA
  6
CONTINUOUS
 62
     7
 10
-7.1963727048718891
 20
-58.581841975004842
 30
0.0
  0
VERTEX
  5
6E2
  8
DATA
  6
CONTINUOUS
 62
     7
 10
-7.1971578794610158
 20
-58.593614960120803
 30
0.0
  0
VERTEX
  5
6E3
  8
DATA
  6
CONTINUOUS
 62
     7
 10
-7.1978584055222816
 20
-58.605396583103463
 30
0.0
  0
VERTEX
  5
6E4
  8
DATA
  6
CONTINUOUS
 62
     7
 10
-7.1984742830556883
 20
-58.617186843952886
 30
0.0
  0
VERTEX
  5
6E5
  8
DATA
  6
CONTINUOUS
 62
     7
 10
-7.1990055120612482
 20
-58.628985742669073
 30
0.0
  0
VERTEX
  5
6E6
  8
DATA
  6
CONTINUOUS
 62
     7
 10
-7.1994520925389471
 20
-58.64079327925193
 30
0.0
  0
VERTEX
  5
6E7
  8
DATA
  6
CONTINUOUS
 62
     7
 10
-7.199814024488802
 20
-58.65260945370153
 30
0.0
  0
VERTEX
  5
6E8
  8
DATA
  6
CONTINUOUS
 62
     7
 10
-7.2000913079107951
 20
-58.664434266017899
 30
0.0
  0
VERTEX
  5
6E9
  8
DATA
  6
CONTINUOUS
 62
     7
 10
-7.200283942804929
 20
-58.676267716200982
 30
0.0
  0
VERTEX
  5
6EA
  8
DATA
  6
CONTINUOUS
 62
     7
 10
-7.2003919291712029
 20
-58.688109804250821
 30
0.0
  0
VERTEX
  5
6EB
  8
DATA
  6
CONTINUOUS
 62
     7
 10
-7.2004152670096309
 20
-58.699960530167353
 30
0.0
  0
VERTEX
  5
6EC
  8
DATA
  6
CONTINUOUS
 62
     7
 10
-7.2003539563201988
 20
-58.711819893950633
 30
0.0
  0
VERTEX
  5
6ED
  8
DATA
  6
CONTINUOUS
 62
     7
 10
-7.2002079971029209
 20
-58.723687895600612
 30
0.0
  0
VERTEX
  5
6EE
  8
DATA
  6
CONTINUOUS
 62
     7
 10
-7.1999773893577981
 20
-58.735564535117362
 30
0.0
  0
VERTEX
  5
6EF
  8
DATA
  6
CONTINUOUS
 62
     7
 10
-7.1996621330848143
 20
-58.747449812500832
 30
0.0
  0
VERTEX
  5
6F0
  8
DATA
  6
CONTINUOUS
 62
     7
 10
-7.1992622282839687
 20
-58.759343727751038
 30
0.0
  0
VERTEX
  5
6F1
  8
DATA
  6
CONTINUOUS
 62
     7
 10
-7.1987776749552799
 20
-58.771246280867963
 30
0.0
  0
VERTEX
  5
6F2
  8
DATA
  6
CONTINUOUS
 62
     7
 10
-7.1982084730987159
 20
-58.783157471851652
 30
0.0
  0
VERTEX
  5
6F3
  8
DATA
  6
CONTINUOUS
 62
     7
 10
-7.197554622714307
 20
-58.795077300702047
 30
0.0
  0
VERTEX
  5
6F4
  8
DATA
  6
CONTINUOUS
 62
     7
 10
-7.1968161238020372
 20
-58.807005767419149
 30
0.0
  0
VERTEX
  5
6F5
  8
DATA
  6
CONTINUOUS
 62
     7
 10
-7.1959929763619206
 20
-58.818942872002992
 30
0.0
  0
VERTEX
  5
6F6
  8
DATA
  6
CONTINUOUS
 62
     7
 10
-7.1950851803939448
 20
-58.83088861445362
 30
0.0
  0
VERTEX
  5
6F7
  8
DATA
  6
CONTINUOUS
 62
     7
 10
-7.1940927358981241
 20
-58.842842994770919
 30
0.0
  0
VERTEX
  5
6F8
  8
DATA
  6
CONTINUOUS
 62
     7
 10
-7.1930156428744416
 20
-58.854806012955009
 30
0.0
  0
VERTEX
  5
6F9
  8
DATA
  6
CONTINUOUS
 62
     7
 10
-7.1918539013228999
 20
-58.866777669005792
 30
0.0
  0
VERTEX
  5
6FA
  8
DATA
  6
CONTINUOUS
 62
     7
 10
-7.1906075112435124
 20
-58.878757962923309
 30
0.0
  0
VERTEX
  5
6FB
  8
DATA
  6
CONTINUOUS
 62
     7
 10
-7.189276472636279
 20
-58.89074689470754
 30
0.0
  0
VERTEX
  5
6FC
  8
DATA
  6
CONTINUOUS
 62
     7
 10
-7.1878607855011722
 20
-58.902744464358527
 30
0.0
  0
VERTEX
  5
6FD
  8
DATA
  6
CONTINUOUS
 62
     7
 10
-7.1863604498382179
 20
-58.914750671876249
 30
0.0
  0
VERTEX
  5
6FE
  8
DATA
  6
CONTINUOUS
 62
     7
 10
-7.1847754656474052
 20
-58.926765517260719
 30
0.0
  0
VERTEX
  5
6FF
  8
DATA
  6
CONTINUOUS
 62
     7
 10
-7.1847754656474052
 20
-58.926765517260719
 30
0.0
  0
VERTEX
  5
700
  8
DATA
  6
CONTINUOUS
 62
     7
 10
-7.1831086642712441
 20
-58.938768088452598
 30
0.0
  0
VERTEX
  5
701
  8
DATA
  6
CONTINUOUS
 62
     7
 10
-7.1813628770522646
 20
-58.950737473392621
 30
0.0
  0
VERTEX
  5
702
  8
DATA
  6
CONTINUOUS
 62
     7
 10
-7.1795381039904518
 20
-58.962673672080783
 30
0.0
  0
VERTEX
  5
703
  8
DATA
  6
CONTINUOUS
 62
     7
 10
-7.1776343450858198
 20
-58.974576684517039
 30
0.0
  0
VERTEX
  5
704
  8
DATA
  6
CONTINUOUS
 62
     7
 10
-7.1756516003383553
 20
-58.986446510701491
 30
0.0
  0
VERTEX
  5
705
  8
DATA
  6
CONTINUOUS
 62
     7
 10
-7.1735898697480556
 20
-58.998283150634023
 30
0.0
  0
VERTEX
  5
706
  8
DATA
  6
CONTINUOUS
 62
     7
 10
-7.1714491533149376
 20
-59.010086604314679
 30
0.0
  0
VERTEX
  5
707
  8
DATA
  6
CONTINUOUS
 62
     7
 10
-7.1692294510389871
 20
-59.021856871743523
 30
0.0
  0
VERTEX
  5
708
  8
DATA
  6
CONTINUOUS
 62
     7
 10
-7.1669307629202006
 20
-59.033593952920477
 30
0.0
  0
VERTEX
  5
709
  8
DATA
  6
CONTINUOUS
 62
     7
 10
-7.1645530889585842
 20
-59.045297847845532
 30
0.0
  0
VERTEX
  5
70A
  8
DATA
  6
CONTINUOUS
 62
     7
 10
-7.162096429154146
 20
-59.056968556518747
 30
0.0
  0
VERTEX
  5
70B
  8
DATA
  6
CONTINUOUS
 62
     7
 10
-7.1595607835068886
 20
-59.068606078940093
 30
0.0
  0
VERTEX
  5
70C
  8
DATA
  6
CONTINUOUS
 62
     7
 10
-7.1569461520167996
 20
-59.080210415109569
 30
0.0
  0
VERTEX
  5
70D
  8
DATA
  6
CONTINUOUS
 62
     7
 10
-7.1542525346838772
 20
-59.09178156502719
 30
0.0
  0
VERTEX
  5
70E
  8
DATA
  6
CONTINUOUS
 62
     7
 10
-7.1514799315081197
 20
-59.103319528692943
 30
0.0
  0
VERTEX
  5
70F
  8
DATA
  6
CONTINUOUS
 62
     7
 10
-7.1486283424895438
 20
-59.114824306106783
 30
0.0
  0
VERTEX
  5
710
  8
DATA
  6
CONTINUOUS
 62
     7
 10
-7.1456977676281364
 20
-59.126295897268761
 30
0.0
  0
VERTEX
  5
711
  8
DATA
  6
CONTINUOUS
 62
     7
 10
-7.1426882069238919
 20
-59.137734302178899
 30
0.0
  0
VERTEX
  5
712
  8
DATA
  6
CONTINUOUS
 62
     7
 10
-7.139599660376831
 20
-59.149139520837167
 30
0.0
  0
VERTEX
  5
713
  8
DATA
  6
CONTINUOUS
 62
     7
 10
-7.1364321279869349
 20
-59.160511553243573
 30
0.0
  0
VERTEX
  5
714
  8
DATA
  6
CONTINUOUS
 62
     7
 10
-7.1331856097542072
 20
-59.171850399398089
 30
0.0
  0
VERTEX
  5
715
  8
DATA
  6
CONTINUOUS
 62
     7
 10
-7.1298601056786444
 20
-59.183156059300792
 30
0.0
  0
VERTEX
  5
716
  8
DATA
  6
CONTINUOUS
 62
     7
 10
-7.1264556157602641
 20
-59.194428532951612
 30
0.0
  0
VERTEX
  5
717
  8
DATA
  6
CONTINUOUS
 62
     7
 10
-7.1229721399990629
 20
-59.205667820350527
 30
0.0
  0
VERTEX
  5
718
  8
DATA
  6
CONTINUOUS
 62
     7
 10
-7.11940967839503
 20
-59.216873921497573
 30
0.0
  0
VERTEX
  5
719
  8
DATA
  6
CONTINUOUS
 62
     7
 10
-7.115768230948162
 20
-59.228046836392792
 30
0.0
  0
VERTEX
  5
71A
  8
DATA
  6
CONTINUOUS
 62
     7
 10
-7.1120477976584624
 20
-59.239186565036142
 30
0.0
  0
VERTEX
  5
71B
  8
DATA
  6
CONTINUOUS
 62
     7
 10
-7.1082483785259427
 20
-59.250293107427581
 30
0.0
  0
VERTEX
  5
71C
  8
DATA
  6
CONTINUOUS
 62
     7
 10
-7.1043699735505887
 20
-59.261366463567192
 30
0.0
  0
VERTEX
  5
71D
  8
DATA
  6
CONTINUOUS
 62
     7
 10
-7.1004125827324032
 20
-59.272406633454921
 30
0.0
  0
VERTEX
  5
71E
  8
DATA
  6
CONTINUOUS
 62
     7
 10
-7.0963762060713966
 20
-59.283413617090787
 30
0.0
  0
VERTEX
  5
71F
  8
DATA
  6
CONTINUOUS
 62
     7
 10
-7.0922608435675594
 20
-59.294387414474777
 30
0.0
  0
VERTEX
  5
720
  8
DATA
  6
CONTINUOUS
 62
     7
 10
-7.0880664952208861
 20
-59.305328025606912
 30
0.0
  0
VERTEX
  5
721
  8
DATA
  6
CONTINUOUS
 62
     7
 10
-7.0837931610313802
 20
-59.316235450487177
 30
0.0
  0
VERTEX
  5
722
  8
DATA
  6
CONTINUOUS
 62
     7
 10
-7.0794408409990552
 20
-59.327109689115559
 30
0.0
  0
VERTEX
  5
723
  8
DATA
  6
CONTINUOUS
 62
     7
 10
-7.0750095351239111
 20
-59.337950741492079
 30
0.0
  0
VERTEX
  5
724
  8
DATA
  6
CONTINUOUS
 62
     7
 10
-7.0704992434059326
 20
-59.34875860761673
 30
0.0
  0
VERTEX
  5
725
  8
DATA
  6
CONTINUOUS
 62
     7
 10
-7.0659099658451217
 20
-59.35953328748954
 30
0.0
  0
VERTEX
  5
726
  8
DATA
  6
CONTINUOUS
 62
     7
 10
-7.0612417024414782
 20
-59.370274781110481
 30
0.0
  0
VERTEX
  5
727
  8
DATA
  6
CONTINUOUS
 62
     7
 10
-7.0564944531950147
 20
-59.380983088479532
 30
0.0
  0
VERTEX
  5
728
  8
DATA
  6
CONTINUOUS
 62
     7
 10
-7.0516682181057169
 20
-59.391658209596699
 30
0.0
  0
VERTEX
  5
729
  8
DATA
  6
CONTINUOUS
 62
     7
 10
-7.0467629971736008
 20
-59.402300144462032
 30
0.0
  0
VERTEX
  5
72A
  8
DATA
  6
CONTINUOUS
 62
     7
 10
-7.0417787903986522
 20
-59.412908893075503
 30
0.0
  0
VERTEX
  5
72B
  8
DATA
  6
CONTINUOUS
 62
     7
 10
-7.0367155977808684
 20
-59.423484455437062
 30
0.0
  0
VERTEX
  5
72C
  8
DATA
  6
CONTINUOUS
 62
     7
 10
-7.031573419320253
 20
-59.434026831546802
 30
0.0
  0
VERTEX
  5
72D
  8
DATA
  6
CONTINUOUS
 62
     7
 10
-7.0263522550168167
 20
-59.444536021404637
 30
0.0
  0
VERTEX
  5
72E
  8
DATA
  6
CONTINUOUS
 62
     7
 10
-7.0210521048705479
 20
-59.455012025010603
 30
0.0
  0
VERTEX
  5
72F
  8
DATA
  6
CONTINUOUS
 62
     7
 10
-7.0156729688814599
 20
-59.465454842364721
 30
0.0
  0
VERTEX
  5
730
  8
DATA
  6
CONTINUOUS
 62
     7
 10
-7.0102148470495393
 20
-59.47586447346697
 30
0.0
  0
VERTEX
  5
731
  8
DATA
  6
CONTINUOUS
 62
     7
 10
-7.0046777393747837
 20
-59.486240918317321
 30
0.0
  0
VERTEX
  5
732
  8
DATA
  6
CONTINUOUS
 62
     7
 10
-6.9990616458571964
 20
-59.496584176915817
 30
0.0
  0
VERTEX
  5
733
  8
DATA
  6
CONTINUOUS
 62
     7
 10
-6.993366566496789
 20
-59.506894249262459
 30
0.0
  0
VERTEX
  5
734
  8
DATA
  6
CONTINUOUS
 62
     7
 10
-6.9875925012935483
 20
-59.517171135357273
 30
0.0
  0
VERTEX
  5
735
  8
DATA
  6
CONTINUOUS
 62
     7
 10
-6.9817394502474883
 20
-59.527414835200183
 30
0.0
  0
VERTEX
  5
736
  8
DATA
  6
CONTINUOUS
 62
     7
 10
-6.9758074133585941
 20
-59.537625348791209
 30
0.0
  0
VERTEX
  5
737
  8
DATA
  6
CONTINUOUS
 62
     7
 10
-6.9697963906268683
 20
-59.547802676130402
 30
0.0
  0
VERTEX
  5
738
  8
DATA
  6
CONTINUOUS
 62
     7
 10
-6.9637063820523082
 20
-59.557946817217719
 30
0.0
  0
VERTEX
  5
739
  8
DATA
  6
CONTINUOUS
 62
     7
 10
-6.957537387634928
 20
-59.568057772053137
 30
0.0
  0
VERTEX
  5
73A
  8
DATA
  6
CONTINUOUS
 62
     7
 10
-6.9512894073747162
 20
-59.578135540636708
 30
0.0
  0
VERTEX
  5
73B
  8
DATA
  6
CONTINUOUS
 62
     7
 10
-6.9449624412716844
 20
-59.588180122968417
 30
0.0
  0
VERTEX
  5
73C
  8
DATA
  6
CONTINUOUS
 62
     7
 10
-6.9385564893258191
 20
-59.598191519048271
 30
0.0
  0
VERTEX
  5
73D
  8
DATA
  6
CONTINUOUS
 62
     7
 10
-6.9320715515371196
 20
-59.608169728876248
 30
0.0
  0
VERTEX
  5
73E
  8
DATA
  6
CONTINUOUS
 62
     7
 10
-6.9255076279055876
 20
-59.618114752452357
 30
0.0
  0
VERTEX
  5
73F
  8
DATA
  6
CONTINUOUS
 62
     7
 10
-6.9188647184312364
 20
-59.628026589776603
 30
0.0
  0
VERTEX
  5
740
  8
DATA
  6
CONTINUOUS
 62
     7
 10
-6.9188647184312364
 20
-59.628026589776603
 30
0.0
  0
VERTEX
  5
741
  8
DATA
  6
CONTINUOUS
 62
     7
 10
-6.912154449778896
 20
-59.637888024183333
 30
0.0
  0
VERTEX
  5
742
  8
DATA
  6
CONTINUOUS
 62
     7
 10
-6.9053884486134081
 20
-59.64768183900685
 30
0.0
  0
VERTEX
  5
743
  8
DATA
  6
CONTINUOUS
 62
     7
 10
-6.8985667149347591
 20
-59.657408034247219
 30
0.0
  0
VERTEX
  5
744
  8
DATA
  6
CONTINUOUS
 62
     7
 10
-6.8916892487429644
 20
-59.667066609904452
 30
0.0
  0
VERTEX
  5
745
  8
DATA
  6
CONTINUOUS
 62
     7
 10
-6.8847560500380061
 20
-59.676657565978502
 30
0.0
  0
VERTEX
  5
746
  8
DATA
  6
CONTINUOUS
 62
     7
 10
-6.8777671188199028
 20
-59.686180902469388
 30
0.0
  0
VERTEX
  5
747
  8
DATA
  6
CONTINUOUS
 62
     7
 10
-6.8707224550886528
 20
-59.695636619377062
 30
0.0
  0
VERTEX
  5
748
  8
DATA
  6
CONTINUOUS
 62
     7
 10
-6.863622058844256
 20
-59.705024716701622
 30
0.0
  0
VERTEX
  5
749
  8
DATA
  6
CONTINUOUS
 62
     7
 10
-6.8564659300867126
 20
-59.71434519444297
 30
0.0
  0
VERTEX
  5
74A
  8
DATA
  6
CONTINUOUS
 62
     7
 10
-6.8492540688160091
 20
-59.723598052601183
 30
0.0
  0
VERTEX
  5
74B
  8
DATA
  6
CONTINUOUS
 62
     7
 10
-6.8419864750321571
 20
-59.73278329117619
 30
0.0
  0
VERTEX
  5
74C
  8
DATA
  6
CONTINUOUS
 62
     7
 10
-6.834663148735145
 20
-59.741900910168063
 30
0.0
  0
VERTEX
  5
74D
  8
DATA
  6
CONTINUOUS
 62
     7
 10
-6.8272840899249871
 20
-59.750950909576723
 30
0.0
  0
VERTEX
  5
74E
  8
DATA
  6
CONTINUOUS
 62
     7
 10
-6.8198492986016808
 20
-59.759933289402262
 30
0.0
  0
VERTEX
  5
74F
  8
DATA
  6
CONTINUOUS
 62
     7
 10
-6.8123587747652152
 20
-59.76884804964461
 30
0.0
  0
VERTEX
  5
750
  8
DATA
  6
CONTINUOUS
 62
     7
 10
-6.8048125184156012
 20
-59.777695190303788
 30
0.0
  0
VERTEX
  5
751
  8
DATA
  6
CONTINUOUS
 62
     7
 10
-6.7972105295528413
 20
-59.786474711379817
 30
0.0
  0
VERTEX
  5
752
  8
DATA
  6
CONTINUOUS
 62
     7
 10
-6.7895528081769347
 20
-59.795186612872648
 30
0.0
  0
VERTEX
  5
753
  8
DATA
  6
CONTINUOUS
 62
     7
 10
-6.7818393542878681
 20
-59.803830894782372
 30
0.0
  0
VERTEX
  5
754
  8
DATA
  6
CONTINUOUS
 62
     7
 10
-6.774070167885653
 20
-59.812407557108877
 30
0.0
  0
VERTEX
  5
755
  8
DATA
  6
CONTINUOUS
 62
     7
 10
-6.766245248970292
 20
-59.820916599852211
 30
0.0
  0
VERTEX
  5
756
  8
DATA
  6
CONTINUOUS
 62
     7
 10
-6.7583645975417701
 20
-59.829358023012389
 30
0.0
  0
VERTEX
  5
757
  8
DATA
  6
CONTINUOUS
 62
     7
 10
-6.7504282136001024
 20
-59.83773182658939
 30
0.0
  0
VERTEX
  5
758
  8
DATA
  6
CONTINUOUS
 62
     7
 10
-6.742436097145287
 20
-59.846038010583229
 30
0.0
  0
VERTEX
  5
759
  8
DATA
  6
CONTINUOUS
 62
     7
 10
-6.734388248177325
 20
-59.854276574993889
 30
0.0
  0
VERTEX
  5
75A
  8
DATA
  6
CONTINUOUS
 62
     7
 10
-6.7262846666962011
 20
-59.86244751982138
 30
0.0
  0
VERTEX
  5
75B
  8
DATA
  6
CONTINUOUS
 62
     7
 10
-6.7181253527019322
 20
-59.870550845065701
 30
0.0
  0
VERTEX
  5
75C
  8
DATA
  6
CONTINUOUS
 62
     7
 10
-6.7099103061945007
 20
-59.87858655072688
 30
0.0
  0
VERTEX
  5
75D
  8
DATA
  6
CONTINUOUS
 62
     7
 10
-6.7016395271739242
 20
-59.886554636804888
 30
0.0
  0
VERTEX
  5
75E
  8
DATA
  6
CONTINUOUS
 62
     7
 10
-6.6933130156402001
 20
-59.894455103299713
 30
0.0
  0
VERTEX
  5
75F
  8
DATA
  6
CONTINUOUS
 62
     7
 10
-6.6849307715933284
 20
-59.90228795021136
 30
0.0
  0
VERTEX
  5
760
  8
DATA
  6
CONTINUOUS
 62
     7
 10
-6.6764927950332966
 20
-59.910053177539851
 30
0.0
  0
VERTEX
  5
761
  8
DATA
  6
CONTINUOUS
 62
     7
 10
-6.667999085960119
 20
-59.917750785285158
 30
0.0
  0
VERTEX
  5
762
  8
DATA
  6
CONTINUOUS
 62
     7
 10
-6.6594496443737929
 20
-59.925380773447287
 30
0.0
  0
VERTEX
  5
763
  8
DATA
  6
CONTINUOUS
 62
     7
 10
-6.6508444702743068
 20
-59.932943142026261
 30
0.0
  0
VERTEX
  5
764
  8
DATA
  6
CONTINUOUS
 62
     7
 10
-6.642183563661674
 20
-59.9404378910221
 30
0.0
  0
VERTEX
  5
765
  8
DATA
  6
CONTINUOUS
 62
     7
 10
-6.633466924535881
 20
-59.947865020434719
 30
0.0
  0
VERTEX
  5
766
  8
DATA
  6
CONTINUOUS
 62
     7
 10
-6.6246945528969396
 20
-59.955224530264211
 30
0.0
  0
VERTEX
  5
767
  8
DATA
  6
CONTINUOUS
 62
     7
 10
-6.6158664487448524
 20
-59.962516420510532
 30
0.0
  0
VERTEX
  5
768
  8
DATA
  6
CONTINUOUS
 62
     7
 10
-6.6069826120796193
 20
-59.969740691173669
 30
0.0
  0
VERTEX
  5
769
  8
DATA
  6
CONTINUOUS
 62
     7
 10
-6.5980430429012387
 20
-59.976897342253672
 30
0.0
  0
VERTEX
  5
76A
  8
DATA
  6
CONTINUOUS
 62
     7
 10
-6.5890477412096971
 20
-59.98398637375044
 30
0.0
  0
VERTEX
  5
76B
  8
DATA
  6
CONTINUOUS
 62
     7
 10
-6.5799967070050078
 20
-59.991007785664081
 30
0.0
  0
VERTEX
  5
76C
  8
DATA
  6
CONTINUOUS
 62
     7
 10
-6.5708899402871603
 20
-59.997961577994552
 30
0.0
  0
VERTEX
  5
76D
  8
DATA
  6
CONTINUOUS
 62
     7
 10
-6.5617274410561643
 20
-60.00484775074181
 30
0.0
  0
VERTEX
  5
76E
  8
DATA
  6
CONTINUOUS
 62
     7
 10
-6.5525092093120199
 20
-60.011666303905933
 30
0.0
  0
VERTEX
  5
76F
  8
DATA
  6
CONTINUOUS
 62
     7
 10
-6.5432352450547313
 20
-60.018417237486922
 30
0.0
  0
VERTEX
  5
770
  8
DATA
  6
CONTINUOUS
 62
     7
 10
-6.5339055482842801
 20
-60.025100551484691
 30
0.0
  0
VERTEX
  5
771
  8
DATA
  6
CONTINUOUS
 62
     7
 10
-6.524520119000683
 20
-60.031716245899283
 30
0.0
  0
VERTEX
  5
772
  8
DATA
  6
CONTINUOUS
 62
     7
 10
-6.51507895720394
 20
-60.038264320730718
 30
0.0
  0
VERTEX
  5
773
  8
DATA
  6
CONTINUOUS
 62
     7
 10
-6.5055820628940486
 20
-60.044744775978998
 30
0.0
  0
VERTEX
  5
774
  8
DATA
  6
CONTINUOUS
 62
     7
 10
-6.4960294360709963
 20
-60.051157611644143
 30
0.0
  0
VERTEX
  5
775
  8
DATA
  6
CONTINUOUS
 62
     7
 10
-6.486421076734799
 20
-60.057502827726069
 30
0.0
  0
VERTEX
  5
776
  8
DATA
  6
CONTINUOUS
 62
     7
 10
-6.4767569848854398
 20
-60.063780424224859
 30
0.0
  0
VERTEX
  5
777
  8
DATA
  6
CONTINUOUS
 62
     7
 10
-6.467037160522934
 20
-60.069990401140473
 30
0.0
  0
VERTEX
  5
778
  8
DATA
  6
CONTINUOUS
 62
     7
 10
-6.4572616036472681
 20
-60.076132758472902
 30
0.0
  0
VERTEX
  5
779
  8
DATA
  6
CONTINUOUS
 62
     7
 10
-6.4474303142584679
 20
-60.082207496222182
 30
0.0
  0
VERTEX
  5
77A
  8
DATA
  6
CONTINUOUS
 62
     7
 10
-6.4375432923565219
 20
-60.088214614388278
 30
0.0
  0
VERTEX
  5
77B
  8
DATA
  6
CONTINUOUS
 62
     7
 10
-6.4276005379414149
 20
-60.094154112971182
 30
0.0
  0
VERTEX
  5
77C
  8
DATA
  6
CONTINUOUS
 62
     7
 10
-6.4176020510131471
 20
-60.100025991970931
 30
0.0
  0
VERTEX
  5
77D
  8
DATA
  6
CONTINUOUS
 62
     7
 10
-6.4075478315717316
 20
-60.105830251387523
 30
0.0
  0
VERTEX
  5
77E
  8
DATA
  6
CONTINUOUS
 62
     7
 10
-6.397437879617172
 20
-60.111566891220953
 30
0.0
  0
VERTEX
  5
77F
  8
DATA
  6
CONTINUOUS
 62
     7
 10
-6.3872721951494631
 20
-60.117235911471212
 30
0.0
  0
VERTEX
  5
780
  8
DATA
  6
CONTINUOUS
 62
     7
 10
-6.377050778168595
 20
-60.12283731213833
 30
0.0
  0
VERTEX
  5
781
  8
DATA
  6
CONTINUOUS
 62
     7
 10
-6.377050778168595
 20
-60.12283731213833
 30
0.0
  0
VERTEX
  5
782
  8
DATA
  6
CONTINUOUS
 62
     7
 10
-6.3667914613302647
 20
-60.128361406210139
 30
0.0
  0
VERTEX
  5
783
  8
DATA
  6
CONTINUOUS
 62
     7
 10
-6.3565120772901329
 20
-60.133798506674502
 30
0.0
  0
VERTEX
  5
784
  8
DATA
  6
CONTINUOUS
 62
     7
 10
-6.3462126260482004
 20
-60.139148613531432
 30
0.0
  0
VERTEX
  5
785
  8
DATA
  6
CONTINUOUS
 62
     7
 10
-6.3358931076044911
 20
-60.14441172678093
 30
0.0
  0
VERTEX
  5
786
  8
DATA
  6
CONTINUOUS
 62
     7
 10
-6.3255535219589936
 20
-60.149587846422989
 30
0.0
  0
VERTEX
  5
787
  8
DATA
  6
CONTINUOUS
 62
     7
 10
-6.3151938691117087
 20
-60.154676972457622
 30
0.0
  0
VERTEX
  5
788
  8
DATA
  6
CONTINUOUS
 62
     7
 10
-6.3048141490626364
 20
-60.159679104884823
 30
0.0
  0
VERTEX
  5
789
  8
DATA
  6
CONTINUOUS
 62
     7
 10
-6.2944143618117456
 20
-60.164594243704599
 30
0.0
  0
VERTEX
  5
78A
  8
DATA
  6
CONTINUOUS
 62
     7
 10
-6.2839945073590817
 20
-60.169422388916971
 30
0.0
  0
VERTEX
  5
78B
  8
DATA
  6
CONTINUOUS
 62
     7
 10
-6.2735545857046162
 20
-60.174163540521867
 30
0.0
  0
VERTEX
  5
78C
  8
DATA
  6
CONTINUOUS
 62
     7
 10
-6.2630945968483749
 20
-60.17881769851936
 30
0.0
  0
VERTEX
  5
78D
  8
DATA
  6
CONTINUOUS
 62
     7
 10
-6.252614540790332
 20
-60.183384862909399
 30
0.0
  0
VERTEX
  5
78E
  8
DATA
  6
CONTINUOUS
 62
     7
 10
-6.242114417530515
 20
-60.187865033692049
 30
0.0
  0
VERTEX
  5
78F
  8
DATA
  6
CONTINUOUS
 62
     7
 10
-6.2315942270688964
 20
-60.192258210867237
 30
0.0
  0
VERTEX
  5
790
  8
DATA
  6
CONTINUOUS
 62
     7
 10
-6.2210539694054878
 20
-60.196564394435043
 30
0.0
  0
VERTEX
  5
791
  8
DATA
  6
CONTINUOUS
 62
     7
 10
-6.2104936445402794
 20
-60.200783584395367
 30
0.0
  0
VERTEX
  5
792
  8
DATA
  6
CONTINUOUS
 62
     7
 10
-6.1999132524732801
 20
-60.20491578074828
 30
0.0
  0
VERTEX
  5
793
  8
DATA
  6
CONTINUOUS
 62
     7
 10
-6.1893127932045067
 20
-60.208960983493782
 30
0.0
  0
VERTEX
  5
794
  8
DATA
  6
CONTINUOUS
 62
     7
 10
-6.1786922667339317
 20
-60.21291919263183
 30
0.0
  0
VERTEX
  5
795
  8
DATA
  6
CONTINUOUS
 62
     7
 10
-6.1680516730615551
 20
-60.216790408162403
 30
0.0
  0
VERTEX
  5
796
  8
DATA
  6
CONTINUOUS
 62
     7
 10
-6.1573910121874027
 20
-60.220574630085622
 30
0.0
  0
VERTEX
  5
797
  8
DATA
  6
CONTINUOUS
 62
     7
 10
-6.1467102841114487
 20
-60.224271858401387
 30
0.0
  0
VERTEX
  5
798
  8
DATA
  6
CONTINUOUS
 62
     7
 10
-6.1360094888337207
 20
-60.227882093109713
 30
0.0
  0
VERTEX
  5
799
  8
DATA
  6
CONTINUOUS
 62
     7
 10
-6.1252886263541759
 20
-60.231405334210613
 30
0.0
  0
VERTEX
  5
79A
  8
DATA
  6
CONTINUOUS
 62
     7
 10
-6.1145476966728429
 20
-60.234841581704103
 30
0.0
  0
VERTEX
  5
79B
  8
DATA
  6
CONTINUOUS
 62
     7
 10
-6.1037866997897359
 20
-60.238190835590153
 30
0.0
  0
VERTEX
  5
79C
  8
DATA
  6
CONTINUOUS
 62
     7
 10
-6.0930056357048414
 20
-60.241453095868771
 30
0.0
  0
VERTEX
  5
79D
  8
DATA
  6
CONTINUOUS
 62
     7
 10
-6.0822045044181428
 20
-60.244628362539942
 30
0.0
  0
VERTEX
  5
79E
  8
DATA
  6
CONTINUOUS
 62
     7
 10
-6.0713833059296567
 20
-60.247716635603702
 30
0.0
  0
VERTEX
  5
79F
  8
DATA
  6
CONTINUOUS
 62
     7
 10
-6.0605420402393833
 20
-60.250717915060022
 30
0.0
  0
VERTEX
  5
7A0
  8
DATA
  6
CONTINUOUS
 62
     7
 10
-6.0496807073473056
 20
-60.253632200908918
 30
0.0
  0
VERTEX
  5
7A1
  8
DATA
  6
CONTINUOUS
 62
     7
 10
-6.0387993072534414
 20
-60.256459493150373
 30
0.0
  0
VERTEX
  5
7A2
  8
DATA
  6
CONTINUOUS
 62
     7
 10
-6.0278978399577881
 20
-60.259199791784397
 30
0.0
  0
VERTEX
  5
7A3
  8
DATA
  6
CONTINUOUS
 62
     7
 10
-6.0169763054603456
 20
-60.261853096811031
 30
0.0
  0
VERTEX
  5
7A4
  8
DATA
  6
CONTINUOUS
 62
     7
 10
-6.0060347037611157
 20
-60.264419408230189
 30
0.0
  0
VERTEX
  5
7A5
  8
DATA
  6
CONTINUOUS
 62
     7
 10
-5.9950730348600842
 20
-60.266898726041937
 30
0.0
  0
VERTEX
  5
7A6
  8
DATA
  6
CONTINUOUS
 62
     7
 10
-5.9840912987572628
 20
-60.269291050246288
 30
0.0
  0
VERTEX
  5
7A7
  8
DATA
  6
CONTINUOUS
 62
     7
 10
-5.9730894954526681
 20
-60.271596380843171
 30
0.0
  0
VERTEX
  5
7A8
  8
DATA
  6
CONTINUOUS
 62
     7
 10
-5.962067624946271
 20
-60.273814717832643
 30
0.0
  0
VERTEX
  5
7A9
  8
DATA
  6
CONTINUOUS
 62
     7
 10
-5.9510256872380722
 20
-60.275946061214619
 30
0.0
  0
VERTEX
  5
7AA
  8
DATA
  6
CONTINUOUS
 62
     7
 10
-5.9399636823280977
 20
-60.277990410989219
 30
0.0
  0
VERTEX
  5
7AB
  8
DATA
  6
CONTINUOUS
 62
     7
 10
-5.9288816102163207
 20
-60.279947767156393
 30
0.0
  0
VERTEX
  5
7AC
  8
DATA
  6
CONTINUOUS
 62
     7
 10
-5.9177794709027429
 20
-60.2818181297161
 30
0.0
  0
VERTEX
  5
7AD
  8
DATA
  6
CONTINUOUS
 62
     7
 10
-5.9066572643873911
 20
-60.283601498668418
 30
0.0
  0
VERTEX
  5
7AE
  8
DATA
  6
CONTINUOUS
 62
     7
 10
-5.8955149906702493
 20
-60.28529787401331
 30
0.0
  0
VERTEX
  5
7AF
  8
DATA
  6
CONTINUOUS
 62
     7
 10
-5.8843526497513201
 20
-60.286907255750783
 30
0.0
  0
VERTEX
  5
7B0
  8
DATA
  6
CONTINUOUS
 62
     7
 10
-5.8731702416306044
 20
-60.288429643880832
 30
0.0
  0
VERTEX
  5
7B1
  8
DATA
  6
CONTINUOUS
 62
     7
 10
-5.8619677663080676
 20
-60.289865038403377
 30
0.0
  0
VERTEX
  5
7B2
  8
DATA
  6
CONTINUOUS
 62
     7
 10
-5.8507452237837612
 20
-60.29121343931854
 30
0.0
  0
VERTEX
  5
7B3
  8
DATA
  6
CONTINUOUS
 62
     7
 10
-5.8395026140576496
 20
-60.292474846626263
 30
0.0
  0
VERTEX
  5
7B4
  8
DATA
  6
CONTINUOUS
 62
     7
 10
-5.8282399371297648
 20
-60.293649260326561
 30
0.0
  0
VERTEX
  5
7B5
  8
DATA
  6
CONTINUOUS
 62
     7
 10
-5.8169571930000794
 20
-60.294736680419447
 30
0.0
  0
VERTEX
  5
7B6
  8
DATA
  6
CONTINUOUS
 62
     7
 10
-5.8056543816686164
 20
-60.29573710690488
 30
0.0
  0
VERTEX
  5
7B7
  8
DATA
  6
CONTINUOUS
 62
     7
 10
-5.7943315031353526
 20
-60.296650539782888
 30
0.0
  0
VERTEX
  5
7B8
  8
DATA
  6
CONTINUOUS
 62
     7
 10
-5.7829885574003006
 20
-60.297476979053492
 30
0.0
  0
VERTEX
  5
7B9
  8
DATA
  6
CONTINUOUS
 62
     7
 10
-5.7716255444634461
 20
-60.298216424716657
 30
0.0
  0
VERTEX
  5
7BA
  8
DATA
  6
CONTINUOUS
 62
     7
 10
-5.7602424643248042
 20
-60.29886887677236
 30
0.0
  0
VERTEX
  5
7BB
  8
DATA
  6
CONTINUOUS
 62
     7
 10
-5.7488393169843874
 20
-60.299434335220653
 30
0.0
  0
VERTEX
  5
7BC
  8
DATA
  6
CONTINUOUS
 62
     7
 10
-5.7374161024421682
 20
-60.299912800061541
 30
0.0
  0
VERTEX
  5
7BD
  8
DATA
  6
CONTINUOUS
 62
     7
 10
-5.7259728206981446
 20
-60.300304271294969
 30
0.0
  0
VERTEX
  5
7BE
  8
DATA
  6
CONTINUOUS
 62
     7
 10
-5.7145094717523506
 20
-60.300608748920972
 30
0.0
  0
VERTEX
  5
7BF
  8
DATA
  6
CONTINUOUS
 62
     7
 10
-5.7030260556047523
 20
-60.300826232939528
 30
0.0
  0
VERTEX
  5
7C0
  8
DATA
  6
CONTINUOUS
 62
     7
 10
-5.6915225722553524
 20
-60.30095672335068
 30
0.0
  0
VERTEX
  5
7C1
  8
DATA
  6
CONTINUOUS
 62
     7
 10
-5.6799990217041758
 20
-60.301000220154407
 30
0.0
  0
VERTEX
  5
7C2
  8
DATA
  6
CONTINUOUS
 62
     7
 10
-5.6799990217041758
 20
-60.301000220154407
 30
0.0
  0
SEQEND
  5
7C3
  8
DATA
  6
CONTINUOUS
 62
     7
  0
POLYLINE
  5
1ED
  8
DATA
  6
CONTINUOUS
 62
     7
 66
     1
 10
0.0
 20
0.0
 30
0.0
 70
   128
  0
VERTEX
  5
7C4
  8
DATA
  6
CONTINUOUS
 62
     7
 10
-5.4604160217041757
 20
-58.036709351987533
 30
0.0
  0
VERTEX
  5
7C5
  8
DATA
  6
CONTINUOUS
 62
     7
 10
-5.4615872306704736
 20
-58.040294029957238
 30
0.0
  0
VERTEX
  5
7C6
  8
DATA
  6
CONTINUOUS
 62
     7
 10
-5.462731986435287
 20
-58.043881407101601
 30
0.0
  0
VERTEX
  5
7C7
  8
DATA
  6
CONTINUOUS
 62
     7
 10
-5.4638502889986142
 20
-58.047471483420679
 30
0.0
  0
VERTEX
  5
7C8
  8
DATA
  6
CONTINUOUS
 62
     7
 10
-5.4649421383604562
 20
-58.051064258914401
 30
0.0
  0
VERTEX
  5
7C9
  8
DATA
  6
CONTINUOUS
 62
     7
 10
-5.4660075345208119
 20
-58.054659733582838
 30
0.0
  0
VERTEX
  5
7CA
  8
DATA
  6
CONTINUOUS
 62
     7
 10
-5.4670464774796841
 20
-58.05825790742594
 30
0.0
  0
VERTEX
  5
7CB
  8
DATA
  6
CONTINUOUS
 62
     7
 10
-5.4680589672370701
 20
-58.0618587804437
 30
0.0
  0
VERTEX
  5
7CC
  8
DATA
  6
CONTINUOUS
 62
     7
 10
-5.4690450037929699
 20
-58.065462352636153
 30
0.0
  0
VERTEX
  5
7CD
  8
DATA
  6
CONTINUOUS
 62
     7
 10
-5.4700045871473852
 20
-58.069068624003279
 30
0.0
  0
VERTEX
  5
7CE
  8
DATA
  6
CONTINUOUS
 62
     7
 10
-5.4709377173003011
 20
-58.072677594545098
 30
0.0
  0
VERTEX
  5
7CF
  8
DATA
  6
CONTINUOUS
 62
     7
 10
-5.4718443942517316
 20
-58.076289264261611
 30
0.0
  0
VERTEX
  5
7D0
  8
DATA
  6
CONTINUOUS
 62
     7
 10
-5.4727246180016911
 20
-58.07990363315281
 30
0.0
  0
VERTEX
  5
7D1
  8
DATA
  6
CONTINUOUS
 62
     7
 10
-5.473578388550151
 20
-58.083520701218667
 30
0.0
  0
VERTEX
  5
7D2
  8
DATA
  6
CONTINUOUS
 62
     7
 10
-5.4744057058971274
 20
-58.087140468459211
 30
0.0
  0
VERTEX
  5
7D3
  8
DATA
  6
CONTINUOUS
 62
     7
 10
-5.4752065700426007
 20
-58.090762934874419
 30
0.0
  0
VERTEX
  5
7D4
  8
DATA
  6
CONTINUOUS
 62
     7
 10
-5.4759809809866047
 20
-58.094388100464322
 30
0.0
  0
VERTEX
  5
7D5
  8
DATA
  6
CONTINUOUS
 62
     7
 10
-5.4767289387291243
 20
-58.09801596522891
 30
0.0
  0
VERTEX
  5
7D6
  8
DATA
  6
CONTINUOUS
 62
     7
 10
-5.4774504432701443
 20
-58.101646529168143
 30
0.0
  0
VERTEX
  5
7D7
  8
DATA
  6
CONTINUOUS
 62
     7
 10
-5.4781454946096924
 20
-58.105279792282097
 30
0.0
  0
VERTEX
  5
7D8
  8
DATA
  6
CONTINUOUS
 62
     7
 10
-5.4788140927477533
 20
-58.108915754570717
 30
0.0
  0
VERTEX
  5
7D9
  8
DATA
  6
CONTINUOUS
 62
     7
 10
-5.4794562376843157
 20
-58.112554416034023
 30
0.0
  0
VERTEX
  5
7DA
  8
DATA
  6
CONTINUOUS
 62
     7
 10
-5.4800719294194087
 20
-58.116195776671987
 30
0.0
  0
VERTEX
  5
7DB
  8
DATA
  6
CONTINUOUS
 62
     7
 10
-5.4806611679530164
 20
-58.119839836484651
 30
0.0
  0
VERTEX
  5
7DC
  8
DATA
  6
CONTINUOUS
 62
     7
 10
-5.4812239532851228
 20
-58.123486595472031
 30
0.0
  0
VERTEX
  5
7DD
  8
DATA
  6
CONTINUOUS
 62
     7
 10
-5.4817602854157448
 20
-58.127136053634082
 30
0.0
  0
VERTEX
  5
7DE
  8
DATA
  6
CONTINUOUS
 62
     7
 10
-5.4822701643448806
 20
-58.130788210970749
 30
0.0
  0
VERTEX
  5
7DF
  8
DATA
  6
CONTINUOUS
 62
     7
 10
-5.4827535900725328
 20
-58.134443067482138
 30
0.0
  0
VERTEX
  5
7E0
  8
DATA
  6
CONTINUOUS
 62
     7
 10
-5.4832105625986989
 20
-58.138100623168221
 30
0.0
  0
VERTEX
  5
7E1
  8
DATA
  6
CONTINUOUS
 62
     7
 10
-5.4836410819233796
 20
-58.141760878028947
 30
0.0
  0
VERTEX
  5
7E2
  8
DATA
  6
CONTINUOUS
 62
     7
 10
-5.4840451480465751
 20
-58.145423832064353
 30
0.0
  0
VERTEX
  5
7E3
  8
DATA
  6
CONTINUOUS
 62
     7
 10
-5.4844227609682861
 20
-58.149089485274487
 30
0.0
  0
VERTEX
  5
7E4
  8
DATA
  6
CONTINUOUS
 62
     7
 10
-5.48477392068851
 20
-58.152757837659273
 30
0.0
  0
VERTEX
  5
7E5
  8
DATA
  6
CONTINUOUS
 62
     7
 10
-5.4850986272072486
 20
-58.156428889218716
 30
0.0
  0
VERTEX
  5
7E6
  8
DATA
  6
CONTINUOUS
 62
     7
 10
-5.4853968805245037
 20
-58.160102639952868
 30
0.0
  0
VERTEX
  5
7E7
  8
DATA
  6
CONTINUOUS
 62
     7
 10
-5.4856686806402726
 20
-58.163779089861691
 30
0.0
  0
VERTEX
  5
7E8
  8
DATA
  6
CONTINUOUS
 62
     7
 10
-5.4859140275545419
 20
-58.16745823894518
 30
0.0
  0
VERTEX
  5
7E9
  8
DATA
  6
CONTINUOUS
 62
     7
 10
-5.486132921267326
 20
-58.171140087203383
 30
0.0
  0
VERTEX
  5
7EA
  8
DATA
  6
CONTINUOUS
 62
     7
 10
-5.4863253617786389
 20
-58.174824634636252
 30
0.0
  0
VERTEX
  5
7EB
  8
DATA
  6
CONTINUOUS
 62
     7
 10
-5.4864913490884524
 20
-58.178511881243793
 30
0.0
  0
VERTEX
  5
7EC
  8
DATA
  6
CONTINUOUS
 62
     7
 10
-5.4866308831967796
 20
-58.182201827025999
 30
0.0
  0
VERTEX
  5
7ED
  8
DATA
  6
CONTINUOUS
 62
     7
 10
-5.4867439641036242
 20
-58.185894471982913
 30
0.0
  0
VERTEX
  5
7EE
  8
DATA
  6
CONTINUOUS
 62
     7
 10
-5.4868305918089808
 20
-58.189589816114498
 30
0.0
  0
VERTEX
  5
7EF
  8
DATA
  6
CONTINUOUS
 62
     7
 10
-5.486890766312853
 20
-58.193287859420778
 30
0.0
  0
VERTEX
  5
7F0
  8
DATA
  6
CONTINUOUS
 62
     7
 10
-5.4869244876152399
 20
-58.196988601901722
 30
0.0
  0
VERTEX
  5
7F1
  8
DATA
  6
CONTINUOUS
 62
     7
 10
-5.4869317557161281
 20
-58.200692043557353
 30
0.0
  0
VERTEX
  5
7F2
  8
DATA
  6
CONTINUOUS
 62
     7
 10
-5.4869125706155444
 20
-58.204398184387607
 30
0.0
  0
VERTEX
  5
7F3
  8
DATA
  6
CONTINUOUS
 62
     7
 10
-5.4868669323134753
 20
-58.208107024392632
 30
0.0
  0
VERTEX
  5
7F4
  8
DATA
  6
CONTINUOUS
 62
     7
 10
-5.4867948408099059
 20
-58.211818563572308
 30
0.0
  0
VERTEX
  5
7F5
  8
DATA
  6
CONTINUOUS
 62
     7
 10
-5.486696296104852
 20
-58.21553280192667
 30
0.0
  0
VERTEX
  5
7F6
  8
DATA
  6
CONTINUOUS
 62
     7
 10
-5.486571298198327
 20
-58.219249739455663
 30
0.0
  0
VERTEX
  5
7F7
  8
DATA
  6
CONTINUOUS
 62
     7
 10
-5.4864198470903167
 20
-58.222969376159341
 30
0.0
  0
VERTEX
  5
7F8
  8
DATA
  6
CONTINUOUS
 62
     7
 10
-5.4862419427808069
 20
-58.226691712037727
 30
0.0
  0
VERTEX
  5
7F9
  8
DATA
  6
CONTINUOUS
 62
     7
 10
-5.4860375852698118
 20
-58.2304167470908
 30
0.0
  0
VERTEX
  5
7FA
  8
DATA
  6
CONTINUOUS
 62
     7
 10
-5.4858067745573322
 20
-58.23414448131853
 30
0.0
  0
VERTEX
  5
7FB
  8
DATA
  6
CONTINUOUS
 62
     7
 10
-5.4855495106433674
 20
-58.237874914720969
 30
0.0
  0
VERTEX
  5
7FC
  8
DATA
  6
CONTINUOUS
 62
     7
 10
-5.4852657935279154
 20
-58.241608047298101
 30
0.0
  0
VERTEX
  5
7FD
  8
DATA
  6
CONTINUOUS
 62
     7
 10
-5.4849556232109791
 20
-58.245343879049862
 30
0.0
  0
VERTEX
  5
7FE
  8
DATA
  6
CONTINUOUS
 62
     7
 10
-5.4846189996925556
 20
-58.249082409976317
 30
0.0
  0
VERTEX
  5
7FF
  8
DATA
  6
CONTINUOUS
 62
     7
 10
-5.4842559229726486
 20
-58.25282364007748
 30
0.0
  0
VERTEX
  5
800
  8
DATA
  6
CONTINUOUS
 62
     7
 10
-5.483866393051243
 20
-58.256567569353287
 30
0.0
  0
VERTEX
  5
801
  8
DATA
  6
CONTINUOUS
 62
     7
 10
-5.4834504099283521
 20
-58.260314197803808
 30
0.0
  0
VERTEX
  5
802
  8
DATA
  6
CONTINUOUS
 62
     7
 10
-5.4830079736039892
 20
-58.264063525428973
 30
0.0
  0
VERTEX
  5
803
  8
DATA
  6
CONTINUOUS
 62
     7
 10
-5.4825390840781401
 20
-58.267815552228853
 30
0.0
  0
VERTEX
  5
804
  8
DATA
  6
CONTINUOUS
 62
     7
 10
-5.4820437413507932
 20
-58.271570278203399
 30
0.0
  0
VERTEX
  5
805
  8
DATA
  6
CONTINUOUS
 62
     7
 10
-5.4820437413507932
 20
-58.271570278203399
 30
0.0
  0
VERTEX
  5
806
  8
DATA
  6
CONTINUOUS
 62
     7
 10
-5.4815228302702357
 20
-58.275321168241618
 30
0.0
  0
VERTEX
  5
807
  8
DATA
  6
CONTINUOUS
 62
     7
 10
-5.4809772356847901
 20
-58.279061687232449
 30
0.0
  0
VERTEX
  5
808
  8
DATA
  6
CONTINUOUS
 62
     7
 10
-5.4804069575943961
 20
-58.282791835175999
 30
0.0
  0
VERTEX
  5
809
  8
DATA
  6
CONTINUOUS
 62
     7
 10
-5.479811995999099
 20
-58.286511612072182
 30
0.0
  0
VERTEX
  5
80A
  8
DATA
  6
CONTINUOUS
 62
     7
 10
-5.4791923508988836
 20
-58.29022101792107
 30
0.0
  0
VERTEX
  5
80B
  8
DATA
  6
CONTINUOUS
 62
     7
 10
-5.4785480222937499
 20
-58.293920052722541
 30
0.0
  0
VERTEX
  5
80C
  8
DATA
  6
CONTINUOUS
 62
     7
 10
-5.477879010183698
 20
-58.297608716476667
 30
0.0
  0
VERTEX
  5
80D
  8
DATA
  6
CONTINUOUS
 62
     7
 10
-5.4771853145687279
 20
-58.301287009183469
 30
0.0
  0
VERTEX
  5
80E
  8
DATA
  6
CONTINUOUS
 62
     7
 10
-5.4764669354488387
 20
-58.304954930842932
 30
0.0
  0
VERTEX
  5
80F
  8
DATA
  6
CONTINUOUS
 62
     7
 10
-5.4757238728240329
 20
-58.308612481455043
 30
0.0
  0
VERTEX
  5
810
  8
DATA
  6
CONTINUOUS
 62
     7
 10
-5.4749561266943081
 20
-58.312259661019823
 30
0.0
  0
VERTEX
  5
811
  8
DATA
  6
CONTINUOUS
 62
     7
 10
-5.474163697059665
 20
-58.315896469537279
 30
0.0
  0
VERTEX
  5
812
  8
DATA
  6
CONTINUOUS
 62
     7
 10
-5.4733465839201036
 20
-58.319522907007382
 30
0.0
  0
VERTEX
  5
813
  8
DATA
  6
CONTINUOUS
 62
     7
 10
-5.4725047872756241
 20
-58.32313897343009
 30
0.0
  0
VERTEX
  5
814
  8
DATA
  6
CONTINUOUS
 62
     7
 10
-5.4716383071262271
 20
-58.326744668805532
 30
0.0
  0
VERTEX
  5
815
  8
DATA
  6
CONTINUOUS
 62
     7
 10
-5.470747143471911
 20
-58.33033999313357
 30
0.0
  0
VERTEX
  5
816
  8
DATA
  6
CONTINUOUS
 62
     7
 10
-5.4698312963126758
 20
-58.333924946414292
 30
0.0
  0
VERTEX
  5
817
  8
DATA
  6
CONTINUOUS
 62
     7
 10
-5.4688907656485242
 20
-58.337499528647641
 30
0.0
  0
VERTEX
  5
818
  8
DATA
  6
CONTINUOUS
 62
     7
 10
-5.4679255514794516
 20
-58.341063739833679
 30
0.0
  0
VERTEX
  5
819
  8
DATA
  6
CONTINUOUS
 62
     7
 10
-5.4669356538054643
 20
-58.344617579972351
 30
0.0
  0
VERTEX
  5
81A
  8
DATA
  6
CONTINUOUS
 62
     7
 10
-5.4659210726265561
 20
-58.348161049063719
 30
0.0
  0
VERTEX
  5
81B
  8
DATA
  6
CONTINUOUS
 62
     7
 10
-5.4648818079427448
 20
-58.351694147107708
 30
0.0
  0
VERTEX
  5
81C
  8
DATA
  6
CONTINUOUS
 62
     7
 10
-5.463817859754001
 20
-58.355216874104357
 30
0.0
  0
VERTEX
  5
81D
  8
DATA
  6
CONTINUOUS
 62
     7
 10
-5.462729228060339
 20
-58.358729230053648
 30
0.0
  0
VERTEX
  5
81E
  8
DATA
  6
CONTINUOUS
 62
     7
 10
-5.4616159128617454
 20
-58.362231214955607
 30
0.0
  0
VERTEX
  5
81F
  8
DATA
  6
CONTINUOUS
 62
     7
 10
-5.4604779141582611
 20
-58.36572282881022
 30
0.0
  0
VERTEX
  5
820
  8
DATA
  6
CONTINUOUS
 62
     7
 10
-5.4593152319498444
 20
-58.369204071617489
 30
0.0
  0
VERTEX
  5
821
  8
DATA
  6
CONTINUOUS
 62
     7
 10
-5.4581278662365227
 20
-58.372674943377419
 30
0.0
  0
VERTEX
  5
822
  8
DATA
  6
CONTINUOUS
 62
     7
 10
-5.4569158170182703
 20
-58.376135444090039
 30
0.0
  0
VERTEX
  5
823
  8
DATA
  6
CONTINUOUS
 62
     7
 10
-5.4556790842951131
 20
-58.37958557375525
 30
0.0
  0
VERTEX
  5
824
  8
DATA
  6
CONTINUOUS
 62
     7
 10
-5.4544176680670233
 20
-58.383025332373201
 30
0.0
  0
VERTEX
  5
825
  8
DATA
  6
CONTINUOUS
 62
     7
 10
-5.4531315683340162
 20
-58.386454719943742
 30
0.0
  0
VERTEX
  5
826
  8
DATA
  6
CONTINUOUS
 62
     7
 10
-5.451820785096074
 20
-58.389873736466939
 30
0.0
  0
VERTEX
  5
827
  8
DATA
  6
CONTINUOUS
 62
     7
 10
-5.4504853183532438
 20
-58.393282381942818
 30
0.0
  0
VERTEX
  5
828
  8
DATA
  6
CONTINUOUS
 62
     7
 10
-5.4491251681054811
 20
-58.396680656371352
 30
0.0
  0
VERTEX
  5
829
  8
DATA
  6
CONTINUOUS
 62
     7
 10
-5.4477403343528152
 20
-58.40006855975254
 30
0.0
  0
VERTEX
  5
82A
  8
DATA
  6
CONTINUOUS
 62
     7
 10
-5.4463308170952152
 20
-58.403446092086362
 30
0.0
  0
VERTEX
  5
82B
  8
DATA
  6
CONTINUOUS
 62
     7
 10
-5.4448966163327119
 20
-58.40681325337286
 30
0.0
  0
VERTEX
  5
82C
  8
DATA
  6
CONTINUOUS
 62
     7
 10
-5.4434377320652771
 20
-58.410170043612013
 30
0.0
  0
VERTEX
  5
82D
  8
DATA
  6
CONTINUOUS
 62
     7
 10
-5.4419541642929374
 20
-58.413516462803841
 30
0.0
  0
VERTEX
  5
82E
  8
DATA
  6
CONTINUOUS
 62
     7
 10
-5.4404459130156644
 20
-58.416852510948317
 30
0.0
  0
VERTEX
  5
82F
  8
DATA
  6
CONTINUOUS
 62
     7
 10
-5.4389129782334891
 20
-58.420178188045433
 30
0.0
  0
VERTEX
  5
830
  8
DATA
  6
CONTINUOUS
 62
     7
 10
-5.4373553599463804
 20
-58.423493494095219
 30
0.0
  0
VERTEX
  5
831
  8
DATA
  6
CONTINUOUS
 62
     7
 10
-5.4357730581543668
 20
-58.42679842909763
 30
0.0
  0
VERTEX
  5
832
  8
DATA
  6
CONTINUOUS
 62
     7
 10
-5.4341660728574226
 20
-58.43009299305271
 30
0.0
  0
VERTEX
  5
833
  8
DATA
  6
CONTINUOUS
 62
     7
 10
-5.4325344040555716
 20
-58.43337718596046
 30
0.0
  0
VERTEX
  5
834
  8
DATA
  6
CONTINUOUS
 62
     7
 10
-5.4308780517487909
 20
-58.436651007820892
 30
0.0
  0
VERTEX
  5
835
  8
DATA
  6
CONTINUOUS
 62
     7
 10
-5.4291970159371052
 20
-58.43991445863395
 30
0.0
  0
VERTEX
  5
836
  8
DATA
  6
CONTINUOUS
 62
     7
 10
-5.427491296620488
 20
-58.443167538399678
 30
0.0
  0
VERTEX
  5
837
  8
DATA
  6
CONTINUOUS
 62
     7
 10
-5.425760893798965
 20
-58.446410247118017
 30
0.0
  0
VERTEX
  5
838
  8
DATA
  6
CONTINUOUS
 62
     7
 10
-5.4240058074725113
 20
-58.449642584789039
 30
0.0
  0
VERTEX
  5
839
  8
DATA
  6
CONTINUOUS
 62
     7
 10
-5.4222260376411517
 20
-58.452864551412738
 30
0.0
  0
VERTEX
  5
83A
  8
DATA
  6
CONTINUOUS
 62
     7
 10
-5.4204215843048607
 20
-58.456076146989119
 30
0.0
  0
VERTEX
  5
83B
  8
DATA
  6
CONTINUOUS
 62
     7
 10
-5.4185924474636646
 20
-58.459277371518112
 30
0.0
  0
VERTEX
  5
83C
  8
DATA
  6
CONTINUOUS
 62
     7
 10
-5.416738627117538
 20
-58.462468224999782
 30
0.0
  0
VERTEX
  5
83D
  8
DATA
  6
CONTINUOUS
 62
     7
 10
-5.4148601232665214
 20
-58.46564870743407
 30
0.0
  0
VERTEX
  5
83E
  8
DATA
  6
CONTINUOUS
 62
     7
 10
-5.4129569359105707
 20
-58.468818818821042
 30
0.0
  0
VERTEX
  5
83F
  8
DATA
  6
CONTINUOUS
 62
     7
 10
-5.4110290650497044
 20
-58.471978559160647
 30
0.0
  0
VERTEX
  5
840
  8
DATA
  6
CONTINUOUS
 62
     7
 10
-5.4090765106839021
 20
-58.475127928452942
 30
0.0
  0
VERTEX
  5
841
  8
DATA
  6
CONTINUOUS
 62
     7
 10
-5.4070992728131984
 20
-58.478266926697863
 30
0.0
  0
VERTEX
  5
842
  8
DATA
  6
CONTINUOUS
 62
     7
 10
-5.4050973514375764
 20
-58.481395553895467
 30
0.0
  0
VERTEX
  5
843
  8
DATA
  6
CONTINUOUS
 62
     7
 10
-5.4030707465570336
 20
-58.484513810045712
 30
0.0
  0
VERTEX
  5
844
  8
DATA
  6
CONTINUOUS
 62
     7
 10
-5.4010194581715751
 20
-58.487621695148619
 30
0.0
  0
VERTEX
  5
845
  8
DATA
  6
CONTINUOUS
 62
     7
 10
-5.3989434862811967
 20
-58.490719209204208
 30
0.0
  0
VERTEX
  5
846
  8
DATA
  6
CONTINUOUS
 62
     7
 10
-5.3989434862811967
 20
-58.490719209204208
 30
0.0
  0
VERTEX
  5
847
  8
DATA
  6
CONTINUOUS
 62
     7
 10
-5.3968464642956198
 20
-58.493800971939891
 30
0.0
  0
VERTEX
  5
848
  8
DATA
  6
CONTINUOUS
 62
     7
 10
-5.3947320256245908
 20
-58.496861603083111
 30
0.0
  0
VERTEX
  5
849
  8
DATA
  6
CONTINUOUS
 62
     7
 10
-5.3926001702680963
 20
-58.499901102633878
 30
0.0
  0
VERTEX
  5
84A
  8
DATA
  6
CONTINUOUS
 62
     7
 10
-5.3904508982261481
 20
-58.502919470592218
 30
0.0
  0
VERTEX
  5
84B
  8
DATA
  6
CONTINUOUS
 62
     7
 10
-5.3882842094987211
 20
-58.505916706958111
 30
0.0
  0
VERTEX
  5
84C
  8
DATA
  6
CONTINUOUS
 62
     7
 10
-5.3861001040858261
 20
-58.508892811731563
 30
0.0
  0
VERTEX
  5
84D
  8
DATA
  6
CONTINUOUS
 62
     7
 10
-5.3838985819874798
 20
-58.511847784912568
 30
0.0
  0
VERTEX
  5
84E
  8
DATA
  6
CONTINUOUS
 62
     7
 10
-5.3816796432036682
 20
-58.51478162650114
 30
0.0
  0
VERTEX
  5
84F
  8
DATA
  6
CONTINUOUS
 62
     7
 10
-5.3794432877343876
 20
-58.51769433649725
 30
0.0
  0
VERTEX
  5
850
  8
DATA
  6
CONTINUOUS
 62
     7
 10
-5.3771895155796443
 20
-58.520585914900913
 30
0.0
  0
VERTEX
  5
851
  8
DATA
  6
CONTINUOUS
 62
     7
 10
-5.3749183267394471
 20
-58.523456361712149
 30
0.0
  0
VERTEX
  5
852
  8
DATA
  6
CONTINUOUS
 62
     7
 10
-5.3726297212137828
 20
-58.526305676930953
 30
0.0
  0
VERTEX
  5
853
  8
DATA
  6
CONTINUOUS
 62
     7
 10
-5.3703236990026531
 20
-58.529133860557302
 30
0.0
  0
VERTEX
  5
854
  8
DATA
  6
CONTINUOUS
 62
     7
 10
-5.368000260106057
 20
-58.53194091259121
 30
0.0
  0
VERTEX
  5
855
  8
DATA
  6
CONTINUOUS
 62
     7
 10
-5.3656594045240089
 20
-58.534726833032657
 30
0.0
  0
VERTEX
  5
856
  8
DATA
  6
CONTINUOUS
 62
     7
 10
-5.3633011322564963
 20
-58.537491621881692
 30
0.0
  0
VERTEX
  5
857
  8
DATA
  6
CONTINUOUS
 62
     7
 10
-5.3609254433035138
 20
-58.540235279138273
 30
0.0
  0
VERTEX
  5
858
  8
DATA
  6
CONTINUOUS
 62
     7
 10
-5.3585323376650669
 20
-58.542957804802398
 30
0.0
  0
VERTEX
  5
859
  8
DATA
  6
CONTINUOUS
 62
     7
 10
-5.3561218153411678
 20
-58.545659198874091
 30
0.0
  0
VERTEX
  5
85A
  8
DATA
  6
CONTINUOUS
 62
     7
 10
-5.3536938763318034
 20
-58.548339461353322
 30
0.0
  0
VERTEX
  5
85B
  8
DATA
  6
CONTINUOUS
 62
     7
 10
-5.3512485206369709
 20
-58.550998592240099
 30
0.0
  0
VERTEX
  5
85C
  8
DATA
  6
CONTINUOUS
 62
     7
 10
-5.348785748256673
 20
-58.55363659153447
 30
0.0
  0
VERTEX
  5
85D
  8
DATA
  6
CONTINUOUS
 62
     7
 10
-5.346305559190923
 20
-58.556253459236352
 30
0.0
  0
VERTEX
  5
85E
  8
DATA
  6
CONTINUOUS
 62
     7
 10
-5.3438079534396916
 20
-58.558849195345829
 30
0.0
  0
VERTEX
  5
85F
  8
DATA
  6
CONTINUOUS
 62
     7
 10
-5.3412929310029957
 20
-58.561423799862837
 30
0.0
  0
VERTEX
  5
860
  8
DATA
  6
CONTINUOUS
 62
     7
 10
-5.3387604918808469
 20
-58.56397727278744
 30
0.0
  0
VERTEX
  5
861
  8
DATA
  6
CONTINUOUS
 62
     7
 10
-5.336210636073246
 20
-58.566509614119582
 30
0.0
  0
VERTEX
  5
862
  8
DATA
  6
CONTINUOUS
 62
     7
 10
-5.3336433635801788
 20
-58.569020823859262
 30
0.0
  0
VERTEX
  5
863
  8
DATA
  6
CONTINUOUS
 62
     7
 10
-5.3310586744016311
 20
-58.571510902006501
 30
0.0
  0
VERTEX
  5
864
  8
DATA
  6
CONTINUOUS
 62
     7
 10
-5.3284565685376322
 20
-58.573979848561322
 30
0.0
  0
VERTEX
  5
865
  8
DATA
  6
CONTINUOUS
 62
     7
 10
-5.3258370459881661
 20
-58.576427663523681
 30
0.0
  0
VERTEX
  5
866
  8
DATA
  6
CONTINUOUS
 62
     7
 10
-5.3232001067532471
 20
-58.5788543468936
 30
0.0
  0
VERTEX
  5
867
  8
DATA
  6
CONTINUOUS
 62
     7
 10
-5.3205457508328644
 20
-58.581259898671071
 30
0.0
  0
VERTEX
  5
868
  8
DATA
  6
CONTINUOUS
 62
     7
 10
-5.3178739782270119
 20
-58.583644318856109
 30
0.0
  0
VERTEX
  5
869
  8
DATA
  6
CONTINUOUS
 62
     7
 10
-5.3151847889356949
 20
-58.586007607448678
 30
0.0
  0
VERTEX
  5
86A
  8
DATA
  6
CONTINUOUS
 62
     7
 10
-5.3124781829589116
 20
-58.58834976444885
 30
0.0
  0
VERTEX
  5
86B
  8
DATA
  6
CONTINUOUS
 62
     7
 10
-5.309754160296662
 20
-58.590670789856539
 30
0.0
  0
VERTEX
  5
86C
  8
DATA
  6
CONTINUOUS
 62
     7
 10
-5.3070127209489604
 20
-58.592970683671808
 30
0.0
  0
VERTEX
  5
86D
  8
DATA
  6
CONTINUOUS
 62
     7
 10
-5.3042538649157924
 20
-58.595249445894638
 30
0.0
  0
VERTEX
  5
86E
  8
DATA
  6
CONTINUOUS
 62
     7
 10
-5.3014775921971591
 20
-58.597507076525012
 30
0.0
  0
VERTEX
  5
86F
  8
DATA
  6
CONTINUOUS
 62
     7
 10
-5.2986839027930577
 20
-58.599743575562897
 30
0.0
  0
VERTEX
  5
870
  8
DATA
  6
CONTINUOUS
 62
     7
 10
-5.2958727967035051
 20
-58.601958943008398
 30
0.0
  0
VERTEX
  5
871
  8
DATA
  6
CONTINUOUS
 62
     7
 10
-5.2930442739284871
 20
-58.604153178861459
 30
0.0
  0
VERTEX
  5
872
  8
DATA
  6
CONTINUOUS
 62
     7
 10
-5.290198334468001
 20
-58.606326283122058
 30
0.0
  0
VERTEX
  5
873
  8
DATA
  6
CONTINUOUS
 62
     7
 10
-5.2873349783220496
 20
-58.608478255790203
 30
0.0
  0
VERTEX
  5
874
  8
DATA
  6
CONTINUOUS
 62
     7
 10
-5.2844542054906318
 20
-58.610609096865922
 30
0.0
  0
VERTEX
  5
875
  8
DATA
  6
CONTINUOUS
 62
     7
 10
-5.281556015973762
 20
-58.612718806349172
 30
0.0
  0
VERTEX
  5
876
  8
DATA
  6
CONTINUOUS
 62
     7
 10
-5.2786404097714259
 20
-58.614807384240009
 30
0.0
  0
VERTEX
  5
877
  8
DATA
  6
CONTINUOUS
 62
     7
 10
-5.2757073868836244
 20
-58.616874830538379
 30
0.0
  0
VERTEX
  5
878
  8
DATA
  6
CONTINUOUS
 62
     7
 10
-5.2727569473103548
 20
-58.618921145244343
 30
0.0
  0
VERTEX
  5
879
  8
DATA
  6
CONTINUOUS
 62
     7
 10
-5.2697890910516341
 20
-58.620946328357832
 30
0.0
  0
VERTEX
  5
87A
  8
DATA
  6
CONTINUOUS
 62
     7
 10
-5.266803818107447
 20
-58.622950379878887
 30
0.0
  0
VERTEX
  5
87B
  8
DATA
  6
CONTINUOUS
 62
     7
 10
-5.2638011284777937
 20
-58.624933299807473
 30
0.0
  0
VERTEX
  5
87C
  8
DATA
  6
CONTINUOUS
 62
     7
 10
-5.2607810221626741
 20
-58.626895088143641
 30
0.0
  0
VERTEX
  5
87D
  8
DATA
  6
CONTINUOUS
 62
     7
 10
-5.2577434991621033
 20
-58.628835744887368
 30
0.0
  0
VERTEX
  5
87E
  8
DATA
  6
CONTINUOUS
 62
     7
 10
-5.2546885594760644
 20
-58.630755270038641
 30
0.0
  0
VERTEX
  5
87F
  8
DATA
  6
CONTINUOUS
 62
     7
 10
-5.251616203104561
 20
-58.632653663597459
 30
0.0
  0
VERTEX
  5
880
  8
DATA
  6
CONTINUOUS
 62
     7
 10
-5.2485264300475913
 20
-58.634530925563858
 30
0.0
  0
VERTEX
  5
881
  8
DATA
  6
CONTINUOUS
 62
     7
 10
-5.2454192403051669
 20
-58.636387055937789
 30
0.0
  0
VERTEX
  5
882
  8
DATA
  6
CONTINUOUS
 62
     7
 10
-5.242294633877278
 20
-58.6382220547193
 30
0.0
  0
VERTEX
  5
883
  8
DATA
  6
CONTINUOUS
 62
     7
 10
-5.2391526107639228
 20
-58.640035921908371
 30
0.0
  0
VERTEX
  5
884
  8
DATA
  6
CONTINUOUS
 62
     7
 10
-5.2359931709651022
 20
-58.641828657504981
 30
0.0
  0
VERTEX
  5
885
  8
DATA
  6
CONTINUOUS
 62
     7
 10
-5.2328163144808144
 20
-58.643600261509171
 30
0.0
  0
VERTEX
  5
886
  8
DATA
  6
CONTINUOUS
 62
     7
 10
-5.2296220413110603
 20
-58.645350733920878
 30
0.0
  0
VERTEX
  5
887
  8
DATA
  6
CONTINUOUS
 62
     7
 10
-5.2296220413110603
 20
-58.645350733920878
 30
0.0
  0
VERTEX
  5
888
  8
DATA
  6
CONTINUOUS
 62
     7
 10
-5.2264159242510146
 20
-58.647077047515928
 30
0.0
  0
VERTEX
  5
889
  8
DATA
  6
CONTINUOUS
 62
     7
 10
-5.2232035360958511
 20
-58.64877617507014
 30
0.0
  0
VERTEX
  5
88A
  8
DATA
  6
CONTINUOUS
 62
     7
 10
-5.2199848768455723
 20
-58.650448116583512
 30
0.0
  0
VERTEX
  5
88B
  8
DATA
  6
CONTINUOUS
 62
     7
 10
-5.2167599465001748
 20
-58.65209287205596
 30
0.0
  0
VERTEX
  5
88C
  8
DATA
  6
CONTINUOUS
 62
     7
 10
-5.213528745059647
 20
-58.65371044148759
 30
0.0
  0
VERTEX
  5
88D
  8
DATA
  6
CONTINUOUS
 62
     7
 10
-5.2102912725240031
 20
-58.65530082487831
 30
0.0
  0
VERTEX
  5
88E
  8
DATA
  6
CONTINUOUS
 62
     7
 10
-5.2070475288932272
 20
-58.656864022228177
 30
0.0
  0
VERTEX
  5
88F
  8
DATA
  6
CONTINUOUS
 62
     7
 10
-5.2037975141673476
 20
-58.658400033537191
 30
0.0
  0
VERTEX
  5
890
  8
DATA
  6
CONTINUOUS
 62
     7
 10
-5.2005412283463519
 20
-58.659908858805323
 30
0.0
  0
VERTEX
  5
891
  8
DATA
  6
CONTINUOUS
 62
     7
 10
-5.197278671430225
 20
-58.661390498032588
 30
0.0
  0
VERTEX
  5
892
  8
DATA
  6
CONTINUOUS
 62
     7
 10
-5.194009843418967
 20
-58.662844951218993
 30
0.0
  0
VERTEX
  5
893
  8
DATA
  6
CONTINUOUS
 62
     7
 10
-5.190734744312592
 20
-58.66427221836453
 30
0.0
  0
VERTEX
  5
894
  8
DATA
  6
CONTINUOUS
 62
     7
 10
-5.1874533741111
 20
-58.665672299469172
 30
0.0
  0
VERTEX
  5
895
  8
DATA
  6
CONTINUOUS
 62
     7
 10
-5.184165732814491
 20
-58.66704519453296
 30
0.0
  0
VERTEX
  5
896
  8
DATA
  6
CONTINUOUS
 62
     7
 10
-5.1808718204227509
 20
-58.668390903555888
 30
0.0
  0
VERTEX
  5
897
  8
DATA
  6
CONTINUOUS
 62
     7
 10
-5.1775716369358946
 20
-58.66970942653797
 30
0.0
  0
VERTEX
  5
898
  8
DATA
  6
CONTINUOUS
 62
     7
 10
-5.1742651823539196
 20
-58.671000763479157
 30
0.0
  0
VERTEX
  5
899
  8
DATA
  6
CONTINUOUS
 62
     7
 10
-5.1709524566768152
 20
-58.672264914379497
 30
0.0
  0
VERTEX
  5
89A
  8
DATA
  6
CONTINUOUS
 62
     7
 10
-5.1676334599045921
 20
-58.67350187923897
 30
0.0
  0
VERTEX
  5
89B
  8
DATA
  6
CONTINUOUS
 62
     7
 10
-5.1643081920372529
 20
-58.674711658057561
 30
0.0
  0
VERTEX
  5
89C
  8
DATA
  6
CONTINUOUS
 62
     7
 10
-5.1609766530747967
 20
-58.675894250835313
 30
0.0
  0
VERTEX
  5
89D
  8
DATA
  6
CONTINUOUS
 62
     7
 10
-5.1576388430172093
 20
-58.677049657572162
 30
0.0
  0
VERTEX
  5
89E
  8
DATA
  6
CONTINUOUS
 62
     7
 10
-5.1542947618644908
 20
-58.678177878268137
 30
0.0
  0
VERTEX
  5
89F
  8
DATA
  6
CONTINUOUS
 62
     7
 10
-5.1509444096166561
 20
-58.679278912923252
 30
0.0
  0
VERTEX
  5
8A0
  8
DATA
  6
CONTINUOUS
 62
     7
 10
-5.1475877862737169
 20
-58.68035276153747
 30
0.0
  0
VERTEX
  5
8A1
  8
DATA
  6
CONTINUOUS
 62
     7
 10
-5.1442248918356484
 20
-58.681399424110879
 30
0.0
  0
VERTEX
  5
8A2
  8
DATA
  6
CONTINUOUS
 62
     7
 10
-5.140855726302461
 20
-58.682418900643427
 30
0.0
  0
VERTEX
  5
8A3
  8
DATA
  6
CONTINUOUS
 62
     7
 10
-5.1374802896741443
 20
-58.683411191135058
 30
0.0
  0
VERTEX
  5
8A4
  8
DATA
  6
CONTINUOUS
 62
     7
 10
-5.1340985819507088
 20
-58.684376295585878
 30
0.0
  0
VERTEX
  5
8A5
  8
DATA
  6
CONTINUOUS
 62
     7
 10
-5.1307106031321581
 20
-58.685314213995781
 30
0.0
  0
VERTEX
  5
8A6
  8
DATA
  6
CONTINUOUS
 62
     7
 10
-5.1273163532184887
 20
-58.686224946364831
 30
0.0
  0
VERTEX
  5
8A7
  8
DATA
  6
CONTINUOUS
 62
     7
 10
-5.1239158322096889
 20
-58.687108492693028
 30
0.0
  0
VERTEX
  5
8A8
  8
DATA
  6
CONTINUOUS
 62
     7
 10
-5.1205090401057731
 20
-58.687964852980343
 30
0.0
  0
VERTEX
  5
8A9
  8
DATA
  6
CONTINUOUS
 62
     7
 10
-5.1170959769067403
 20
-58.688794027226812
 30
0.0
  0
VERTEX
  5
8AA
  8
DATA
  6
CONTINUOUS
 62
     7
 10
-5.1136766426125879
 20
-58.689596015432421
 30
0.0
  0
VERTEX
  5
8AB
  8
DATA
  6
CONTINUOUS
 62
     7
 10
-5.1102510372233061
 20
-58.690370817597113
 30
0.0
  0
VERTEX
  5
8AC
  8
DATA
  6
CONTINUOUS
 62
     7
 10
-5.1068191607389082
 20
-58.69111843372098
 30
0.0
  0
VERTEX
  5
8AD
  8
DATA
  6
CONTINUOUS
 62
     7
 10
-5.1033810131593773
 20
-58.691838863803952
 30
0.0
  0
VERTEX
  5
8AE
  8
DATA
  6
CONTINUOUS
 62
     7
 10
-5.0999365944847312
 20
-58.692532107846063
 30
0.0
  0
VERTEX
  5
8AF
  8
DATA
  6
CONTINUOUS
 62
     7
 10
-5.0964859047149531
 20
-58.693198165847292
 30
0.0
  0
VERTEX
  5
8B0
  8
DATA
  6
CONTINUOUS
 62
     7
 10
-5.0930289438500722
 20
-58.693837037807633
 30
0.0
  0
VERTEX
  5
8B1
  8
DATA
  6
CONTINUOUS
 62
     7
 10
-5.0895657118900726
 20
-58.694448723727163
 30
0.0
  0
VERTEX
  5
8B2
  8
DATA
  6
CONTINUOUS
 62
     7
 10
-5.0860962088349444
 20
-58.695033223605819
 30
0.0
  0
VERTEX
  5
8B3
  8
DATA
  6
CONTINUOUS
 62
     7
 10
-5.0826204346846851
 20
-58.695590537443593
 30
0.0
  0
VERTEX
  5
8B4
  8
DATA
  6
CONTINUOUS
 62
     7
 10
-5.079138389439307
 20
-58.696120665240528
 30
0.0
  0
VERTEX
  5
8B5
  8
DATA
  6
CONTINUOUS
 62
     7
 10
-5.0756500730988128
 20
-58.696623606996539
 30
0.0
  0
VERTEX
  5
8B6
  8
DATA
  6
CONTINUOUS
 62
     7
 10
-5.0721554856632016
 20
-58.697099362711718
 30
0.0
  0
VERTEX
  5
8B7
  8
DATA
  6
CONTINUOUS
 62
     7
 10
-5.0686546271324602
 20
-58.697547932386037
 30
0.0
  0
VERTEX
  5
8B8
  8
DATA
  6
CONTINUOUS
 62
     7
 10
-5.0651474975066
 20
-58.697969316019481
 30
0.0
  0
VERTEX
  5
8B9
  8
DATA
  6
CONTINUOUS
 62
     7
 10
-5.0616340967856237
 20
-58.698363513612072
 30
0.0
  0
VERTEX
  5
8BA
  8
DATA
  6
CONTINUOUS
 62
     7
 10
-5.0581144249695171
 20
-58.698730525163789
 30
0.0
  0
VERTEX
  5
8BB
  8
DATA
  6
CONTINUOUS
 62
     7
 10
-5.0545884820582918
 20
-58.699070350674617
 30
0.0
  0
VERTEX
  5
8BC
  8
DATA
  6
CONTINUOUS
 62
     7
 10
-5.0510562680519513
 20
-58.699382990144599
 30
0.0
  0
VERTEX
  5
8BD
  8
DATA
  6
CONTINUOUS
 62
     7
 10
-5.047517782950492
 20
-58.699668443573707
 30
0.0
  0
VERTEX
  5
8BE
  8
DATA
  6
CONTINUOUS
 62
     7
 10
-5.0439730267539042
 20
-58.699926710961932
 30
0.0
  0
VERTEX
  5
8BF
  8
DATA
  6
CONTINUOUS
 62
     7
 10
-5.0404219994621959
 20
-58.700157792309312
 30
0.0
  0
VERTEX
  5
8C0
  8
DATA
  6
CONTINUOUS
 62
     7
 10
-5.0368647010753724
 20
-58.700361687615818
 30
0.0
  0
VERTEX
  5
8C1
  8
DATA
  6
CONTINUOUS
 62
     7
 10
-5.0333011315934177
 20
-58.700538396881463
 30
0.0
  0
VERTEX
  5
8C2
  8
DATA
  6
CONTINUOUS
 62
     7
 10
-5.0297312910163461
 20
-58.70068792010624
 30
0.0
  0
VERTEX
  5
8C3
  8
DATA
  6
CONTINUOUS
 62
     7
 10
-5.0261551793441583
 20
-58.700810257290136
 30
0.0
  0
VERTEX
  5
8C4
  8
DATA
  6
CONTINUOUS
 62
     7
 10
-5.0225727965768519
 20
-58.700905408433179
 30
0.0
  0
VERTEX
  5
8C5
  8
DATA
  6
CONTINUOUS
 62
     7
 10
-5.0189841427144151
 20
-58.700973373535327
 30
0.0
  0
VERTEX
  5
8C6
  8
DATA
  6
CONTINUOUS
 62
     7
 10
-5.0153892177568622
 20
-58.701014152596642
 30
0.0
  0
VERTEX
  5
8C7
  8
DATA
  6
CONTINUOUS
 62
     7
 10
-5.0117880217041764
 20
-58.701027745617068
 30
0.0
  0
VERTEX
  5
8C8
  8
DATA
  6
CONTINUOUS
 62
     7
 10
-5.0117880217041764
 20
-58.701027745617068
 30
0.0
  0
SEQEND
  5
8C9
  8
DATA
  6
CONTINUOUS
 62
     7
  0
POLYLINE
  5
2F4
  8
DATA
  6
CONTINUOUS
 62
     7
 66
     1
 10
0.0
 20
0.0
 30
0.0
 70
   128
  0
VERTEX
  5
8CA
  8
DATA
  6
CONTINUOUS
 62
     7
 10
31.180019978295821
 20
-60.301019351987541
 30
0.0
  0
VERTEX
  5
8CB
  8
DATA
  6
CONTINUOUS
 62
     7
 10
31.19154364087721
 20
-60.300975854847707
 30
0.0
  0
VERTEX
  5
8CC
  8
DATA
  6
CONTINUOUS
 62
     7
 10
31.203047236146691
 20
-60.30084536342811
 30
0.0
  0
VERTEX
  5
8CD
  8
DATA
  6
CONTINUOUS
 62
     7
 10
31.214530764104229
 20
-60.300627877728729
 30
0.0
  0
VERTEX
  5
8CE
  8
DATA
  6
CONTINUOUS
 62
     7
 10
31.225994224749812
 20
-60.3003233977497
 30
0.0
  0
VERTEX
  5
8CF
  8
DATA
  6
CONTINUOUS
 62
     7
 10
31.23743761808349
 20
-60.299931923490888
 30
0.0
  0
VERTEX
  5
8D0
  8
DATA
  6
CONTINUOUS
 62
     7
 10
31.2488609441052
 20
-60.299453454952392
 30
0.0
  0
VERTEX
  5
8D1
  8
DATA
  6
CONTINUOUS
 62
     7
 10
31.260264202815002
 20
-60.298887992134127
 30
0.0
  0
VERTEX
  5
8D2
  8
DATA
  6
CONTINUOUS
 62
     7
 10
31.271647394212859
 20
-60.298235535036149
 30
0.0
  0
VERTEX
  5
8D3
  8
DATA
  6
CONTINUOUS
 62
     7
 10
31.28301051829877
 20
-60.297496083658459
 30
0.0
  0
VERTEX
  5
8D4
  8
DATA
  6
CONTINUOUS
 62
     7
 10
31.294353575072751
 20
-60.296669638000992
 30
0.0
  0
VERTEX
  5
8D5
  8
DATA
  6
CONTINUOUS
 62
     7
 10
31.305676564534789
 20
-60.295756198063827
 30
0.0
  0
VERTEX
  5
8D6
  8
DATA
  6
CONTINUOUS
 62
     7
 10
31.3169794866849
 20
-60.29475576384695
 30
0.0
  0
VERTEX
  5
8D7
  8
DATA
  6
CONTINUOUS
 62
     7
 10
31.328262341523089
 20
-60.293668335350333
 30
0.0
  0
VERTEX
  5
8D8
  8
DATA
  6
CONTINUOUS
 62
     7
 10
31.339525129049321
 20
-60.292493912573967
 30
0.0
  0
VERTEX
  5
8D9
  8
DATA
  6
CONTINUOUS
 62
     7
 10
31.350767849263619
 20
-60.291232495517882
 30
0.0
  0
VERTEX
  5
8DA
  8
DATA
  6
CONTINUOUS
 62
     7
 10
31.361990502166002
 20
-60.289884084182063
 30
0.0
  0
VERTEX
  5
8DB
  8
DATA
  6
CONTINUOUS
 62
     7
 10
31.37319308775643
 20
-60.288448678566503
 30
0.0
  0
VERTEX
  5
8DC
  8
DATA
  6
CONTINUOUS
 62
     7
 10
31.384375606034911
 20
-60.286926278671238
 30
0.0
  0
VERTEX
  5
8DD
  8
DATA
  6
CONTINUOUS
 62
     7
 10
31.395538057001481
 20
-60.28531688449624
 30
0.0
  0
VERTEX
  5
8DE
  8
DATA
  6
CONTINUOUS
 62
     7
 10
31.406680440656089
 20
-60.283620496041479
 30
0.0
  0
VERTEX
  5
8DF
  8
DATA
  6
CONTINUOUS
 62
     7
 10
31.417802756998771
 20
-60.281837113307013
 30
0.0
  0
VERTEX
  5
8E0
  8
DATA
  6
CONTINUOUS
 62
     7
 10
31.42890500602952
 20
-60.27996673629282
 30
0.0
  0
VERTEX
  5
8E1
  8
DATA
  6
CONTINUOUS
 62
     7
 10
31.43998718774834
 20
-60.278009364998901
 30
0.0
  0
VERTEX
  5
8E2
  8
DATA
  6
CONTINUOUS
 62
     7
 10
31.45104930215523
 20
-60.275964999425241
 30
0.0
  0
VERTEX
  5
8E3
  8
DATA
  6
CONTINUOUS
 62
     7
 10
31.46209134925018
 20
-60.273833639571841
 30
0.0
  0
VERTEX
  5
8E4
  8
DATA
  6
CONTINUOUS
 62
     7
 10
31.473113329033168
 20
-60.271615285438713
 30
0.0
  0
VERTEX
  5
8E5
  8
DATA
  6
CONTINUOUS
 62
     7
 10
31.484115241504231
 20
-60.269309937025859
 30
0.0
  0
VERTEX
  5
8E6
  8
DATA
  6
CONTINUOUS
 62
     7
 10
31.49509708666336
 20
-60.266917594333279
 30
0.0
  0
VERTEX
  5
8E7
  8
DATA
  6
CONTINUOUS
 62
     7
 10
31.506058864510571
 20
-60.264438257360951
 30
0.0
  0
VERTEX
  5
8E8
  8
DATA
  6
CONTINUOUS
 62
     7
 10
31.517000575045831
 20
-60.261871926108903
 30
0.0
  0
VERTEX
  5
8E9
  8
DATA
  6
CONTINUOUS
 62
     7
 10
31.527922218269161
 20
-60.259218600577142
 30
0.0
  0
VERTEX
  5
8EA
  8
DATA
  6
CONTINUOUS
 62
     7
 10
31.538823794180551
 20
-60.256478280765627
 30
0.0
  0
VERTEX
  5
8EB
  8
DATA
  6
CONTINUOUS
 62
     7
 10
31.549705302780001
 20
-60.253650966674392
 30
0.0
  0
VERTEX
  5
8EC
  8
DATA
  6
CONTINUOUS
 62
     7
 10
31.560566744067518
 20
-60.250736658303417
 30
0.0
  0
VERTEX
  5
8ED
  8
DATA
  6
CONTINUOUS
 62
     7
 10
31.571408118043092
 20
-60.247735355652743
 30
0.0
  0
VERTEX
  5
8EE
  8
DATA
  6
CONTINUOUS
 62
     7
 10
31.582229424706739
 20
-60.244647058722308
 30
0.0
  0
VERTEX
  5
8EF
  8
DATA
  6
CONTINUOUS
 62
     7
 10
31.59303066405845
 20
-60.241471767512131
 30
0.0
  0
VERTEX
  5
8F0
  8
DATA
  6
CONTINUOUS
 62
     7
 10
31.603811836098231
 20
-60.238209482022249
 30
0.0
  0
VERTEX
  5
8F1
  8
DATA
  6
CONTINUOUS
 62
     7
 10
31.614572940826079
 20
-60.234860202252626
 30
0.0
  0
VERTEX
  5
8F2
  8
DATA
  6
CONTINUOUS
 62
     7
 10
31.62531397824198
 20
-60.231423928203299
 30
0.0
  0
VERTEX
  5
8F3
  8
DATA
  6
CONTINUOUS
 62
     7
 10
31.63603494834593
 20
-60.227900659874223
 30
0.0
  0
VERTEX
  5
8F4
  8
DATA
  6
CONTINUOUS
 62
     7
 10
31.646735851137962
 20
-60.224290397265399
 30
0.0
  0
VERTEX
  5
8F5
  8
DATA
  6
CONTINUOUS
 62
     7
 10
31.65741668661806
 20
-60.220593140376877
 30
0.0
  0
VERTEX
  5
8F6
  8
DATA
  6
CONTINUOUS
 62
     7
 10
31.668077454786211
 20
-60.216808889208622
 30
0.0
  0
VERTEX
  5
8F7
  8
DATA
  6
CONTINUOUS
 62
     7
 10
31.67871815564245
 20
-60.212937643760611
 30
0.0
  0
VERTEX
  5
8F8
  8
DATA
  6
CONTINUOUS
 62
     7
 10
31.689338789186721
 20
-60.208979404032881
 30
0.0
  0
VERTEX
  5
8F9
  8
DATA
  6
CONTINUOUS
 62
     7
 10
31.69993935541908
 20
-60.20493417002541
 30
0.0
  0
VERTEX
  5
8FA
  8
DATA
  6
CONTINUOUS
 62
     7
 10
31.710519854339491
 20
-60.200801941738241
 30
0.0
  0
VERTEX
  5
8FB
  8
DATA
  6
CONTINUOUS
 62
     7
 10
31.721080285947981
 20
-60.196582719171317
 30
0.0
  0
VERTEX
  5
8FC
  8
DATA
  6
CONTINUOUS
 62
     7
 10
31.731620650244519
 20
-60.192276502324653
 30
0.0
  0
VERTEX
  5
8FD
  8
DATA
  6
CONTINUOUS
 62
     7
 10
31.742140947229132
 20
-60.187883291198283
 30
0.0
  0
VERTEX
  5
8FE
  8
DATA
  6
CONTINUOUS
 62
     7
 10
31.752641176901811
 20
-60.183403085792179
 30
0.0
  0
VERTEX
  5
8FF
  8
DATA
  6
CONTINUOUS
 62
     7
 10
31.76312133926254
 20
-60.178835886106363
 30
0.0
  0
VERTEX
  5
900
  8
DATA
  6
CONTINUOUS
 62
     7
 10
31.773581434311339
 20
-60.174181692140763
 30
0.0
  0
VERTEX
  5
901
  8
DATA
  6
CONTINUOUS
 62
     7
 10
31.784021462048202
 20
-60.169440503895487
 30
0.0
  0
VERTEX
  5
902
  8
DATA
  6
CONTINUOUS
 62
     7
 10
31.794441422473131
 20
-60.164612321370441
 30
0.0
  0
VERTEX
  5
903
  8
DATA
  6
CONTINUOUS
 62
     7
 10
31.804841315586131
 20
-60.159697144565662
 30
0.0
  0
VERTEX
  5
904
  8
DATA
  6
CONTINUOUS
 62
     7
 10
31.81522114138717
 20
-60.154694973481178
 30
0.0
  0
VERTEX
  5
905
  8
DATA
  6
CONTINUOUS
 62
     7
 10
31.825580899876289
 20
-60.149605808116981
 30
0.0
  0
VERTEX
  5
906
  8
DATA
  6
CONTINUOUS
 62
     7
 10
31.835920591053469
 20
-60.144429648473022
 30
0.0
  0
VERTEX
  5
907
  8
DATA
  6
CONTINUOUS
 62
     7
 10
31.84624021491873
 20
-60.139166494549329
 30
0.0
  0
VERTEX
  5
908
  8
DATA
  6
CONTINUOUS
 62
     7
 10
31.856539771472029
 20
-60.133816346345917
 30
0.0
  0
VERTEX
  5
909
  8
DATA
  6
CONTINUOUS
 62
     7
 10
31.866819260713399
 20
-60.128379203862778
 30
0.0
  0
VERTEX
  5
90A
  8
DATA
  6
CONTINUOUS
 62
     7
 10
31.87707868264285
 20
-60.122855067099877
 30
0.0
  0
VERTEX
  5
90B
  8
DATA
  6
CONTINUOUS
 62
     7
 10
31.87707868264285
 20
-60.122855067099877
 30
0.0
  0
VERTEX
  5
90C
  8
DATA
  6
CONTINUOUS
 62
     7
 10
31.88730020449735
 20
-60.117253623103288
 30
0.0
  0
VERTEX
  5
90D
  8
DATA
  6
CONTINUOUS
 62
     7
 10
31.89746599351388
 20
-60.111584558919049
 30
0.0
  0
VERTEX
  5
90E
  8
DATA
  6
CONTINUOUS
 62
     7
 10
31.907576049692452
 20
-60.105847874547102
 30
0.0
  0
VERTEX
  5
90F
  8
DATA
  6
CONTINUOUS
 62
     7
 10
31.917630373033081
 20
-60.100043569987449
 30
0.0
  0
VERTEX
  5
910
  8
DATA
  6
CONTINUOUS
 62
     7
 10
31.927628963535749
 20
-60.094171645240138
 30
0.0
  0
VERTEX
  5
911
  8
DATA
  6
CONTINUOUS
 62
     7
 10
31.93757182120045
 20
-60.088232100305163
 30
0.0
  0
VERTEX
  5
912
  8
DATA
  6
CONTINUOUS
 62
     7
 10
31.947458946027201
 20
-60.08222493518246
 30
0.0
  0
VERTEX
  5
913
  8
DATA
  6
CONTINUOUS
 62
     7
 10
31.957290338016001
 20
-60.07615014987212
 30
0.0
  0
VERTEX
  5
914
  8
DATA
  6
CONTINUOUS
 62
     7
 10
31.967065997166841
 20
-60.070007744374102
 30
0.0
  0
VERTEX
  5
915
  8
DATA
  6
CONTINUOUS
 62
     7
 10
31.97678592347971
 20
-60.063797718688363
 30
0.0
  0
VERTEX
  5
916
  8
DATA
  6
CONTINUOUS
 62
     7
 10
31.986450116954629
 20
-60.057520072814953
 30
0.0
  0
VERTEX
  5
917
  8
DATA
  6
CONTINUOUS
 62
     7
 10
31.996058577591601
 20
-60.051174806753842
 30
0.0
  0
VERTEX
  5
918
  8
DATA
  6
CONTINUOUS
 62
     7
 10
32.005611305390623
 20
-60.044761920505032
 30
0.0
  0
VERTEX
  5
919
  8
DATA
  6
CONTINUOUS
 62
     7
 10
32.015108300351663
 20
-60.038281414068557
 30
0.0
  0
VERTEX
  5
91A
  8
DATA
  6
CONTINUOUS
 62
     7
 10
32.024549562474753
 20
-60.031733287444411
 30
0.0
  0
VERTEX
  5
91B
  8
DATA
  6
CONTINUOUS
 62
     7
 10
32.033935091759894
 20
-60.025117540632579
 30
0.0
  0
VERTEX
  5
91C
  8
DATA
  6
CONTINUOUS
 62
     7
 10
32.043264888207077
 20
-60.018434173633061
 30
0.0
  0
VERTEX
  5
91D
  8
DATA
  6
CONTINUOUS
 62
     7
 10
32.052538951816288
 20
-60.011683186445858
 30
0.0
  0
VERTEX
  5
91E
  8
DATA
  6
CONTINUOUS
 62
     7
 10
32.06175728258755
 20
-60.004864579070961
 30
0.0
  0
VERTEX
  5
91F
  8
DATA
  6
CONTINUOUS
 62
     7
 10
32.070919880520862
 20
-59.99797835150838
 30
0.0
  0
VERTEX
  5
920
  8
DATA
  6
CONTINUOUS
 62
     7
 10
32.08002674561623
 20
-59.991024503758133
 30
0.0
  0
VERTEX
  5
921
  8
DATA
  6
CONTINUOUS
 62
     7
 10
32.089077877873621
 20
-59.984003035820187
 30
0.0
  0
VERTEX
  5
922
  8
DATA
  6
CONTINUOUS
 62
     7
 10
32.098073277293047
 20
-59.97691394769457
 30
0.0
  0
VERTEX
  5
923
  8
DATA
  6
CONTINUOUS
 62
     7
 10
32.107012943874537
 20
-59.969757239381288
 30
0.0
  0
VERTEX
  5
924
  8
DATA
  6
CONTINUOUS
 62
     7
 10
32.115896877618063
 20
-59.962532910880327
 30
0.0
  0
VERTEX
  5
925
  8
DATA
  6
CONTINUOUS
 62
     7
 10
32.124725078523632
 20
-59.955240962191667
 30
0.0
  0
VERTEX
  5
926
  8
DATA
  6
CONTINUOUS
 62
     7
 10
32.133497546591236
 20
-59.947881393315321
 30
0.0
  0
VERTEX
  5
927
  8
DATA
  6
CONTINUOUS
 62
     7
 10
32.142214281820891
 20
-59.940454204251303
 30
0.0
  0
VERTEX
  5
928
  8
DATA
  6
CONTINUOUS
 62
     7
 10
32.150875284212603
 20
-59.932959394999592
 30
0.0
  0
VERTEX
  5
929
  8
DATA
  6
CONTINUOUS
 62
     7
 10
32.159480553766329
 20
-59.925396965560211
 30
0.0
  0
VERTEX
  5
92A
  8
DATA
  6
CONTINUOUS
 62
     7
 10
32.168030090482112
 20
-59.9177669159331
 30
0.0
  0
VERTEX
  5
92B
  8
DATA
  6
CONTINUOUS
 62
     7
 10
32.176523894359931
 20
-59.910069246118319
 30
0.0
  0
VERTEX
  5
92C
  8
DATA
  6
CONTINUOUS
 62
     7
 10
32.184961965399808
 20
-59.902303956115858
 30
0.0
  0
VERTEX
  5
92D
  8
DATA
  6
CONTINUOUS
 62
     7
 10
32.193344303601698
 20
-59.894471045925741
 30
0.0
  0
VERTEX
  5
92E
  8
DATA
  6
CONTINUOUS
 62
     7
 10
32.201670908965653
 20
-59.88657051554793
 30
0.0
  0
VERTEX
  5
92F
  8
DATA
  6
CONTINUOUS
 62
     7
 10
32.209941781491636
 20
-59.878602364982399
 30
0.0
  0
VERTEX
  5
930
  8
DATA
  6
CONTINUOUS
 62
     7
 10
32.218156921179698
 20
-59.870566594229217
 30
0.0
  0
VERTEX
  5
931
  8
DATA
  6
CONTINUOUS
 62
     7
 10
32.226316328029782
 20
-59.862463203288343
 30
0.0
  0
VERTEX
  5
932
  8
DATA
  6
CONTINUOUS
 62
     7
 10
32.234420002041901
 20
-59.854292192159768
 30
0.0
  0
VERTEX
  5
933
  8
DATA
  6
CONTINUOUS
 62
     7
 10
32.24246794321607
 20
-59.846053560843558
 30
0.0
  0
VERTEX
  5
934
  8
DATA
  6
CONTINUOUS
 62
     7
 10
32.250460151552282
 20
-59.837747309339647
 30
0.0
  0
VERTEX
  5
935
  8
DATA
  6
CONTINUOUS
 62
     7
 10
32.25839662705053
 20
-59.82937343764803
 30
0.0
  0
VERTEX
  5
936
  8
DATA
  6
CONTINUOUS
 62
     7
 10
32.266277369710842
 20
-59.820931945768727
 30
0.0
  0
VERTEX
  5
937
  8
DATA
  6
CONTINUOUS
 62
     7
 10
32.274102379533183
 20
-59.812422833701753
 30
0.0
  0
VERTEX
  5
938
  8
DATA
  6
CONTINUOUS
 62
     7
 10
32.281871656517573
 20
-59.8038461014471
 30
0.0
  0
VERTEX
  5
939
  8
DATA
  6
CONTINUOUS
 62
     7
 10
32.289585200663993
 20
-59.795201749004782
 30
0.0
  0
VERTEX
  5
93A
  8
DATA
  6
CONTINUOUS
 62
     7
 10
32.297243011972448
 20
-59.786489776374772
 30
0.0
  0
VERTEX
  5
93B
  8
DATA
  6
CONTINUOUS
 62
     7
 10
32.304845090442967
 20
-59.777710183557083
 30
0.0
  0
VERTEX
  5
93C
  8
DATA
  6
CONTINUOUS
 62
     7
 10
32.312391436075522
 20
-59.768862970551702
 30
0.0
  0
VERTEX
  5
93D
  8
DATA
  6
CONTINUOUS
 62
     7
 10
32.31988204887012
 20
-59.759948137358627
 30
0.0
  0
VERTEX
  5
93E
  8
DATA
  6
CONTINUOUS
 62
     7
 10
32.327316928826761
 20
-59.750965683977881
 30
0.0
  0
VERTEX
  5
93F
  8
DATA
  6
CONTINUOUS
 62
     7
 10
32.334696075945452
 20
-59.741915610409421
 30
0.0
  0
VERTEX
  5
940
  8
DATA
  6
CONTINUOUS
 62
     7
 10
32.342019490226171
 20
-59.732797916653311
 30
0.0
  0
VERTEX
  5
941
  8
DATA
  6
CONTINUOUS
 62
     7
 10
32.349287171668948
 20
-59.723612602709522
 30
0.0
  0
VERTEX
  5
942
  8
DATA
  6
CONTINUOUS
 62
     7
 10
32.356499120273753
 20
-59.714359668578027
 30
0.0
  0
VERTEX
  5
943
  8
DATA
  6
CONTINUOUS
 62
     7
 10
32.363655336040608
 20
-59.705039114258852
 30
0.0
  0
VERTEX
  5
944
  8
DATA
  6
CONTINUOUS
 62
     7
 10
32.370755818969499
 20
-59.695650939751999
 30
0.0
  0
VERTEX
  5
945
  8
DATA
  6
CONTINUOUS
 62
     7
 10
32.37780056906044
 20
-59.686195145057461
 30
0.0
  0
VERTEX
  5
946
  8
DATA
  6
CONTINUOUS
 62
     7
 10
32.384789586313431
 20
-59.676671730175208
 30
0.0
  0
VERTEX
  5
947
  8
DATA
  6
CONTINUOUS
 62
     7
 10
32.391722870728458
 20
-59.667080695105312
 30
0.0
  0
VERTEX
  5
948
  8
DATA
  6
CONTINUOUS
 62
     7
 10
32.398600422305528
 20
-59.657422039847738
 30
0.0
  0
VERTEX
  5
949
  8
DATA
  6
CONTINUOUS
 62
     7
 10
32.405422241044647
 20
-59.647695764402471
 30
0.0
  0
VERTEX
  5
94A
  8
DATA
  6
CONTINUOUS
 62
     7
 10
32.41218832694581
 20
-59.637901868769518
 30
0.0
  0
VERTEX
  5
94B
  8
DATA
  6
CONTINUOUS
 62
     7
 10
32.418898680009022
 20
-59.628040352948858
 30
0.0
  0
VERTEX
  5
94C
  8
DATA
  6
CONTINUOUS
 62
     7
 10
32.418898680009022
 20
-59.628040352948858
 30
0.0
  0
VERTEX
  5
94D
  8
DATA
  6
CONTINUOUS
 62
     7
 10
32.425541673472011
 20
-59.61812843367553
 30
0.0
  0
VERTEX
  5
94E
  8
DATA
  6
CONTINUOUS
 62
     7
 10
32.432105680572562
 20
-59.608183327684571
 30
0.0
  0
VERTEX
  5
94F
  8
DATA
  6
CONTINUOUS
 62
     7
 10
32.43859070131063
 20
-59.598205034975919
 30
0.0
  0
VERTEX
  5
950
  8
DATA
  6
CONTINUOUS
 62
     7
 10
32.444996735686267
 20
-59.588193555549651
 30
0.0
  0
VERTEX
  5
951
  8
DATA
  6
CONTINUOUS
 62
     7
 10
32.451323783699451
 20
-59.578148889405718
 30
0.0
  0
VERTEX
  5
952
  8
DATA
  6
CONTINUOUS
 62
     7
 10
32.457571845350159
 20
-59.568071036544097
 30
0.0
  0
VERTEX
  5
953
  8
DATA
  6
CONTINUOUS
 62
     7
 10
32.463740920638429
 20
-59.557959996964819
 30
0.0
  0
VERTEX
  5
954
  8
DATA
  6
CONTINUOUS
 62
     7
 10
32.469831009564231
 20
-59.547815770667931
 30
0.0
  0
VERTEX
  5
955
  8
DATA
  6
CONTINUOUS
 62
     7
 10
32.475842112127609
 20
-59.537638357653378
 30
0.0
  0
VERTEX
  5
956
  8
DATA
  6
CONTINUOUS
 62
     7
 10
32.481774228328511
 20
-59.527427757921139
 30
0.0
  0
VERTEX
  5
957
  8
DATA
  6
CONTINUOUS
 62
     7
 10
32.487627358166961
 20
-59.517183971471241
 30
0.0
  0
VERTEX
  5
958
  8
DATA
  6
CONTINUOUS
 62
     7
 10
32.493401501642971
 20
-59.506906998303691
 30
0.0
  0
VERTEX
  5
959
  8
DATA
  6
CONTINUOUS
 62
     7
 10
32.4990966587565
 20
-59.496596838418462
 30
0.0
  0
VERTEX
  5
95A
  8
DATA
  6
CONTINUOUS
 62
     7
 10
32.504712829507611
 20
-59.486253491815603
 30
0.0
  0
VERTEX
  5
95B
  8
DATA
  6
CONTINUOUS
 62
     7
 10
32.51025001389624
 20
-59.475876958495057
 30
0.0
  0
VERTEX
  5
95C
  8
DATA
  6
CONTINUOUS
 62
     7
 10
32.51570821192243
 20
-59.465467238456881
 30
0.0
  0
VERTEX
  5
95D
  8
DATA
  6
CONTINUOUS
 62
     7
 10
32.521087423586167
 20
-59.455024331701033
 30
0.0
  0
VERTEX
  5
95E
  8
DATA
  6
CONTINUOUS
 62
     7
 10
32.52638764888745
 20
-59.444548238227533
 30
0.0
  0
VERTEX
  5
95F
  8
DATA
  6
CONTINUOUS
 62
     7
 10
32.53160888782628
 20
-59.434038958036354
 30
0.0
  0
VERTEX
  5
960
  8
DATA
  6
CONTINUOUS
 62
     7
 10
32.53675114040265
 20
-59.42349649112753
 30
0.0
  0
VERTEX
  5
961
  8
DATA
  6
CONTINUOUS
 62
     7
 10
32.54181440661656
 20
-59.412920837501069
 30
0.0
  0
VERTEX
  5
962
  8
DATA
  6
CONTINUOUS
 62
     7
 10
32.546798686468023
 20
-59.4023119971569
 30
0.0
  0
VERTEX
  5
963
  8
DATA
  6
CONTINUOUS
 62
     7
 10
32.551703979957033
 20
-59.391669970095109
 30
0.0
  0
VERTEX
  5
964
  8
DATA
  6
CONTINUOUS
 62
     7
 10
32.556530287083568
 20
-59.380994756315687
 30
0.0
  0
VERTEX
  5
965
  8
DATA
  6
CONTINUOUS
 62
     7
 10
32.5612776078477
 20
-59.370286355818592
 30
0.0
  0
VERTEX
  5
966
  8
DATA
  6
CONTINUOUS
 62
     7
 10
32.565945942249321
 20
-59.359544768603833
 30
0.0
  0
VERTEX
  5
967
  8
DATA
  6
CONTINUOUS
 62
     7
 10
32.570535290288518
 20
-59.348769994671393
 30
0.0
  0
VERTEX
  5
968
  8
DATA
  6
CONTINUOUS
 62
     7
 10
32.575045651965247
 20
-59.337962034021302
 30
0.0
  0
VERTEX
  5
969
  8
DATA
  6
CONTINUOUS
 62
     7
 10
32.579477027279538
 20
-59.327120886653539
 30
0.0
  0
VERTEX
  5
96A
  8
DATA
  6
CONTINUOUS
 62
     7
 10
32.583829416231367
 20
-59.316246552568153
 30
0.0
  0
VERTEX
  5
96B
  8
DATA
  6
CONTINUOUS
 62
     7
 10
32.588102818820751
 20
-59.305339031765072
 30
0.0
  0
VERTEX
  5
96C
  8
DATA
  6
CONTINUOUS
 62
     7
 10
32.592297235047681
 20
-59.294398324244348
 30
0.0
  0
VERTEX
  5
96D
  8
DATA
  6
CONTINUOUS
 62
     7
 10
32.596412664912137
 20
-59.283424430005972
 30
0.0
  0
VERTEX
  5
96E
  8
DATA
  6
CONTINUOUS
 62
     7
 10
32.600449108414153
 20
-59.272417349049931
 30
0.0
  0
VERTEX
  5
96F
  8
DATA
  6
CONTINUOUS
 62
     7
 10
32.604406565553717
 20
-59.261377081376217
 30
0.0
  0
VERTEX
  5
970
  8
DATA
  6
CONTINUOUS
 62
     7
 10
32.608285036330827
 20
-59.250303626984881
 30
0.0
  0
VERTEX
  5
971
  8
DATA
  6
CONTINUOUS
 62
     7
 10
32.612084520745483
 20
-59.239196985875893
 30
0.0
  0
VERTEX
  5
972
  8
DATA
  6
CONTINUOUS
 62
     7
 10
32.615805018797673
 20
-59.228057158049182
 30
0.0
  0
VERTEX
  5
973
  8
DATA
  6
CONTINUOUS
 62
     7
 10
32.61944653048743
 20
-59.216884143504849
 30
0.0
  0
VERTEX
  5
974
  8
DATA
  6
CONTINUOUS
 62
     7
 10
32.623009055814713
 20
-59.205677942242893
 30
0.0
  0
VERTEX
  5
975
  8
DATA
  6
CONTINUOUS
 62
     7
 10
32.626492594779549
 20
-59.194438554263257
 30
0.0
  0
VERTEX
  5
976
  8
DATA
  6
CONTINUOUS
 62
     7
 10
32.629897147381932
 20
-59.18316597956597
 30
0.0
  0
VERTEX
  5
977
  8
DATA
  6
CONTINUOUS
 62
     7
 10
32.633222713621862
 20
-59.171860218150982
 30
0.0
  0
VERTEX
  5
978
  8
DATA
  6
CONTINUOUS
 62
     7
 10
32.636469293499331
 20
-59.160521270018371
 30
0.0
  0
VERTEX
  5
979
  8
DATA
  6
CONTINUOUS
 62
     7
 10
32.639636887014362
 20
-59.149149135168066
 30
0.0
  0
VERTEX
  5
97A
  8
DATA
  6
CONTINUOUS
 62
     7
 10
32.642725494166932
 20
-59.137743813600132
 30
0.0
  0
VERTEX
  5
97B
  8
DATA
  6
CONTINUOUS
 62
     7
 10
32.645735114957048
 20
-59.126305305314531
 30
0.0
  0
VERTEX
  5
97C
  8
DATA
  6
CONTINUOUS
 62
     7
 10
32.648665749384712
 20
-59.11483361031128
 30
0.0
  0
VERTEX
  5
97D
  8
DATA
  6
CONTINUOUS
 62
     7
 10
32.651517397449922
 20
-59.103328728590363
 30
0.0
  0
VERTEX
  5
97E
  8
DATA
  6
CONTINUOUS
 62
     7
 10
32.654290059152672
 20
-59.09179066015178
 30
0.0
  0
VERTEX
  5
97F
  8
DATA
  6
CONTINUOUS
 62
     7
 10
32.656983734492989
 20
-59.080219404995539
 30
0.0
  0
VERTEX
  5
980
  8
DATA
  6
CONTINUOUS
 62
     7
 10
32.659598423470833
 20
-59.068614963121647
 30
0.0
  0
VERTEX
  5
981
  8
DATA
  6
CONTINUOUS
 62
     7
 10
32.662134126086208
 20
-59.056977334530131
 30
0.0
  0
VERTEX
  5
982
  8
DATA
  6
CONTINUOUS
 62
     7
 10
32.664590842339152
 20
-59.045306519220887
 30
0.0
  0
VERTEX
  5
983
  8
DATA
  6
CONTINUOUS
 62
     7
 10
32.666968572229642
 20
-59.033602517194019
 30
0.0
  0
VERTEX
  5
984
  8
DATA
  6
CONTINUOUS
 62
     7
 10
32.669267315757672
 20
-59.021865328449543
 30
0.0
  0
VERTEX
  5
985
  8
DATA
  6
CONTINUOUS
 62
     7
 10
32.671487072923242
 20
-59.010094952987373
 30
0.0
  0
VERTEX
  5
986
  8
DATA
  6
CONTINUOUS
 62
     7
 10
32.673627843726358
 20
-58.998291390807537
 30
0.0
  0
VERTEX
  5
987
  8
DATA
  6
CONTINUOUS
 62
     7
 10
32.675689628167028
 20
-58.986454641910022
 30
0.0
  0
VERTEX
  5
988
  8
DATA
  6
CONTINUOUS
 62
     7
 10
32.677672426245252
 20
-58.97458470629487
 30
0.0
  0
VERTEX
  5
989
  8
DATA
  6
CONTINUOUS
 62
     7
 10
32.679576237961008
 20
-58.962681583962052
 30
0.0
  0
VERTEX
  5
98A
  8
DATA
  6
CONTINUOUS
 62
     7
 10
32.681401063314311
 20
-58.950745274911569
 30
0.0
  0
VERTEX
  5
98B
  8
DATA
  6
CONTINUOUS
 62
     7
 10
32.683146902305161
 20
-58.938775779143441
 30
0.0
  0
VERTEX
  5
98C
  8
DATA
  6
CONTINUOUS
 62
     7
 10
32.684813754933558
 20
-58.926773096657648
 30
0.0
  0
VERTEX
  5
98D
  8
DATA
  6
CONTINUOUS
 62
     7
 10
32.684813754933558
 20
-58.926773096657648
 30
0.0
  0
VERTEX
  5
98E
  8
DATA
  6
CONTINUOUS
 62
     7
 10
32.686398789780242
 20
-58.91475813961911
 30
0.0
  0
VERTEX
  5
98F
  8
DATA
  6
CONTINUOUS
 62
     7
 10
32.687899175425962
 20
-58.902751820192691
 30
0.0
  0
VERTEX
  5
990
  8
DATA
  6
CONTINUOUS
 62
     7
 10
32.689314911870703
 20
-58.890754138378441
 30
0.0
  0
VERTEX
  5
991
  8
DATA
  6
CONTINUOUS
 62
     7
 10
32.690645999114473
 20
-58.878765094176302
 30
0.0
  0
VERTEX
  5
992
  8
DATA
  6
CONTINUOUS
 62
     7
 10
32.69189243715725
 20
-58.866784687586311
 30
0.0
  0
VERTEX
  5
993
  8
DATA
  6
CONTINUOUS
 62
     7
 10
32.693054225999077
 20
-58.854812918608467
 30
0.0
  0
VERTEX
  5
994
  8
DATA
  6
CONTINUOUS
 62
     7
 10
32.69413136563994
 20
-58.842849787242777
 30
0.0
  0
VERTEX
  5
995
  8
DATA
  6
CONTINUOUS
 62
     7
 10
32.695123856079803
 20
-58.83089529348922
 30
0.0
  0
VERTEX
  5
996
  8
DATA
  6
CONTINUOUS
 62
     7
 10
32.696031697318702
 20
-58.818949437347783
 30
0.0
  0
VERTEX
  5
997
  8
DATA
  6
CONTINUOUS
 62
     7
 10
32.696854889356629
 20
-58.807012218818528
 30
0.0
  0
VERTEX
  5
998
  8
DATA
  6
CONTINUOUS
 62
     7
 10
32.697593432193607
 20
-58.795083637901371
 30
0.0
  0
VERTEX
  5
999
  8
DATA
  6
CONTINUOUS
 62
     7
 10
32.698247325829591
 20
-58.783163694596389
 30
0.0
  0
VERTEX
  5
99A
  8
DATA
  6
CONTINUOUS
 62
     7
 10
32.698816570264611
 20
-58.771252388903541
 30
0.0
  0
VERTEX
  5
99B
  8
DATA
  6
CONTINUOUS
 62
     7
 10
32.699301165498632
 20
-58.759349720822819
 30
0.0
  0
VERTEX
  5
99C
  8
DATA
  6
CONTINUOUS
 62
     7
 10
32.699701111531688
 20
-58.747455690354258
 30
0.0
  0
VERTEX
  5
99D
  8
DATA
  6
CONTINUOUS
 62
     7
 10
32.700016408363801
 20
-58.735570297497823
 30
0.0
  0
VERTEX
  5
99E
  8
DATA
  6
CONTINUOUS
 62
     7
 10
32.700247055994922
 20
-58.723693542253507
 30
0.0
  0
VERTEX
  5
99F
  8
DATA
  6
CONTINUOUS
 62
     7
 10
32.700393054425078
 20
-58.71182542462136
 30
0.0
  0
VERTEX
  5
9A0
  8
DATA
  6
CONTINUOUS
 62
     7
 10
32.700454403654263
 20
-58.699965944601331
 30
0.0
  0
VERTEX
  5
9A1
  8
DATA
  6
CONTINUOUS
 62
     7
 10
32.700431103682469
 20
-58.688115102193478
 30
0.0
  0
VERTEX
  5
9A2
  8
DATA
  6
CONTINUOUS
 62
     7
 10
32.70032315450969
 20
-58.676272897397737
 30
0.0
  0
VERTEX
  5
9A3
  8
DATA
  6
CONTINUOUS
 62
     7
 10
32.70013055613596
 20
-58.664439330214179
 30
0.0
  0
VERTEX
  5
9A4
  8
DATA
  6
CONTINUOUS
 62
     7
 10
32.699853308561252
 20
-58.652614400642733
 30
0.0
  0
VERTEX
  5
9A5
  8
DATA
  6
CONTINUOUS
 62
     7
 10
32.699491411785559
 20
-58.640798108683398
 30
0.0
  0
VERTEX
  5
9A6
  8
DATA
  6
CONTINUOUS
 62
     7
 10
32.699044865808901
 20
-58.628990454336247
 30
0.0
  0
VERTEX
  5
9A7
  8
DATA
  6
CONTINUOUS
 62
     7
 10
32.698513670631272
 20
-58.617191437601207
 30
0.0
  0
VERTEX
  5
9A8
  8
DATA
  6
CONTINUOUS
 62
     7
 10
32.697897826252657
 20
-58.605401058478321
 30
0.0
  0
VERTEX
  5
9A9
  8
DATA
  6
CONTINUOUS
 62
     7
 10
32.697197332673078
 20
-58.59361931696759
 30
0.0
  0
VERTEX
  5
9AA
  8
DATA
  6
CONTINUOUS
 62
     7
 10
32.696412189892541
 20
-58.581846213068971
 30
0.0
  0
VERTEX
  5
9AB
  8
DATA
  6
CONTINUOUS
 62
     7
 10
32.695542397911012
 20
-58.570081746782542
 30
0.0
  0
VERTEX
  5
9AC
  8
DATA
  6
CONTINUOUS
 62
     7
 10
32.694587956728512
 20
-58.558325918108217
 30
0.0
  0
VERTEX
  5
9AD
  8
DATA
  6
CONTINUOUS
 62
     7
 10
32.693548866345061
 20
-58.546578727045997
 30
0.0
  0
VERTEX
  5
9AE
  8
DATA
  6
CONTINUOUS
 62
     7
 10
32.692425126760632
 20
-58.534840173595981
 30
0.0
  0
VERTEX
  5
9AF
  8
DATA
  6
CONTINUOUS
 62
     7
 10
32.691216737975211
 20
-58.523110257758077
 30
0.0
  0
VERTEX
  5
9B0
  8
DATA
  6
CONTINUOUS
 62
     7
 10
32.689923699988817
 20
-58.511388979532349
 30
0.0
  0
VERTEX
  5
9B1
  8
DATA
  6
CONTINUOUS
 62
     7
 10
32.688546012801481
 20
-58.499676338918697
 30
0.0
  0
VERTEX
  5
9B2
  8
DATA
  6
CONTINUOUS
 62
     7
 10
32.687083676413138
 20
-58.487972335917213
 30
0.0
  0
VERTEX
  5
9B3
  8
DATA
  6
CONTINUOUS
 62
     7
 10
32.685536690823838
 20
-58.476276970527877
 30
0.0
  0
VERTEX
  5
9B4
  8
DATA
  6
CONTINUOUS
 62
     7
 10
32.683905056033574
 20
-58.464590242750681
 30
0.0
  0
VERTEX
  5
9B5
  8
DATA
  6
CONTINUOUS
 62
     7
 10
32.682188772042309
 20
-58.45291215258564
 30
0.0
  0
VERTEX
  5
9B6
  8
DATA
  6
CONTINUOUS
 62
     7
 10
32.680387838850081
 20
-58.441242700032717
 30
0.0
  0
VERTEX
  5
9B7
  8
DATA
  6
CONTINUOUS
 62
     7
 10
32.678502256456888
 20
-58.429581885091928
 30
0.0
  0
VERTEX
  5
9B8
  8
DATA
  6
CONTINUOUS
 62
     7
 10
32.67653202486273
 20
-58.417929707763349
 30
0.0
  0
VERTEX
  5
9B9
  8
DATA
  6
CONTINUOUS
 62
     7
 10
32.674477144067602
 20
-58.406286168046861
 30
0.0
  0
VERTEX
  5
9BA
  8
DATA
  6
CONTINUOUS
 62
     7
 10
32.672337614071481
 20
-58.394651265942507
 30
0.0
  0
VERTEX
  5
9BB
  8
DATA
  6
CONTINUOUS
 62
     7
 10
32.670113434874388
 20
-58.383025001450299
 30
0.0
  0
VERTEX
  5
9BC
  8
DATA
  6
CONTINUOUS
 62
     7
 10
32.667804606476338
 20
-58.371407374570232
 30
0.0
  0
VERTEX
  5
9BD
  8
DATA
  6
CONTINUOUS
 62
     7
 10
32.665411128877309
 20
-58.359798385302298
 30
0.0
  0
VERTEX
  5
9BE
  8
DATA
  6
CONTINUOUS
 62
     7
 10
32.66293300207731
 20
-58.34819803364649
 30
0.0
  0
VERTEX
  5
9BF
  8
DATA
  6
CONTINUOUS
 62
     7
 10
32.660370226076317
 20
-58.336606319602851
 30
0.0
  0
VERTEX
  5
9C0
  8
DATA
  6
CONTINUOUS
 62
     7
 10
32.657722800874382
 20
-58.325023243171358
 30
0.0
  0
VERTEX
  5
9C1
  8
DATA
  6
CONTINUOUS
 62
     7
 10
32.654990726471453
 20
-58.313448804351992
 30
0.0
  0
VERTEX
  5
9C2
  8
DATA
  6
CONTINUOUS
 62
     7
 10
32.652174002867568
 20
-58.301883003144781
 30
0.0
  0
VERTEX
  5
9C3
  8
DATA
  6
CONTINUOUS
 62
     7
 10
32.649272630062697
 20
-58.290325839549702
 30
0.0
  0
VERTEX
  5
9C4
  8
DATA
  6
CONTINUOUS
 62
     7
 10
32.646286608056847
 20
-58.278777313566763
 30
0.0
  0
VERTEX
  5
9C5
  8
DATA
  6
CONTINUOUS
 62
     7
 10
32.643215936850062
 20
-58.267237425195958
 30
0.0
  0
VERTEX
  5
9C6
  8
DATA
  6
CONTINUOUS
 62
     7
 10
32.640060616442291
 20
-58.255706174437293
 30
0.0
  0
VERTEX
  5
9C7
  8
DATA
  6
CONTINUOUS
 62
     7
 10
32.636820646833527
 20
-58.244183561290782
 30
0.0
  0
VERTEX
  5
9C8
  8
DATA
  6
CONTINUOUS
 62
     7
 10
32.633496028023799
 20
-58.232669585756398
 30
0.0
  0
VERTEX
  5
9C9
  8
DATA
  6
CONTINUOUS
 62
     7
 10
32.6300867600131
 20
-58.22116424783416
 30
0.0
  0
VERTEX
  5
9CA
  8
DATA
  6
CONTINUOUS
 62
     7
 10
32.626592842801429
 20
-58.209667547524077
 30
0.0
  0
VERTEX
  5
9CB
  8
DATA
  6
CONTINUOUS
 62
     7
 10
32.623014276388773
 20
-58.198179484826113
 30
0.0
  0
VERTEX
  5
9CC
  8
DATA
  6
CONTINUOUS
 62
     7
 10
32.619351060775152
 20
-58.186700059740303
 30
0.0
  0
VERTEX
  5
9CD
  8
DATA
  6
CONTINUOUS
 62
     7
 10
32.61560319596056
 20
-58.175229272266648
 30
0.0
  0
VERTEX
  5
9CE
  8
DATA
  6
CONTINUOUS
 62
     7
 10
32.61560319596056
 20
-58.175229272266648
 30
0.0
  0
SEQEND
  5
9CF
  8
DATA
  6
CONTINUOUS
 62
     7
  0
POLYLINE
  5
3FB
  8
DATA
  6
CONTINUOUS
 62
     7
 66
     1
 10
0.0
 20
0.0
 30
0.0
 70
   128
  0
VERTEX
  5
9D0
  8
DATA
  6
CONTINUOUS
 62
     7
 10
30.51179947829581
 20
-58.70101935198754
 30
0.0
  0
VERTEX
  5
9D1
  8
DATA
  6
CONTINUOUS
 62
     7
 10
30.515400576874072
 20
-58.701005759459619
 30
0.0
  0
VERTEX
  5
9D2
  8
DATA
  6
CONTINUOUS
 62
     7
 10
30.518995404649019
 20
-58.70096498187592
 30
0.0
  0
VERTEX
  5
9D3
  8
DATA
  6
CONTINUOUS
 62
     7
 10
30.522583961620651
 20
-58.700897019236457
 30
0.0
  0
VERTEX
  5
9D4
  8
DATA
  6
CONTINUOUS
 62
     7
 10
30.52616624778895
 20
-58.700801871541223
 30
0.0
  0
VERTEX
  5
9D5
  8
DATA
  6
CONTINUOUS
 62
     7
 10
30.529742263153931
 20
-58.700679538790162
 30
0.0
  0
VERTEX
  5
9D6
  8
DATA
  6
CONTINUOUS
 62
     7
 10
30.533312007715612
 20
-58.700530020983287
 30
0.0
  0
VERTEX
  5
9D7
  8
DATA
  6
CONTINUOUS
 62
     7
 10
30.53687548147397
 20
-58.70035331812069
 30
0.0
  0
VERTEX
  5
9D8
  8
DATA
  6
CONTINUOUS
 62
     7
 10
30.540432684429021
 20
-58.700149430202252
 30
0.0
  0
VERTEX
  5
9D9
  8
DATA
  6
CONTINUOUS
 62
     7
 10
30.543983616580739
 20
-58.699918357228022
 30
0.0
  0
VERTEX
  5
9DA
  8
DATA
  6
CONTINUOUS
 62
     7
 10
30.54752827792916
 20
-58.699660099197999
 30
0.0
  0
VERTEX
  5
9DB
  8
DATA
  6
CONTINUOUS
 62
     7
 10
30.551066668474249
 20
-58.699374656112212
 30
0.0
  0
VERTEX
  5
9DC
  8
DATA
  6
CONTINUOUS
 62
     7
 10
30.554598788216019
 20
-58.699062027970619
 30
0.0
  0
VERTEX
  5
9DD
  8
DATA
  6
CONTINUOUS
 62
     7
 10
30.558124637154489
 20
-58.698722214773262
 30
0.0
  0
VERTEX
  5
9DE
  8
DATA
  6
CONTINUOUS
 62
     7
 10
30.56164421528964
 20
-58.698355216520099
 30
0.0
  0
VERTEX
  5
9DF
  8
DATA
  6
CONTINUOUS
 62
     7
 10
30.565157522621469
 20
-58.697961033211143
 30
0.0
  0
VERTEX
  5
9E0
  8
DATA
  6
CONTINUOUS
 62
     7
 10
30.568664559149969
 20
-58.69753966484636
 30
0.0
  0
VERTEX
  5
9E1
  8
DATA
  6
CONTINUOUS
 62
     7
 10
30.572165324875161
 20
-58.697091111425848
 30
0.0
  0
VERTEX
  5
9E2
  8
DATA
  6
CONTINUOUS
 62
     7
 10
30.575659819797039
 20
-58.696615372949502
 30
0.0
  0
VERTEX
  5
9E3
  8
DATA
  6
CONTINUOUS
 62
     7
 10
30.579148043915598
 20
-58.69611244941737
 30
0.0
  0
VERTEX
  5
9E4
  8
DATA
  6
CONTINUOUS
 62
     7
 10
30.582629997230839
 20
-58.695582340829482
 30
0.0
  0
VERTEX
  5
9E5
  8
DATA
  6
CONTINUOUS
 62
     7
 10
30.586105679742762
 20
-58.695025047185787
 30
0.0
  0
VERTEX
  5
9E6
  8
DATA
  6
CONTINUOUS
 62
     7
 10
30.589575091451369
 20
-58.6944405684863
 30
0.0
  0
VERTEX
  5
9E7
  8
DATA
  6
CONTINUOUS
 62
     7
 10
30.593038232356658
 20
-58.693828904731028
 30
0.0
  0
VERTEX
  5
9E8
  8
DATA
  6
CONTINUOUS
 62
     7
 10
30.59649510245864
 20
-58.69319005591997
 30
0.0
  0
VERTEX
  5
9E9
  8
DATA
  6
CONTINUOUS
 62
     7
 10
30.599945701757289
 20
-58.692524022053107
 30
0.0
  0
VERTEX
  5
9EA
  8
DATA
  6
CONTINUOUS
 62
     7
 10
30.60339003025263
 20
-58.691830803130458
 30
0.0
  0
VERTEX
  5
9EB
  8
DATA
  6
CONTINUOUS
 62
     7
 10
30.606828087944649
 20
-58.691110399152024
 30
0.0
  0
VERTEX
  5
9EC
  8
DATA
  6
CONTINUOUS
 62
     7
 10
30.610259874833361
 20
-58.69036281011779
 30
0.0
  0
VERTEX
  5
9ED
  8
DATA
  6
CONTINUOUS
 62
     7
 10
30.61368539091875
 20
-58.689588036027772
 30
0.0
  0
VERTEX
  5
9EE
  8
DATA
  6
CONTINUOUS
 62
     7
 10
30.617104636200839
 20
-58.688786076881982
 30
0.0
  0
VERTEX
  5
9EF
  8
DATA
  6
CONTINUOUS
 62
     7
 10
30.620517610679592
 20
-58.687956932680351
 30
0.0
  0
VERTEX
  5
9F0
  8
DATA
  6
CONTINUOUS
 62
     7
 10
30.62392431435503
 20
-58.687100603422948
 30
0.0
  0
VERTEX
  5
9F1
  8
DATA
  6
CONTINUOUS
 62
     7
 10
30.627324747227149
 20
-58.686217089109753
 30
0.0
  0
VERTEX
  5
9F2
  8
DATA
  6
CONTINUOUS
 62
     7
 10
30.630718909295972
 20
-58.685306389740781
 30
0.0
  0
VERTEX
  5
9F3
  8
DATA
  6
CONTINUOUS
 62
     7
 10
30.634106800561451
 20
-58.684368505316002
 30
0.0
  0
VERTEX
  5
9F4
  8
DATA
  6
CONTINUOUS
 62
     7
 10
30.637488421023608
 20
-58.683403435835459
 30
0.0
  0
VERTEX
  5
9F5
  8
DATA
  6
CONTINUOUS
 62
     7
 10
30.640863770682468
 20
-58.68241118129913
 30
0.0
  0
VERTEX
  5
9F6
  8
DATA
  6
CONTINUOUS
 62
     7
 10
30.64423284953801
 20
-58.681391741706967
 30
0.0
  0
VERTEX
  5
9F7
  8
DATA
  6
CONTINUOUS
 62
     7
 10
30.64759565759023
 20
-58.680345117059062
 30
0.0
  0
VERTEX
  5
9F8
  8
DATA
  6
CONTINUOUS
 62
     7
 10
30.650952194839149
 20
-58.679271307355357
 30
0.0
  0
VERTEX
  5
9F9
  8
DATA
  6
CONTINUOUS
 62
     7
 10
30.654302461284729
 20
-58.678170312595853
 30
0.0
  0
VERTEX
  5
9FA
  8
DATA
  6
CONTINUOUS
 62
     7
 10
30.657646456927019
 20
-58.677042132780571
 30
0.0
  0
VERTEX
  5
9FB
  8
DATA
  6
CONTINUOUS
 62
     7
 10
30.660984181765969
 20
-58.675886767909482
 30
0.0
  0
VERTEX
  5
9FC
  8
DATA
  6
CONTINUOUS
 62
     7
 10
30.6643156358016
 20
-58.674704217982587
 30
0.0
  0
VERTEX
  5
9FD
  8
DATA
  6
CONTINUOUS
 62
     7
 10
30.667640819033931
 20
-58.673494482999928
 30
0.0
  0
VERTEX
  5
9FE
  8
DATA
  6
CONTINUOUS
 62
     7
 10
30.670959731462929
 20
-58.67225756296147
 30
0.0
  0
VERTEX
  5
9FF
  8
DATA
  6
CONTINUOUS
 62
     7
 10
30.674272373088609
 20
-58.67099345786724
 30
0.0
  0
VERTEX
  5
A00
  8
DATA
  6
CONTINUOUS
 62
     7
 10
30.677578743910981
 20
-58.66970216771719
 30
0.0
  0
VERTEX
  5
A01
  8
DATA
  6
CONTINUOUS
 62
     7
 10
30.680878843930032
 20
-58.668383692511348
 30
0.0
  0
VERTEX
  5
A02
  8
DATA
  6
CONTINUOUS
 62
     7
 10
30.68417267314577
 20
-58.667038032249749
 30
0.0
  0
VERTEX
  5
A03
  8
DATA
  6
CONTINUOUS
 62
     7
 10
30.68746023155818
 20
-58.665665186932323
 30
0.0
  0
VERTEX
  5
A04
  8
DATA
  6
CONTINUOUS
 62
     7
 10
30.69074151916729
 20
-58.664265156559139
 30
0.0
  0
VERTEX
  5
A05
  8
DATA
  6
CONTINUOUS
 62
     7
 10
30.694016535973081
 20
-58.662837941130142
 30
0.0
  0
VERTEX
  5
A06
  8
DATA
  6
CONTINUOUS
 62
     7
 10
30.697285281975539
 20
-58.661383540645382
 30
0.0
  0
VERTEX
  5
A07
  8
DATA
  6
CONTINUOUS
 62
     7
 10
30.7005477571747
 20
-58.6599019551048
 30
0.0
  0
VERTEX
  5
A08
  8
DATA
  6
CONTINUOUS
 62
     7
 10
30.703803961570529
 20
-58.658393184508441
 30
0.0
  0
VERTEX
  5
A09
  8
DATA
  6
CONTINUOUS
 62
     7
 10
30.70705389516306
 20
-58.656857228856289
 30
0.0
  0
VERTEX
  5
A0A
  8
DATA
  6
CONTINUOUS
 62
     7
 10
30.710297557952259
 20
-58.655294088148359
 30
0.0
  0
VERTEX
  5
A0B
  8
DATA
  6
CONTINUOUS
 62
     7
 10
30.71353494993814
 20
-58.653703762384623
 30
0.0
  0
VERTEX
  5
A0C
  8
DATA
  6
CONTINUOUS
 62
     7
 10
30.71676607112072
 20
-58.652086251565102
 30
0.0
  0
VERTEX
  5
A0D
  8
DATA
  6
CONTINUOUS
 62
     7
 10
30.71999092149996
 20
-58.650441555689781
 30
0.0
  0
VERTEX
  5
A0E
  8
DATA
  6
CONTINUOUS
 62
     7
 10
30.7232095010759
 20
-58.648769674758711
 30
0.0
  0
VERTEX
  5
A0F
  8
DATA
  6
CONTINUOUS
 62
     7
 10
30.726421809848521
 20
-58.647070608771827
 30
0.0
  0
VERTEX
  5
A10
  8
DATA
  6
CONTINUOUS
 62
     7
 10
30.729627847817831
 20
-58.64534435772913
 30
0.0
  0
VERTEX
  5
A11
  8
DATA
  6
CONTINUOUS
 62
     7
 10
30.729627847817831
 20
-58.64534435772913
 30
0.0
  0
VERTEX
  5
A12
  8
DATA
  6
CONTINUOUS
 62
     7
 10
30.732822042434371
 20
-58.643593948686323
 30
0.0
  0
VERTEX
  5
A13
  8
DATA
  6
CONTINUOUS
 62
     7
 10
30.73599882114873
 20
-58.641822408698999
 30
0.0
  0
VERTEX
  5
A14
  8
DATA
  6
CONTINUOUS
 62
     7
 10
30.739158183960878
 20
-58.6400297377672
 30
0.0
  0
VERTEX
  5
A15
  8
DATA
  6
CONTINUOUS
 62
     7
 10
30.742300130870831
 20
-58.638215935890898
 30
0.0
  0
VERTEX
  5
A16
  8
DATA
  6
CONTINUOUS
 62
     7
 10
30.745424661878591
 20
-58.636381003070142
 30
0.0
  0
VERTEX
  5
A17
  8
DATA
  6
CONTINUOUS
 62
     7
 10
30.748531776984169
 20
-58.634524939304839
 30
0.0
  0
VERTEX
  5
A18
  8
DATA
  6
CONTINUOUS
 62
     7
 10
30.75162147618753
 20
-58.632647744595062
 30
0.0
  0
VERTEX
  5
A19
  8
DATA
  6
CONTINUOUS
 62
     7
 10
30.75469375948872
 20
-58.63074941894083
 30
0.0
  0
VERTEX
  5
A1A
  8
DATA
  6
CONTINUOUS
 62
     7
 10
30.75774862688769
 20
-58.62882996234211
 30
0.0
  0
VERTEX
  5
A1B
  8
DATA
  6
CONTINUOUS
 62
     7
 10
30.76078607838447
 20
-58.626889374798871
 30
0.0
  0
VERTEX
  5
A1C
  8
DATA
  6
CONTINUOUS
 62
     7
 10
30.763806113979051
 20
-58.624927656311172
 30
0.0
  0
VERTEX
  5
A1D
  8
DATA
  6
CONTINUOUS
 62
     7
 10
30.76680873367145
 20
-58.622944806878927
 30
0.0
  0
VERTEX
  5
A1E
  8
DATA
  6
CONTINUOUS
 62
     7
 10
30.769793937461639
 20
-58.620940826502249
 30
0.0
  0
VERTEX
  5
A1F
  8
DATA
  6
CONTINUOUS
 62
     7
 10
30.77276172534965
 20
-58.618915715181032
 30
0.0
  0
VERTEX
  5
A20
  8
DATA
  6
CONTINUOUS
 62
     7
 10
30.77571209733545
 20
-58.61686947291534
 30
0.0
  0
VERTEX
  5
A21
  8
DATA
  6
CONTINUOUS
 62
     7
 10
30.778645053419051
 20
-58.614802099705201
 30
0.0
  0
VERTEX
  5
A22
  8
DATA
  6
CONTINUOUS
 62
     7
 10
30.781560593600481
 20
-58.612713595550566
 30
0.0
  0
VERTEX
  5
A23
  8
DATA
  6
CONTINUOUS
 62
     7
 10
30.784458717879701
 20
-58.610603960451392
 30
0.0
  0
VERTEX
  5
A24
  8
DATA
  6
CONTINUOUS
 62
     7
 10
30.787339426256722
 20
-58.608473194407793
 30
0.0
  0
VERTEX
  5
A25
  8
DATA
  6
CONTINUOUS
 62
     7
 10
30.790202718731528
 20
-58.60632129741964
 30
0.0
  0
VERTEX
  5
A26
  8
DATA
  6
CONTINUOUS
 62
     7
 10
30.79304859530416
 20
-58.604148269487041
 30
0.0
  0
VERTEX
  5
A27
  8
DATA
  6
CONTINUOUS
 62
     7
 10
30.7958770559746
 20
-58.601954110609903
 30
0.0
  0
VERTEX
  5
A28
  8
DATA
  6
CONTINUOUS
 62
     7
 10
30.79868810074284
 20
-58.599738820788289
 30
0.0
  0
VERTEX
  5
A29
  8
DATA
  6
CONTINUOUS
 62
     7
 10
30.801481729608881
 20
-58.597502400022222
 30
0.0
  0
VERTEX
  5
A2A
  8
DATA
  6
CONTINUOUS
 62
     7
 10
30.804257942572729
 20
-58.595244848311637
 30
0.0
  0
VERTEX
  5
A2B
  8
DATA
  6
CONTINUOUS
 62
     7
 10
30.807016739634388
 20
-58.59296616565657
 30
0.0
  0
VERTEX
  5
A2C
  8
DATA
  6
CONTINUOUS
 62
     7
 10
30.80975812079383
 20
-58.590666352056999
 30
0.0
  0
VERTEX
  5
A2D
  8
DATA
  6
CONTINUOUS
 62
     7
 10
30.812482086051091
 20
-58.588345407512961
 30
0.0
  0
VERTEX
  5
A2E
  8
DATA
  6
CONTINUOUS
 62
     7
 10
30.815188635406159
 20
-58.586003332024397
 30
0.0
  0
VERTEX
  5
A2F
  8
DATA
  6
CONTINUOUS
 62
     7
 10
30.81787776885902
 20
-58.583640125591359
 30
0.0
  0
VERTEX
  5
A30
  8
DATA
  6
CONTINUOUS
 62
     7
 10
30.8205494864097
 20
-58.581255788213838
 30
0.0
  0
VERTEX
  5
A31
  8
DATA
  6
CONTINUOUS
 62
     7
 10
30.823203788058169
 20
-58.578850319891842
 30
0.0
  0
VERTEX
  5
A32
  8
DATA
  6
CONTINUOUS
 62
     7
 10
30.82584067380445
 20
-58.576423720625343
 30
0.0
  0
VERTEX
  5
A33
  8
DATA
  6
CONTINUOUS
 62
     7
 10
30.828460143648549
 20
-58.573975990414333
 30
0.0
  0
VERTEX
  5
A34
  8
DATA
  6
CONTINUOUS
 62
     7
 10
30.83106219759043
 20
-58.571507129258862
 30
0.0
  0
VERTEX
  5
A35
  8
DATA
  6
CONTINUOUS
 62
     7
 10
30.83364683563012
 20
-58.56901713715888
 30
0.0
  0
VERTEX
  5
A36
  8
DATA
  6
CONTINUOUS
 62
     7
 10
30.83621405776762
 20
-58.56650601411441
 30
0.0
  0
VERTEX
  5
A37
  8
DATA
  6
CONTINUOUS
 62
     7
 10
30.838763864002932
 20
-58.563973760125457
 30
0.0
  0
VERTEX
  5
A38
  8
DATA
  6
CONTINUOUS
 62
     7
 10
30.841296254336029
 20
-58.561420375192021
 30
0.0
  0
VERTEX
  5
A39
  8
DATA
  6
CONTINUOUS
 62
     7
 10
30.843811228766931
 20
-58.55884585931409
 30
0.0
  0
VERTEX
  5
A3A
  8
DATA
  6
CONTINUOUS
 62
     7
 10
30.846308787295651
 20
-58.556250212491683
 30
0.0
  0
VERTEX
  5
A3B
  8
DATA
  6
CONTINUOUS
 62
     7
 10
30.848788929922179
 20
-58.553633434724752
 30
0.0
  0
VERTEX
  5
A3C
  8
DATA
  6
CONTINUOUS
 62
     7
 10
30.8512516566465
 20
-58.550995526013367
 30
0.0
  0
VERTEX
  5
A3D
  8
DATA
  6
CONTINUOUS
 62
     7
 10
30.853696967468629
 20
-58.548336486357471
 30
0.0
  0
VERTEX
  5
A3E
  8
DATA
  6
CONTINUOUS
 62
     7
 10
30.856124862388558
 20
-58.545656315757071
 30
0.0
  0
VERTEX
  5
A3F
  8
DATA
  6
CONTINUOUS
 62
     7
 10
30.858535341406292
 20
-58.542955014212211
 30
0.0
  0
VERTEX
  5
A40
  8
DATA
  6
CONTINUOUS
 62
     7
 10
30.860928404521829
 20
-58.540232581722819
 30
0.0
  0
VERTEX
  5
A41
  8
DATA
  6
CONTINUOUS
 62
     7
 10
30.863304051735181
 20
-58.537489018288973
 30
0.0
  0
VERTEX
  5
A42
  8
DATA
  6
CONTINUOUS
 62
     7
 10
30.865662283046319
 20
-58.534724323910638
 30
0.0
  0
VERTEX
  5
A43
  8
DATA
  6
CONTINUOUS
 62
     7
 10
30.86800309845529
 20
-58.531938498587799
 30
0.0
  0
VERTEX
  5
A44
  8
DATA
  6
CONTINUOUS
 62
     7
 10
30.870326497962019
 20
-58.529131542320471
 30
0.0
  0
VERTEX
  5
A45
  8
DATA
  6
CONTINUOUS
 62
     7
 10
30.87263248156659
 20
-58.526303455108653
 30
0.0
  0
VERTEX
  5
A46
  8
DATA
  6
CONTINUOUS
 62
     7
 10
30.874921049268949
 20
-58.523454236952382
 30
0.0
  0
VERTEX
  5
A47
  8
DATA
  6
CONTINUOUS
 62
     7
 10
30.877192201069121
 20
-58.520583887851558
 30
0.0
  0
VERTEX
  5
A48
  8
DATA
  6
CONTINUOUS
 62
     7
 10
30.879445936967091
 20
-58.517692407806301
 30
0.0
  0
VERTEX
  5
A49
  8
DATA
  6
CONTINUOUS
 62
     7
 10
30.881682256962861
 20
-58.514779796816541
 30
0.0
  0
VERTEX
  5
A4A
  8
DATA
  6
CONTINUOUS
 62
     7
 10
30.88390116105645
 20
-58.511846054882263
 30
0.0
  0
VERTEX
  5
A4B
  8
DATA
  6
CONTINUOUS
 62
     7
 10
30.886102649247832
 20
-58.508891182003509
 30
0.0
  0
VERTEX
  5
A4C
  8
DATA
  6
CONTINUOUS
 62
     7
 10
30.888286721537028
 20
-58.505915178180253
 30
0.0
  0
VERTEX
  5
A4D
  8
DATA
  6
CONTINUOUS
 62
     7
 10
30.890453377924018
 20
-58.502918043412542
 30
0.0
  0
VERTEX
  5
A4E
  8
DATA
  6
CONTINUOUS
 62
     7
 10
30.892602618408819
 20
-58.499899777700307
 30
0.0
  0
VERTEX
  5
A4F
  8
DATA
  6
CONTINUOUS
 62
     7
 10
30.894734442991432
 20
-58.496860381043582
 30
0.0
  0
VERTEX
  5
A50
  8
DATA
  6
CONTINUOUS
 62
     7
 10
30.896848851671841
 20
-58.493799853442397
 30
0.0
  0
VERTEX
  5
A51
  8
DATA
  6
CONTINUOUS
 62
     7
 10
30.89894584445004
 20
-58.490718194896687
 30
0.0
  0
VERTEX
  5
A52
  8
DATA
  6
CONTINUOUS
 62
     7
 10
30.89894584445004
 20
-58.490718194896687
 30
0.0
  0
VERTEX
  5
A53
  8
DATA
  6
CONTINUOUS
 62
     7
 10
30.901021788037109
 20
-58.487620785392579
 30
0.0
  0
VERTEX
  5
A54
  8
DATA
  6
CONTINUOUS
 62
     7
 10
30.90307304914414
 20
-58.484513004916131
 30
0.0
  0
VERTEX
  5
A55
  8
DATA
  6
CONTINUOUS
 62
     7
 10
30.905099627771119
 20
-58.481394853467322
 30
0.0
  0
VERTEX
  5
A56
  8
DATA
  6
CONTINUOUS
 62
     7
 10
30.907101523918051
 20
-58.478266331046228
 30
0.0
  0
VERTEX
  5
A57
  8
DATA
  6
CONTINUOUS
 62
     7
 10
30.90907873758491
 20
-58.47512743765278
 30
0.0
  0
VERTEX
  5
A58
  8
DATA
  6
CONTINUOUS
 62
     7
 10
30.91103126877173
 20
-58.471978173286999
 30
0.0
  0
VERTEX
  5
A59
  8
DATA
  6
CONTINUOUS
 62
     7
 10
30.912959117478479
 20
-58.468818537948863
 30
0.0
  0
VERTEX
  5
A5A
  8
DATA
  6
CONTINUOUS
 62
     7
 10
30.914862283705158
 20
-58.465648531638386
 30
0.0
  0
VERTEX
  5
A5B
  8
DATA
  6
CONTINUOUS
 62
     7
 10
30.916740767451799
 20
-58.462468154355577
 30
0.0
  0
VERTEX
  5
A5C
  8
DATA
  6
CONTINUOUS
 62
     7
 10
30.91859456871838
 20
-58.459277406100398
 30
0.0
  0
VERTEX
  5
A5D
  8
DATA
  6
CONTINUOUS
 62
     7
 10
30.920423687504911
 20
-58.456076286872928
 30
0.0
  0
VERTEX
  5
A5E
  8
DATA
  6
CONTINUOUS
 62
     7
 10
30.922228123811369
 20
-58.452864796673097
 30
0.0
  0
VERTEX
  5
A5F
  8
DATA
  6
CONTINUOUS
 62
     7
 10
30.924007877637809
 20
-58.449642935500982
 30
0.0
  0
VERTEX
  5
A60
  8
DATA
  6
CONTINUOUS
 62
     7
 10
30.925762948984161
 20
-58.446410703356491
 30
0.0
  0
VERTEX
  5
A61
  8
DATA
  6
CONTINUOUS
 62
     7
 10
30.927493337850471
 20
-58.44316810023966
 30
0.0
  0
VERTEX
  5
A62
  8
DATA
  6
CONTINUOUS
 62
     7
 10
30.929199044236711
 20
-58.439915126150481
 30
0.0
  0
VERTEX
  5
A63
  8
DATA
  6
CONTINUOUS
 62
     7
 10
30.930880068142908
 20
-58.436651781088969
 30
0.0
  0
VERTEX
  5
A64
  8
DATA
  6
CONTINUOUS
 62
     7
 10
30.932536409569039
 20
-58.433378065055138
 30
0.0
  0
VERTEX
  5
A65
  8
DATA
  6
CONTINUOUS
 62
     7
 10
30.93416806851512
 20
-58.430093978048937
 30
0.0
  0
VERTEX
  5
A66
  8
DATA
  6
CONTINUOUS
 62
     7
 10
30.93577504498116
 20
-58.426799520070432
 30
0.0
  0
VERTEX
  5
A67
  8
DATA
  6
CONTINUOUS
 62
     7
 10
30.937357338967129
 20
-58.423494691119558
 30
0.0
  0
VERTEX
  5
A68
  8
DATA
  6
CONTINUOUS
 62
     7
 10
30.938914950473041
 20
-58.4201794911964
 30
0.0
  0
VERTEX
  5
A69
  8
DATA
  6
CONTINUOUS
 62
     7
 10
30.940447879498901
 20
-58.416853920300859
 30
0.0
  0
VERTEX
  5
A6A
  8
DATA
  6
CONTINUOUS
 62
     7
 10
30.941956126044701
 20
-58.413517978432992
 30
0.0
  0
VERTEX
  5
A6B
  8
DATA
  6
CONTINUOUS
 62
     7
 10
30.943439690110448
 20
-58.410171665592792
 30
0.0
  0
VERTEX
  5
A6C
  8
DATA
  6
CONTINUOUS
 62
     7
 10
30.944898571696129
 20
-58.406814981780258
 30
0.0
  0
VERTEX
  5
A6D
  8
DATA
  6
CONTINUOUS
 62
     7
 10
30.946332770801771
 20
-58.403447926995362
 30
0.0
  0
VERTEX
  5
A6E
  8
DATA
  6
CONTINUOUS
 62
     7
 10
30.947742287427349
 20
-58.400070501238133
 30
0.0
  0
VERTEX
  5
A6F
  8
DATA
  6
CONTINUOUS
 62
     7
 10
30.949127121572889
 20
-58.396682704508571
 30
0.0
  0
VERTEX
  5
A70
  8
DATA
  6
CONTINUOUS
 62
     7
 10
30.950487273238359
 20
-58.393284536806682
 30
0.0
  0
VERTEX
  5
A71
  8
DATA
  6
CONTINUOUS
 62
     7
 10
30.951822742423769
 20
-58.389875998132467
 30
0.0
  0
VERTEX
  5
A72
  8
DATA
  6
CONTINUOUS
 62
     7
 10
30.953133529129119
 20
-58.386457088485912
 30
0.0
  0
VERTEX
  5
A73
  8
DATA
  6
CONTINUOUS
 62
     7
 10
30.954419633354419
 20
-58.383027807867023
 30
0.0
  0
VERTEX
  5
A74
  8
DATA
  6
CONTINUOUS
 62
     7
 10
30.95568105509966
 20
-58.37958815627578
 30
0.0
  0
VERTEX
  5
A75
  8
DATA
  6
CONTINUOUS
 62
     7
 10
30.956917794364848
 20
-58.376138133712203
 30
0.0
  0
VERTEX
  5
A76
  8
DATA
  6
CONTINUOUS
 62
     7
 10
30.958129851149991
 20
-58.372677740176279
 30
0.0
  0
VERTEX
  5
A77
  8
DATA
  6
CONTINUOUS
 62
     7
 10
30.959317225455081
 20
-58.369206975667993
 30
0.0
  0
VERTEX
  5
A78
  8
DATA
  6
CONTINUOUS
 62
     7
 10
30.96047991728009
 20
-58.36572584018743
 30
0.0
  0
VERTEX
  5
A79
  8
DATA
  6
CONTINUOUS
 62
     7
 10
30.96161792662507
 20
-58.362234333734513
 30
0.0
  0
VERTEX
  5
A7A
  8
DATA
  6
CONTINUOUS
 62
     7
 10
30.96273125348997
 20
-58.358732456309241
 30
0.0
  0
VERTEX
  5
A7B
  8
DATA
  6
CONTINUOUS
 62
     7
 10
30.96381989787481
 20
-58.355220207911657
 30
0.0
  0
VERTEX
  5
A7C
  8
DATA
  6
CONTINUOUS
 62
     7
 10
30.964883859779611
 20
-58.351697588541697
 30
0.0
  0
VERTEX
  5
A7D
  8
DATA
  6
CONTINUOUS
 62
     7
 10
30.965923139204349
 20
-58.348164598199453
 30
0.0
  0
VERTEX
  5
A7E
  8
DATA
  6
CONTINUOUS
 62
     7
 10
30.966937736149038
 20
-58.344621236884812
 30
0.0
  0
VERTEX
  5
A7F
  8
DATA
  6
CONTINUOUS
 62
     7
 10
30.967927650613682
 20
-58.341067504597859
 30
0.0
  0
VERTEX
  5
A80
  8
DATA
  6
CONTINUOUS
 62
     7
 10
30.96889288259824
 20
-58.33750340133858
 30
0.0
  0
VERTEX
  5
A81
  8
DATA
  6
CONTINUOUS
 62
     7
 10
30.96983343210276
 20
-58.333928927106932
 30
0.0
  0
VERTEX
  5
A82
  8
DATA
  6
CONTINUOUS
 62
     7
 10
30.970749299127242
 20
-58.330344081902979
 30
0.0
  0
VERTEX
  5
A83
  8
DATA
  6
CONTINUOUS
 62
     7
 10
30.971640483671649
 20
-58.326748865726671
 30
0.0
  0
VERTEX
  5
A84
  8
DATA
  6
CONTINUOUS
 62
     7
 10
30.97250698573599
 20
-58.323143278578051
 30
0.0
  0
VERTEX
  5
A85
  8
DATA
  6
CONTINUOUS
 62
     7
 10
30.973348805320288
 20
-58.319527320457063
 30
0.0
  0
VERTEX
  5
A86
  8
DATA
  6
CONTINUOUS
 62
     7
 10
30.974165942424531
 20
-58.315900991363748
 30
0.0
  0
VERTEX
  5
A87
  8
DATA
  6
CONTINUOUS
 62
     7
 10
30.974958397048731
 20
-58.312264291298099
 30
0.0
  0
VERTEX
  5
A88
  8
DATA
  6
CONTINUOUS
 62
     7
 10
30.97572616919285
 20
-58.308617220260103
 30
0.0
  0
VERTEX
  5
A89
  8
DATA
  6
CONTINUOUS
 62
     7
 10
30.97646925885693
 20
-58.304959778249781
 30
0.0
  0
VERTEX
  5
A8A
  8
DATA
  6
CONTINUOUS
 62
     7
 10
30.977187666040951
 20
-58.301291965267133
 30
0.0
  0
VERTEX
  5
A8B
  8
DATA
  6
CONTINUOUS
 62
     7
 10
30.977881390744908
 20
-58.297613781312123
 30
0.0
  0
VERTEX
  5
A8C
  8
DATA
  6
CONTINUOUS
 62
     7
 10
30.97855043296882
 20
-58.293925226384772
 30
0.0
  0
VERTEX
  5
A8D
  8
DATA
  6
CONTINUOUS
 62
     7
 10
30.979194792712679
 20
-58.290226300485102
 30
0.0
  0
VERTEX
  5
A8E
  8
DATA
  6
CONTINUOUS
 62
     7
 10
30.979814469976478
 20
-58.286517003613099
 30
0.0
  0
VERTEX
  5
A8F
  8
DATA
  6
CONTINUOUS
 62
     7
 10
30.980409464760221
 20
-58.282797335768777
 30
0.0
  0
VERTEX
  5
A90
  8
DATA
  6
CONTINUOUS
 62
     7
 10
30.980979777063911
 20
-58.279067296952093
 30
0.0
  0
VERTEX
  5
A91
  8
DATA
  6
CONTINUOUS
 62
     7
 10
30.981525406887549
 20
-58.275326887163097
 30
0.0
  0
VERTEX
  5
A92
  8
DATA
  6
CONTINUOUS
 62
     7
 10
30.982046354231102
 20
-58.27157610640171
 30
0.0
  0
VERTEX
  5
A93
  8
DATA
  6
CONTINUOUS
 62
     7
 10
30.982046354231102
 20
-58.27157610640171
 30
0.0
  0
VERTEX
  5
A94
  8
DATA
  6
CONTINUOUS
 62
     7
 10
30.982541734199561
 20
-58.267821489461767
 30
0.0
  0
VERTEX
  5
A95
  8
DATA
  6
CONTINUOUS
 62
     7
 10
30.98301066189784
 20
-58.264069571136901
 30
0.0
  0
VERTEX
  5
A96
  8
DATA
  6
CONTINUOUS
 62
     7
 10
30.983453137325949
 20
-58.260320351427168
 30
0.0
  0
VERTEX
  5
A97
  8
DATA
  6
CONTINUOUS
 62
     7
 10
30.983869160483891
 20
-58.256573830332528
 30
0.0
  0
VERTEX
  5
A98
  8
DATA
  6
CONTINUOUS
 62
     7
 10
30.984258731371671
 20
-58.252830007853021
 30
0.0
  0
VERTEX
  5
A99
  8
DATA
  6
CONTINUOUS
 62
     7
 10
30.984621849989239
 20
-58.249088883988641
 30
0.0
  0
VERTEX
  5
A9A
  8
DATA
  6
CONTINUOUS
 62
     7
 10
30.984958516336661
 20
-58.245350458739388
 30
0.0
  0
VERTEX
  5
A9B
  8
DATA
  6
CONTINUOUS
 62
     7
 10
30.985268730413889
 20
-58.241614732105234
 30
0.0
  0
VERTEX
  5
A9C
  8
DATA
  6
CONTINUOUS
 62
     7
 10
30.98555249222095
 20
-58.237881704086192
 30
0.0
  0
VERTEX
  5
A9D
  8
DATA
  6
CONTINUOUS
 62
     7
 10
30.985809801757838
 20
-58.234151374682249
 30
0.0
  0
VERTEX
  5
A9E
  8
DATA
  6
CONTINUOUS
 62
     7
 10
30.986040659024571
 20
-58.230423743893482
 30
0.0
  0
VERTEX
  5
A9F
  8
DATA
  6
CONTINUOUS
 62
     7
 10
30.986245064021102
 20
-58.226698811719778
 30
0.0
  0
VERTEX
  5
AA0
  8
DATA
  6
CONTINUOUS
 62
     7
 10
30.98642301674748
 20
-58.222976578161223
 30
0.0
  0
VERTEX
  5
AA1
  8
DATA
  6
CONTINUOUS
 62
     7
 10
30.986574517203671
 20
-58.21925704321778
 30
0.0
  0
VERTEX
  5
AA2
  8
DATA
  6
CONTINUOUS
 62
     7
 10
30.986699565389689
 20
-58.215540206889422
 30
0.0
  0
VERTEX
  5
AA3
  8
DATA
  6
CONTINUOUS
 62
     7
 10
30.986798161305529
 20
-58.211826069176198
 30
0.0
  0
VERTEX
  5
AA4
  8
DATA
  6
CONTINUOUS
 62
     7
 10
30.9868703049512
 20
-58.208114630078093
 30
0.0
  0
VERTEX
  5
AA5
  8
DATA
  6
CONTINUOUS
 62
     7
 10
30.986915996326701
 20
-58.204405889595101
 30
0.0
  0
VERTEX
  5
AA6
  8
DATA
  6
CONTINUOUS
 62
     7
 10
30.986935235432028
 20
-58.200699847727272
 30
0.0
  0
VERTEX
  5
AA7
  8
DATA
  6
CONTINUOUS
 62
     7
 10
30.986928022267168
 20
-58.196996504474498
 30
0.0
  0
VERTEX
  5
AA8
  8
DATA
  6
CONTINUOUS
 62
     7
 10
30.986894356832138
 20
-58.193295859836873
 30
0.0
  0
VERTEX
  5
AA9
  8
DATA
  6
CONTINUOUS
 62
     7
 10
30.986834239126932
 20
-58.189597913814339
 30
0.0
  0
VERTEX
  5
AAA
  8
DATA
  6
CONTINUOUS
 62
     7
 10
30.986747669151569
 20
-58.185902666406953
 30
0.0
  0
VERTEX
  5
AAB
  8
DATA
  6
CONTINUOUS
 62
     7
 10
30.98663464690603
 20
-58.182210117614652
 30
0.0
  0
VERTEX
  5
AAC
  8
DATA
  6
CONTINUOUS
 62
     7
 10
30.98649517239032
 20
-58.178520267437499
 30
0.0
  0
VERTEX
  5
AAD
  8
DATA
  6
CONTINUOUS
 62
     7
 10
30.986329245604409
 20
-58.174833115875472
 30
0.0
  0
VERTEX
  5
AAE
  8
DATA
  6
CONTINUOUS
 62
     7
 10
30.98613686654835
 20
-58.171148662928523
 30
0.0
  0
VERTEX
  5
AAF
  8
DATA
  6
CONTINUOUS
 62
     7
 10
30.985918035222092
 20
-58.167466908596701
 30
0.0
  0
VERTEX
  5
AB0
  8
DATA
  6
CONTINUOUS
 62
     7
 10
30.985672751625671
 20
-58.16378785288002
 30
0.0
  0
VERTEX
  5
AB1
  8
DATA
  6
CONTINUOUS
 62
     7
 10
30.985401015759081
 20
-58.16011149577843
 30
0.0
  0
VERTEX
  5
AB2
  8
DATA
  6
CONTINUOUS
 62
     7
 10
30.98510282762232
 20
-58.156437837291968
 30
0.0
  0
VERTEX
  5
AB3
  8
DATA
  6
CONTINUOUS
 62
     7
 10
30.98477818721538
 20
-58.152766877420618
 30
0.0
  0
VERTEX
  5
AB4
  8
DATA
  6
CONTINUOUS
 62
     7
 10
30.984427094538251
 20
-58.149098616164402
 30
0.0
  0
VERTEX
  5
AB5
  8
DATA
  6
CONTINUOUS
 62
     7
 10
30.984049549590949
 20
-58.145433053523277
 30
0.0
  0
VERTEX
  5
AB6
  8
DATA
  6
CONTINUOUS
 62
     7
 10
30.983645552373488
 20
-58.141770189497301
 30
0.0
  0
VERTEX
  5
AB7
  8
DATA
  6
CONTINUOUS
 62
     7
 10
30.983215102885861
 20
-58.138110024086409
 30
0.0
  0
VERTEX
  5
AB8
  8
DATA
  6
CONTINUOUS
 62
     7
 10
30.98275820112805
 20
-58.134452557290643
 30
0.0
  0
VERTEX
  5
AB9
  8
DATA
  6
CONTINUOUS
 62
     7
 10
30.982274847100051
 20
-58.130797789110012
 30
0.0
  0
VERTEX
  5
ABA
  8
DATA
  6
CONTINUOUS
 62
     7
 10
30.981765040801911
 20
-58.127145719544473
 30
0.0
  0
VERTEX
  5
ABB
  8
DATA
  6
CONTINUOUS
 62
     7
 10
30.981228782233568
 20
-58.123496348594053
 30
0.0
  0
VERTEX
  5
ABC
  8
DATA
  6
CONTINUOUS
 62
     7
 10
30.980666071395081
 20
-58.119849676258752
 30
0.0
  0
VERTEX
  5
ABD
  8
DATA
  6
CONTINUOUS
 62
     7
 10
30.980076908286389
 20
-58.116205702538572
 30
0.0
  0
VERTEX
  5
ABE
  8
DATA
  6
CONTINUOUS
 62
     7
 10
30.979461292907551
 20
-58.112564427433512
 30
0.0
  0
VERTEX
  5
ABF
  8
DATA
  6
CONTINUOUS
 62
     7
 10
30.978819225258501
 20
-58.108925850943571
 30
0.0
  0
VERTEX
  5
AC0
  8
DATA
  6
CONTINUOUS
 62
     7
 10
30.978150705339299
 20
-58.105289973068707
 30
0.0
  0
VERTEX
  5
AC1
  8
DATA
  6
CONTINUOUS
 62
     7
 10
30.97745573314991
 20
-58.101656793809013
 30
0.0
  0
VERTEX
  5
AC2
  8
DATA
  6
CONTINUOUS
 62
     7
 10
30.976734308690371
 20
-58.098026313164397
 30
0.0
  0
VERTEX
  5
AC3
  8
DATA
  6
CONTINUOUS
 62
     7
 10
30.975986431960639
 20
-58.094398531134942
 30
0.0
  0
VERTEX
  5
AC4
  8
DATA
  6
CONTINUOUS
 62
     7
 10
30.975212102960722
 20
-58.090773447720572
 30
0.0
  0
VERTEX
  5
AC5
  8
DATA
  6
CONTINUOUS
 62
     7
 10
30.974411321690649
 20
-58.087151062921322
 30
0.0
  0
VERTEX
  5
AC6
  8
DATA
  6
CONTINUOUS
 62
     7
 10
30.973584088150421
 20
-58.083531376737199
 30
0.0
  0
VERTEX
  5
AC7
  8
DATA
  6
CONTINUOUS
 62
     7
 10
30.972730402339991
 20
-58.079914389168167
 30
0.0
  0
VERTEX
  5
AC8
  8
DATA
  6
CONTINUOUS
 62
     7
 10
30.971850264259398
 20
-58.076300100214297
 30
0.0
  0
VERTEX
  5
AC9
  8
DATA
  6
CONTINUOUS
 62
     7
 10
30.970943673908621
 20
-58.072688509875519
 30
0.0
  0
VERTEX
  5
ACA
  8
DATA
  6
CONTINUOUS
 62
     7
 10
30.970010631287678
 20
-58.069079618151846
 30
0.0
  0
VERTEX
  5
ACB
  8
DATA
  6
CONTINUOUS
 62
     7
 10
30.969051136396551
 20
-58.065473425043287
 30
0.0
  0
VERTEX
  5
ACC
  8
DATA
  6
CONTINUOUS
 62
     7
 10
30.968065189235251
 20
-58.061869930549882
 30
0.0
  0
VERTEX
  5
ACD
  8
DATA
  6
CONTINUOUS
 62
     7
 10
30.96705278980377
 20
-58.058269134671569
 30
0.0
  0
VERTEX
  5
ACE
  8
DATA
  6
CONTINUOUS
 62
     7
 10
30.96601393810214
 20
-58.054671037408383
 30
0.0
  0
VERTEX
  5
ACF
  8
DATA
  6
CONTINUOUS
 62
     7
 10
30.96494863413033
 20
-58.051075638760302
 30
0.0
  0
VERTEX
  5
AD0
  8
DATA
  6
CONTINUOUS
 62
     7
 10
30.963856877888329
 20
-58.047482938727342
 30
0.0
  0
VERTEX
  5
AD1
  8
DATA
  6
CONTINUOUS
 62
     7
 10
30.962738669376151
 20
-58.043892937309487
 30
0.0
  0
VERTEX
  5
AD2
  8
DATA
  6
CONTINUOUS
 62
     7
 10
30.961594008593821
 20
-58.04030563450678
 30
0.0
  0
VERTEX
  5
AD3
  8
DATA
  6
CONTINUOUS
 62
     7
 10
30.960422895541299
 20
-58.036721030319171
 30
0.0
  0
VERTEX
  5
AD4
  8
DATA
  6
CONTINUOUS
 62
     7
 10
30.960422895541299
 20
-58.036721030319171
 30
0.0
  0
SEQEND
  5
AD5
  8
DATA
  6
CONTINUOUS
 62
     7
  0
ARC
  5
502
  8
DATA
  6
CONTINUOUS
 62
     7
 10
30.844572287306761
 20
232.8835390358031
 30
0.0
 40
1.599980868166877
 50
340.81480094868732
 51
90.0
  0
ARC
  5
503
  8
DATA
  6
CONTINUOUS
 62
     7
 10
30.141182287306751
 20
232.3835390358031
 30
0.0
 40
0.5000178382817982
 50
340.81567471008839
 51
90.000000000000028
  0
ARC
  5
504
  8
DATA
  6
CONTINUOUS
 62
     7
 10
-5.883184863686707
 20
232.8835390358031
 30
0.0
 40
1.599990000000161
 50
90.0
 51
199.1855372649492
  0
ARC
  5
505
  8
DATA
  6
CONTINUOUS
 62
     7
 10
-5.1798048636867122
 20
232.3835390358031
 30
0.0
 40
0.500000000000057
 50
90.0
 51
199.1865372725095
  0
LINE
  5
506
  8
DATA
  6
CONTINUOUS
 62
     7
 10
-18.24999500000003
 20
-49.402754690481281
 30
0.0
 11
-18.24999500000003
 21
-31.410839684368401
 31
0.0
  0
LINE
  5
507
  8
DATA
  6
CONTINUOUS
 62
     7
 10
43.750004999999973
 20
-49.402754690481281
 30
0.0
 11
43.750004999999973
 21
-31.410839684368401
 31
0.0
  0
ARC
  5
508
  8
DATA
  6
CONTINUOUS
 62
     7
 10
12.75000499999997
 20
-653.82500000001255
 30
0.0
 40
601.02500000001271
 50
87.442254487510198
 51
92.557745512489873
  0
ARC
  5
509
  8
DATA
  6
CONTINUOUS
 62
     7
 10
12.75000499999997
 20
-627.82500000001255
 30
0.0
 40
601.02500000001248
 50
87.407958030410924
 51
92.592041969589062
  0
LINE
  5
50A
  8
DATA
  6
CONTINUOUS
 62
     7
 10
-5.5374895217041882
 20
-53.901039351987542
 30
0.0
 11
-5.2302960389067428
 21
-53.069010100981188
 31
0.0
  0
LINE
  5
50B
  8
DATA
  6
CONTINUOUS
 62
     7
 10
-3.928113521704176
 20
-53.901039351987542
 30
0.0
 11
-3.602607285688264
 21
-53.022501090055627
 31
0.0
  0
LINE
  5
50C
  8
DATA
  6
CONTINUOUS
 62
     7
 10
29.428124978295809
 20
-53.901039351987542
 30
0.0
 11
29.102616718479691
 21
-53.022501074617338
 31
0.0
  0
LINE
  5
50D
  8
DATA
  6
CONTINUOUS
 62
     7
 10
31.03750097829581
 20
-53.901039351987542
 30
0.0
 11
30.73030564180598
 21
-53.069010089096167
 31
0.0
  0
ARC
  5
50E
  8
DATA
  6
CONTINUOUS
 62
     7
 10
-14.249994999999929
 20
-49.402754690481281
 30
0.0
 40
4.0000000000001004
 50
180.0
 51
272.55774551248828
  0
ARC
  5
50F
  8
DATA
  6
CONTINUOUS
 62
     7
 10
-14.249995000000011
 20
-31.410839684368401
 30
0.0
 40
4.0000000000000044
 50
92.592041969589204
 51
180.0
  0
ARC
  5
510
  8
DATA
  6
CONTINUOUS
 62
     7
 10
39.750004999999959
 20
-31.410839684368401
 30
0.0
 40
4.0000000000000071
 50
0.0
 51
87.407958030410839
  0
ARC
  5
511
  8
DATA
  6
CONTINUOUS
 62
     7
 10
39.750004999999881
 20
-49.402754690481281
 30
0.0
 40
4.0000000000000862
 50
267.44225448751149
 51
0.0
  0
LINE
  5
512
  8
DATA
  6
CONTINUOUS
 62
     7
 10
1.7500049999999729
 20
-30.400669801097141
 30
0.0
 11
34.750004999999973
 21
-30.400669801097141
 31
0.0
  0
LINE
  5
513
  8
DATA
  6
CONTINUOUS
 62
     7
 10
1.7500049999999729
 20
-49.400669801097152
 30
0.0
 11
34.750004999999973
 21
-49.400669801097152
 31
0.0
  0
LINE
  5
514
  8
DATA
  6
CONTINUOUS
 62
     7
 10
38.750004999999973
 20
-45.400669801097138
 30
0.0
 11
38.750004999999973
 21
-34.400669801097138
 31
0.0
  0
LINE
  5
515
  8
DATA
  6
CONTINUOUS
 62
     7
 10
1.7500049999999729
 20
-49.400669801097152
 30
0.0
 11
1.7500049999999729
 21
-30.400669801097141
 31
0.0
  0
LINE
  5
516
  8
DATA
  6
CONTINUOUS
 62
     7
 10
5.5500049999999694
 20
-44.900669801097131
 30
0.0
 11
5.5500049999999694
 21
-34.900669801097138
 31
0.0
  0
ARC
  5
517
  8
DATA
  6
CONTINUOUS
 62
     7
 10
34.750004999999973
 20
-34.400669801097138
 30
0.0
 40
4.0
 50
0.0
 51
90.0
  0
ARC
  5
518
  8
DATA
  6
CONTINUOUS
 62
     7
 10
34.750004999999973
 20
-45.400669801097138
 30
0.0
 40
4.0
 50
270.0
 51
0.0
  0
LINE
  5
519
  8
DATA
  6
CONTINUOUS
 62
     7
 10
5.5500049999999694
 20
-33.75066980109716
 30
0.0
 11
16.75000499999997
 21
-33.75066980109716
 31
0.0
  0
LINE
  5
51A
  8
DATA
  6
CONTINUOUS
 62
     7
 10
5.5500049999999694
 20
-34.900669801097138
 30
0.0
 11
16.75000499999997
 21
-34.900669801097138
 31
0.0
  0
LINE
  5
51B
  8
DATA
  6
CONTINUOUS
 62
     7
 10
5.5500049999999694
 20
-44.900669801097131
 30
0.0
 11
16.75000499999997
 21
-44.900669801097131
 31
0.0
  0
LINE
  5
51C
  8
DATA
  6
CONTINUOUS
 62
     7
 10
16.75000499999997
 20
-46.050669801097143
 30
0.0
 11
5.5500049999999694
 21
-46.050669801097143
 31
0.0
  0
LINE
  5
51D
  8
DATA
  6
CONTINUOUS
 62
     7
 10
16.75000499999997
 20
-34.900669801097138
 30
0.0
 11
16.75000499999997
 21
-33.75066980109716
 31
0.0
  0
LINE
  5
51E
  8
DATA
  6
CONTINUOUS
 62
     7
 10
16.75000499999997
 20
-46.050669801097143
 30
0.0
 11
16.75000499999997
 21
-44.900669801097131
 31
0.0
  0
LINE
  5
51F
  8
DATA
  6
CONTINUOUS
 62
     7
 10
13.75000499999997
 20
-44.900669801097131
 30
0.0
 11
13.75000499999997
 21
-34.900669801097138
 31
0.0
  0
LINE
  5
520
  8
DATA
  6
CONTINUOUS
 62
     7
 10
12.020004999999969
 20
-43.709887455421267
 30
0.0
 11
12.020004999999969
 21
-35.53988745542128
 31
0.0
  0
LINE
  5
521
  8
DATA
  6
CONTINUOUS
 62
     7
 10
10.290004999999979
 20
-42.674887455421263
 30
0.0
 11
10.290004999999979
 21
-36.574887455421283
 31
0.0
  0
LINE
  5
522
  8
DATA
  6
CONTINUOUS
 62
     7
 10
8.5600049999999737
 20
-41.624887455421288
 30
0.0
 11
8.5600049999999737
 21
-37.624887455421288
 31
0.0
  0
LINE
  5
523
  8
DATA
  6
CONTINUOUS
 62
     7
 10
6.8300049999999723
 20
-40.724887455421282
 30
0.0
 11
6.8300049999999723
 21
-38.5248874554213
 31
0.0
  0
TEXT
  5
524
  8
DATA
 62
     7
 10
14.63528598498023
 20
-37.10394593091354
 30
0.0
 40
2.1717881944444439
  1
OPEN
 50
270.0
 41
0.8
 11
16.807074179424681
 21
-37.10394593091354
 31
0.0
 73
     3
  0
LINE
  5
525
  8
DATA
  6
CONTINUOUS
 62
     7
 10
5.5500049999999694
 20
-34.900669801097138
 30
0.0
 11
5.5500049999999694
 21
-34.62566980109716
 31
0.0
  0
LINE
  5
526
  8
DATA
  6
CONTINUOUS
 62
     7
 10
5.5500049999999694
 20
-34.02566980109718
 30
0.0
 11
5.5500049999999694
 21
-30.400669801097141
 31
0.0
  0
LINE
  5
527
  8
DATA
  6
CONTINUOUS
 62
     7
 10
5.5500049999999694
 20
-44.900669801097131
 30
0.0
 11
5.5500049999999694
 21
-45.175669801097122
 31
0.0
  0
LINE
  5
528
  8
DATA
  6
CONTINUOUS
 62
     7
 10
5.5500049999999694
 20
-45.775669801097138
 30
0.0
 11
5.5500049999999694
 21
-49.400669801097152
 31
0.0
  0
LINE
  5
529
  8
DATA
  6
CONTINUOUS
 62
     7
 10
1.7500049999999729
 20
-34.02566980109718
 30
0.0
 11
5.5500049999999694
 21
-34.02566980109718
 31
0.0
  0
LINE
  5
52A
  8
DATA
  6
CONTINUOUS
 62
     7
 10
5.5500049999999694
 20
-34.62566980109716
 30
0.0
 11
1.7500049999999729
 21
-34.62566980109716
 31
0.0
  0
LINE
  5
52B
  8
DATA
  6
CONTINUOUS
 62
     7
 10
1.7500049999999729
 20
-45.175669801097122
 30
0.0
 11
5.5500049999999694
 21
-45.175669801097122
 31
0.0
  0
LINE
  5
52C
  8
DATA
  6
CONTINUOUS
 62
     7
 10
5.5500049999999694
 20
-45.775669801097138
 30
0.0
 11
1.7500049999999729
 21
-45.775669801097138
 31
0.0
  0
LINE
  5
52D
  8
DATA
  6
CONTINUOUS
 62
     7
 10
31.20000499999998
 20
-31.75066980109716
 30
0.0
 11
33.43000499999998
 21
-31.75066980109716
 31
0.0
  0
LINE
  5
52E
  8
DATA
  6
CONTINUOUS
 62
     7
 10
33.43000499999998
 20
-48.050669801097143
 30
0.0
 11
31.20000499999998
 21
-48.050669801097143
 31
0.0
  0
LINE
  5
52F
  8
DATA
  6
CONTINUOUS
 62
     7
 10
31.20000499999998
 20
-48.050669801097143
 30
0.0
 11
31.20000499999998
 21
-31.700000000000021
 31
0.0
  0
LINE
  5
530
  8
DATA
  6
CONTINUOUS
 62
     7
 10
33.43000499999998
 20
-48.050669801097143
 30
0.0
 11
33.43000499999998
 21
-31.800000000000011
 31
0.0
  0
TEXT
  5
531
  8
DATA
 62
     7
 10
28.272640210149351
 20
-36.257651722703997
 30
0.0
 40
2.1717881944444439
  1
CLOSE
 50
270.0
 41
0.8
 11
30.444428404593801
 21
-36.257651722703997
 31
0.0
 73
     3
  0
LINE
  5
532
  8
DATA
  6
CONTINUOUS
 62
     7
 10
34.35295353463497
 20
-42.674887455421263
 30
0.0
 11
34.35295353463497
 21
-36.574887455421283
 31
0.0
  0
LINE
  5
533
  8
DATA
  6
CONTINUOUS
 62
     7
 10
36.082953534634967
 20
-41.624887455421288
 30
0.0
 11
36.082953534634967
 21
-37.624887455421288
 31
0.0
  0
LINE
  5
534
  8
DATA
  6
CONTINUOUS
 62
     7
 10
37.812953534634971
 20
-40.724887455421282
 30
0.0
 11
37.812953534634971
 21
-38.5248874554213
 31
0.0
  0
LINE
  5
535
  8
DATA
  6
CONTINUOUS
 62
     7
 10
-18.24999500000003
 20
-42.599887104274458
 30
0.0
 11
1.7500049999999729
 21
-42.599887104274458
 31
0.0
  0
LINE
  5
536
  8
DATA
  6
CONTINUOUS
 62
     7
 10
38.750004999999973
 20
-42.599887104274458
 30
0.0
 11
43.750004999999973
 21
-42.599887104274458
 31
0.0
  0
LINE
  5
537
  8
DATA
  6
CONTINUOUS
 62
     7
 10
2.7500049999999718
 20
79.699596671987493
 30
0.0
 11
2.7500049999999718
 21
47.250000000000057
 31
0.0
  0
LINE
  5
538
  8
DATA
  6
CONTINUOUS
 62
     7
 10
22.75000499999997
 20
79.699596671987493
 30
0.0
 11
22.75000499999997
 21
47.250000000000057
 31
0.0
  0
LINE
  5
539
  8
DATA
  6
CONTINUOUS
 62
     7
 10
5.2500049999999732
 20
82.199596671987479
 30
0.0
 11
20.25000499999997
 21
82.199596671987479
 31
0.0
  0
ARC
  5
53A
  8
DATA
  6
CONTINUOUS
 62
     7
 10
5.2500049999999732
 20
79.699596671987493
 30
0.0
 40
2.5
 50
90.0
 51
180.0
  0
ARC
  5
53B
  8
DATA
  6
CONTINUOUS
 62
     7
 10
20.25000499999997
 20
79.699596671987493
 30
0.0
 40
2.5
 50
0.0
 51
90.0
  0
LINE
  5
53C
  8
DATA
  6
CONTINUOUS
 62
     7
 10
5.2500049999999732
 20
67.699596671987635
 30
0.0
 11
5.2500049999999732
 21
77.899596671987496
 31
0.0
  0
LINE
  5
53D
  8
DATA
  6
CONTINUOUS
 62
     7
 10
20.25000499999997
 20
67.699596671987635
 30
0.0
 11
20.25000499999997
 21
77.899596671987496
 31
0.0
  0
LINE
  5
53E
  8
DATA
  6
CONTINUOUS
 62
     7
 10
18.75000499999997
 20
79.39959667198751
 30
0.0
 11
6.7500049999999732
 21
79.39959667198751
 31
0.0
  0
LINE
  5
53F
  8
DATA
  6
CONTINUOUS
 62
     7
 10
18.75000499999997
 20
66.199596671987649
 30
0.0
 11
6.7500049999999732
 21
66.199596671987649
 31
0.0
  0
ARC
  5
540
  8
DATA
  6
CONTINUOUS
 62
     7
 10
6.7500049999999732
 20
77.899596671987496
 30
0.0
 40
1.5
 50
90.0
 51
180.0
  0
ARC
  5
541
  8
DATA
  6
CONTINUOUS
 62
     7
 10
18.75000499999997
 20
77.899596671987496
 30
0.0
 40
1.5
 50
0.0
 51
90.0
  0
ARC
  5
542
  8
DATA
  6
CONTINUOUS
 62
     7
 10
6.7500049999999732
 20
67.699596671987635
 30
0.0
 40
1.5
 50
180.0
 51
270.0
  0
ARC
  5
543
  8
DATA
  6
CONTINUOUS
 62
     7
 10
18.75000499999997
 20
67.699596671987635
 30
0.0
 40
1.4999999999999849
 50
270.0
 51
0.0
  0
ARC
  5
544
  8
DATA
  6
CONTINUOUS
 62
     7
 10
7.2500049999999874
 20
57.549596671987622
 30
0.0
 40
1.8499999999999941
 50
0.0000000000008527
 51
179.99999999999909
  0
ARC
  5
545
  8
DATA
  6
CONTINUOUS
 62
     7
 10
7.2500049999999874
 20
55.949596671987649
 30
0.0
 40
1.8500000000000081
 50
180.0000000000004
 51
359.9999999999996
  0
LINE
  5
546
  8
DATA
  6
CONTINUOUS
 62
     7
 10
5.4000049999999771
 20
55.949596671987642
 30
0.0
 11
5.4000049999999771
 21
57.549596671987622
 31
0.0
  0
LINE
  5
547
  8
DATA
  6
CONTINUOUS
 62
     7
 10
9.1000049999999781
 20
55.949596671987642
 30
0.0
 11
9.1000049999999977
 21
57.63540937797115
 31
0.0
  0
ARC
  5
548
  8
DATA
  6
CONTINUOUS
 62
     7
 10
7.2500049999999874
 20
57.41084667198762
 30
0.0
 40
2.1274999999999968
 50
0.000000000000739
 51
179.9999999999992
  0
LINE
  5
549
  8
DATA
  6
CONTINUOUS
 62
     7
 10
9.3775049999999833
 20
57.410846671987663
 30
0.0
 11
9.3775050000000562
 21
51.588346671987672
 31
0.0
  0
LINE
  5
54A
  8
DATA
  6
CONTINUOUS
 62
     7
 10
5.1225049999999888
 20
57.410846671987663
 30
0.0
 11
5.1225049999999044
 21
51.588346671987672
 31
0.0
  0
LINE
  5
54B
  8
DATA
  6
CONTINUOUS
 62
     7
 10
5.1225049999999888
 20
51.588346671987672
 30
0.0
 11
9.3775049999999833
 21
51.588346671987672
 31
0.0
  0
ARC
  5
54C
  8
DATA
  6
CONTINUOUS
 62
     7
 10
18.250004999999991
 20
57.549596671987622
 30
0.0
 40
1.8499999999999941
 50
0.0000000000008527
 51
179.99999999999909
  0
ARC
  5
54D
  8
DATA
  6
CONTINUOUS
 62
     7
 10
18.250004999999991
 20
55.949596671987649
 30
0.0
 40
1.8500000000000081
 50
180.0000000000004
 51
359.9999999999996
  0
LINE
  5
54E
  8
DATA
  6
CONTINUOUS
 62
     7
 10
16.400004999999979
 20
55.949596671987642
 30
0.0
 11
16.400004999999979
 21
57.549596671987622
 31
0.0
  0
LINE
  5
54F
  8
DATA
  6
CONTINUOUS
 62
     7
 10
20.100004999999982
 20
55.949596671987642
 30
0.0
 11
20.100004999999999
 21
57.63540937797115
 31
0.0
  0
ARC
  5
550
  8
DATA
  6
CONTINUOUS
 62
     7
 10
18.250004999999991
 20
57.41084667198762
 30
0.0
 40
2.1274999999999968
 50
0.000000000000739
 51
179.9999999999992
  0
LINE
  5
551
  8
DATA
  6
CONTINUOUS
 62
     7
 10
20.377504999999982
 20
57.410846671987663
 30
0.0
 11
20.37750500000006
 21
51.588346671987672
 31
0.0
  0
LINE
  5
552
  8
DATA
  6
CONTINUOUS
 62
     7
 10
16.12250499999999
 20
57.410846671987663
 30
0.0
 11
16.122504999999901
 21
51.588346671987672
 31
0.0
  0
LINE
  5
553
  8
DATA
  6
CONTINUOUS
 62
     7
 10
16.12250499999999
 20
51.588346671987672
 30
0.0
 11
20.377504999999982
 21
51.588346671987672
 31
0.0
  0
TEXT
  5
554
  8
DATA
 62
     7
 10
16.704347411633179
 20
59.837844551163791
 30
0.0
 40
1.900314670138888
  1
SET
 41
0.8
 11
16.704347411633179
 21
61.738159221302681
 31
0.0
 73
     3
  0
TEXT
  5
555
  8
DATA
 62
     7
 10
5.1601513115392654
 20
59.819160080924952
 30
0.0
 40
1.900314670138888
  1
MODE
 41
0.8
 11
5.1601513115392654
 21
61.719474751063842
 31
0.0
 73
     3
  0
TEXT
  5
556
  8
DATA
 62
     7
 10
5.728824442846089
 20
44.869727082443823
 30
0.0
 40
4.3435763888888879
  1
SHURE
 41
0.8
 11
5.728824442846089
 21
49.213303471332708
 31
0.0
 73
     3
  0
TEXT
  5
557
  8
DATA
 62
     7
 10
10.204011110384579
 20
40.051859684731809
 30
0.0
 40
2.7147352430555549
  1
ULX
 41
0.8
 11
10.204011110384579
 21
42.766594927787366
 31
0.0
 73
     3
  0
ARC
  5
558
  8
DATA
  6
CONTINUOUS
 62
     7
 10
-7.2519282212955423
 20
183.8862681329725
 30
0.0
 40
2.0
 50
0.0
 51
180.0
  0
LINE
  5
559
  8
DATA
  6
CONTINUOUS
 62
     7
 10
-5.2519282212955432
 20
174.88626813297259
 30
0.0
 11
-5.2519282212955432
 21
183.8862681329725
 31
0.0
  0
LINE
  5
55A
  8
DATA
  6
CONTINUOUS
 62
     7
 10
-9.2519482212955495
 20
174.88626813297259
 30
0.0
 11
-9.2519482212955495
 21
183.8862681329725
 31
0.0
  0
LINE
  5
55B
  8
DATA
  6
CONTINUOUS
 62
     7
 10
-9.2519482212955495
 20
174.88626813297259
 30
0.0
 11
-5.2519282212955432
 21
174.88626813297259
 31
0.0
  0
LINE
  5
55C
  8
DATA
  6
CONTINUOUS
 62
     7
 10
-6.2519482212955486
 20
102.42001999999999
 30
0.0
 11
-6.2519482212955486
 21
173.91
 31
0.0
  0
LINE
  5
55D
  8
DATA
  6
CONTINUOUS
 62
     7
 10
-8.2519382212955463
 20
102.42001999999999
 30
0.0
 11
-8.2519382212955463
 21
173.91
 31
0.0
  0
LINE
  5
55E
  8
DATA
  6
CONTINUOUS
 62
     7
 10
-8.2519382212955463
 20
102.42001999999999
 30
0.0
 11
-6.2519482212955486
 21
102.42001999999999
 31
0.0
  0
LINE
  5
55F
  8
DATA
  6
CONTINUOUS
 62
     7
 10
-5.7519482212955486
 20
102.42001999999999
 30
0.0
 11
-4.5019382212955454
 21
90.419999999999987
 31
0.0
  0
LINE
  5
560
  8
DATA
  6
CONTINUOUS
 62
     7
 10
-8.7519382212955463
 20
102.42001999999999
 30
0.0
 11
-10.00191822129554
 21
90.419999999999987
 31
0.0
  0
LINE
  5
561
  8
DATA
  6
CONTINUOUS
 62
     7
 10
-8.7519382212955463
 20
102.42001999999999
 30
0.0
 11
-5.7519482212955486
 21
102.42001999999999
 31
0.0
  0
LINE
  5
562
  8
DATA
  6
CONTINUOUS
 62
     7
 10
-11.08
 20
90.118678882365558
 30
0.0
 11
-11.08
 21
89.747070983772446
 31
0.0
  0
LINE
  5
563
  8
DATA
  6
CONTINUOUS
 62
     7
 10
-3.4499950000000288
 20
90.118678882365558
 30
0.0
 11
-3.4499950000000288
 21
90.03662391030683
 31
0.0
  0
LINE
  5
564
  8
DATA
  6
CONTINUOUS
 62
     7
 10
-3.7499950000000259
 20
90.418678882365569
 30
0.0
 11
-10.779999999999999
 21
90.418678882365569
 31
0.0
  0
LINE
  5
565
  8
DATA
  6
CONTINUOUS
 62
     7
 10
-4.5123549539343202
 20
90.519999999999996
 30
0.0
 11
-9.9810852560171686
 21
90.519999999999996
 31
0.0
  0
ARC
  5
566
  8
DATA
  6
CONTINUOUS
 62
     7
 10
-10.779999999999999
 20
90.118678882365558
 30
0.0
 40
0.2999999999999972
 50
90.0
 51
180.0
  0
ARC
  5
567
  8
DATA
  6
CONTINUOUS
 62
     7
 10
-3.7499950000000122
 20
90.118678882365558
 30
0.0
 40
0.299999999999983
 50
0.0
 51
90.000000000002728
  0
LINE
  5
568
  8
DATA
  6
CONTINUOUS
 62
     7
 10
39.350004999999967
 20
89.622368794988006
 30
0.0
 11
39.350004999999967
 21
90.361176643682555
 31
0.0
  0
LINE
  5
569
  8
DATA
  6
CONTINUOUS
 62
     7
 10
24.150004999999979
 20
90.159856025701956
 30
0.0
 11
24.15427420398164
 21
90.361176643682555
 31
0.0
  0
LINE
  5
56A
  8
DATA
  6
CONTINUOUS
 62
     7
 10
39.350004999999967
 20
90.361176643682555
 30
0.0
 11
24.140000000000001
 21
90.361176643682555
 31
0.0
  0
POLYLINE
  5
56B
  8
DATA
  6
CONTINUOUS
 62
     7
 66
     1
 10
0.0
 20
0.0
 30
0.0
  0
VERTEX
  5
AD6
  8
DATA
  6
CONTINUOUS
 62
     7
 10
11.87641357638574
 20
90.280006961784267
 30
0.0
  0
VERTEX
  5
AD7
  8
DATA
  6
CONTINUOUS
 62
     7
 10
11.7460400006279
 20
91.341814527809944
 30
0.0
  0
VERTEX
  5
AD8
  8
DATA
  6
CONTINUOUS
 62
     7
 10
13.433368458418141
 20
91.548992411598704
 30
0.0
  0
VERTEX
  5
AD9
  8
DATA
  6
CONTINUOUS
 62
     7
 10
13.58917354813032
 20
90.28006178574104
 30
0.0
  0
SEQEND
  5
ADA
  8
DATA
  6
CONTINUOUS
 62
     7
  0
ARC
  5
572
  8
DATA
  6
CONTINUOUS
 62
     7
 10
423.29360757967601
 20
42.333538129110501
 30
0.0
 40
444.04360257967591
 50
174.3601980238833
 51
174.36020281766011
  0
ARC
  5
573
  8
DATA
  6
CONTINUOUS
 62
     7
 10
-397.7935975796762
 20
40.333538129110508
 30
0.0
 40
444.04360257967608
 50
354.26755570530219
 51
354.26755858789858
  0
LINE
  5
574
  8
DATA
  6
CONTINUOUS
 62
     7
 10
46.250004999999973
 20
40.333534560787982
 30
0.0
 11
46.250004999999973
 21
40.333541697433098
 31
0.0
  0
ARC
  5
575
  8
DATA
  6
CONTINUOUS
 62
     7
 10
-14.61991096985146
 20
85.578450464234109
 30
0.0
 40
3.999999999999984
 50
92.939582262950765
 51
157.02139429396169
  0
ARC
  5
576
  8
DATA
  6
CONTINUOUS
 62
     7
 10
423.29360757967601
 20
41.333538129110501
 30
0.0
 40
444.04360257967591
 50
174.3602028176627
 51
179.07525782568959
  0
ARC
  5
577
  8
DATA
  6
CONTINUOUS
 62
     7
 10
423.29360757967601
 20
40.333538129110508
 30
0.0
 40
444.04360257967591
 50
179.39786658226481
 51
185.7324414120985
  0
ARC
  5
578
  8
DATA
  6
CONTINUOUS
 62
     7
 10
12.75000499999997
 20
-447.42397806421297
 30
0.0
 40
537.70469467432906
 50
60.196960435815221
 51
60.196961289588849
  0
ARC
  5
579
  8
DATA
  6
CONTINUOUS
 62
     7
 10
40.119920969851407
 20
85.578450464234109
 30
0.0
 40
3.999999999999996
 50
25.994952320881861
 51
87.060417737049235
  0
LINE
  5
57A
  8
DATA
  6
CONTINUOUS
 62
     7
 10
41.044422984489287
 20
-6.7192833898842812
 30
0.0
 11
-15.544412984489281
 21
-6.7192833898842812
 31
0.0
  0
ARC
  5
57B
  8
DATA
  6
CONTINUOUS
 62
     7
 10
-15.544412984489281
 20
-3.7192833898842812
 30
0.0
 40
2.9999999999999871
 50
185.73244141209881
 51
270.0
  0
ARC
  5
57C
  8
DATA
  6
CONTINUOUS
 62
     7
 10
423.29360757967601
 20
40.333538129110508
 30
0.0
 40
444.04360257967591
 50
185.73244141209869
 51
185.73244471874969
  0
ARC
  5
57D
  8
DATA
  6
CONTINUOUS
 62
     7
 10
41.044422984489287
 20
-3.7192833898842532
 30
0.0
 40
3.000000000000028
 50
270.0
 51
354.26755858790079
  0
ARC
  5
57E
  8
DATA
  6
CONTINUOUS
 62
     7
 10
-397.7935975796762
 20
40.333538129110508
 30
0.0
 40
444.04360257967608
 50
354.26755858790119
 51
0.6021334177348763
  0
ARC
  5
57F
  8
DATA
  6
CONTINUOUS
 62
     7
 10
-397.7935975796762
 20
41.333538129110501
 30
0.0
 40
444.04360257967608
 50
0.9247421743110816
 51
5.6397971823371202
  0
LINE
  5
580
  8
DATA
  6
CONTINUOUS
 62
     7
 10
31.20000499999998
 20
-7.7192833898842812
 30
0.0
 11
33.43000499999998
 21
-7.7192833898842812
 31
0.0
  0
LINE
  5
581
  8
DATA
  6
CONTINUOUS
 62
     7
 10
31.20000499999998
 20
-7.7192833898842812
 30
0.0
 11
31.20000499999998
 21
-6.7192833898842812
 31
0.0
  0
LINE
  5
582
  8
DATA
  6
CONTINUOUS
 62
     7
 10
33.43000499999998
 20
-7.7192833898842812
 30
0.0
 11
33.43000499999998
 21
-6.7192833898842812
 31
0.0
  0
LINE
  5
583
  8
DATA
  6
CONTINUOUS
 62
     7
 10
34.35295353463497
 20
-7.1500000000000048
 30
0.0
 11
34.35295353463497
 21
-6.7192833898842812
 31
0.0
  0
LINE
  5
584
  8
DATA
  6
CONTINUOUS
 62
     7
 10
36.082953534634967
 20
-7.1500000000000048
 30
0.0
 11
36.082953534634967
 21
-6.7192833898842812
 31
0.0
  0
LINE
  5
585
  8
DATA
  6
CONTINUOUS
 62
     7
 10
37.812953534634971
 20
-7.1500000000000048
 30
0.0
 11
37.812953534634971
 21
-6.7192833898842812
 31
0.0
  0
LINE
  5
586
  8
DATA
  6
CONTINUOUS
 62
     7
 10
112.9365641508755
 20
-4.7192833898842812
 30
0.0
 11
133.0
 21
-4.7192833898842812
 31
0.0
  0
LINE
  5
587
  8
DATA
  6
CONTINUOUS
 62
     7
 10
136.0
 20
86.280034373762646
 30
0.0
 11
136.0
 21
78.953385173505794
 31
0.0
  0
LINE
  5
588
  8
DATA
  6
CONTINUOUS
 62
     7
 10
136.0
 20
77.043364792048578
 30
0.0
 11
136.0
 21
-1.7192833898842821
 31
0.0
  0
ARC
  5
589
  8
DATA
  6
CONTINUOUS
 62
     7
 10
123.0
 20
27.5857166101157
 30
0.0
 40
33.304999999999978
 50
255.92411847363061
 51
284.07588152636941
  0
LINE
  5
58A
  8
DATA
  6
CONTINUOUS
 62
     7
 10
125.23
 20
-4.7192833898842812
 30
0.0
 11
125.23
 21
10.00003000000001
 31
0.0
  0
LINE
  5
58B
  8
DATA
  6
CONTINUOUS
 62
     7
 10
125.23
 20
-4.7192833898842812
 30
0.0
 11
125.23
 21
46.630716610115712
 31
0.0
  0
LINE
  5
58C
  8
DATA
  6
CONTINUOUS
 62
     7
 10
125.23
 20
63.930716610115702
 30
0.0
 11
125.23
 21
90.280034373762646
 31
0.0
  0
ARC
  5
58D
  8
DATA
  6
CONTINUOUS
 62
     7
 10
836.43802931225446
 20
12.277502571751789
 30
0.0
 40
726.63684269660985
 50
174.1707805873767
 51
181.1083000873241
  0
LINE
  5
58E
  8
DATA
  6
CONTINUOUS
 62
     7
 10
110.59999999999999
 20
86.280034373762646
 30
0.0
 11
110.59999999999999
 21
48.649105866005328
 31
0.0
  0
LINE
  5
58F
  8
DATA
  6
CONTINUOUS
 62
     7
 10
117.6003343425087
 20
90.280034373762646
 30
0.0
 11
132.0
 21
90.280034373762646
 31
0.0
  0
ARC
  5
590
  8
DATA
  6
CONTINUOUS
 62
     7
 10
112.9365641508755
 20
-1.719283389884253
 30
0.0
 40
3.00000000000004
 50
181.10830008732441
 51
270.0
  0
ARC
  5
591
  8
DATA
  6
CONTINUOUS
 62
     7
 10
133.0
 20
-1.7192833898842821
 30
0.0
 40
3.0
 50
270.0
 51
0.0
  0
ARC
  5
592
  8
DATA
  6
CONTINUOUS
 62
     7
 10
114.59999999999999
 20
86.280034373762646
 30
0.0
 40
4.0
 50
90.0
 51
180.0
  0
CIRCLE
  5
593
  8
DATA
  6
CONTINUOUS
 62
     7
 10
120.92075008654029
 20
55.280716610115718
 30
0.0
 40
4.0
  0
LINE
  5
594
  8
DATA
  6
CONTINUOUS
 62
     7
 10
121.93000000000001
 20
46.880716610115712
 30
0.0
 11
121.93000000000001
 21
51.410133370837471
 31
0.0
  0
LINE
  5
595
  8
DATA
  6
CONTINUOUS
 62
     7
 10
121.93000000000001
 20
59.151299849393972
 30
0.0
 11
121.93000000000001
 21
63.680716610115731
 31
0.0
  0
LINE
  5
596
  8
DATA
  6
CONTINUOUS
 62
     7
 10
121.93000000000001
 20
46.880716610115712
 30
0.0
 11
125.23
 21
46.630716610115712
 31
0.0
  0
LINE
  5
597
  8
DATA
  6
CONTINUOUS
 62
     7
 10
121.93000000000001
 20
63.680716610115731
 30
0.0
 11
125.23
 21
63.930716610115702
 31
0.0
  0
LINE
  5
598
  8
DATA
  6
CONTINUOUS
 62
     7
 10
131.5
 20
43.280716610115718
 30
0.0
 11
136.0
 21
43.280716610115718
 31
0.0
  0
LINE
  5
599
  8
DATA
  6
CONTINUOUS
 62
     7
 10
131.5
 20
79.280716610115704
 30
0.0
 11
136.0
 21
79.280716610115704
 31
0.0
  0
LINE
  5
59A
  8
DATA
  6
CONTINUOUS
 62
     7
 10
128.0
 20
46.780716610115711
 30
0.0
 11
128.0
 21
75.780716610115704
 31
0.0
  0
ARC
  5
59B
  8
DATA
  6
CONTINUOUS
 62
     7
 10
131.5
 20
46.780716610115711
 30
0.0
 40
3.5
 50
180.0
 51
270.0
  0
ARC
  5
59C
  8
DATA
  6
CONTINUOUS
 62
     7
 10
131.5
 20
75.780716610115704
 30
0.0
 40
3.5
 50
90.0
 51
180.0
  0
LINE
  5
59D
  8
DATA
  6
CONTINUOUS
 62
     7
 10
131.57679479401671
 20
64.280716610115704
 30
0.0
 11
131.57679479401671
 21
69.280716610115704
 31
0.0
  0
LINE
  5
59E
  8
DATA
  6
CONTINUOUS
 62
     7
 10
135.07679479401671
 20
69.280716610115704
 30
0.0
 11
135.07679479401671
 21
64.280716610115704
 31
0.0
  0
LINE
  5
59F
  8
DATA
  6
CONTINUOUS
 62
     7
 10
135.07679479401671
 20
69.280716610115704
 30
0.0
 11
131.57679479401671
 21
69.280716610115704
 31
0.0
  0
LINE
  5
5A0
  8
DATA
  6
CONTINUOUS
 62
     7
 10
135.07679479401671
 20
64.280716610115704
 30
0.0
 11
131.57679479401671
 21
64.280716610115704
 31
0.0
  0
LINE
  5
5A1
  8
DATA
  6
CONTINUOUS
 62
     7
 10
132.55000000000001
 20
67.921351598828224
 30
0.0
 11
134.15000000000001
 21
67.921351598828224
 31
0.0
  0
LINE
  5
5A2
  8
DATA
  6
CONTINUOUS
 62
     7
 10
132.55000000000001
 20
69.280716610115704
 30
0.0
 11
132.55000000000001
 21
64.280716610115704
 31
0.0
  0
LINE
  5
5A3
  8
DATA
  6
CONTINUOUS
 62
     7
 10
134.15000000000001
 20
69.280716610115704
 30
0.0
 11
134.15000000000001
 21
64.280716610115704
 31
0.0
  0
TEXT
  5
5A4
  8
DATA
 62
     7
 10
133.91306794584099
 20
69.817018639229445
 30
0.0
 40
1.357367621527777
  1
0
 50
90.0
 41
0.8
 11
132.55570032431319
 21
69.817018639229445
 31
0.0
 73
     3
  0
TEXT
  5
5A5
  8
DATA
 62
     7
 10
133.98214365634789
 20
59.60261536407959
 30
0.0
 40
1.357367621527777
  1
-20dB
 50
90.0
 41
0.8
 11
132.6247760348202
 21
59.60261536407959
 31
0.0
 73
     3
  0
CIRCLE
  5
5A6
  8
DATA
  6
CONTINUOUS
 62
     7
 10
120.92075008654029
 20
55.280716610115718
 30
0.0
 40
2.2399999999999891
  0
POLYLINE
  5
5A7
  8
DATA
  6
CONTINUOUS
 62
     7
 66
     1
 10
0.0
 20
0.0
 30
0.0
  0
VERTEX
  5
ADB
  8
DATA
  6
CONTINUOUS
 62
     7
 10
120.92075008654029
 20
55.492848644471692
 30
0.0
  0
VERTEX
  5
ADC
  8
DATA
  6
CONTINUOUS
 62
     7
 10
119.5418918632266
 20
56.871706867785427
 30
0.0
  0
VERTEX
  5
ADD
  8
DATA
  6
CONTINUOUS
 62
     7
 10
119.32975982887061
 20
56.65957483342946
 30
0.0
  0
VERTEX
  5
ADE
  8
DATA
  6
CONTINUOUS
 62
     7
 10
120.70861805218441
 20
55.280716610115689
 30
0.0
  0
SEQEND
  5
ADF
  8
DATA
  6
CONTINUOUS
 62
     7
  0
POLYLINE
  5
5AE
  8
DATA
  6
CONTINUOUS
 62
     7
 66
     1
 10
0.0
 20
0.0
 30
0.0
  0
VERTEX
  5
AE0
  8
DATA
  6
CONTINUOUS
 62
     7
 10
121.1328821208963
 20
55.280716610115718
 30
0.0
  0
VERTEX
  5
AE1
  8
DATA
  6
CONTINUOUS
 62
     7
 10
122.51174034421
 20
53.901858386801962
 30
0.0
  0
VERTEX
  5
AE2
  8
DATA
  6
CONTINUOUS
 62
     7
 10
122.29960830985409
 20
53.689726352445987
 30
0.0
  0
VERTEX
  5
AE3
  8
DATA
  6
CONTINUOUS
 62
     7
 10
120.92075008654029
 20
55.068584575759743
 30
0.0
  0
SEQEND
  5
AE4
  8
DATA
  6
CONTINUOUS
 62
     7
  0
POLYLINE
  5
5B5
  8
DATA
  6
CONTINUOUS
 62
     7
 66
     1
 10
0.0
 20
0.0
 30
0.0
  0
VERTEX
  5
AE5
  8
DATA
  6
CONTINUOUS
 62
     7
 10
120.92075008654029
 20
55.492848644471692
 30
0.0
  0
VERTEX
  5
AE6
  8
DATA
  6
CONTINUOUS
 62
     7
 10
122.29960830985409
 20
56.871706867785427
 30
0.0
  0
VERTEX
  5
AE7
  8
DATA
  6
CONTINUOUS
 62
     7
 10
122.51174034421
 20
56.65957483342946
 30
0.0
  0
VERTEX
  5
AE8
  8
DATA
  6
CONTINUOUS
 62
     7
 10
121.1328821208963
 20
55.280716610115718
 30
0.0
  0
SEQEND
  5
AE9
  8
DATA
  6
CONTINUOUS
 62
     7
  0
POLYLINE
  5
5BC
  8
DATA
  6
CONTINUOUS
 62
     7
 66
     1
 10
0.0
 20
0.0
 30
0.0
  0
VERTEX
  5
AEA
  8
DATA
  6
CONTINUOUS
 62
     7
 10
120.92075008654029
 20
55.068584575759743
 30
0.0
  0
VERTEX
  5
AEB
  8
DATA
  6
CONTINUOUS
 62
     7
 10
119.5418918632266
 20
53.689726352445959
 30
0.0
  0
VERTEX
  5
AEC
  8
DATA
  6
CONTINUOUS
 62
     7
 10
119.32975982887061
 20
53.901858386801919
 30
0.0
  0
VERTEX
  5
AED
  8
DATA
  6
CONTINUOUS
 62
     7
 10
120.70861805218441
 20
55.280716610115689
 30
0.0
  0
SEQEND
  5
AEE
  8
DATA
  6
CONTINUOUS
 62
     7
  0
TEXT
  5
5C3
  8
DATA
 62
     7
 10
120.562
 20
44.583333333333343
 30
0.0
 40
1.6288411458333329
  1
GAIN
 50
90.0
 41
0.8
 11
118.93315885416671
 21
44.583333333333343
 31
0.0
 73
     3
  0
ARC
  5
5C4
  8
DATA
  6
CONTINUOUS
 62
     7
 10
12.75000499999997
 20
37.849798335993832
 30
0.0
 40
3.6502016640061958
 50
233.91258476120601
 51
306.08741523879411
  0
ARC
  5
5C5
  8
DATA
  6
CONTINUOUS
 62
     7
 10
33.769548785956452
 20
60.852087844787562
 30
0.0
 40
34.789946366138231
 50
206.9219940220853
 51
206.92199522950361
  0
ARC
  5
5C6
  8
DATA
  6
CONTINUOUS
 62
     7
 10
33.769548785956452
 20
60.852087844787562
 30
0.0
 40
34.789946366138231
 50
210.1951711639071
 51
228.24206581678109
  0
ARC
  5
5C7
  8
DATA
  6
CONTINUOUS
 62
     7
 10
32.092936771427702
 20
52.342465033510742
 30
0.0
 40
29.781552092867699
 50
189.8456140450034
 51
197.56535908103001
  0
ARC
  5
5C8
  8
DATA
  6
CONTINUOUS
 62
     7
 10
-8.2695387859564988
 20
60.852087844787562
 30
0.0
 40
34.789946366138231
 50
311.75793418321888
 51
329.8048288360929
  0
ARC
  5
5C9
  8
DATA
  6
CONTINUOUS
 62
     7
 10
-6.5929267714277549
 20
52.342465033510742
 30
0.0
 40
29.781552092867688
 50
342.4346409189701
 51
350.15438595499671
  0
ARC
  5
5CA
  8
DATA
  6
CONTINUOUS
 62
     7
 10
132.25521650640411
 20
47.447244017077523
 30
0.0
 40
3.5
 50
180.0
 51
270.0
  0
LINE
  5
5CB
  8
DATA
  6
CONTINUOUS
 62
     7
 10
128.75521650640411
 20
47.447244017077523
 30
0.0
 11
129.35789401311379
 21
74.517155933378433
 31
0.0
  0
LINE
  5
5CC
  8
DATA
  6
CONTINUOUS
 62
     7
 10
130.39257292170231
 20
49.125147805381381
 30
0.0
 11
130.9284112701333
 21
73.192906651387645
 31
0.0
  0
LINE
  5
5CD
  8
DATA
  6
CONTINUOUS
 62
     7
 10
131.0633398766457
 20
79.253370917292827
 30
0.0
 11
131.06333987664959
 21
79.253370917467237
 31
0.0
  0
ARC
  5
5CE
  8
DATA
  6
CONTINUOUS
 62
     7
 10
133.89170581425839
 20
49.047244017077531
 30
0.0
 40
3.499999999999992
 50
178.72459230786231
 51
270.00000000000011
  0
ARC
  5
5CF
  8
DATA
  6
CONTINUOUS
 62
     7
 10
134.699961101073
 20
44.747205118150561
 30
0.0
 40
0.8000388998725974
 50
269.20095351458872
 51
89.997214205029792
  0
LINE
  5
5D0
  8
DATA
  6
CONTINUOUS
 62
     7
 10
134.68880412660101
 20
43.947244017077523
 30
0.0
 11
132.25521650640411
 21
43.947244017077523
 31
0.0
  0
LINE
  5
5D1
  8
DATA
  6
CONTINUOUS
 62
     7
 10
134.69999999999999
 20
45.547244017077517
 30
0.0
 11
133.89170581425839
 21
45.547244017077517
 31
0.0
  0
ARC
  5
5D2
  8
DATA
  6
CONTINUOUS
 62
     7
 10
133.3569030331779
 20
74.428123032459709
 30
0.0
 40
4.0
 50
99.958461561533412
 51
178.72459230786231
  0
ARC
  5
5D3
  8
DATA
  6
CONTINUOUS
 62
     7
 10
134.9274202901974
 20
73.103873750468949
 30
0.0
 40
4.0
 50
99.958461561533412
 51
178.72459230786231
  0
LINE
  5
5D4
  8
DATA
  6
CONTINUOUS
 62
     7
 10
136.83868545382529
 20
79.100641190618987
 30
0.0
 11
132.66516637841451
 21
78.367856576807199
 31
0.0
  0
LINE
  5
5D5
  8
DATA
  6
CONTINUOUS
 62
     7
 10
135.2386854538253
 20
77.21971390577518
 30
0.0
 11
134.23568363543399
 21
77.043607294816411
 31
0.0
  0
LINE
  5
5D6
  8
DATA
  6
CONTINUOUS
 62
     7
 10
138.0116196175162
 20
78.115707804532093
 30
0.0
 11
138.0116196175162
 21
24.45860219538956
 31
0.0
  0
LINE
  5
5D7
  8
DATA
  6
CONTINUOUS
 62
     7
 10
136.41161961751621
 20
76.234780519688343
 30
0.0
 11
136.41161961751621
 21
24.45860219538956
 31
0.0
  0
ARC
  5
5D8
  8
DATA
  6
CONTINUOUS
 62
     7
 10
135.41161961751621
 20
76.234780519688343
 30
0.0
 40
1.0
 50
0.0
 51
99.958461561533554
  0
ARC
  5
5D9
  8
DATA
  6
CONTINUOUS
 62
     7
 10
142.0337244029233
 20
13.604734609492491
 30
0.0
 40
0.7212847437874004
 50
197.17025310246089
 51
29.893163038429339
  0
LINE
  5
5DA
  8
DATA
  6
CONTINUOUS
 62
     7
 10
141.3445860510954
 20
13.39180266341506
 30
0.0
 11
136.93740605048399
 21
22.226694276906951
 31
0.0
  0
LINE
  5
5DB
  8
DATA
  6
CONTINUOUS
 62
     7
 10
138.53740605048401
 20
22.226694276906951
 30
0.0
 11
142.6590467023079
 21
13.96421159556089
 31
0.0
  0
LINE
  5
5DC
  8
DATA
  6
CONTINUOUS
 62
     7
 10
136.41161961751621
 20
23.280716610115721
 30
0.0
 11
136.41161961751621
 21
23.280716644999998
 31
0.0
  0
ARC
  5
5DD
  8
DATA
  6
CONTINUOUS
 62
     7
 10
141.41161961751621
 20
24.458602195389549
 30
0.0
 40
5.0000000000000071
 50
179.99999999999989
 51
206.5117660228496
  0
ARC
  5
5DE
  8
DATA
  6
CONTINUOUS
 62
     7
 10
143.0116196175162
 20
24.45860219538957
 30
0.0
 40
4.999999999999992
 50
180.00000000000011
 51
206.51176602285
  0
ARC
  5
5DF
  8
DATA
  6
CONTINUOUS
 62
     7
 10
137.0116196175162
 20
78.115707804532093
 30
0.0
 40
1.0000000000000071
 50
0.0
 51
99.958461561532715
  0
ARC
  5
5E0
  8
DATA
  6
CONTINUOUS
 62
     7
 10
121.0168338941656
 20
55.857219455867302
 30
0.0
 40
5.592351863190216
 50
222.89835835186199
 51
269.78740695500198
  0
ARC
  5
5E1
  8
DATA
  6
CONTINUOUS
 62
     7
 10
121.0168338941656
 20
55.857219455867302
 30
0.0
 40
6.4382528577427953
 50
223.17458671882989
 51
269.81533896418682
  0
LINE
  5
5E2
  8
DATA
  6
CONTINUOUS
 62
     7
 10
116.15608380762519
 20
51.286502845751571
 30
0.0
 11
116.3215951750215
 21
51.452014213147812
 31
0.0
  0
LINE
  5
5E3
  8
DATA
  6
CONTINUOUS
 62
     7
 10
116.9200871770071
 20
52.05050621513346
 30
0.0
 11
117.1004746610341
 21
52.230893699160347
 31
0.0
  0
LINE
  5
5E4
  8
DATA
  6
CONTINUOUS
 62
     7
 10
120.9960838076252
 20
49.419000036327297
 30
0.0
 11
120.9988100936604
 21
50.264896638266521
 31
0.0
  0
LINE
  5
5E5
  8
DATA
  6
CONTINUOUS
 62
     7
 10
116.15608380762519
 20
51.286502845751571
 30
0.0
 11
115.69537640442471
 21
52.89650284575157
 31
0.0
  0
LINE
  5
5E6
  8
DATA
  6
CONTINUOUS
 62
     7
 10
117.1004746610341
 20
52.230893699160347
 30
0.0
 11
115.69537640442471
 21
52.89650284575157
 31
0.0
  0
LINE
  5
5E7
  8
DATA
  6
CONTINUOUS
 62
     7
 10
125.23
 20
39.780716610115718
 30
0.0
 11
118.45
 21
39.780716610115718
 31
0.0
  0
LINE
  5
5E8
  8
DATA
  6
CONTINUOUS
 62
     7
 10
117.45
 20
40.780716610115718
 30
0.0
 11
117.45
 21
45.620635598924601
 31
0.0
  0
LINE
  5
5E9
  8
DATA
  6
CONTINUOUS
 62
     7
 10
116.84304195196
 20
46.540156139206019
 30
0.0
 11
110.7373195857852
 21
49.150000000000013
 31
0.0
  0
LINE
  5
5EA
  8
DATA
  6
CONTINUOUS
 62
     7
 10
117.0989823951968
 20
54.100000000000009
 30
0.0
 11
111.00575826763
 21
54.100000000000009
 31
0.0
  0
ARC
  5
5EB
  8
DATA
  6
CONTINUOUS
 62
     7
 10
118.45
 20
40.780716610115718
 30
0.0
 40
1.0
 50
180.0
 51
270.0
  0
ARC
  5
5EC
  8
DATA
  6
CONTINUOUS
 62
     7
 10
116.45
 20
45.620635598924601
 30
0.0
 40
1.0
 50
0.0
 51
66.856088548648756
  0
LINE
  5
5ED
  8
DATA
  6
CONTINUOUS
 62
     7
 10
110.59999999999999
 20
48.649105866005328
 30
0.0
 11
110.59999999999999
 21
46.240000000000002
 31
0.0
  0
LINE
  5
5EE
  8
DATA
  6
CONTINUOUS
 62
     7
 10
117.73
 20
89.622368794988787
 30
0.0
 11
117.73
 21
90.280034373762646
 31
0.0
  0
LINE
  5
5EF
  8
DATA
  6
CONTINUOUS
 62
     7
 10
132.72999999999999
 20
89.622368794988787
 30
0.0
 11
132.72999999999999
 21
90.212857787037109
 31
0.0
  0
LINE
  5
5F0
  8
DATA
  6
CONTINUOUS
 62
     7
 10
117.73
 20
89.622368794988787
 30
0.0
 11
132.72999999999999
 21
89.622368794988787
 31
0.0
  0
LINE
  5
5F1
  8
DATA
  6
CONTINUOUS
 62
     7
 10
124.38
 20
90.280034373762646
 30
0.0
 11
124.38
 21
91.548992411598704
 31
0.0
  0
LINE
  5
5F2
  8
DATA
  6
CONTINUOUS
 62
     7
 10
126.08
 20
90.280034373762646
 30
0.0
 11
126.08
 21
91.548992411598704
 31
0.0
  0
LINE
  5
5F3
  8
DATA
  6
CONTINUOUS
 62
     7
 10
126.08
 20
91.548992411598704
 30
0.0
 11
124.38
 21
91.548992411598704
 31
0.0
  0
LINE
  5
5F4
  8
DATA
  6
CONTINUOUS
 62
     7
 10
-8.2519382212955463
 20
173.91
 30
0.0
 11
-8.2519382212955463
 21
174.88626813297259
 31
0.0
  0
LINE
  5
5F5
  8
DATA
  6
CONTINUOUS
 62
     7
 10
-6.2519482212955486
 20
173.91
 30
0.0
 11
-6.2519482212955486
 21
174.88626813297259
 31
0.0
  0
ARC
  5
5F6
  8
DATA
  6
CONTINUOUS
 62
     7
 10
125.2280717787044
 20
183.8862681329725
 30
0.0
 40
2.0
 50
0.0
 51
180.0
  0
LINE
  5
5F7
  8
DATA
  6
CONTINUOUS
 62
     7
 10
127.2280717787044
 20
174.88626813297259
 30
0.0
 11
127.2280717787044
 21
183.8862681329725
 31
0.0
  0
LINE
  5
5F8
  8
DATA
  6
CONTINUOUS
 62
     7
 10
123.2280517787044
 20
174.88626813297259
 30
0.0
 11
123.2280517787044
 21
183.8862681329725
 31
0.0
  0
LINE
  5
5F9
  8
DATA
  6
CONTINUOUS
 62
     7
 10
123.2280517787044
 20
174.88626813297259
 30
0.0
 11
127.2280717787044
 21
174.88626813297259
 31
0.0
  0
LINE
  5
5FA
  8
DATA
  6
CONTINUOUS
 62
     7
 10
126.2280517787044
 20
102.42001999999999
 30
0.0
 11
126.2280517787044
 21
173.91
 31
0.0
  0
LINE
  5
5FB
  8
DATA
  6
CONTINUOUS
 62
     7
 10
124.2280617787044
 20
102.42001999999999
 30
0.0
 11
124.2280617787044
 21
173.91
 31
0.0
  0
LINE
  5
5FC
  8
DATA
  6
CONTINUOUS
 62
     7
 10
124.2280617787044
 20
102.42001999999999
 30
0.0
 11
126.2280517787044
 21
102.42001999999999
 31
0.0
  0
LINE
  5
5FD
  8
DATA
  6
CONTINUOUS
 62
     7
 10
126.7280517787044
 20
102.42001999999999
 30
0.0
 11
127.9780617787044
 21
90.419999999999987
 31
0.0
  0
LINE
  5
5FE
  8
DATA
  6
CONTINUOUS
 62
     7
 10
123.7280617787044
 20
102.42001999999999
 30
0.0
 11
122.47808177870439
 21
90.419999999999987
 31
0.0
  0
LINE
  5
5FF
  8
DATA
  6
CONTINUOUS
 62
     7
 10
123.7280617787044
 20
102.42001999999999
 30
0.0
 11
126.7280517787044
 21
102.42001999999999
 31
0.0
  0
LINE
  5
600
  8
DATA
  6
CONTINUOUS
 62
     7
 10
128.73000499999989
 20
90.418678882365569
 30
0.0
 11
126.08
 21
90.418678882365569
 31
0.0
  0
LINE
  5
601
  8
DATA
  6
CONTINUOUS
 62
     7
 10
124.38
 20
90.418678882365569
 30
0.0
 11
121.7
 21
90.418678882365569
 31
0.0
  0
LINE
  5
602
  8
DATA
  6
CONTINUOUS
 62
     7
 10
127.9676450460657
 20
90.519999999999996
 30
0.0
 11
126.08
 21
90.519999999999996
 31
0.0
  0
LINE
  5
603
  8
DATA
  6
CONTINUOUS
 62
     7
 10
124.38
 20
90.519999999999996
 30
0.0
 11
122.49891474398279
 21
90.519999999999996
 31
0.0
  0
ARC
  5
604
  8
DATA
  6
CONTINUOUS
 62
     7
 10
121.7
 20
90.118678882365558
 30
0.0
 40
0.2999999999999972
 50
90.0
 51
147.4624900533567
  0
ARC
  5
605
  8
DATA
  6
CONTINUOUS
 62
     7
 10
128.73000500000001
 20
90.118678882365558
 30
0.0
 40
0.2999999999999806
 50
32.53750994667417
 51
90.000000000002728
  0
LINE
  5
606
  8
DATA
  6
CONTINUOUS
 62
     7
 10
124.2280617787044
 20
173.91
 30
0.0
 11
124.2280617787044
 21
174.88626813297259
 31
0.0
  0
LINE
  5
607
  8
DATA
  6
CONTINUOUS
 62
     7
 10
126.2280517787044
 20
173.91
 30
0.0
 11
126.2280517787044
 21
174.88626813297259
 31
0.0
  0
LINE
  5
608
  8
DATA
  6
CONTINUOUS
 62
     7
 10
132.72999999999999
 20
90.212857787037109
 30
0.0
 11
132.72999999999999
 21
90.280034373762646
 31
0.0
  0
LINE
  5
609
  8
DATA
  6
CONTINUOUS
 62
     7
 10
132.0
 20
90.280034373762646
 30
0.0
 11
132.72999999999999
 21
90.280034373762646
 31
0.0
  0
LINE
  5
60A
  8
DATA
  6
CONTINUOUS
 62
     7
 10
113.5536586869554
 20
86.031993809544446
 30
0.0
 11
113.55365891325719
 21
86.031996007770189
 31
0.0
  0
LINE
  5
60B
  8
DATA
  6
CONTINUOUS
 62
     7
 10
136.0
 20
86.122368794988802
 30
0.0
 11
136.0
 21
86.780034373762646
 31
0.0
  0
LINE
  5
60C
  8
DATA
  6
CONTINUOUS
 62
     7
 10
117.73
 20
89.622368794988787
 30
0.0
 11
117.5326293261346
 21
89.622368794988787
 31
0.0
  0
LINE
  5
60D
  8
DATA
  6
CONTINUOUS
 62
     7
 10
132.72999999999999
 20
89.622368794988787
 30
0.0
 11
132.5
 21
89.622368794988787
 31
0.0
  0
LINE
  5
60E
  8
DATA
  6
CONTINUOUS
 62
     7
 10
132.72999999999999
 20
90.280034373762646
 30
0.0
 11
132.5
 21
90.280034373762646
 31
0.0
  0
ARC
  5
60F
  8
DATA
  6
CONTINUOUS
 62
     7
 10
117.5326293261346
 20
85.622368794988787
 30
0.0
 40
4.0000000000000071
 50
90.0
 51
174.12224981189499
  0
ARC
  5
610
  8
DATA
  6
CONTINUOUS
 62
     7
 10
132.5
 20
86.122368794988802
 30
0.0
 40
3.5
 50
0.0
 51
90.0
  0
ARC
  5
611
  8
DATA
  6
CONTINUOUS
 62
     7
 10
132.5
 20
86.780034373762646
 30
0.0
 40
3.5
 50
0.0
 51
90.0
  0
LINE
  5
612
  8
DATA
  6
CONTINUOUS
 62
     7
 10
-14.562497500000021
 20
206.19832692534149
 30
0.0
 11
-8.8987804515293032
 21
206.19832692534149
 31
0.0
  0
LINE
  5
613
  8
DATA
  6
CONTINUOUS
 62
     7
 10
32.098780451529286
 20
206.19832692534149
 30
0.0
 11
39.437502499999987
 21
206.19832692534149
 31
0.0
  0
ARC
  5
614
  8
DATA
  6
CONTINUOUS
 62
     7
 10
11.599999999999991
 20
253.1321107091251
 30
0.0
 40
50.633783783783699
 50
249.5367214608593
 51
290.46327853914067
  0
LINE
  5
615
  8
DATA
  6
CONTINUOUS
 62
     7
 10
-21.375000000000011
 20
210.19832692534149
 30
0.0
 11
-21.375000000000011
 21
223.7983269253414
 31
0.0
  0
LINE
  5
616
  8
DATA
  6
CONTINUOUS
 62
     7
 10
46.250004999999973
 20
210.19832692534149
 30
0.0
 11
46.250004999999973
 21
223.7983269253414
 31
0.0
  0
ARC
  5
617
  8
DATA
  6
CONTINUOUS
 62
     7
 10
-17.375000000000021
 20
223.7983269253414
 30
0.0
 40
3.9999999999999991
 50
116.1927359832292
 51
180.0
  0
ARC
  5
618
  8
DATA
  6
CONTINUOUS
 62
     7
 10
42.250004999999959
 20
223.7983269253414
 30
0.0
 40
4.0
 50
0.0
 51
63.80726401677088
  0
ARC
  5
619
  8
DATA
  6
CONTINUOUS
 62
     7
 10
-17.375000000000021
 20
210.19832692534149
 30
0.0
 40
4.0
 50
180.0
 51
270.0
  0
ARC
  5
61A
  8
DATA
  6
CONTINUOUS
 62
     7
 10
42.250004999999959
 20
210.19832692534149
 30
0.0
 40
4.0
 50
270.0
 51
0.0
  0
ARC
  5
61B
  8
DATA
  6
CONTINUOUS
 62
     7
 10
-8.8987804515293032
 20
198.19832692534149
 30
0.0
 40
7.999999999999913
 50
69.536721460859155
 51
90.0
  0
ARC
  5
61C
  8
DATA
  6
CONTINUOUS
 62
     7
 10
32.098780451529286
 20
198.1983269253416
 30
0.0
 40
7.9999999999998579
 50
90.0
 51
110.463278539141
  0
LINE
  5
61D
  8
DATA
  6
CONTINUOUS
 62
     7
 10
46.250004999999973
 20
216.99832692534139
 30
0.0
 11
38.554664212760969
 21
216.99832692534139
 31
0.0
  0
LINE
  5
61E
  8
DATA
  6
CONTINUOUS
 62
     7
 10
25.05483873189959
 20
216.99832692534139
 30
0.0
 11
15.74917597843972
 21
216.99832692534139
 31
0.0
  0
LINE
  5
61F
  8
DATA
  6
CONTINUOUS
 62
     7
 10
10.75893537731967
 20
216.99832692534139
 30
0.0
 11
4.2527023839948566
 21
216.99832692534139
 31
0.0
  0
LINE
  5
620
  8
DATA
  6
CONTINUOUS
 62
     7
 10
1.2527024974293961
 20
216.99832692534139
 30
0.0
 11
-3.4972975819748049
 21
216.99832692534139
 31
0.0
  0
LINE
  5
621
  8
DATA
  6
CONTINUOUS
 62
     7
 10
-10.99729753660092
 20
216.99832692534139
 30
0.0
 11
-21.375000000000011
 21
216.99832692534139
 31
0.0
  0
ARC
  5
622
  8
DATA
  6
CONTINUOUS
 62
     7
 10
14.2524220254152
 20
216.89969830827491
 30
0.0
 40
1.500000000000056
 50
270.0
 51
90.0
  0
ARC
  5
623
  8
DATA
  6
CONTINUOUS
 62
     7
 10
12.2524220254152
 20
216.89969830827491
 30
0.0
 40
1.500000000000028
 50
90.0
 51
270.0
  0
CIRCLE
  5
624
  8
DATA
  6
CONTINUOUS
 62
     7
 10
11.502422025415189
 20
216.89969830827491
 30
0.0
 40
0.75
  0
LINE
  5
625
  8
DATA
  6
CONTINUOUS
 62
     7
 10
14.2524220254152
 20
215.39969830827491
 30
0.0
 11
12.2524220254152
 21
215.39969830827491
 31
0.0
  0
LINE
  5
626
  8
DATA
  6
CONTINUOUS
 62
     7
 10
14.2524220254152
 20
218.39969830827491
 30
0.0
 11
12.2524220254152
 21
218.39969830827491
 31
0.0
  0
ARC
  5
627
  8
DATA
  6
CONTINUOUS
 62
     7
 10
12.5024220254152
 20
216.89969830827491
 30
0.0
 40
0.7499700000000189
 50
270.0
 51
90.0
  0
LINE
  5
628
  8
DATA
  6
CONTINUOUS
 62
     7
 10
12.5024220254152
 20
216.14972830827489
 30
0.0
 11
11.502422025415189
 21
216.14969830827491
 31
0.0
  0
LINE
  5
629
  8
DATA
  6
CONTINUOUS
 62
     7
 10
12.352412025415189
 20
217.6345583082749
 30
0.0
 11
11.502422025415189
 21
217.64969830827491
 31
0.0
  0
CIRCLE
  5
62A
  8
DATA
  6
CONTINUOUS
 62
     7
 10
2.752702440712127
 20
216.9979144325288
 30
0.0
 40
1.5
  0
LINE
  5
62B
  8
DATA
  6
CONTINUOUS
 62
     7
 10
30.844572287306761
 20
234.48351990397009
 30
0.0
 11
-5.8885905646515804
 21
234.48351990397009
 31
0.0
  0
LINE
  5
62C
  8
DATA
  6
CONTINUOUS
 62
     7
 10
-5.0198209540353673
 20
232.8835390358031
 30
0.0
 11
30.136958710653289
 21
232.8835390358031
 31
0.0
  0
LINE
  5
62D
  8
DATA
  6
CONTINUOUS
 62
     7
 10
-0.0627127409754706
 20
220.99832692534139
 30
0.0
 11
19.937287259024519
 21
220.99832692534139
 31
0.0
  0
LINE
  5
62E
  8
DATA
  6
CONTINUOUS
 62
     7
 10
-0.0627127409754706
 20
209.9983269253415
 30
0.0
 11
19.937287259024519
 21
209.9983269253415
 31
0.0
  0
LINE
  5
62F
  8
DATA
  6
CONTINUOUS
 62
     7
 10
-1.56271274097547
 20
219.49832692534139
 30
0.0
 11
-1.56271274097547
 21
211.49832692534139
 31
0.0
  0
LINE
  5
630
  8
DATA
  6
CONTINUOUS
 62
     7
 10
21.437287259024529
 20
219.49832692534139
 30
0.0
 11
21.437287259024529
 21
211.49832692534139
 31
0.0
  0
ARC
  5
631
  8
DATA
  6
CONTINUOUS
 62
     7
 10
-0.0627127409754706
 20
219.49832692534139
 30
0.0
 40
1.5
 50
90.0
 51
180.0
  0
ARC
  5
632
  8
DATA
  6
CONTINUOUS
 62
     7
 10
-0.0627127409754706
 20
211.49832692534139
 30
0.0
 40
1.5
 50
180.0
 51
270.0
  0
ARC
  5
633
  8
DATA
  6
CONTINUOUS
 62
     7
 10
19.937287259024519
 20
211.49832692534139
 30
0.0
 40
1.5
 50
270.0
 51
0.0
  0
ARC
  5
634
  8
DATA
  6
CONTINUOUS
 62
     7
 10
19.937287259024519
 20
219.49832692534139
 30
0.0
 40
1.5
 50
0.0
 51
90.0
  0
LINE
  5
635
  8
DATA
  6
CONTINUOUS
 62
     7
 10
-18.562497500000021
 20
210.19832692534149
 30
0.0
 11
-18.562497500000021
 21
223.7983269253414
 31
0.0
  0
LINE
  5
636
  8
DATA
  6
CONTINUOUS
 62
     7
 10
43.437502499999987
 20
210.19832692534149
 30
0.0
 11
43.437502499999987
 21
223.7983269253414
 31
0.0
  0
ARC
  5
637
  8
DATA
  6
CONTINUOUS
 62
     7
 10
-14.562497500000021
 20
223.7983269253414
 30
0.0
 40
4.0
 50
90.0
 51
180.0
  0
ARC
  5
638
  8
DATA
  6
CONTINUOUS
 62
     7
 10
-14.562497500000021
 20
210.19832692534149
 30
0.0
 40
4.0
 50
180.0
 51
270.0
  0
LINE
  5
639
  8
DATA
  6
CONTINUOUS
 62
     7
 10
-17.375000000000021
 20
206.19832692534149
 30
0.0
 11
-14.562497500000021
 21
206.19832692534149
 31
0.0
  0
ARC
  5
63A
  8
DATA
  6
CONTINUOUS
 62
     7
 10
39.437502499999987
 20
223.7983269253414
 30
0.0
 40
4.0
 50
0.0
 51
90.0
  0
ARC
  5
63B
  8
DATA
  6
CONTINUOUS
 62
     7
 10
39.437502499999987
 20
210.19832692534149
 30
0.0
 40
4.0
 50
270.0
 51
0.0
  0
LINE
  5
63C
  8
DATA
  6
CONTINUOUS
 62
     7
 10
39.437502499999979
 20
227.7983269253414
 30
0.0
 11
38.600000000000001
 21
227.7983269253414
 31
0.0
  0
LINE
  5
63D
  8
DATA
  6
CONTINUOUS
 62
     7
 10
42.250004999999959
 20
206.19832692534149
 30
0.0
 11
38.299999999999997
 21
206.19832692534149
 31
0.0
  0
LINE
  5
63E
  8
DATA
  6
CONTINUOUS
 62
     7
 10
-4.862497499967815
 20
230.15703660276239
 30
0.0
 11
-15.768674678701711
 21
229.59413713547301
 31
0.0
  0
LINE
  5
63F
  8
DATA
  6
CONTINUOUS
 62
     7
 10
-4.7780108048037837
 20
228.5613972063837
 30
0.0
 11
-14.16867467870172
 21
228.0767177806342
 31
0.0
  0
ARC
  5
640
  8
DATA
  6
CONTINUOUS
 62
     7
 10
-4.86143194328828
 20
229.35703660276079
 30
0.0
 40
0.8000007096316378
 50
269.92368516711161
 51
90.076314832888357
  0
LINE
  5
641
  8
DATA
  6
CONTINUOUS
 62
     7
 10
-19.562497500000021
 20
222.0983269253415
 30
0.0
 11
-19.562497500000021
 21
225.5994542981274
 31
0.0
  0
ARC
  5
642
  8
DATA
  6
CONTINUOUS
 62
     7
 10
-15.562497500000021
 20
225.5994542981274
 30
0.0
 40
4.0000000000000044
 50
92.954579824059579
 51
180.0
  0
ARC
  5
643
  8
DATA
  6
CONTINUOUS
 62
     7
 10
-13.962497500000021
 20
224.08203494328879
 30
0.0
 40
4.0000000000000044
 50
92.954579824059579
 51
120.0658015412363
  0
ARC
  5
644
  8
DATA
  6
CONTINUOUS
 62
     7
 10
-18.562497500000021
 20
222.0983269253415
 30
0.0
 40
1.0
 50
180.0
 51
270.0
  0
LINE
  5
645
  8
DATA
  6
CONTINUOUS
 62
     7
 10
29.817538734803581
 20
230.15290570031931
 30
0.0
 11
40.643679678701673
 21
229.59413713547301
 31
0.0
  0
LINE
  5
646
  8
DATA
  6
CONTINUOUS
 62
     7
 10
29.653015804803751
 20
228.5613972063837
 30
0.0
 11
39.043679678701679
 21
228.0767177806342
 31
0.0
  0
ARC
  5
647
  8
DATA
  6
CONTINUOUS
 62
     7
 10
29.73643694328824
 20
229.35703660276079
 30
0.0
 40
0.8000007096316094
 50
89.923685167111586
 51
264.01452551819352
  0
LINE
  5
648
  8
DATA
  6
CONTINUOUS
 62
     7
 10
44.437502499999979
 20
222.0983269253415
 30
0.0
 11
44.437502499999979
 21
225.5994542981274
 31
0.0
  0
ARC
  5
649
  8
DATA
  6
CONTINUOUS
 62
     7
 10
40.437502499999972
 20
225.5994542981274
 30
0.0
 40
4.0
 50
0.0
 51
87.045420175940407
  0
ARC
  5
64A
  8
DATA
  6
CONTINUOUS
 62
     7
 10
43.437502499999979
 20
222.0983269253415
 30
0.0
 40
1.0
 50
270.0
 51
0.0
  0
ARC
  5
64B
  8
DATA
  6
CONTINUOUS
 62
     7
 10
38.837502499999992
 20
224.08203494328879
 30
0.0
 40
4.0000000000000089
 50
59.934198458763632
 51
87.04542017594045
  0
LINE
  5
64C
  8
DATA
  6
CONTINUOUS
 62
     7
 10
11.099999999999991
 20
226.69832692534149
 30
0.0
 11
12.43750250001953
 21
226.69832692534149
 31
0.0
  0
ARC
  5
64D
  8
DATA
  6
CONTINUOUS
 62
     7
 10
12.01875125000001
 20
548.33352351625808
 30
0.0
 40
321.63546918629322
 50
265.25943949987487
 51
274.74056050012513
  0
LINE
  5
64E
  8
DATA
  6
CONTINUOUS
 62
     7
 10
-11.65
 20
228.20671389308339
 30
0.0
 11
-11.65
 21
227.5701134256548
 31
0.0
  0
LINE
  5
64F
  8
DATA
  6
CONTINUOUS
 62
     7
 10
-5.6500000000000048
 20
228.5163913124382
 30
0.0
 11
-5.6500000000000048
 21
227.18372938904321
 31
0.0
  0
LINE
  5
650
  8
DATA
  6
CONTINUOUS
 62
     7
 10
30.525004999999972
 20
228.5163913124382
 30
0.0
 11
30.525004999999972
 21
227.23090189689549
 31
0.0
  0
LINE
  5
651
  8
DATA
  6
CONTINUOUS
 62
     7
 10
36.525004999999972
 20
228.20671389308339
 30
0.0
 11
36.525004999999972
 21
227.63301125313811
 31
0.0
  0
LINE
  5
652
  8
DATA
  6
CONTINUOUS
 62
     7
 10
29.73750249999998
 20
230.1570366027608
 30
0.0
 11
29.817538734803581
 21
230.15290570031931
 31
0.0
  0
LINE
  5
653
  8
DATA
  6
CONTINUOUS
 62
     7
 10
-5.0198209540353673
 20
232.8835390358031
 30
0.0
 11
-5.1798048636867122
 21
232.8835390358031
 31
0.0
  0
LINE
  5
654
  8
DATA
  6
CONTINUOUS
 62
     7
 10
-4.8609535892850166
 20
230.16537352252161
 30
0.0
 11
-4.8573999999999984
 21
230.15702715198259
 31
0.0
  0
LINE
  5
655
  8
DATA
  6
CONTINUOUS
 62
     7
 10
-14.43089194736403
 20
-27.414932241191771
 30
0.0
 11
-16.930891947363971
 21
-27.52810862849325
 31
0.0
  0
LINE
  5
656
  8
DATA
  6
CONTINUOUS
 62
     7
 10
-14.07148997954633
 20
-53.398769700172011
 30
0.0
 11
-16.57148997954631
 21
-53.510446595792267
 31
0.0
  0
LINE
  5
657
  8
DATA
  6
CONTINUOUS
 62
     7
 10
-20.74999500000003
 20
-49.514431586101637
 30
0.0
 11
-20.74999500000003
 21
-31.52401607166988
 31
0.0
  0
ARC
  5
658
  8
DATA
  6
CONTINUOUS
 62
     7
 10
-16.74999500000003
 20
-31.52401607166988
 30
0.0
 40
4.0000000000000009
 50
92.592041969588166
 51
180.0
  0
ARC
  5
659
  8
DATA
  6
CONTINUOUS
 62
     7
 10
-16.74999500000003
 20
-49.514431586101637
 30
0.0
 40
4.0
 50
180.0
 51
272.55774551248999
  0
LINE
  5
65A
  8
DATA
  6
CONTINUOUS
 62
     7
 10
-18.24999500000003
 20
-42.599887104274458
 30
0.0
 11
-20.74999500000003
 21
-42.599887104274458
 31
0.0
  0
LINE
  5
65B
  8
DATA
  6
CONTINUOUS
 62
     7
 10
39.930901947363992
 20
-27.414932241191771
 30
0.0
 11
42.430901947363942
 21
-27.528108628493271
 31
0.0
  0
LINE
  5
65C
  8
DATA
  6
CONTINUOUS
 62
     7
 10
39.571499979546282
 20
-53.398769700172011
 30
0.0
 11
42.071499979546253
 21
-53.510446595792303
 31
0.0
  0
LINE
  5
65D
  8
DATA
  6
CONTINUOUS
 62
     7
 10
46.250004999999973
 20
-49.514431586101672
 30
0.0
 11
46.250004999999973
 21
-31.524016071669909
 31
0.0
  0
ARC
  5
65E
  8
DATA
  6
CONTINUOUS
 62
     7
 10
42.250004999999973
 20
-31.524016071669909
 30
0.0
 40
3.999999999999992
 50
0.0
 51
87.407958030411621
  0
ARC
  5
65F
  8
DATA
  6
CONTINUOUS
 62
     7
 10
42.250004999999959
 20
-49.514431586101679
 30
0.0
 40
3.9999999999999769
 50
267.44225448751001
 51
0.0000000000004547
  0
LINE
  5
660
  8
DATA
  6
CONTINUOUS
 62
     7
 10
43.750004999999973
 20
-42.599887104274458
 30
0.0
 11
46.250004999999973
 21
-42.599887104274458
 31
0.0
  0
LINE
  5
661
  8
DATA
  6
CONTINUOUS
 62
     7
 10
44.100558488336773
 20
84.971547076311708
 30
0.0
 11
43.715251620664723
 21
87.331618314533216
 31
0.0
  0
LINE
  5
662
  8
DATA
  6
CONTINUOUS
 62
     7
 10
-18.60054848833677
 20
84.971547076311708
 30
0.0
 11
-18.3025137243377
 21
87.140000000000001
 31
0.0
  0
LINE
  5
663
  8
DATA
  6
CONTINUOUS
 62
     7
 10
-20.725474358864869
 20
45.00000000000162
 30
0.0
 11
-20.69216112940121
 21
48.500000000003702
 31
0.0
  0
LINE
  5
664
  8
DATA
  6
CONTINUOUS
 62
     7
 10
46.225484358864968
 20
44.99999999999968
 30
0.0
 11
46.192171129401153
 21
48.500000000008967
 31
0.0
  0
LINE
  5
665
  8
DATA
  6
CONTINUOUS
 62
     7
 10
117.6003343425087
 20
90.280034373762646
 30
0.0
 11
114.58
 21
90.280034373762646
 31
0.0
  0
LINE
  5
666
  8
DATA
  6
CONTINUOUS
 62
     7
 10
-9.9810852560171686
 20
90.519999999999996
 30
0.0
 11
-9.9915017386563516
 21
90.519999999999996
 31
0.0
  0
ARC
  5
667
  8
DATA
  6
CONTINUOUS
 62
     7
 10
12.75000500000005
 20
-447.4239780642128
 30
0.0
 40
537.70469467432895
 50
87.060417224067635
 51
92.939582775194268
  0
ENDSEC
  0
EOF
