  0
SECTION
  2
HEADER
  9
$ACADVER
  1
AC1009
  9
$INSBASE
 10
0.0
 20
0.0
 30
0.0
  9
$EXTMIN
 10
-80.01097548933717
 20
-131.71198723730251
 30
-0.0015258207003583
  9
$EXTMAX
 10
280.0109771657178
 20
403.54812151340587
 30
0.0000000349246037
  9
$LIMMIN
 10
0.0
 20
0.0
  9
$LIMMAX
 10
0.0
 20
0.0
  9
$ORTHOMODE
 70
     0
  9
$REGENMODE
 70
     1
  9
$FILLMODE
 70
     1
  9
$QTEXTMODE
 70
     0
  9
$MIRRTEXT
 70
     1
  9
$DRAGMODE
 70
     2
  9
$LTSCALE
 40
10.16
  9
$OSMODE
 70
   231
  9
$ATTMODE
 70
     1
  9
$TEXTSIZE
 40
0.0
  9
$TRACEWID
 40
1.0
  9
$TEXTSTYLE
  7
STANDARD
  9
$CLAYER
  8
DATA
  9
$CELTYPE
  6
CONTINUOUS
  9
$CECOLOR
 62
   256
  9
$DIMSCALE
 40
1.0
  9
$DIMASZ
 40
0.18
  9
$DIMEXO
 40
0.0625
  9
$DIMDLI
 40
0.38
  9
$DIMRND
 40
0.0
  9
$DIMDLE
 40
0.0
  9
$DIMEXE
 40
0.18
  9
$DIMTP
 40
0.0
  9
$DIMTM
 40
0.0
  9
$DIMTXT
 40
0.18
  9
$DIMCEN
 40
0.09
  9
$DIMTSZ
 40
0.0
  9
$DIMTOL
 70
     0
  9
$DIMLIM
 70
     0
  9
$DIMTIH
 70
     1
  9
$DIMTOH
 70
     1
  9
$DIMSE1
 70
     0
  9
$DIMSE2
 70
     0
  9
$DIMTAD
 70
     0
  9
$DIMZIN
 70
     0
  9
$DIMBLK
  1

  9
$DIMASO
 70
     1
  9
$DIMSHO
 70
     1
  9
$DIMPOST
  1

  9
$DIMAPOST
  1

  9
$DIMALT
 70
     0
  9
$DIMALTD
 70
     2
  9
$DIMALTF
 40
25.399999999999999
  9
$DIMLFAC
 40
1.0
  9
$DIMTOFL
 70
     0
  9
$DIMTVP
 40
0.0
  9
$DIMTIX
 70
     0
  9
$DIMSOXD
 70
     0
  9
$DIMSAH
 70
     0
  9
$DIMBLK1
  1

  9
$DIMBLK2
  1

  9
$DIMSTYLE
  2
STANDARD
  9
$DIMCLRD
 70
     0
  9
$DIMCLRE
 70
     0
  9
$DIMCLRT
 70
     0
  9
$DIMTFAC
 40
1.0
  9
$DIMGAP
 40
0.09
  9
$LUNITS
 70
     2
  9
$LUPREC
 70
     4
  9
$SKETCHINC
 40
0.1
  9
$FILLETRAD
 40
0.0
  9
$AUNITS
 70
     0
  9
$AUPREC
 70
     0
  9
$MENU
  1
acad
  9
$ELEVATION
 40
0.0
  9
$PELEVATION
 40
0.0
  9
$THICKNESS
 40
0.0
  9
$LIMCHECK
 70
     0
  9
$BLIPMODE
 70
     0
  9
$CHAMFERA
 40
0.0
  9
$CHAMFERB
 40
0.0
  9
$SKPOLY
 70
     0
  9
$TDCREATE
 40
2453875.650960648
  9
$TDUPDATE
 40
2453875.6530138552
  9
$TDINDWG
 40
0.0003586227
  9
$TDUSRTIMER
 40
0.0003584375
  9
$USRTIMER
 70
     1
  9
$ANGBASE
 50
0.0
  9
$ANGDIR
 70
     0
  9
$PDMODE
 70
     1
  9
$PDSIZE
 40
-2.0
  9
$PLINEWID
 40
0.0
  9
$COORDS
 70
     1
  9
$SPLFRAME
 70
     0
  9
$SPLINETYPE
 70
     6
  9
$SPLINESEGS
 70
     8
  9
$ATTDIA
 70
     0
  9
$ATTREQ
 70
     1
  9
$HANDLING
 70
     1
  9
$HANDSEED
  5
D9D
  9
$SURFTAB1
 70
     6
  9
$SURFTAB2
 70
     6
  9
$SURFTYPE
 70
     6
  9
$SURFU
 70
     6
  9
$SURFV
 70
     6
  9
$UCSNAME
  2

  9
$UCSORG
 10
0.0
 20
0.0
 30
0.0
  9
$UCSXDIR
 10
1.0
 20
0.0
 30
0.0
  9
$UCSYDIR
 10
0.0
 20
1.0
 30
0.0
  9
$PUCSNAME
  2

  9
$PUCSORG
 10
0.0
 20
0.0
 30
0.0
  9
$PUCSXDIR
 10
1.0
 20
0.0
 30
0.0
  9
$PUCSYDIR
 10
0.0
 20
1.0
 30
0.0
  9
$USERI1
 70
     0
  9
$USERI2
 70
     0
  9
$USERI3
 70
     0
  9
$USERI4
 70
     0
  9
$USERI5
 70
     0
  9
$USERR1
 40
0.0
  9
$USERR2
 40
0.0
  9
$USERR3
 40
0.0
  9
$USERR4
 40
0.0
  9
$USERR5
 40
0.0
  9
$WORLDVIEW
 70
     1
  9
$SHADEDGE
 70
     3
  9
$SHADEDIF
 70
    70
  9
$TILEMODE
 70
     1
  9
$MAXACTVP
 70
    64
  9
$PLIMCHECK
 70
     0
  9
$PEXTMIN
 10
1.0000000000000000E+020
 20
1.0000000000000000E+020
 30
1.0000000000000000E+020
  9
$PEXTMAX
 10
-1.0000000000000000E+020
 20
-1.0000000000000000E+020
 30
-1.0000000000000000E+020
  9
$PLIMMIN
 10
0.0
 20
0.0
  9
$PLIMMAX
 10
12.0
 20
9.0
  9
$UNITMODE
 70
     0
  9
$VISRETAIN
 70
     0
  9
$PLINEGEN
 70
     1
  9
$PSLTSCALE
 70
     0
  0
ENDSEC
  0
SECTION
  2
TABLES
  0
TABLE
  2
VPORT
 70
     1
  0
VPORT
  2
*ACTIVE
 70
     0
 10
0.0
 20
0.0
 11
1.0
 21
1.0
 12
100.0000008381904
 22
135.9180671380517
 13
0.0
 23
0.0
 14
1.0
 24
1.0
 15
0.0
 25
0.0
 16
0.0
 26
0.0
 36
1.0
 17
0.0
 27
0.0
 37
0.0
 40
539.7021013544487
 41
1.6703601108033239
 42
50.0
 43
0.0
 44
0.0
 50
0.0
 51
0.0
 71
     0
 72
  2000
 73
     1
 74
     1
 75
     0
 76
     0
 77
     0
 78
     0
  0
ENDTAB
  0
TABLE
  2
LTYPE
 70
    11
  0
LTYPE
  2
CONTINUOUS
 70
     0
  3
Solid line
 72
    65
 73
     0
 40
0.0
  0
ENDTAB
  0
TABLE
  2
LAYER
 70
     6
  0
LAYER
  2
0
 70
     0
 62
     7
  6
CONTINUOUS
  0
LAYER
  2
DATA
 70
     0
 62
     7
  6
CONTINUOUS
  0
LAYER
  2
HIBINO-BASE
 70
     0
 62
     7
  6
CONTINUOUS
  0
LAYER
  2
PATTERN_FILL
 70
     0
 62
     7
  6
CONTINUOUS
  0
LAYER
  2
SPEC
 70
     0
 62
     7
  6
CONTINUOUS
  0
LAYER
  2
DIMNSIONS
 70
     0
 62
     7
  6
CONTINUOUS
  0
ENDTAB
  0
TABLE
  2
STYLE
 70
     2
  0
STYLE
  2
STANDARD
 70
     0
 40
0.0
 41
1.0
 50
0.0
 71
     0
 42
0.0
  3
txt
  4
BIGFONT.SHX
  0
ENDTAB
  0
TABLE
  2
VIEW
 70
     0
  0
ENDTAB
  0
TABLE
  2
UCS
 70
     0
  0
ENDTAB
  0
TABLE
  2
APPID
 70
     1
  0
APPID
  2
ACAD
 70
     0
  0
ENDTAB
  0
TABLE
  2
DIMSTYLE
 70
     1
  0
DIMSTYLE
  2
STANDARD
 70
     0
  3

  4

  5

  6

  7

 40
1.0
 41
0.18
 42
0.0625
 43
0.38
 44
0.18
 45
0.0
 46
0.0
 47
0.0
 48
0.0
140
0.18
141
0.09
142
0.0
143
25.399999999999999
144
1.0
145
0.0
146
1.0
147
0.09
 71
     0
 72
     0
 73
     1
 74
     1
 75
     0
 76
     0
 77
     0
 78
     0
170
     0
171
     2
172
     0
173
     0
174
     0
175
     0
176
     0
177
     0
178
     0
  0
ENDTAB
  0
ENDSEC
  0
SECTION
  2
BLOCKS
  0
BLOCK
  8
0
  2
$MODEL_SPACE
 70
     0
 10
0.0
 20
0.0
 30
0.0
  3
$MODEL_SPACE
  1

  0
ENDBLK
  5
79D
  8
0
  0
BLOCK
 67
     1
  8
0
  2
$PAPER_SPACE
 70
     0
 10
0.0
 20
0.0
 30
0.0
  3
$PAPER_SPACE
  1

  0
ENDBLK
  5
799
 67
     1
  8
0
  0
ENDSEC
  0
SECTION
  2
ENTITIES
  0
LINE
  5
2D
  8
HIBINO-BASE
  6
CONTINUOUS
 62
     7
 10
-79.999990000000025
 20
403.53181999999993
 30
0.0
 11
279.99999000000003
 21
403.53181999999993
 31
0.0
  0
LINE
  5
2E
  8
HIBINO-BASE
  6
CONTINUOUS
 62
     7
 10
279.99999000000003
 20
-116.46817
 30
0.0
 11
-79.999990000000025
 21
-116.46817
 31
0.0
  0
LINE
  5
2F
  8
HIBINO-BASE
  6
CONTINUOUS
 62
     7
 10
-79.999990000000025
 20
-116.46817
 30
0.0
 11
-79.999990000000025
 21
403.53181999999993
 31
0.0
  0
TEXT
  5
30
  8
HIBINO-BASE
 62
     7
 10
-65.631989999999988
 20
-129.285517
 30
0.0
 40
7.200080664062499
  1
Hibino Corporation
 41
0.7
 11
-65.631989999999988
 21
-122.0854363359375
 31
0.0
 73
     3
  0
LINE
  5
31
  8
HIBINO-BASE
  6
CONTINUOUS
 62
     7
 10
279.99999000000003
 20
403.53181999999993
 30
0.0
 11
279.99999000000003
 21
-116.46817
 31
0.0
  0
LINE
  5
32
  8
HIBINO-BASE
  6
CONTINUOUS
 62
     7
 10
100.0
 20
-71.468179999999975
 30
0.0
 11
279.99999000000003
 21
-71.468179999999975
 31
0.0
  0
LINE
  5
33
  8
HIBINO-BASE
  6
CONTINUOUS
 62
     7
 10
100.0
 20
-116.46817
 30
0.0
 11
100.0
 21
-71.468179999999975
 31
0.0
  0
TEXT
  5
34
  8
HIBINO-BASE
 62
     7
 10
101.79998999999989
 20
-76.868186399999985
 30
0.0
 40
3.6000518750000001
  1
NOTE
 41
0.7
 11
101.79998999999989
 21
-73.268134524999965
 31
0.0
 73
     3
  0
LINE
  5
35
  8
HIBINO-BASE
  6
CONTINUOUS
 62
     7
 10
170.0
 20
-116.46817
 30
0.0
 11
170.0
 21
-71.468179999999975
 31
0.0
  0
TEXT
  5
36
  8
HIBINO-BASE
 62
     7
 10
171.7999999999999
 20
-76.868186399999985
 30
0.0
 40
3.6000518750000001
  1
TITLE
 41
0.7
 11
171.7999999999999
 21
-73.268134524999965
 31
0.0
 73
     3
  0
TEXT
  5
37
  8
HIBINO-BASE
 62
     7
 10
200.13677000000001
 20
-129.285517
 30
0.0
 40
7.200080664062499
  1
ヒビノ株式会社
 41
0.7
 11
200.13677000000001
 21
-122.0854363359375
 31
0.0
 73
     3
  0
LINE
  5
38
  8
HIBINO-BASE
  6
CONTINUOUS
 62
     7
 10
100.0
 20
-96.468180000000004
 30
0.0
 11
279.99999000000003
 21
-96.468180000000004
 31
0.0
  0
TEXT
  5
39
  8
HIBINO-BASE
 62
     7
 10
196.80000000000001
 20
-101.7555363999999
 30
0.0
 40
3.6000518750000001
  1
DRAWN
 41
0.7
 11
196.80000000000001
 21
-98.155484524999963
 31
0.0
 73
     3
  0
TEXT
  5
3A
  8
HIBINO-BASE
 62
     7
 10
146.7999999999999
 20
-101.7555363999999
 30
0.0
 40
3.6000518750000001
  1
DATE
 41
0.7
 11
146.7999999999999
 21
-98.155484524999963
 31
0.0
 73
     3
  0
TEXT
  5
3B
  8
HIBINO-BASE
 62
     7
 10
102.19999
 20
-101.7070738
 30
0.0
 40
3.257679726562499
  1
図面サイズ
 41
0.7
 11
102.19999
 21
-98.449394073437503
 31
0.0
 73
     3
  0
TEXT
  5
3C
  8
HIBINO-BASE
 62
     7
 10
126.79998999999989
 20
-101.7555363999999
 30
0.0
 40
3.6000518750000001
  1
SCALE
 41
0.7
 11
126.79998999999989
 21
-98.155484524999963
 31
0.0
 73
     3
  0
TEXT
  5
3D
  8
HIBINO-BASE
 62
     7
 10
171.7999999999999
 20
-101.7555363999999
 30
0.0
 40
3.6000518750000001
  1
DESIGN
 41
0.7
 11
171.7999999999999
 21
-98.155484524999963
 31
0.0
 73
     3
  0
TEXT
  5
3E
  8
HIBINO-BASE
 62
     7
 10
246.79999000000001
 20
-101.7555363999999
 30
0.0
 40
3.6000518750000001
  1
DRAWING NO.
 41
0.7
 11
246.79999000000001
 21
-98.155484524999963
 31
0.0
 73
     3
  0
TEXT
  5
3F
  8
HIBINO-BASE
 62
     7
 10
221.79999000000001
 20
-101.7555363999999
 30
0.0
 40
3.6000518750000001
  1
CHECK
 41
0.7
 11
221.79999000000001
 21
-98.155484524999963
 31
0.0
 73
     3
  0
LINE
  5
40
  8
HIBINO-BASE
  6
CONTINUOUS
 62
     7
 10
128.74999
 20
-113.96818
 30
0.0
 11
136.25
 21
-106.46818
 31
0.0
  0
TEXT
  5
41
  8
HIBINO-BASE
 62
     7
 10
127.49999
 20
-109.89960839999991
 30
0.0
 40
4.3435729687500002
  1
1
 41
0.7
 11
127.49999
 21
-105.5560354312499
 31
0.0
 73
     3
  0
LINE
  5
42
  8
HIBINO-BASE
  6
CONTINUOUS
 62
     7
 10
124.99999
 20
-116.46817
 30
0.0
 11
124.99999
 21
-96.468180000000004
 31
0.0
  0
LINE
  5
43
  8
HIBINO-BASE
  6
CONTINUOUS
 62
     7
 10
144.99998999999991
 20
-116.46817
 30
0.0
 11
144.99998999999991
 21
-96.468180000000004
 31
0.0
  0
LINE
  5
44
  8
HIBINO-BASE
  6
CONTINUOUS
 62
     7
 10
194.99999
 20
-96.468180000000004
 30
0.0
 11
194.99999
 21
-116.46817
 31
0.0
  0
LINE
  5
45
  8
HIBINO-BASE
  6
CONTINUOUS
 62
     7
 10
245.0
 20
-96.468180000000004
 30
0.0
 11
245.0
 21
-116.46817
 31
0.0
  0
LINE
  5
46
  8
HIBINO-BASE
  6
CONTINUOUS
 62
     7
 10
219.99999
 20
-116.46817
 30
0.0
 11
219.99999
 21
-96.468180000000004
 31
0.0
  0
TEXT
  5
47
  8
HIBINO-BASE
 62
     7
 10
107.82178
 20
-111.4712489999999
 30
0.0
 40
6.5153517578124989
  1
A4
 41
0.7
 11
107.82178
 21
-104.9558972421874
 31
0.0
 73
     3
  0
TEXT
  5
48
  8
HIBINO-BASE
 62
     7
 10
146.6253205936564
 20
-111.12349639999989
 30
0.0
 40
3.6000518750000001
  1
'06.03.
 41
0.7
 11
146.6253205936564
 21
-107.5234445249999
 31
0.0
 73
     3
  0
TEXT
  5
49
  8
HIBINO-BASE
 62
     7
 10
135.0
 20
-113.64960839999991
 30
0.0
 40
4.3435729687500002
  1
2
 41
0.7
 11
135.0
 21
-109.3060354312499
 31
0.0
 73
     3
  0
TEXT
  5
4A
  8
HIBINO-BASE
 62
     7
 10
198.01161002206919
 20
-110.7408816666666
 30
0.0
 40
3.2576822916666659
  1
N.Sasaki
 41
0.7
 11
198.01161002206919
 21
-107.483199375
 31
0.0
 73
     3
  0
ARC
  5
4B
  8
PATTERN_FILL
  6
CONTINUOUS
 62
     7
 10
0.0297733347353955
 20
20.00281487083052
 30
0.0
 40
10.00000000000002
 50
154.5039312464624
 51
205.49606875353771
  0
ARC
  5
4C
  8
PATTERN_FILL
  6
CONTINUOUS
 62
     7
 10
0.0297733347353955
 20
20.00281487083052
 30
0.0
 40
12.000000000000011
 50
138.77948529505801
 51
221.22051470494179
  0
ARC
  5
4D
  8
PATTERN_FILL
  6
CONTINUOUS
 62
     7
 10
0.0297733347353955
 20
20.00281487083052
 30
0.0
 40
14.0
 50
130.14505046037601
 51
229.85494953962399
  0
ARC
  5
4E
  8
PATTERN_FILL
  6
CONTINUOUS
 62
     7
 10
0.0297733347353955
 20
20.00281487083052
 30
0.0
 40
15.99999999999998
 50
124.3421945712103
 51
235.6578054287892
  0
LINE
  5
4F
  8
PATTERN_FILL
  6
CONTINUOUS
 62
     7
 10
-33.996374874958867
 20
20.00281487083052
 30
0.0
 11
-8.9963748749333234
 21
20.00281487083052
 31
0.0
  0
ARC
  5
50
  8
PATTERN_FILL
  6
CONTINUOUS
 62
     7
 10
-5.9702266652646321
 20
647.25281487083146
 30
0.0
 40
625.2500000000008
 50
267.43091849221742
 51
269.72269300676868
  0
ARC
  5
51
  8
PATTERN_FILL
  6
CONTINUOUS
 62
     7
 10
4.9026365015056541
 20
647.15792883146787
 30
0.0
 40
623.25000000000068
 50
266.42166273347527
 51
268.72214887388708
  0
ARC
  5
52
  8
PATTERN_FILL
  6
CONTINUOUS
 62
     7
 10
15.734350814678219
 20
646.87431445500806
 30
0.0
 40
621.2500000000008
 50
265.40859142077261
 51
267.71856625749081
  0
ARC
  5
53
  8
PATTERN_FILL
  6
CONTINUOUS
 62
     7
 10
26.523313763815221
 20
646.40326060317557
 30
0.0
 40
619.25000000000057
 50
264.39149539905219
 51
266.71175476886469
  0
ARC
  5
54
  8
PATTERN_FILL
  6
CONTINUOUS
 62
     7
 10
37.267529379402227
 20
645.74611622466466
 30
0.0
 40
617.25000000000045
 50
263.37019546087203
 51
265.70155592456632
  0
ARC
  5
55
  8
PATTERN_FILL
  6
CONTINUOUS
 62
     7
 10
-5.9702266652646889
 20
-607.24718512917048
 30
0.0
 40
625.25000000000102
 50
90.277306993232557
 51
92.569081507782684
  0
ARC
  5
56
  8
PATTERN_FILL
  6
CONTINUOUS
 62
     7
 10
4.9026365015055964
 20
-607.152299089807
 30
0.0
 40
623.25000000000102
 50
91.277851126109454
 51
93.578337266524585
  0
ARC
  5
57
  8
PATTERN_FILL
  6
CONTINUOUS
 62
     7
 10
15.734350814678161
 20
-606.86868471334719
 30
0.0
 40
621.2500000000008
 50
92.281433742508597
 51
94.591408579227277
  0
ARC
  5
58
  8
PATTERN_FILL
  6
CONTINUOUS
 62
     7
 10
26.52331376381515
 20
-606.3976308615147
 30
0.0
 40
619.25000000000068
 50
93.288245231142781
 51
95.60850460094764
  0
ARC
  5
59
  8
PATTERN_FILL
  6
CONTINUOUS
 62
     7
 10
37.267529379402163
 20
-605.74048648300356
 30
0.0
 40
617.2500000000008
 50
94.298444075438482
 51
96.629804539128187
  0
ARC
  5
5A
  8
PATTERN_FILL
  6
CONTINUOUS
 62
     7
 10
47.963869137820637
 20
-604.89866628724008
 30
0.0
 40
615.25000000000068
 50
95.312087409136353
 51
97.65538787789346
  0
ARC
  5
5B
  8
PATTERN_FILL
  6
CONTINUOUS
 62
     7
 10
-12.022523084653139
 20
20.00281487083052
 30
0.0
 40
10.0
 50
323.38052986997292
 51
36.619470130026798
  0
ARC
  5
5C
  8
PATTERN_FILL
  6
CONTINUOUS
 62
     7
 10
-12.022523084653139
 20
20.00281487083052
 30
0.0
 40
12.0
 50
311.97803655026962
 51
48.021963449731651
  0
ARC
  5
5D
  8
PATTERN_FILL
  6
CONTINUOUS
 62
     7
 10
-12.022523084653139
 20
20.00281487083052
 30
0.0
 40
13.999999999999989
 50
304.98040819163992
 51
55.019591808360452
  0
ARC
  5
5E
  8
PATTERN_FILL
  6
CONTINUOUS
 62
     7
 10
-12.022523084653139
 20
20.00281487083052
 30
0.0
 40
15.999999999999959
 50
300.10818100537409
 51
59.891818994625851
  0
LINE
  5
5F
  8
PATTERN_FILL
  6
CONTINUOUS
 62
     7
 10
20.003625125066328
 20
20.002814870830459
 30
0.0
 11
-3.996374874933323
 21
20.002814870830459
 31
0.0
  0
ARC
  5
60
  8
PATTERN_FILL
  6
CONTINUOUS
 62
     7
 10
-6.0225230846530593
 20
647.25281487083146
 30
0.0
 40
625.25000000000102
 50
270.18567084273599
 51
272.38563679325222
  0
ARC
  5
61
  8
PATTERN_FILL
  6
CONTINUOUS
 62
     7
 10
-16.895386251423339
 20
647.15792883146787
 30
0.0
 40
623.25000000000068
 50
271.18594012588829
 51
273.39413500297752
  0
ARC
  5
62
  8
PATTERN_FILL
  6
CONTINUOUS
 62
     7
 10
-27.727100564596121
 20
646.87431445500806
 30
0.0
 40
621.25000000000045
 50
272.1892744134982
 51
274.40638519948283
  0
ARC
  5
63
  8
PATTERN_FILL
  6
CONTINUOUS
 62
     7
 10
-38.516063513733393
 20
646.40326060317557
 30
0.0
 40
619.25000000000068
 50
273.19556825659612
 51
275.4225948406766
  0
ARC
  5
64
  8
PATTERN_FILL
  6
CONTINUOUS
 62
     7
 10
-49.260279129320381
 20
645.74611622466466
 30
0.0
 40
617.2500000000008
 50
274.20535805374129
 51
276.44294127025648
  0
ARC
  5
65
  8
PATTERN_FILL
  6
CONTINUOUS
 62
     7
 10
-6.0225230846531161
 20
-607.24718512917048
 30
0.0
 40
625.25000000000102
 50
87.614363206748649
 51
89.814329157264098
  0
ARC
  5
66
  8
PATTERN_FILL
  6
CONTINUOUS
 62
     7
 10
-16.8953862514234
 20
-607.152299089807
 30
0.0
 40
623.25000000000102
 50
86.60586499701985
 51
88.814059874111678
  0
ARC
  5
67
  8
PATTERN_FILL
  6
CONTINUOUS
 62
     7
 10
-27.727100564596171
 20
-606.86868471334719
 30
0.0
 40
621.25000000000034
 50
85.593614800517301
 51
87.81086310428509
  0
ARC
  5
68
  8
PATTERN_FILL
  6
CONTINUOUS
 62
     7
 10
-38.516063513733471
 20
-606.3976308615147
 30
0.0
 40
619.25000000000068
 50
84.577405159326233
 51
86.804427558671733
  0
ARC
  5
69
  8
PATTERN_FILL
  6
CONTINUOUS
 62
     7
 10
-49.260279129320459
 20
-605.74048648300356
 30
0.0
 40
617.25000000000102
 50
83.557058729743588
 51
85.794636386217434
  0
ARC
  5
6A
  8
PATTERN_FILL
  6
CONTINUOUS
 62
     7
 10
-59.956618887738927
 20
-604.89866628724008
 30
0.0
 40
615.25000000000034
 50
82.532498028661124
 51
84.781433232558754
  0
ARC
  5
6B
  8
PATTERN_FILL
  6
CONTINUOUS
 62
     7
 10
0.0297733347353955
 20
20.00281487083052
 30
0.0
 40
18.0
 50
120.0961550521934
 51
239.9038449478065
  0
ARC
  5
6C
  8
PATTERN_FILL
  6
CONTINUOUS
 62
     7
 10
0.0297733347353955
 20
20.00281487083052
 30
0.0
 40
19.999999999999972
 50
116.8275970354827
 51
243.17240296451729
  0
ARC
  5
6D
  8
PATTERN_FILL
  6
CONTINUOUS
 62
     7
 10
0.0297733347353955
 20
20.00281487083052
 30
0.0
 40
22.0
 50
114.2223915050597
 51
245.7776084949403
  0
ARC
  5
6E
  8
PATTERN_FILL
  6
CONTINUOUS
 62
     7
 10
0.0297733347353955
 20
20.00281487083052
 30
0.0
 40
23.999999999999972
 50
112.09166714295711
 51
247.90833285704289
  0
ARC
  5
6F
  8
PATTERN_FILL
  6
CONTINUOUS
 62
     7
 10
0.0297733347353955
 20
20.00281487083052
 30
0.0
 40
26.0
 50
116.1196507462721
 51
243.88034925372929
  0
ARC
  5
70
  8
PATTERN_FILL
  6
CONTINUOUS
 62
     7
 10
0.0297733347353955
 20
20.00281487083052
 30
0.0
 40
27.999999999999972
 50
125.57826457755171
 51
234.42173542244649
  0
ARC
  5
71
  8
PATTERN_FILL
  6
CONTINUOUS
 62
     7
 10
0.0297733347353955
 20
20.00281487083052
 30
0.0
 40
29.99999999999995
 50
132.79646072188081
 51
227.203539278118
  0
ARC
  5
72
  8
PATTERN_FILL
  6
CONTINUOUS
 62
     7
 10
0.0297733347353955
 20
20.00281487083052
 30
0.0
 40
31.999999999999929
 50
138.72730141370411
 51
221.27269858629569
  0
ARC
  5
73
  8
PATTERN_FILL
  6
CONTINUOUS
 62
     7
 10
0.0297733347353955
 20
20.00281487083052
 30
0.0
 40
33.999999999999979
 50
143.8055898540851
 51
216.1944101459151
  0
ARC
  5
74
  8
PATTERN_FILL
  6
CONTINUOUS
 62
     7
 10
-12.022523084653139
 20
20.00281487083052
 30
0.0
 40
17.999999999999979
 50
296.48075071633377
 51
63.519249283666163
  0
ARC
  5
75
  8
PATTERN_FILL
  6
CONTINUOUS
 62
     7
 10
-12.022523084653139
 20
20.00281487083052
 30
0.0
 40
19.999999999999972
 50
293.65993649619878
 51
66.340063503800394
  0
ARC
  5
76
  8
PATTERN_FILL
  6
CONTINUOUS
 62
     7
 10
-12.022523084653139
 20
20.00281487083052
 30
0.0
 40
22.0
 50
291.3968082965298
 51
68.603191703469534
  0
ARC
  5
77
  8
PATTERN_FILL
  6
CONTINUOUS
 62
     7
 10
-12.022523084653139
 20
20.00281487083052
 30
0.0
 40
23.999999999999972
 50
289.51692093162802
 51
70.462554901147087
  0
ARC
  5
78
  8
PATTERN_FILL
  6
CONTINUOUS
 62
     7
 10
-12.022523084653139
 20
20.00281487083052
 30
0.0
 40
25.999999999999972
 50
294.84235834270521
 51
65.157641657293638
  0
ARC
  5
79
  8
PATTERN_FILL
  6
CONTINUOUS
 62
     7
 10
-12.022523084653139
 20
20.00281487083052
 30
0.0
 40
27.999999999999929
 50
307.36533518297841
 51
52.595151845834287
  0
ARC
  5
7A
  8
PATTERN_FILL
  6
CONTINUOUS
 62
     7
 10
-12.022523084653139
 20
20.00281487083052
 30
0.0
 40
29.99999999999995
 50
315.06755832871067
 51
44.932441671286199
  0
ARC
  5
7B
  8
PATTERN_FILL
  6
CONTINUOUS
 62
     7
 10
-12.022523084653139
 20
20.00281487083052
 30
0.0
 40
31.999999999999851
 50
320.57863634672788
 51
39.421363653267761
  0
ARC
  5
7C
  8
PATTERN_FILL
  6
CONTINUOUS
 62
     7
 10
79.734190843149406
 20
641.28575039386465
 30
0.0
 40
609.2500000000008
 50
260.1576533811309
 51
261.62571552077441
  0
ARC
  5
7D
  8
PATTERN_FILL
  6
CONTINUOUS
 62
     7
 10
90.207771963046795
 20
639.72046320778475
 30
0.0
 40
607.25000000000068
 50
259.65873998124761
 51
260.59766106645492
  0
ARC
  5
7E
  8
PATTERN_FILL
  6
CONTINUOUS
 62
     7
 10
100.61803998332159
 20
637.97838179603502
 30
0.0
 40
605.25000000000045
 50
259.27681254455803
 51
259.5658113966349
  0
ARC
  5
7F
  8
PATTERN_FILL
  6
CONTINUOUS
 62
     7
 10
-81.193056781974335
 20
642.6725625068907
 30
0.0
 40
611.25000000000068
 50
277.25542919527197
 51
279.21888199847058
  0
ARC
  5
80
  8
PATTERN_FILL
  6
CONTINUOUS
 62
     7
 10
-91.726940593067553
 20
641.28575039386465
 30
0.0
 40
609.25000000000102
 50
278.27922791910129
 51
279.70433518958441
  0
ARC
  5
81
  8
PATTERN_FILL
  6
CONTINUOUS
 62
     7
 10
-102.200521712965
 20
639.72046320778475
 30
0.0
 40
607.25000000000114
 50
279.30670130818532
 51
280.22021366622289
  0
ARC
  5
82
  8
PATTERN_FILL
  6
CONTINUOUS
 62
     7
 10
-112.6107897332404
 20
637.97838179603502
 30
0.0
 40
605.2500000000008
 50
280.3379470567267
 51
280.75852123232488
  0
ARC
  5
83
  8
PATTERN_FILL
  6
CONTINUOUS
 62
     7
 10
47.963869137820701
 20
644.90429602890094
 30
0.0
 40
615.25000000000034
 50
262.34461212210653
 51
264.68791259085879
  0
ARC
  5
84
  8
PATTERN_FILL
  6
CONTINUOUS
 62
     7
 10
58.609170347880259
 20
643.87927010760825
 30
0.0
 40
613.2500000000008
 50
261.4090086058834
 51
263.6707679691516
  0
ARC
  5
85
  8
PATTERN_FILL
  6
CONTINUOUS
 62
     7
 10
69.200307032056173
 20
642.6725625068907
 30
0.0
 40
611.25000000000068
 50
260.72493061534868
 51
262.65005888817728
  0
ARC
  5
86
  8
PATTERN_FILL
  6
CONTINUOUS
 62
     7
 10
0.0297733347353955
 20
20.00281487083052
 30
0.0
 40
35.999999999999979
 50
148.2740141539561
 51
160.93888775291131
  0
ARC
  5
87
  8
PATTERN_FILL
  6
CONTINUOUS
 62
     7
 10
-59.956618887738877
 20
644.90429602890094
 30
0.0
 40
615.25000000000057
 50
275.21855979541789
 51
277.46750197133667
  0
ARC
  5
88
  8
PATTERN_FILL
  6
CONTINUOUS
 62
     7
 10
-70.601920097798384
 20
643.87927010760825
 30
0.0
 40
613.2500000000008
 50
276.23522942772178
 51
278.49635582971172
  0
ARC
  5
89
  8
PATTERN_FILL
  6
CONTINUOUS
 62
     7
 10
-12.022523084653139
 20
20.00281487083052
 30
0.0
 40
33.999999999999652
 50
19.61910673001849
 51
35.096624716351812
  0
ARC
  5
8A
  8
PATTERN_FILL
  6
CONTINUOUS
 62
     7
 10
-12.022523084653139
 20
20.00281487083052
 30
0.0
 40
35.999999999999659
 50
27.175063625801581
 51
31.54791409704638
  0
ARC
  5
8B
  8
PATTERN_FILL
  6
CONTINUOUS
 62
     7
 10
-12.022523084653139
 20
20.00281487083052
 30
0.0
 40
33.999999999999758
 50
324.9033752836433
 51
340.3808932699813
  0
ARC
  5
8C
  8
PATTERN_FILL
  6
CONTINUOUS
 62
     7
 10
-12.022523084653139
 20
20.00281487083052
 30
0.0
 40
35.999999999999751
 50
328.45208590295249
 51
332.82493637419822
  0
ARC
  5
8D
  8
PATTERN_FILL
  6
CONTINUOUS
 62
     7
 10
-70.601920097798526
 20
-603.87364036594727
 30
0.0
 40
613.25000000000114
 50
81.503644170293128
 51
83.764762147147835
  0
ARC
  5
8E
  8
PATTERN_FILL
  6
CONTINUOUS
 62
     7
 10
-91.726940593067624
 20
-601.28012065220378
 30
0.0
 40
609.25000000000102
 50
80.295664810418316
 51
81.720760606846355
  0
ARC
  5
8F
  8
PATTERN_FILL
  6
CONTINUOUS
 62
     7
 10
-102.2005217129651
 20
-599.71483346612365
 30
0.0
 40
607.25000000000114
 50
79.779786333789545
 51
80.693285611390294
  0
ARC
  5
90
  8
PATTERN_FILL
  6
CONTINUOUS
 62
     7
 10
-112.61078973324049
 20
-597.97275205437427
 30
0.0
 40
605.25000000000159
 50
79.241478767690111
 51
79.662052943221468
  0
ARC
  5
91
  8
PATTERN_FILL
  6
CONTINUOUS
 62
     7
 10
-81.193056781974434
 20
-602.66693276522994
 30
0.0
 40
611.25000000000102
 50
80.781118001525655
 51
82.744560880617982
  0
ARC
  5
92
  8
PATTERN_FILL
  6
CONTINUOUS
 62
     7
 10
0.0297733347353955
 20
20.00281487083052
 30
0.0
 40
35.999999999999957
 50
199.0611122470886
 51
211.72598584604319
  0
ARC
  5
93
  8
PATTERN_FILL
  6
CONTINUOUS
 62
     7
 10
58.60917034788018
 20
-603.87364036594727
 30
0.0
 40
613.25000000000102
 50
96.329232030852864
 51
98.590991394120877
  0
ARC
  5
94
  8
PATTERN_FILL
  6
CONTINUOUS
 62
     7
 10
69.200307032056074
 20
-602.66693276522972
 30
0.0
 40
611.25000000000068
 50
97.349941111825714
 51
99.275069384649441
  0
ARC
  5
95
  8
PATTERN_FILL
  6
CONTINUOUS
 62
     7
 10
79.734190843149307
 20
-601.28012065220378
 30
0.0
 40
609.25000000000045
 50
98.374284479224841
 51
99.842346618860702
  0
ARC
  5
96
  8
PATTERN_FILL
  6
CONTINUOUS
 62
     7
 10
90.207771963046724
 20
-599.71483346612365
 30
0.0
 40
607.25000000000114
 50
99.402338933542083
 51
100.3412600187503
  0
ARC
  5
97
  8
PATTERN_FILL
  6
CONTINUOUS
 62
     7
 10
100.61803998332149
 20
-597.97275205437427
 30
0.0
 40
605.25000000000125
 50
100.4341886033628
 51
100.72318745544909
  0
LINE
  5
98
  8
PATTERN_FILL
  6
CONTINUOUS
 62
     7
 10
223.7979848317307
 20
43.702014300323448
 30
0.0
 11
228.09342000000001
 21
39.406570000000002
 31
0.0
  0
LINE
  5
99
  8
PATTERN_FILL
  6
CONTINUOUS
 62
     7
 10
228.0756700899033
 20
44.424320725117838
 30
0.0
 11
233.27739
 21
39.22261000000001
 31
0.0
  0
LINE
  5
9A
  8
PATTERN_FILL
  6
CONTINUOUS
 62
     7
 10
243.16338172371599
 20
40.663392627143601
 30
0.0
 11
239.5188399999999
 21
37.018859999999997
 31
0.0
  0
LINE
  5
9B
  8
PATTERN_FILL
  6
CONTINUOUS
 62
     7
 10
239.9074223162304
 20
42.407441424593621
 30
0.0
 11
236.04074
 21
38.540750000000003
 31
0.0
  0
LINE
  5
9C
  8
PATTERN_FILL
  6
CONTINUOUS
 62
     7
 10
236.2019993162053
 20
43.702018448268248
 30
0.0
 11
231.90656000000001
 21
39.406570000000002
 31
0.0
  0
LINE
  5
9D
  8
PATTERN_FILL
  6
CONTINUOUS
 62
     7
 10
231.92431212625559
 20
44.42432212625561
 30
0.0
 11
226.7226
 21
39.22261000000001
 31
0.0
  0
LINE
  5
9E
  8
PATTERN_FILL
  6
CONTINUOUS
 62
     7
 10
220.09256381557009
 20
42.407435292778523
 30
0.0
 11
223.95923999999999
 21
38.540750000000003
 31
0.0
  0
LINE
  5
9F
  8
PATTERN_FILL
  6
CONTINUOUS
 62
     7
 10
216.83661161582839
 20
40.663388384171547
 30
0.0
 11
220.48114000000001
 21
37.018859999999997
 31
0.0
  0
LINE
  5
A0
  8
PATTERN_FILL
  6
CONTINUOUS
 62
     7
 10
212.98114000000001
 20
10.48116000000001
 30
0.0
 11
209.3366173728466
 21
6.8366282762991926
 31
0.0
  0
LINE
  5
A1
  8
PATTERN_FILL
  6
CONTINUOUS
 62
     7
 10
211.45925
 20
13.959260000000009
 30
0.0
 11
207.59256857541371
 21
10.09258768375329
 31
0.0
  0
LINE
  5
A2
  8
PATTERN_FILL
  6
CONTINUOUS
 62
     7
 10
210.59342000000001
 20
18.093440000000012
 30
0.0
 11
206.29799137172401
 21
13.798011371724041
 31
0.0
  0
LINE
  5
A3
  8
PATTERN_FILL
  6
CONTINUOUS
 62
     7
 10
210.77739
 20
23.277400000000011
 30
0.0
 11
205.57568787374461
 21
18.075697873744609
 31
0.0
  0
LINE
  5
A4
  8
PATTERN_FILL
  6
CONTINUOUS
 62
     7
 10
213.97103344266171
 20
38.528966557338293
 30
0.0
 11
217.51818
 21
34.981820000000013
 31
0.0
  0
LINE
  5
A5
  8
PATTERN_FILL
  6
CONTINUOUS
 62
     7
 10
209.3366138330075
 20
33.163386166992488
 30
0.0
 11
212.98114000000001
 21
29.51886
 31
0.0
  0
LINE
  5
A6
  8
PATTERN_FILL
  6
CONTINUOUS
 62
     7
 10
207.59256857541371
 20
29.90743231624668
 30
0.0
 11
211.45925
 21
26.040760000000009
 31
0.0
  0
LINE
  5
A7
  8
PATTERN_FILL
  6
CONTINUOUS
 62
     7
 10
206.29799137172409
 20
26.202008628275841
 30
0.0
 11
210.59342000000001
 21
21.906580000000002
 31
0.0
  0
LINE
  5
A8
  8
PATTERN_FILL
  6
CONTINUOUS
 62
     7
 10
205.5756872029427
 20
21.924313612092352
 30
0.0
 11
210.77739
 21
16.722619999999999
 31
0.0
  0
LINE
  5
A9
  8
PATTERN_FILL
  6
CONTINUOUS
 62
     7
 10
220.48114000000001
 20
2.981160000000016
 30
0.0
 11
216.8366171725356
 21
-0.6633719240123243
 31
0.0
  0
LINE
  5
AA
  8
PATTERN_FILL
  6
CONTINUOUS
 62
     7
 10
223.95923999999999
 20
1.45926
 30
0.0
 11
220.0925644338493
 21
-2.407415566150604
 31
0.0
  0
LINE
  5
AB
  8
PATTERN_FILL
  6
CONTINUOUS
 62
     7
 10
228.09342000000001
 20
0.5934400000000153
 30
0.0
 11
223.79798551966661
 21
-3.7019944803333531
 31
0.0
  0
LINE
  5
AC
  8
PATTERN_FILL
  6
CONTINUOUS
 62
     7
 10
233.27739
 20
0.7774000000000001
 30
0.0
 11
228.0756793595865
 21
-4.4243014554509443
 31
0.0
  0
LINE
  5
AD
  8
PATTERN_FILL
  6
CONTINUOUS
 62
     7
 10
226.7226
 20
0.7774000000000001
 30
0.0
 11
231.92430285658119
 21
-4.4243028565811642
 31
0.0
  0
LINE
  5
AE
  8
PATTERN_FILL
  6
CONTINUOUS
 62
     7
 10
231.90656000000001
 20
0.5934400000000153
 30
0.0
 11
236.2019986282759
 21
-3.7019986282758159
 31
0.0
  0
LINE
  5
AF
  8
PATTERN_FILL
  6
CONTINUOUS
 62
     7
 10
236.04074
 20
1.45926
 30
0.0
 11
239.90742169796081
 21
-2.4074216979607841
 31
0.0
  0
LINE
  5
B0
  8
PATTERN_FILL
  6
CONTINUOUS
 62
     7
 10
239.5188399999999
 20
2.981160000000016
 30
0.0
 11
243.16337616699249
 21
-0.6633761669924639
 31
0.0
  0
LINE
  5
B1
  8
PATTERN_FILL
  6
CONTINUOUS
 62
     7
 10
246.0289611956274
 20
38.528971195627513
 30
0.0
 11
242.48181
 21
34.981820000000013
 31
0.0
  0
LINE
  5
B2
  8
PATTERN_FILL
  6
CONTINUOUS
 62
     7
 10
219.7551875447881
 20
42.255207544788099
 30
0.0
 11
207.74480245521201
 21
30.244822455211992
 31
0.0
  0
LINE
  5
B3
  8
PATTERN_FILL
  6
CONTINUOUS
 62
     7
 10
226.78861945417901
 20
44.288629454179009
 30
0.0
 11
205.71138054582099
 21
23.211390545821139
 31
0.0
  0
LINE
  5
B4
  8
PATTERN_FILL
  6
CONTINUOUS
 62
     7
 10
211.47103416608479
 20
36.028965833915223
 30
0.0
 11
215.01818
 21
32.481820000000013
 31
0.0
  0
LINE
  5
B5
  8
PATTERN_FILL
  6
CONTINUOUS
 62
     7
 10
250.6633819240221
 20
33.163392827449329
 30
0.0
 11
247.01884000000001
 21
29.51886
 31
0.0
  0
LINE
  5
B6
  8
PATTERN_FILL
  6
CONTINUOUS
 62
     7
 10
252.40742556615061
 20
29.907445566150699
 30
0.0
 11
248.54074
 21
26.040760000000009
 31
0.0
  0
LINE
  5
B7
  8
PATTERN_FILL
  6
CONTINUOUS
 62
     7
 10
253.7020044803331
 20
26.20202448033314
 30
0.0
 11
249.40656000000001
 21
21.906580000000002
 31
0.0
  0
LINE
  5
B8
  8
PATTERN_FILL
  6
CONTINUOUS
 62
     7
 10
254.42431206673231
 20
21.924322881751081
 30
0.0
 11
249.2226
 21
16.722619999999999
 31
0.0
  0
LINE
  5
B9
  8
PATTERN_FILL
  6
CONTINUOUS
 62
     7
 10
247.01884000000001
 20
10.48116000000001
 30
0.0
 11
250.66337838417161
 21
6.8366216158283644
 31
0.0
  0
LINE
  5
BA
  8
PATTERN_FILL
  6
CONTINUOUS
 62
     7
 10
248.54074
 20
13.959260000000009
 30
0.0
 11
252.40742556615029
 21
10.09257443384973
 31
0.0
  0
LINE
  5
BB
  8
PATTERN_FILL
  6
CONTINUOUS
 62
     7
 10
249.40656000000001
 20
18.093440000000012
 30
0.0
 11
253.7020044803333
 21
13.797995519666721
 31
0.0
  0
LINE
  5
BC
  8
PATTERN_FILL
  6
CONTINUOUS
 62
     7
 10
249.2226
 20
23.277400000000011
 30
0.0
 11
254.42431139592659
 21
18.07568860407342
 31
0.0
  0
LINE
  5
BD
  8
PATTERN_FILL
  6
CONTINUOUS
 62
     7
 10
233.21136902219911
 20
44.288630977800878
 30
0.0
 11
254.2886209778006
 21
23.211379022199381
 31
0.0
  0
LINE
  5
BE
  8
PATTERN_FILL
  6
CONTINUOUS
 62
     7
 10
215.01818
 20
7.5181900000000033
 30
0.0
 11
211.47103880437251
 21
3.9710488043725429
 31
0.0
  0
LINE
  5
BF
  8
PATTERN_FILL
  6
CONTINUOUS
 62
     7
 10
217.51818
 20
5.0181900000000041
 30
0.0
 11
213.9710388043726
 21
1.4710488043725709
 31
0.0
  0
LINE
  5
C0
  8
PATTERN_FILL
  6
CONTINUOUS
 62
     7
 10
248.52896119562749
 20
36.028971195627548
 30
0.0
 11
244.98181
 21
32.481820000000013
 31
0.0
  0
LINE
  5
C1
  8
PATTERN_FILL
  6
CONTINUOUS
 62
     7
 10
244.98181
 20
7.5181900000000033
 30
0.0
 11
248.52895655733829
 21
3.9710434426617369
 31
0.0
  0
LINE
  5
C2
  8
PATTERN_FILL
  6
CONTINUOUS
 62
     7
 10
240.24479265460559
 20
42.255216659659318
 30
0.0
 11
252.2552140197277
 21
30.244786665995349
 31
0.0
  0
LINE
  5
C3
  8
PATTERN_FILL
  6
CONTINUOUS
 62
     7
 10
254.2886194541787
 20
16.788629454178771
 30
0.0
 11
233.21138054582099
 21
-4.2886094541789808
 31
0.0
  0
LINE
  5
C4
  8
PATTERN_FILL
  6
CONTINUOUS
 62
     7
 10
252.2552054898097
 20
9.7552148040805378
 30
0.0
 11
240.24481118452329
 21
-2.2551881297283951
 31
0.0
  0
LINE
  5
C5
  8
PATTERN_FILL
  6
CONTINUOUS
 62
     7
 10
242.48181
 20
5.0181900000000041
 30
0.0
 11
246.02895583391521
 21
1.4710441660847939
 31
0.0
  0
LINE
  5
C6
  8
PATTERN_FILL
  6
CONTINUOUS
 62
     7
 10
205.711382069449
 20
16.78861793055097
 30
0.0
 11
226.78860793055091
 21
-4.2886079305509091
 31
0.0
  0
LINE
  5
C7
  8
PATTERN_FILL
  6
CONTINUOUS
 62
     7
 10
207.74481098519129
 20
9.7551790148086468
 30
0.0
 11
219.7551690148085
 21
-2.2551790148085891
 31
0.0
  0
TEXT
  5
C8
  8
SPEC
 62
     7
 10
-62.499990000000011
 20
386.31835000000001
 30
0.0
 40
4.8865234375000002
  1
仕様
 41
0.7
 11
-62.499990000000011
 21
391.2048734375
 31
0.0
 73
     3
  0
LINE
  5
C9
  8
SPEC
  6
CONTINUOUS
 62
     7
 10
-65.000000000000014
 20
383.52999999999997
 30
0.0
 11
229.99999
 21
383.52999999999997
 31
0.0
  0
LINE
  5
CA
  8
SPEC
  6
CONTINUOUS
 62
     7
 10
-65.000000000000014
 20
383.52999999999997
 30
0.0
 11
-65.000000000000014
 21
286.02999
 31
0.0
  0
LINE
  5
CB
  8
SPEC
  6
CONTINUOUS
 62
     7
 10
-0.0000000000000142
 20
383.52999999999997
 30
0.0
 11
-0.0000000000000142
 21
286.02999
 31
0.0
  0
LINE
  5
CC
  8
SPEC
  6
CONTINUOUS
 62
     7
 10
229.99999
 20
383.52999999999997
 30
0.0
 11
229.99999
 21
286.02999
 31
0.0
  0
TEXT
  5
CD
  8
SPEC
 62
     7
 10
-63.250104041372502
 20
355.6125045329955
 30
0.0
 40
3.8006148046875001
  1
発振方式
 41
0.7
 11
-63.250104041372502
 21
359.41311933768287
 31
0.0
 73
     3
  0
TEXT
  5
CE
  8
SPEC
 62
     7
 10
0.770956441188943
 20
355.49604248438669
 30
0.0
 40
3.8006148046875001
  1
水晶制御PLLシンセサイザー方式
 41
0.7
 11
0.7709564411889432
 21
359.29665728907418
 31
0.0
 73
     3
  0
LINE
  5
CF
  8
SPEC
  6
CONTINUOUS
 62
     7
 10
-65.000000000000014
 20
376.02999999999997
 30
0.0
 11
229.99999
 21
376.02999999999997
 31
0.0
  0
TEXT
  5
D0
  8
SPEC
 62
     7
 10
-63.200000000000003
 20
377.6058518000001
 30
0.0
 40
3.8006148046875001
  1
電波型式
 41
0.7
 11
-63.200000000000003
 21
381.40646660468752
 31
0.0
 73
     3
  0
TEXT
  5
D1
  8
SPEC
 62
     7
 10
1.8390200684386711
 20
377.6058518000001
 30
0.0
 40
3.8006148046875001
  1
F3E
 41
0.7
 11
1.8390200684386711
 21
381.40646660468752
 31
0.0
 73
     3
  0
TEXT
  5
D2
  8
SPEC
 62
     7
 10
-63.200000000000003
 20
370.32121633400942
 30
0.0
 40
3.8006148046875001
  1
送信周波数
 41
0.7
 11
-63.200000000000003
 21
374.1218311386969
 31
0.0
 73
     3
  0
TEXT
  5
D3
  8
SPEC
 62
     7
 10
1.9951003421933671
 20
370.26193207375468
 30
0.0
 40
3.8006148046875001
  1
ULX2/SM87-JB:B型(806～810MHz)30チャンネルのうち任意の1チャンネル
 41
0.7
 11
1.9951003421933671
 21
374.06254687844222
 31
0.0
 73
     3
  0
LINE
  5
D4
  8
SPEC
  6
CONTINUOUS
 62
     7
 10
-65.000000000000014
 20
353.52999999999997
 30
0.0
 11
229.99999
 21
353.52999999999997
 31
0.0
  0
TEXT
  5
D5
  8
SPEC
 62
     7
 10
-63.200000000000003
 20
347.82121633400931
 30
0.0
 40
3.8006148046875001
  1
空中線電力
 41
0.7
 11
-63.200000000000003
 21
351.62183113869679
 31
0.0
 73
     3
  0
TEXT
  5
D6
  8
SPEC
 62
     7
 10
1.799999999999996
 20
347.68389193687739
 30
0.0
 40
3.8006148046875001
  1
10mW
 41
0.7
 11
1.7999999999999969
 21
351.48450674156493
 31
0.0
 73
     3
  0
LINE
  5
D7
  8
SPEC
  6
CONTINUOUS
 62
     7
 10
-65.000000000000014
 20
346.02999999999997
 30
0.0
 11
229.99999
 21
346.02999999999997
 31
0.0
  0
TEXT
  5
D8
  8
SPEC
 62
     7
 10
1.9951003421933671
 20
362.97426981527849
 30
0.0
 40
3.8006148046875001
  1
ULX2/SM87-JA:A型(797～806MHz)71チャンネルのうち任意の1チャンネル
 41
0.7
 11
1.9951003421933671
 21
366.77488461996597
 31
0.0
 73
     3
  0
TEXT
  5
D9
  8
SPEC
 62
     7
 10
-63.146158866497679
 20
332.82121633400942
 30
0.0
 40
3.8006148046875001
  1
到達距離
 41
0.7
 11
-63.146158866497679
 21
336.6218311386969
 31
0.0
 73
     3
  0
TEXT
  5
DA
  8
SPEC
 62
     7
 10
1.3317591787359071
 20
332.83997221063208
 30
0.0
 40
3.8006148046875001
  1
約70m(標準環境における最大値)
 41
0.7
 11
1.3317591787359071
 21
336.64058701531962
 31
0.0
 73
     3
  0
LINE
  5
DB
  8
SPEC
  6
CONTINUOUS
 62
     7
 10
-65.000000000000014
 20
338.52999999999997
 30
0.0
 11
229.99999
 21
338.52999999999997
 31
0.0
  0
TEXT
  5
DC
  8
SPEC
 62
     7
 10
-63.200000000000003
 20
325.1058518000001
 30
0.0
 40
3.8006148046875001
  1
トーン信号周波数
 41
0.7
 11
-63.200000000000003
 21
328.90646660468752
 31
0.0
 73
     3
  0
TEXT
  5
DD
  8
SPEC
 62
     7
 10
1.799999999999996
 20
325.26193207375479
 30
0.0
 40
3.8006148046875001
  1
32.768kHz
 41
0.7
 11
1.7999999999999969
 21
329.06254687844228
 31
0.0
 73
     3
  0
LINE
  5
DE
  8
SPEC
  6
CONTINUOUS
 62
     7
 10
-65.000000000000014
 20
331.02999999999997
 30
0.0
 11
229.99999
 21
331.02999999999997
 31
0.0
  0
TEXT
  5
DF
  8
SPEC
 62
     7
 10
-63.200000000000003
 20
317.82121633400942
 30
0.0
 40
3.8006148046875001
  1
周波数特性
 41
0.7
 11
-63.200000000000003
 21
321.6218311386969
 31
0.0
 73
     3
  0
TEXT
  5
E0
  8
SPEC
 62
     7
 10
1.799999999999996
 20
317.80095214219341
 30
0.0
 40
3.8006148046875001
  1
25～15,000Hz ±2dB
 41
0.7
 11
1.7999999999999969
 21
321.60156694688089
 31
0.0
 73
     3
  0
LINE
  5
E1
  8
SPEC
  6
CONTINUOUS
 62
     7
 10
-65.000000000000014
 20
323.52999999999997
 30
0.0
 11
229.99999
 21
323.52999999999997
 31
0.0
  0
TEXT
  5
E2
  8
SPEC
 62
     7
 10
-63.200000000000003
 20
310.21353406700467
 30
0.0
 40
3.8006148046875001
  1
ゲイン調整範囲
 41
0.7
 11
-63.200000000000003
 21
314.01414887169221
 31
0.0
 73
     3
  0
TEXT
  5
E3
  8
SPEC
 62
     7
 10
1.9170602053160191
 20
310.30095214219341
 30
0.0
 40
3.8006148046875001
  1
25dB
 41
0.7
 11
1.9170602053160191
 21
314.10156694688089
 31
0.0
 73
     3
  0
LINE
  5
E4
  8
SPEC
  6
CONTINUOUS
 62
     7
 10
-65.000000000000014
 20
316.02999999999997
 30
0.0
 11
229.99999
 21
316.02999999999997
 31
0.0
  0
TEXT
  5
E5
  8
SPEC
 62
     7
 10
-63.269738310375061
 20
340.41983062063463
 30
0.0
 40
3.8006148046875001
  1
アンテナ形式
 41
0.7
 11
-63.269738310375061
 21
344.22044542532211
 31
0.0
 73
     3
  0
TEXT
  5
E6
  8
SPEC
 62
     7
 10
0.8503036268807731
 20
340.57508645780672
 30
0.0
 40
3.8006148046875001
  1
内臓式ホイップ,50Ω
 41
0.7
 11
0.8503036268807733
 21
344.3757012624942
 31
0.0
 73
     3
  0
LINE
  5
E7
  8
SPEC
  6
CONTINUOUS
 62
     7
 10
-65.000000000000014
 20
308.52999999999997
 30
0.0
 11
229.99999
 21
308.52999999999997
 31
0.0
  0
TEXT
  5
E8
  8
SPEC
 62
     7
 10
-63.200000000000003
 20
302.6596929335023
 30
0.0
 40
3.8006148046875001
  1
電源 
 41
0.7
 11
-63.200000000000003
 21
306.46030773818978
 31
0.0
 73
     3
  0
TEXT
  5
E9
  8
SPEC
 62
     7
 10
1.956080273754693
 20
302.87899227907081
 30
0.0
 40
3.8006148046875001
  1
006P形アルカリ乾電池×1
 41
0.7
 11
1.956080273754693
 21
306.67960708375819
 31
0.0
 73
     3
  0
LINE
  5
EA
  8
SPEC
  6
CONTINUOUS
 62
     7
 10
-65.000000000000014
 20
301.02999
 30
0.0
 11
229.99999
 21
301.02999
 31
0.0
  0
LINE
  5
EB
  8
SPEC
  6
CONTINUOUS
 62
     7
 10
-65.000000000000014
 20
293.52999
 30
0.0
 11
229.99999
 21
293.52999
 31
0.0
  0
LINE
  5
EC
  8
SPEC
  6
CONTINUOUS
 62
     7
 10
-65.000000000000014
 20
286.02999
 30
0.0
 11
229.99999
 21
286.02999
 31
0.0
  0
TEXT
  5
ED
  8
SPEC
 62
     7
 10
-63.200000000000003
 20
295.10585179999998
 30
0.0
 40
3.8006148046875001
  1
寸法(W×H×D)
 41
0.7
 11
-63.200000000000003
 21
298.90646660468752
 31
0.0
 73
     3
  0
TEXT
  5
EE
  8
SPEC
 62
     7
 10
0.7231773299535432
 20
295.49756079958001
 30
0.0
 40
3.8006148046875001
  1
φ50×225mm
 41
0.7
 11
0.7231773299535435
 21
299.2981756042675
 31
0.0
 73
     3
  0
TEXT
  5
EF
  8
SPEC
 62
     7
 10
-63.200000000000003
 20
287.98273973451631
 30
0.0
 40
3.8006148046875001
  1
質量
 41
0.7
 11
-63.200000000000003
 21
291.7833545392038
 31
0.0
 73
     3
  0
TEXT
  5
F0
  8
SPEC
 62
     7
 10
1.799999999999996
 20
287.83997221063208
 30
0.0
 40
3.8006148046875001
  1
193g(除乾電池)
 41
0.7
 11
1.7999999999999969
 21
291.64058701531962
 31
0.0
 73
     3
  0
LINE
  5
F1
  8
SPEC
  6
CONTINUOUS
 62
     7
 10
-65.000000000000014
 20
361.02999999999997
 30
0.0
 11
229.99999
 21
361.02999999999997
 31
0.0
  0
TEXT
  5
F2
  8
DIMNSIONS
 62
     7
 10
60.0
 20
-91.929190000000006
 30
0.0
 40
4.8865234375000002
  1
(単位：mm)
 41
0.7
 11
60.0
 21
-87.042666562500003
 31
0.0
 73
     3
  0
LINE
  5
F3
  8
DIMNSIONS
  6
CONTINUOUS
 62
     7
 10
243.16300788725019
 20
-1.237272910381761
 30
0.0
 11
250.0
 21
-12.5
 31
0.0
  0
LINE
  5
F4
  8
DIMNSIONS
  6
CONTINUOUS
 62
     7
 10
243.16300788725019
 20
-1.237272910381761
 30
0.0
 11
247.97092986105599
 21
-5.7207326839284169
 31
0.0
  0
LINE
  5
F5
  8
DIMNSIONS
  6
CONTINUOUS
 62
     7
 10
243.16300788725019
 20
-1.237272910381761
 30
0.0
 11
245.08506056920609
 21
-7.5240239580216981
 31
0.0
  0
LINE
  5
F6
  8
DIMNSIONS
  6
CONTINUOUS
 62
     7
 10
250.0
 20
-12.5
 30
0.0
 11
262.00000000260769
 21
-12.5
 31
0.0
  0
TEXT
  5
F7
  8
DIMNSIONS
 62
     7
 10
262.00000000260769
 20
-15.03999799999999
 30
0.0
 40
5.4294662109375
  1
φ50
 41
0.7
 11
262.00000000260769
 21
-9.6105317890624935
 31
0.0
 73
     3
  0
LINE
  5
F8
  8
DIMNSIONS
  6
CONTINUOUS
 62
     7
 10
36.060009999999991
 20
42.750009985098842
 30
0.0
 11
36.060009999999991
 21
66.499999985098853
 31
0.0
  0
LINE
  5
F9
  8
DIMNSIONS
  6
CONTINUOUS
 62
     7
 10
190.99999
 20
38.800009985098853
 30
0.0
 11
190.99999
 21
66.499999985098853
 31
0.0
  0
LINE
  5
FA
  8
DIMNSIONS
  6
CONTINUOUS
 62
     7
 10
36.060009999999991
 20
62.5
 30
0.0
 11
190.99999
 21
62.5
 31
0.0
  0
LINE
  5
FB
  8
DIMNSIONS
  6
CONTINUOUS
 62
     7
 10
36.060009999999991
 20
62.5
 30
0.0
 11
42.410009999999993
 21
64.201477371937614
 31
0.0
  0
LINE
  5
FC
  8
DIMNSIONS
  6
CONTINUOUS
 62
     7
 10
36.060009999999991
 20
62.5
 30
0.0
 11
42.410009999999993
 21
60.798522628062372
 31
0.0
  0
LINE
  5
FD
  8
DIMNSIONS
  6
CONTINUOUS
 62
     7
 10
190.99999
 20
62.5
 30
0.0
 11
184.64999
 21
60.798522628062372
 31
0.0
  0
LINE
  5
FE
  8
DIMNSIONS
  6
CONTINUOUS
 62
     7
 10
190.99999
 20
62.5
 30
0.0
 11
184.64999
 21
64.201477371937614
 31
0.0
  0
TEXT
  5
FF
  8
DIMNSIONS
 62
     7
 10
108.2383333333333
 20
65.487777770327199
 30
0.0
 40
5.4294704861111107
  1
155
 41
0.7
 11
108.2383333333333
 21
70.917248256438313
 31
0.0
 73
     3
  0
LINE
  5
100
  8
DIMNSIONS
  6
CONTINUOUS
 62
     7
 10
36.060009999999991
 20
42.750009985098842
 30
0.0
 11
36.060009999999991
 21
66.499999985098853
 31
0.0
  0
LINE
  5
101
  8
DIMNSIONS
  6
CONTINUOUS
 62
     7
 10
-33.996374874933331
 20
38.86614741951842
 30
0.0
 11
-33.996374874933331
 21
66.499999985098853
 31
0.0
  0
LINE
  5
102
  8
DIMNSIONS
  6
CONTINUOUS
 62
     7
 10
36.060009999999991
 20
62.5
 30
0.0
 11
-33.996374874933331
 21
62.5
 31
0.0
  0
LINE
  5
103
  8
DIMNSIONS
  6
CONTINUOUS
 62
     7
 10
36.060009999999991
 20
62.5
 30
0.0
 11
29.71001
 21
60.798522628062372
 31
0.0
  0
LINE
  5
104
  8
DIMNSIONS
  6
CONTINUOUS
 62
     7
 10
36.060009999999991
 20
62.5
 30
0.0
 11
29.71001
 21
64.201477371937614
 31
0.0
  0
LINE
  5
105
  8
DIMNSIONS
  6
CONTINUOUS
 62
     7
 10
-33.996374874933331
 20
62.5
 30
0.0
 11
-27.646374874933329
 21
64.201477371937614
 31
0.0
  0
LINE
  5
106
  8
DIMNSIONS
  6
CONTINUOUS
 62
     7
 10
-33.996374874933331
 20
62.5
 30
0.0
 11
-27.646374874933329
 21
60.798522628062372
 31
0.0
  0
TEXT
  5
107
  8
DIMNSIONS
 62
     7
 10
-2.495960215244438
 20
65.487777770327199
 30
0.0
 40
5.4294704861111107
  1
70
 41
0.7
 11
-2.4959602152444371
 21
70.917248256438313
 31
0.0
 73
     3
  0
LINE
  5
108
  8
DIMNSIONS
  6
CONTINUOUS
 62
     7
 10
190.99999
 20
38.800009985098853
 30
0.0
 11
190.99999
 21
78.999999985098853
 31
0.0
  0
LINE
  5
109
  8
DIMNSIONS
  6
CONTINUOUS
 62
     7
 10
-33.996374874933331
 20
38.86614741951842
 30
0.0
 11
-33.996374874933331
 21
78.999999985098853
 31
0.0
  0
LINE
  5
10A
  8
DIMNSIONS
  6
CONTINUOUS
 62
     7
 10
190.99999
 20
75.0
 30
0.0
 11
-33.996374874933331
 21
75.0
 31
0.0
  0
LINE
  5
10B
  8
DIMNSIONS
  6
CONTINUOUS
 62
     7
 10
190.99999
 20
75.0
 30
0.0
 11
184.64999
 21
73.298522628062372
 31
0.0
  0
LINE
  5
10C
  8
DIMNSIONS
  6
CONTINUOUS
 62
     7
 10
190.99999
 20
75.0
 30
0.0
 11
184.64999
 21
76.701477371937614
 31
0.0
  0
LINE
  5
10D
  8
DIMNSIONS
  6
CONTINUOUS
 62
     7
 10
-33.996374874933331
 20
75.0
 30
0.0
 11
-27.646374874933329
 21
76.701477371937614
 31
0.0
  0
LINE
  5
10E
  8
DIMNSIONS
  6
CONTINUOUS
 62
     7
 10
-33.996374874933331
 20
75.0
 30
0.0
 11
-27.646374874933329
 21
73.298522628062372
 31
0.0
  0
TEXT
  5
10F
  8
DIMNSIONS
 62
     7
 10
73.210140895866644
 20
77.987777770327185
 30
0.0
 40
5.4294704861111107
  1
225
 41
0.7
 11
73.210140895866644
 21
83.417248256438285
 31
0.0
 73
     3
  0
TEXT
  5
110
  8
DATA
 62
     7
 10
194.19999000000001
 20
-79.706399999999988
 30
0.0
 40
4.8865234375000002
  1
SHURE
 41
0.7
 11
194.19999000000001
 21
-74.819876562499985
 31
0.0
 73
     3
  0
TEXT
  5
111
  8
DATA
 62
     7
 10
186.6131558517541
 20
-86.996916133724199
 30
0.0
 40
4.3435763888888879
  1
ハンドヘルド型送信機
 41
0.7
 11
186.6131558517541
 21
-82.653339744835307
 31
0.0
 73
     3
  0
TEXT
  5
112
  8
DATA
 62
     7
 10
186.415771755008
 20
-94.260895841888612
 30
0.0
 40
4.3435763888888879
  1
ULX2/SM87-JB / ULX2/SM87-JA
 41
0.7
 11
186.415771755008
 21
-89.917319452999735
 31
0.0
 73
     3
  0
LINE
  5
113
  8
DATA
  6
CONTINUOUS
 62
     7
 10
36.500009999999989
 20
38.75001000000001
 30
0.0
 11
126.90000000000001
 21
38.50001000000001
 31
0.0
  0
LINE
  5
114
  8
DATA
  6
CONTINUOUS
 62
     7
 10
36.500009999999989
 20
1.25
 30
0.0
 11
126.90000000000001
 21
1.5
 31
0.0
  0
LINE
  5
115
  8
DATA
  6
CONTINUOUS
 62
     7
 10
87.956769089436307
 20
23.00001
 30
0.0
 11
92.454419089436314
 21
23.00001
 31
0.0
  0
LINE
  5
116
  8
DATA
  6
CONTINUOUS
 62
     7
 10
87.956769089436307
 20
17.000010000000021
 30
0.0
 11
92.454419089436314
 21
17.000010000000021
 31
0.0
  0
LINE
  5
117
  8
DATA
  6
CONTINUOUS
 62
     7
 10
89.705599089436305
 20
22.250010000000021
 30
0.0
 11
93.205599089436333
 21
22.250010000000021
 31
0.0
  0
ARC
  5
118
  8
DATA
  6
CONTINUOUS
 62
     7
 10
87.956769089436307
 20
20.000010000000021
 30
0.0
 40
2.9999999999999849
 50
90.0
 51
270.0
  0
ARC
  5
119
  8
DATA
  6
CONTINUOUS
 62
     7
 10
92.454419089436314
 20
20.000010000000021
 30
0.0
 40
3.0
 50
270.0
 51
90.0
  0
ARC
  5
11A
  8
DATA
  6
CONTINUOUS
 62
     7
 10
89.705599089436305
 20
20.000010000000021
 30
0.0
 40
2.25
 50
90.0
 51
270.0
  0
ARC
  5
11B
  8
DATA
  6
CONTINUOUS
 62
     7
 10
93.205599089436333
 20
20.000010000000021
 30
0.0
 40
2.25
 50
270.0
 51
90.0
  0
TEXT
  5
11C
  8
DATA
 62
     7
 10
83.535916135124538
 20
18.500010000000021
 30
0.0
 40
2.3085860546874999
  1
ON
 50
90.0
 41
0.7
 11
81.227330080437056
 21
18.500010000000021
 31
0.0
 73
     3
  0
TEXT
  5
11D
  8
DATA
 62
     7
 10
98.695893829135031
 20
17.830166669849358
 30
0.0
 40
2.3085860546874999
  1
OFF
 50
90.0
 41
0.7
 11
96.387307774447521
 21
17.830166669849358
 31
0.0
 73
     3
  0
LINE
  5
11E
  8
DATA
  6
CONTINUOUS
 62
     7
 10
91.455599089436305
 20
19.00328
 30
0.0
 11
91.455599089436305
 21
21.003280000000011
 31
0.0
  0
LINE
  5
11F
  8
DATA
  6
CONTINUOUS
 62
     7
 10
89.705599089436305
 20
18.500010000000021
 30
0.0
 11
89.705599089436305
 21
21.50001000000001
 31
0.0
  0
LINE
  5
120
  8
DATA
  6
CONTINUOUS
 62
     7
 10
93.205599089436333
 20
18.500010000000021
 30
0.0
 11
93.205599089436333
 21
21.50001000000001
 31
0.0
  0
POLYLINE
  5
121
  8
DATA
  6
CONTINUOUS
 62
     7
 66
     1
 10
0.0
 20
0.0
 30
0.0
 70
   129
  0
VERTEX
  5
7BB
  8
DATA
  6
CONTINUOUS
 62
     7
 10
225.40561249999999
 20
31.088693898251609
 30
0.0
  0
VERTEX
  5
7BC
  8
DATA
  6
CONTINUOUS
 62
     7
 10
225.4691406162199
 20
31.141657366250151
 30
0.0
  0
VERTEX
  5
7BD
  8
DATA
  6
CONTINUOUS
 62
     7
 10
225.53282210697449
 20
31.193786763886521
 30
0.0
  0
VERTEX
  5
7BE
  8
DATA
  6
CONTINUOUS
 62
     7
 10
225.5966569722637
 20
31.24508209116069
 30
0.0
  0
VERTEX
  5
7BF
  8
DATA
  6
CONTINUOUS
 62
     7
 10
225.6606452120877
 20
31.295543348072702
 30
0.0
  0
VERTEX
  5
7C0
  8
DATA
  6
CONTINUOUS
 62
     7
 10
225.7247868264464
 20
31.345170534622511
 30
0.0
  0
VERTEX
  5
7C1
  8
DATA
  6
CONTINUOUS
 62
     7
 10
225.7890818153397
 20
31.39396365081015
 30
0.0
  0
VERTEX
  5
7C2
  8
DATA
  6
CONTINUOUS
 62
     7
 10
225.85353017876761
 20
31.441922696635611
 30
0.0
  0
VERTEX
  5
7C3
  8
DATA
  6
CONTINUOUS
 62
     7
 10
225.9181319167304
 20
31.489047672098881
 30
0.0
  0
VERTEX
  5
7C4
  8
DATA
  6
CONTINUOUS
 62
     7
 10
225.9828870292277
 20
31.53533857719998
 30
0.0
  0
VERTEX
  5
7C5
  8
DATA
  6
CONTINUOUS
 62
     7
 10
226.0477955162599
 20
31.58079541193888
 30
0.0
  0
VERTEX
  5
7C6
  8
DATA
  6
CONTINUOUS
 62
     7
 10
226.1128573778266
 20
31.625418176315598
 30
0.0
  0
VERTEX
  5
7C7
  8
DATA
  6
CONTINUOUS
 62
     7
 10
226.17807261392801
 20
31.669206870330171
 30
0.0
  0
VERTEX
  5
7C8
  8
DATA
  6
CONTINUOUS
 62
     7
 10
226.24344122456409
 20
31.712161493982549
 30
0.0
  0
VERTEX
  5
7C9
  8
DATA
  6
CONTINUOUS
 62
     7
 10
226.30896320973491
 20
31.754282047272731
 30
0.0
  0
VERTEX
  5
7CA
  8
DATA
  6
CONTINUOUS
 62
     7
 10
226.37463856944041
 20
31.795568530200711
 30
0.0
  0
VERTEX
  5
7CB
  8
DATA
  6
CONTINUOUS
 62
     7
 10
226.44046730368061
 20
31.836020942766542
 30
0.0
  0
VERTEX
  5
7CC
  8
DATA
  6
CONTINUOUS
 62
     7
 10
226.50644941245551
 20
31.875639284970159
 30
0.0
  0
VERTEX
  5
7CD
  8
DATA
  6
CONTINUOUS
 62
     7
 10
226.572584895765
 20
31.914423556811631
 30
0.0
  0
VERTEX
  5
7CE
  8
DATA
  6
CONTINUOUS
 62
     7
 10
226.63887375360929
 20
31.952373758290911
 30
0.0
  0
VERTEX
  5
7CF
  8
DATA
  6
CONTINUOUS
 62
     7
 10
226.70531598598811
 20
31.989489889407992
 30
0.0
  0
VERTEX
  5
7D0
  8
DATA
  6
CONTINUOUS
 62
     7
 10
226.7719115929018
 20
32.025771950162913
 30
0.0
  0
VERTEX
  5
7D1
  8
DATA
  6
CONTINUOUS
 62
     7
 10
226.83866057435009
 20
32.061219940555631
 30
0.0
  0
VERTEX
  5
7D2
  8
DATA
  6
CONTINUOUS
 62
     7
 10
226.9055629303331
 20
32.095833860586168
 30
0.0
  0
VERTEX
  5
7D3
  8
DATA
  6
CONTINUOUS
 62
     7
 10
226.9726186608508
 20
32.129613710254553
 30
0.0
  0
VERTEX
  5
7D4
  8
DATA
  6
CONTINUOUS
 62
     7
 10
227.0398277659032
 20
32.162559489560721
 30
0.0
  0
VERTEX
  5
7D5
  8
DATA
  6
CONTINUOUS
 62
     7
 10
227.1071902454901
 20
32.194671198504743
 30
0.0
  0
VERTEX
  5
7D6
  8
DATA
  6
CONTINUOUS
 62
     7
 10
227.17470609961191
 20
32.22594883708657
 30
0.0
  0
VERTEX
  5
7D7
  8
DATA
  6
CONTINUOUS
 62
     7
 10
227.24237532826839
 20
32.256392405306201
 30
0.0
  0
VERTEX
  5
7D8
  8
DATA
  6
CONTINUOUS
 62
     7
 10
227.31019793145941
 20
32.286001903163651
 30
0.0
  0
VERTEX
  5
7D9
  8
DATA
  6
CONTINUOUS
 62
     7
 10
227.37817390918519
 20
32.314777330658913
 30
0.0
  0
VERTEX
  5
7DA
  8
DATA
  6
CONTINUOUS
 62
     7
 10
227.44630326144571
 20
32.342718687792001
 30
0.0
  0
VERTEX
  5
7DB
  8
DATA
  6
CONTINUOUS
 62
     7
 10
227.5145859882409
 20
32.369825974562922
 30
0.0
  0
VERTEX
  5
7DC
  8
DATA
  6
CONTINUOUS
 62
     7
 10
227.5830220895707
 20
32.39609919097164
 30
0.0
  0
VERTEX
  5
7DD
  8
DATA
  6
CONTINUOUS
 62
     7
 10
227.65161156543519
 20
32.421538337018177
 30
0.0
  0
VERTEX
  5
7DE
  8
DATA
  6
CONTINUOUS
 62
     7
 10
227.72035441583441
 20
32.44614341270254
 30
0.0
  0
VERTEX
  5
7DF
  8
DATA
  6
CONTINUOUS
 62
     7
 10
227.78925064076839
 20
32.469914418024729
 30
0.0
  0
VERTEX
  5
7E0
  8
DATA
  6
CONTINUOUS
 62
     7
 10
227.8583002402369
 20
32.492851352984729
 30
0.0
  0
VERTEX
  5
7E1
  8
DATA
  6
CONTINUOUS
 62
     7
 10
227.9275032142402
 20
32.514954217582549
 30
0.0
  0
VERTEX
  5
7E2
  8
DATA
  6
CONTINUOUS
 62
     7
 10
227.9968595627781
 20
32.53622301181818
 30
0.0
  0
VERTEX
  5
7E3
  8
DATA
  6
CONTINUOUS
 62
     7
 10
228.06636928585081
 20
32.55665773569163
 30
0.0
  0
VERTEX
  5
7E4
  8
DATA
  6
CONTINUOUS
 62
     7
 10
228.1360323834582
 20
32.576258389202913
 30
0.0
  0
VERTEX
  5
7E5
  8
DATA
  6
CONTINUOUS
 62
     7
 10
228.2058488556001
 20
32.595024972352
 30
0.0
  0
VERTEX
  5
7E6
  8
DATA
  6
CONTINUOUS
 62
     7
 10
228.27581870227689
 20
32.612957485138907
 30
0.0
  0
VERTEX
  5
7E7
  8
DATA
  6
CONTINUOUS
 62
     7
 10
228.3459419234882
 20
32.630055927563632
 30
0.0
  0
VERTEX
  5
7E8
  8
DATA
  6
CONTINUOUS
 62
     7
 10
228.41621851923429
 20
32.646320299626183
 30
0.0
  0
VERTEX
  5
7E9
  8
DATA
  6
CONTINUOUS
 62
     7
 10
228.48664848951501
 20
32.661750601326553
 30
0.0
  0
VERTEX
  5
7EA
  8
DATA
  6
CONTINUOUS
 62
     7
 10
228.55723183433051
 20
32.676346832664727
 30
0.0
  0
VERTEX
  5
7EB
  8
DATA
  6
CONTINUOUS
 62
     7
 10
228.6279685536806
 20
32.690108993640742
 30
0.0
  0
VERTEX
  5
7EC
  8
DATA
  6
CONTINUOUS
 62
     7
 10
228.6988586475654
 20
32.703037084254547
 30
0.0
  0
VERTEX
  5
7ED
  8
DATA
  6
CONTINUOUS
 62
     7
 10
228.76990211598491
 20
32.715131104506177
 30
0.0
  0
VERTEX
  5
7EE
  8
DATA
  6
CONTINUOUS
 62
     7
 10
228.84109895893911
 20
32.726391054395648
 30
0.0
  0
VERTEX
  5
7EF
  8
DATA
  6
CONTINUOUS
 62
     7
 10
228.912449176428
 20
32.736816933922931
 30
0.0
  0
VERTEX
  5
7F0
  8
DATA
  6
CONTINUOUS
 62
     7
 10
228.98395276845159
 20
32.746408743088011
 30
0.0
  0
VERTEX
  5
7F1
  8
DATA
  6
CONTINUOUS
 62
     7
 10
229.0556097350098
 20
32.755166481890932
 30
0.0
  0
VERTEX
  5
7F2
  8
DATA
  6
CONTINUOUS
 62
     7
 10
229.12742007610279
 20
32.763090150331649
 30
0.0
  0
VERTEX
  5
7F3
  8
DATA
  6
CONTINUOUS
 62
     7
 10
229.19938379173041
 20
32.770179748410179
 30
0.0
  0
VERTEX
  5
7F4
  8
DATA
  6
CONTINUOUS
 62
     7
 10
229.27150088189259
 20
32.776435276126549
 30
0.0
  0
VERTEX
  5
7F5
  8
DATA
  6
CONTINUOUS
 62
     7
 10
229.34377134658959
 20
32.781856733480737
 30
0.0
  0
VERTEX
  5
7F6
  8
DATA
  6
CONTINUOUS
 62
     7
 10
229.41619518582129
 20
32.786444120472737
 30
0.0
  0
VERTEX
  5
7F7
  8
DATA
  6
CONTINUOUS
 62
     7
 10
229.4887723995877
 20
32.790197437102563
 30
0.0
  0
VERTEX
  5
7F8
  8
DATA
  6
CONTINUOUS
 62
     7
 10
229.5615029878887
 20
32.793116683370187
 30
0.0
  0
VERTEX
  5
7F9
  8
DATA
  6
CONTINUOUS
 62
     7
 10
229.63438695072449
 20
32.79520185927565
 30
0.0
  0
VERTEX
  5
7FA
  8
DATA
  6
CONTINUOUS
 62
     7
 10
229.70742428809481
 20
32.79645296481894
 30
0.0
  0
VERTEX
  5
7FB
  8
DATA
  6
CONTINUOUS
 62
     7
 10
229.7806149999999
 20
32.796870000000013
 30
0.0
  0
VERTEX
  5
7FC
  8
DATA
  6
CONTINUOUS
 62
     7
 10
229.8538057119051
 20
32.79645296481894
 30
0.0
  0
VERTEX
  5
7FD
  8
DATA
  6
CONTINUOUS
 62
     7
 10
229.92684304927559
 20
32.79520185927565
 30
0.0
  0
VERTEX
  5
7FE
  8
DATA
  6
CONTINUOUS
 62
     7
 10
229.99972701211121
 20
32.793116683370187
 30
0.0
  0
VERTEX
  5
7FF
  8
DATA
  6
CONTINUOUS
 62
     7
 10
230.07245760041229
 20
32.790197437102563
 30
0.0
  0
VERTEX
  5
800
  8
DATA
  6
CONTINUOUS
 62
     7
 10
230.14503481417859
 20
32.786444120472737
 30
0.0
  0
VERTEX
  5
801
  8
DATA
  6
CONTINUOUS
 62
     7
 10
230.2174586534104
 20
32.781856733480737
 30
0.0
  0
VERTEX
  5
802
  8
DATA
  6
CONTINUOUS
 62
     7
 10
230.28972911810729
 20
32.776435276126549
 30
0.0
  0
VERTEX
  5
803
  8
DATA
  6
CONTINUOUS
 62
     7
 10
230.36184620826961
 20
32.770179748410179
 30
0.0
  0
VERTEX
  5
804
  8
DATA
  6
CONTINUOUS
 62
     7
 10
230.43380992389729
 20
32.763090150331649
 30
0.0
  0
VERTEX
  5
805
  8
DATA
  6
CONTINUOUS
 62
     7
 10
230.50562026499011
 20
32.755166481890932
 30
0.0
  0
VERTEX
  5
806
  8
DATA
  6
CONTINUOUS
 62
     7
 10
230.57727723154841
 20
32.746408743088011
 30
0.0
  0
VERTEX
  5
807
  8
DATA
  6
CONTINUOUS
 62
     7
 10
230.648780823572
 20
32.736816933922931
 30
0.0
  0
VERTEX
  5
808
  8
DATA
  6
CONTINUOUS
 62
     7
 10
230.7201310410608
 20
32.726391054395648
 30
0.0
  0
VERTEX
  5
809
  8
DATA
  6
CONTINUOUS
 62
     7
 10
230.791327884015
 20
32.715131104506177
 30
0.0
  0
VERTEX
  5
80A
  8
DATA
  6
CONTINUOUS
 62
     7
 10
230.86237135243451
 20
32.703037084254547
 30
0.0
  0
VERTEX
  5
80B
  8
DATA
  6
CONTINUOUS
 62
     7
 10
230.93326144631931
 20
32.690108993640742
 30
0.0
  0
VERTEX
  5
80C
  8
DATA
  6
CONTINUOUS
 62
     7
 10
231.0039981656694
 20
32.676346832664727
 30
0.0
  0
VERTEX
  5
80D
  8
DATA
  6
CONTINUOUS
 62
     7
 10
231.0745815104849
 20
32.661750601326553
 30
0.0
  0
VERTEX
  5
80E
  8
DATA
  6
CONTINUOUS
 62
     7
 10
231.14501148076559
 20
32.646320299626183
 30
0.0
  0
VERTEX
  5
80F
  8
DATA
  6
CONTINUOUS
 62
     7
 10
231.21528807651171
 20
32.630055927563632
 30
0.0
  0
VERTEX
  5
810
  8
DATA
  6
CONTINUOUS
 62
     7
 10
231.2854112977231
 20
32.612957485138907
 30
0.0
  0
VERTEX
  5
811
  8
DATA
  6
CONTINUOUS
 62
     7
 10
231.3553811443997
 20
32.595024972352
 30
0.0
  0
VERTEX
  5
812
  8
DATA
  6
CONTINUOUS
 62
     7
 10
231.42519761654171
 20
32.576258389202913
 30
0.0
  0
VERTEX
  5
813
  8
DATA
  6
CONTINUOUS
 62
     7
 10
231.49486071414921
 20
32.55665773569163
 30
0.0
  0
VERTEX
  5
814
  8
DATA
  6
CONTINUOUS
 62
     7
 10
231.56437043722181
 20
32.53622301181818
 30
0.0
  0
VERTEX
  5
815
  8
DATA
  6
CONTINUOUS
 62
     7
 10
231.63372678575971
 20
32.514954217582549
 30
0.0
  0
VERTEX
  5
816
  8
DATA
  6
CONTINUOUS
 62
     7
 10
231.70292975976301
 20
32.492851352984729
 30
0.0
  0
VERTEX
  5
817
  8
DATA
  6
CONTINUOUS
 62
     7
 10
231.77197935923169
 20
32.469914418024729
 30
0.0
  0
VERTEX
  5
818
  8
DATA
  6
CONTINUOUS
 62
     7
 10
231.84087558416559
 20
32.44614341270254
 30
0.0
  0
VERTEX
  5
819
  8
DATA
  6
CONTINUOUS
 62
     7
 10
231.90961843456481
 20
32.421538337018177
 30
0.0
  0
VERTEX
  5
81A
  8
DATA
  6
CONTINUOUS
 62
     7
 10
231.97820791042921
 20
32.39609919097164
 30
0.0
  0
VERTEX
  5
81B
  8
DATA
  6
CONTINUOUS
 62
     7
 10
232.0466440117591
 20
32.369825974562922
 30
0.0
  0
VERTEX
  5
81C
  8
DATA
  6
CONTINUOUS
 62
     7
 10
232.11492673855429
 20
32.342718687792001
 30
0.0
  0
VERTEX
  5
81D
  8
DATA
  6
CONTINUOUS
 62
     7
 10
232.18305609081469
 20
32.314777330658913
 30
0.0
  0
VERTEX
  5
81E
  8
DATA
  6
CONTINUOUS
 62
     7
 10
232.2510320685405
 20
32.286001903163651
 30
0.0
  0
VERTEX
  5
81F
  8
DATA
  6
CONTINUOUS
 62
     7
 10
232.31885467173171
 20
32.256392405306201
 30
0.0
  0
VERTEX
  5
820
  8
DATA
  6
CONTINUOUS
 62
     7
 10
232.38652390038811
 20
32.22594883708657
 30
0.0
  0
VERTEX
  5
821
  8
DATA
  6
CONTINUOUS
 62
     7
 10
232.45403975450969
 20
32.194671198504743
 30
0.0
  0
VERTEX
  5
822
  8
DATA
  6
CONTINUOUS
 62
     7
 10
232.5214022340968
 20
32.162559489560721
 30
0.0
  0
VERTEX
  5
823
  8
DATA
  6
CONTINUOUS
 62
     7
 10
232.5886113391492
 20
32.129613710254553
 30
0.0
  0
VERTEX
  5
824
  8
DATA
  6
CONTINUOUS
 62
     7
 10
232.6556670696668
 20
32.095833860586168
 30
0.0
  0
VERTEX
  5
825
  8
DATA
  6
CONTINUOUS
 62
     7
 10
232.72256942564979
 20
32.061219940555631
 30
0.0
  0
VERTEX
  5
826
  8
DATA
  6
CONTINUOUS
 62
     7
 10
232.78931840709811
 20
32.025771950162913
 30
0.0
  0
VERTEX
  5
827
  8
DATA
  6
CONTINUOUS
 62
     7
 10
232.85591401401169
 20
31.989489889407992
 30
0.0
  0
VERTEX
  5
828
  8
DATA
  6
CONTINUOUS
 62
     7
 10
232.92235624639071
 20
31.952373758290911
 30
0.0
  0
VERTEX
  5
829
  8
DATA
  6
CONTINUOUS
 62
     7
 10
232.98864510423491
 20
31.914423556811631
 30
0.0
  0
VERTEX
  5
82A
  8
DATA
  6
CONTINUOUS
 62
     7
 10
233.0547805875444
 20
31.875639284970159
 30
0.0
  0
VERTEX
  5
82B
  8
DATA
  6
CONTINUOUS
 62
     7
 10
233.1207626963193
 20
31.836020942766542
 30
0.0
  0
VERTEX
  5
82C
  8
DATA
  6
CONTINUOUS
 62
     7
 10
233.18659143055959
 20
31.795568530200711
 30
0.0
  0
VERTEX
  5
82D
  8
DATA
  6
CONTINUOUS
 62
     7
 10
233.25226679026511
 20
31.754282047272731
 30
0.0
  0
VERTEX
  5
82E
  8
DATA
  6
CONTINUOUS
 62
     7
 10
233.3177887754359
 20
31.712161493982549
 30
0.0
  0
VERTEX
  5
82F
  8
DATA
  6
CONTINUOUS
 62
     7
 10
233.38315738607201
 20
31.669206870330171
 30
0.0
  0
VERTEX
  5
830
  8
DATA
  6
CONTINUOUS
 62
     7
 10
233.44837262217339
 20
31.625418176315598
 30
0.0
  0
VERTEX
  5
831
  8
DATA
  6
CONTINUOUS
 62
     7
 10
233.51343448374021
 20
31.58079541193888
 30
0.0
  0
VERTEX
  5
832
  8
DATA
  6
CONTINUOUS
 62
     7
 10
233.5783429707723
 20
31.53533857719998
 30
0.0
  0
VERTEX
  5
833
  8
DATA
  6
CONTINUOUS
 62
     7
 10
233.64309808326959
 20
31.489047672098881
 30
0.0
  0
VERTEX
  5
834
  8
DATA
  6
CONTINUOUS
 62
     7
 10
233.7076998212323
 20
31.441922696635611
 30
0.0
  0
VERTEX
  5
835
  8
DATA
  6
CONTINUOUS
 62
     7
 10
233.77214818466041
 20
31.39396365081015
 30
0.0
  0
VERTEX
  5
836
  8
DATA
  6
CONTINUOUS
 62
     7
 10
233.8364431735537
 20
31.345170534622511
 30
0.0
  0
VERTEX
  5
837
  8
DATA
  6
CONTINUOUS
 62
     7
 10
233.90058478791229
 20
31.295543348072702
 30
0.0
  0
VERTEX
  5
838
  8
DATA
  6
CONTINUOUS
 62
     7
 10
233.96457302773629
 20
31.24508209116069
 30
0.0
  0
VERTEX
  5
839
  8
DATA
  6
CONTINUOUS
 62
     7
 10
234.02840789302559
 20
31.193786763886521
 30
0.0
  0
VERTEX
  5
83A
  8
DATA
  6
CONTINUOUS
 62
     7
 10
234.09208938378009
 20
31.141657366250151
 30
0.0
  0
VERTEX
  5
83B
  8
DATA
  6
CONTINUOUS
 62
     7
 10
234.15561750000001
 20
31.088693898251609
 30
0.0
  0
VERTEX
  5
83C
  8
DATA
  6
CONTINUOUS
 62
     7
 10
234.2188594154419
 20
31.035008104130871
 30
0.0
  0
VERTEX
  5
83D
  8
DATA
  6
CONTINUOUS
 62
     7
 10
234.2816823038624
 20
30.980711728127929
 30
0.0
  0
VERTEX
  5
83E
  8
DATA
  6
CONTINUOUS
 62
     7
 10
234.34408616526159
 20
30.925804770242792
 30
0.0
  0
VERTEX
  5
83F
  8
DATA
  6
CONTINUOUS
 62
     7
 10
234.40607099963941
 20
30.87028723047543
 30
0.0
  0
VERTEX
  5
840
  8
DATA
  6
CONTINUOUS
 62
     7
 10
234.46763680699601
 20
30.814159108825869
 30
0.0
  0
VERTEX
  5
841
  8
DATA
  6
CONTINUOUS
 62
     7
 10
234.52878358733099
 20
30.757420405294098
 30
0.0
  0
VERTEX
  5
842
  8
DATA
  6
CONTINUOUS
 62
     7
 10
234.5895113406448
 20
30.700071119880128
 30
0.0
  0
VERTEX
  5
843
  8
DATA
  6
CONTINUOUS
 62
     7
 10
234.64982006693731
 20
30.642111252583959
 30
0.0
  0
VERTEX
  5
844
  8
DATA
  6
CONTINUOUS
 62
     7
 10
234.70970976620839
 20
30.58354080340559
 30
0.0
  0
VERTEX
  5
845
  8
DATA
  6
CONTINUOUS
 62
     7
 10
234.76918043845811
 20
30.524359772345019
 30
0.0
  0
VERTEX
  5
846
  8
DATA
  6
CONTINUOUS
 62
     7
 10
234.82823208368649
 20
30.464568159402209
 30
0.0
  0
VERTEX
  5
847
  8
DATA
  6
CONTINUOUS
 62
     7
 10
234.8868647018935
 20
30.404165964577231
 30
0.0
  0
VERTEX
  5
848
  8
DATA
  6
CONTINUOUS
 62
     7
 10
234.94507829307921
 20
30.34315318787003
 30
0.0
  0
VERTEX
  5
849
  8
DATA
  6
CONTINUOUS
 62
     7
 10
235.0028728572436
 20
30.28152982928065
 30
0.0
  0
VERTEX
  5
84A
  8
DATA
  6
CONTINUOUS
 62
     7
 10
235.06024839438649
 20
30.219295888809029
 30
0.0
  0
VERTEX
  5
84B
  8
DATA
  6
CONTINUOUS
 62
     7
 10
235.11720490450821
 20
30.156451366455229
 30
0.0
  0
VERTEX
  5
84C
  8
DATA
  6
CONTINUOUS
 62
     7
 10
235.1737423876084
 20
30.092996262219209
 30
0.0
  0
VERTEX
  5
84D
  8
DATA
  6
CONTINUOUS
 62
     7
 10
235.22986084368739
 20
30.028930576101001
 30
0.0
  0
VERTEX
  5
84E
  8
DATA
  6
CONTINUOUS
 62
     7
 10
235.28556027274499
 20
29.964254308100578
 30
0.0
  0
VERTEX
  5
84F
  8
DATA
  6
CONTINUOUS
 62
     7
 10
235.3408406747813
 20
29.89896745821795
 30
0.0
  0
VERTEX
  5
850
  8
DATA
  6
CONTINUOUS
 62
     7
 10
235.39570204979631
 20
29.833070026453129
 30
0.0
  0
VERTEX
  5
851
  8
DATA
  6
CONTINUOUS
 62
     7
 10
235.4501443977897
 20
29.766562012806091
 30
0.0
  0
VERTEX
  5
852
  8
DATA
  6
CONTINUOUS
 62
     7
 10
235.50416771876201
 20
29.69944341727685
 30
0.0
  0
VERTEX
  5
853
  8
DATA
  6
CONTINUOUS
 62
     7
 10
235.5577720127128
 20
29.63171423986541
 30
0.0
  0
VERTEX
  5
854
  8
DATA
  6
CONTINUOUS
 62
     7
 10
235.61095727964229
 20
29.563374480571749
 30
0.0
  0
VERTEX
  5
855
  8
DATA
  6
CONTINUOUS
 62
     7
 10
235.6637235195505
 20
29.49442413939591
 30
0.0
  0
VERTEX
  5
856
  8
DATA
  6
CONTINUOUS
 62
     7
 10
235.71607073243729
 20
29.424863216337851
 30
0.0
  0
VERTEX
  5
857
  8
DATA
  6
CONTINUOUS
 62
     7
 10
235.76799891830279
 20
29.354691711397589
 30
0.0
  0
VERTEX
  5
858
  8
DATA
  6
CONTINUOUS
 62
     7
 10
235.81950807714679
 20
29.283909624575131
 30
0.0
  0
VERTEX
  5
859
  8
DATA
  6
CONTINUOUS
 62
     7
 10
235.8705982089696
 20
29.212516955870448
 30
0.0
  0
VERTEX
  5
85A
  8
DATA
  6
CONTINUOUS
 62
     7
 10
235.92126931377101
 20
29.140513705283581
 30
0.0
  0
VERTEX
  5
85B
  8
DATA
  6
CONTINUOUS
 62
     7
 10
235.97152139155099
 20
29.067899872814511
 30
0.0
  0
VERTEX
  5
85C
  8
DATA
  6
CONTINUOUS
 62
     7
 10
236.02135444230981
 20
28.994675458463242
 30
0.0
  0
VERTEX
  5
85D
  8
DATA
  6
CONTINUOUS
 62
     7
 10
236.07076846604721
 20
28.92084046222973
 30
0.0
  0
VERTEX
  5
85E
  8
DATA
  6
CONTINUOUS
 62
     7
 10
236.11976346276319
 20
28.846394884114041
 30
0.0
  0
VERTEX
  5
85F
  8
DATA
  6
CONTINUOUS
 62
     7
 10
236.1683394324578
 20
28.771338724116148
 30
0.0
  0
VERTEX
  5
860
  8
DATA
  6
CONTINUOUS
 62
     7
 10
236.2164963751311
 20
28.695671982236039
 30
0.0
  0
VERTEX
  5
861
  8
DATA
  6
CONTINUOUS
 62
     7
 10
236.26423429078309
 20
28.619394658473741
 30
0.0
  0
VERTEX
  5
862
  8
DATA
  6
CONTINUOUS
 62
     7
 10
236.31155317941369
 20
28.54250675282924
 30
0.0
  0
VERTEX
  5
863
  8
DATA
  6
CONTINUOUS
 62
     7
 10
236.35845304102301
 20
28.465008265302519
 30
0.0
  0
VERTEX
  5
864
  8
DATA
  6
CONTINUOUS
 62
     7
 10
236.40493387561091
 20
28.386899195893591
 30
0.0
  0
VERTEX
  5
865
  8
DATA
  6
CONTINUOUS
 62
     7
 10
236.45099568317741
 20
28.308179544602471
 30
0.0
  0
VERTEX
  5
866
  8
DATA
  6
CONTINUOUS
 62
     7
 10
236.4966384637226
 20
28.228849311429141
 30
0.0
  0
VERTEX
  5
867
  8
DATA
  6
CONTINUOUS
 62
     7
 10
236.54186221724649
 20
28.148908496373629
 30
0.0
  0
VERTEX
  5
868
  8
DATA
  6
CONTINUOUS
 62
     7
 10
236.58666694374909
 20
28.0683570994359
 30
0.0
  0
VERTEX
  5
869
  8
DATA
  6
CONTINUOUS
 62
     7
 10
236.6310526432303
 20
27.987195120615951
 30
0.0
  0
VERTEX
  5
86A
  8
DATA
  6
CONTINUOUS
 62
     7
 10
236.67501931569009
 20
27.905422559913799
 30
0.0
  0
VERTEX
  5
86B
  8
DATA
  6
CONTINUOUS
 62
     7
 10
236.7185669611286
 20
27.82303941732944
 30
0.0
  0
VERTEX
  5
86C
  8
DATA
  6
CONTINUOUS
 62
     7
 10
236.76169557954569
 20
27.740045692862878
 30
0.0
  0
VERTEX
  5
86D
  8
DATA
  6
CONTINUOUS
 62
     7
 10
236.80440517094149
 20
27.656441386514121
 30
0.0
  0
VERTEX
  5
86E
  8
DATA
  6
CONTINUOUS
 62
     7
 10
236.84669573531599
 20
27.572226498283161
 30
0.0
  0
VERTEX
  5
86F
  8
DATA
  6
CONTINUOUS
 62
     7
 10
236.88856727266901
 20
27.487401028169991
 30
0.0
  0
VERTEX
  5
870
  8
DATA
  6
CONTINUOUS
 62
     7
 10
236.9300197830008
 20
27.401964976174611
 30
0.0
  0
VERTEX
  5
871
  8
DATA
  6
CONTINUOUS
 62
     7
 10
236.9710532663112
 20
27.315918342297039
 30
0.0
  0
VERTEX
  5
872
  8
DATA
  6
CONTINUOUS
 62
     7
 10
237.01166772260021
 20
27.229261126537271
 30
0.0
  0
VERTEX
  5
873
  8
DATA
  6
CONTINUOUS
 62
     7
 10
237.05186315186791
 20
27.141993328895271
 30
0.0
  0
VERTEX
  5
874
  8
DATA
  6
CONTINUOUS
 62
     7
 10
237.09163955411429
 20
27.054114949371069
 30
0.0
  0
VERTEX
  5
875
  8
DATA
  6
CONTINUOUS
 62
     7
 10
237.13099692933929
 20
26.965625987964678
 30
0.0
  0
VERTEX
  5
876
  8
DATA
  6
CONTINUOUS
 62
     7
 10
237.16993527754281
 20
26.876526444676081
 30
0.0
  0
VERTEX
  5
877
  8
DATA
  6
CONTINUOUS
 62
     7
 10
237.2084545987251
 20
26.786816319505281
 30
0.0
  0
VERTEX
  5
878
  8
DATA
  6
CONTINUOUS
 62
     7
 10
237.24655489288611
 20
26.696495612452271
 30
0.0
  0
VERTEX
  5
879
  8
DATA
  6
CONTINUOUS
 62
     7
 10
237.2842361600257
 20
26.605564323517061
 30
0.0
  0
VERTEX
  5
87A
  8
DATA
  6
CONTINUOUS
 62
     7
 10
237.32149840014389
 20
26.514022452699638
 30
0.0
  0
VERTEX
  5
87B
  8
DATA
  6
CONTINUOUS
 62
     7
 10
237.35834161324081
 20
26.421870000000009
 30
0.0
  0
VERTEX
  5
87C
  8
DATA
  6
CONTINUOUS
 62
     7
 10
237.39468911204901
 20
26.32930051211931
 30
0.0
  0
VERTEX
  5
87D
  8
DATA
  6
CONTINUOUS
 62
     7
 10
237.43046420930119
 20
26.236507535758619
 30
0.0
  0
VERTEX
  5
87E
  8
DATA
  6
CONTINUOUS
 62
     7
 10
237.46566690499731
 20
26.14349107091795
 30
0.0
  0
VERTEX
  5
87F
  8
DATA
  6
CONTINUOUS
 62
     7
 10
237.50029719913741
 20
26.050251117597298
 30
0.0
  0
VERTEX
  5
880
  8
DATA
  6
CONTINUOUS
 62
     7
 10
237.53435509172149
 20
25.956787675796679
 30
0.0
  0
VERTEX
  5
881
  8
DATA
  6
CONTINUOUS
 62
     7
 10
237.5678405827496
 20
25.863100745516078
 30
0.0
  0
VERTEX
  5
882
  8
DATA
  6
CONTINUOUS
 62
     7
 10
237.6007536722216
 20
25.769190326755499
 30
0.0
  0
VERTEX
  5
883
  8
DATA
  6
CONTINUOUS
 62
     7
 10
237.63309436013751
 20
25.675056419514931
 30
0.0
  0
VERTEX
  5
884
  8
DATA
  6
CONTINUOUS
 62
     7
 10
237.6648626464974
 20
25.580699023794399
 30
0.0
  0
VERTEX
  5
885
  8
DATA
  6
CONTINUOUS
 62
     7
 10
237.6960585313013
 20
25.486118139593891
 30
0.0
  0
VERTEX
  5
886
  8
DATA
  6
CONTINUOUS
 62
     7
 10
237.7266820145492
 20
25.391313766913399
 30
0.0
  0
VERTEX
  5
887
  8
DATA
  6
CONTINUOUS
 62
     7
 10
237.75673309624099
 20
25.296285905752939
 30
0.0
  0
VERTEX
  5
888
  8
DATA
  6
CONTINUOUS
 62
     7
 10
237.7862117763768
 20
25.201034556112511
 30
0.0
  0
VERTEX
  5
889
  8
DATA
  6
CONTINUOUS
 62
     7
 10
237.81511805495651
 20
25.10555971799209
 30
0.0
  0
VERTEX
  5
88A
  8
DATA
  6
CONTINUOUS
 62
     7
 10
237.8434519319803
 20
25.009861391391691
 30
0.0
  0
VERTEX
  5
88B
  8
DATA
  6
CONTINUOUS
 62
     7
 10
237.87121340744801
 20
24.913939576311321
 30
0.0
  0
VERTEX
  5
88C
  8
DATA
  6
CONTINUOUS
 62
     7
 10
237.8984024813596
 20
24.817794272750969
 30
0.0
  0
VERTEX
  5
88D
  8
DATA
  6
CONTINUOUS
 62
     7
 10
237.92501915371531
 20
24.72142548071065
 30
0.0
  0
VERTEX
  5
88E
  8
DATA
  6
CONTINUOUS
 62
     7
 10
237.95106342451481
 20
24.624833200190341
 30
0.0
  0
VERTEX
  5
88F
  8
DATA
  6
CONTINUOUS
 62
     7
 10
237.97653529375839
 20
24.528017431190051
 30
0.0
  0
VERTEX
  5
890
  8
DATA
  6
CONTINUOUS
 62
     7
 10
238.00143476144589
 20
24.430978173709789
 30
0.0
  0
VERTEX
  5
891
  8
DATA
  6
CONTINUOUS
 62
     7
 10
238.0257618275773
 20
24.333715427749549
 30
0.0
  0
VERTEX
  5
892
  8
DATA
  6
CONTINUOUS
 62
     7
 10
238.0495164921528
 20
24.236229193309349
 30
0.0
  0
VERTEX
  5
893
  8
DATA
  6
CONTINUOUS
 62
     7
 10
238.07269875517221
 20
24.138519470389159
 30
0.0
  0
VERTEX
  5
894
  8
DATA
  6
CONTINUOUS
 62
     7
 10
238.09530861663561
 20
24.040586258988981
 30
0.0
  0
VERTEX
  5
895
  8
DATA
  6
CONTINUOUS
 62
     7
 10
238.1173460765429
 20
23.942429559108831
 30
0.0
  0
VERTEX
  5
896
  8
DATA
  6
CONTINUOUS
 62
     7
 10
238.1388111348941
 20
23.844049370748699
 30
0.0
  0
VERTEX
  5
897
  8
DATA
  6
CONTINUOUS
 62
     7
 10
238.15970379168951
 20
23.745445693908611
 30
0.0
  0
VERTEX
  5
898
  8
DATA
  6
CONTINUOUS
 62
     7
 10
238.18002404692871
 20
23.646618528588519
 30
0.0
  0
VERTEX
  5
899
  8
DATA
  6
CONTINUOUS
 62
     7
 10
238.19977190061189
 20
23.547567874788449
 30
0.0
  0
VERTEX
  5
89A
  8
DATA
  6
CONTINUOUS
 62
     7
 10
238.21894735273901
 20
23.448293732508429
 30
0.0
  0
VERTEX
  5
89B
  8
DATA
  6
CONTINUOUS
 62
     7
 10
238.23755040331019
 20
23.34879610174843
 30
0.0
  0
VERTEX
  5
89C
  8
DATA
  6
CONTINUOUS
 62
     7
 10
238.25558105232531
 20
23.249074982508429
 30
0.0
  0
VERTEX
  5
89D
  8
DATA
  6
CONTINUOUS
 62
     7
 10
238.27303929978439
 20
23.149130374788449
 30
0.0
  0
VERTEX
  5
89E
  8
DATA
  6
CONTINUOUS
 62
     7
 10
238.28992514568731
 20
23.048962278588519
 30
0.0
  0
VERTEX
  5
89F
  8
DATA
  6
CONTINUOUS
 62
     7
 10
238.30623859003441
 20
22.948570693908611
 30
0.0
  0
VERTEX
  5
8A0
  8
DATA
  6
CONTINUOUS
 62
     7
 10
238.3219796328253
 20
22.847955620748699
 30
0.0
  0
VERTEX
  5
8A1
  8
DATA
  6
CONTINUOUS
 62
     7
 10
238.33714827406021
 20
22.747117059108831
 30
0.0
  0
VERTEX
  5
8A2
  8
DATA
  6
CONTINUOUS
 62
     7
 10
238.35174451373911
 20
22.646055008988981
 30
0.0
  0
VERTEX
  5
8A3
  8
DATA
  6
CONTINUOUS
 62
     7
 10
238.36576835186199
 20
22.544769470389159
 30
0.0
  0
VERTEX
  5
8A4
  8
DATA
  6
CONTINUOUS
 62
     7
 10
238.3792197884288
 20
22.443260443309342
 30
0.0
  0
VERTEX
  5
8A5
  8
DATA
  6
CONTINUOUS
 62
     7
 10
238.3920988234396
 20
22.341527927749549
 30
0.0
  0
VERTEX
  5
8A6
  8
DATA
  6
CONTINUOUS
 62
     7
 10
238.4044054568943
 20
22.239571923709789
 30
0.0
  0
VERTEX
  5
8A7
  8
DATA
  6
CONTINUOUS
 62
     7
 10
238.41613968879309
 20
22.137392431190051
 30
0.0
  0
VERTEX
  5
8A8
  8
DATA
  6
CONTINUOUS
 62
     7
 10
238.42730151913571
 20
22.034989450190331
 30
0.0
  0
VERTEX
  5
8A9
  8
DATA
  6
CONTINUOUS
 62
     7
 10
238.4378909479224
 20
21.93236298071065
 30
0.0
  0
VERTEX
  5
8AA
  8
DATA
  6
CONTINUOUS
 62
     7
 10
238.44790797515299
 20
21.829513022750969
 30
0.0
  0
VERTEX
  5
8AB
  8
DATA
  6
CONTINUOUS
 62
     7
 10
238.45735260082759
 20
21.726439576311321
 30
0.0
  0
VERTEX
  5
8AC
  8
DATA
  6
CONTINUOUS
 62
     7
 10
238.4662248249461
 20
21.623142641391691
 30
0.0
  0
VERTEX
  5
8AD
  8
DATA
  6
CONTINUOUS
 62
     7
 10
238.4745246475085
 20
21.519622217992101
 30
0.0
  0
VERTEX
  5
8AE
  8
DATA
  6
CONTINUOUS
 62
     7
 10
238.48225206851501
 20
21.4158783061125
 30
0.0
  0
VERTEX
  5
8AF
  8
DATA
  6
CONTINUOUS
 62
     7
 10
238.4894070879655
 20
21.311910905752931
 30
0.0
  0
VERTEX
  5
8B0
  8
DATA
  6
CONTINUOUS
 62
     7
 10
238.4959897058599
 20
21.207720016913399
 30
0.0
  0
VERTEX
  5
8B1
  8
DATA
  6
CONTINUOUS
 62
     7
 10
238.50199992219831
 20
21.103305639593891
 30
0.0
  0
VERTEX
  5
8B2
  8
DATA
  6
CONTINUOUS
 62
     7
 10
238.50743773698051
 20
20.998667773794391
 30
0.0
  0
VERTEX
  5
8B3
  8
DATA
  6
CONTINUOUS
 62
     7
 10
238.51230315020689
 20
20.893806419514931
 30
0.0
  0
VERTEX
  5
8B4
  8
DATA
  6
CONTINUOUS
 62
     7
 10
238.5165961618772
 20
20.788721576755488
 30
0.0
  0
VERTEX
  5
8B5
  8
DATA
  6
CONTINUOUS
 62
     7
 10
238.52031677199139
 20
20.683413245516078
 30
0.0
  0
VERTEX
  5
8B6
  8
DATA
  6
CONTINUOUS
 62
     7
 10
238.52346498054951
 20
20.577881425796679
 30
0.0
  0
VERTEX
  5
8B7
  8
DATA
  6
CONTINUOUS
 62
     7
 10
238.52604078755169
 20
20.472126117597298
 30
0.0
  0
VERTEX
  5
8B8
  8
DATA
  6
CONTINUOUS
 62
     7
 10
238.52804419299781
 20
20.36614732091795
 30
0.0
  0
VERTEX
  5
8B9
  8
DATA
  6
CONTINUOUS
 62
     7
 10
238.52947519688789
 20
20.259945035758609
 30
0.0
  0
VERTEX
  5
8BA
  8
DATA
  6
CONTINUOUS
 62
     7
 10
238.53033379922201
 20
20.15351926211931
 30
0.0
  0
VERTEX
  5
8BB
  8
DATA
  6
CONTINUOUS
 62
     7
 10
238.53062
 20
20.046870000000009
 30
0.0
  0
VERTEX
  5
8BC
  8
DATA
  6
CONTINUOUS
 62
     7
 10
238.53033379922201
 20
19.940220737880718
 30
0.0
  0
VERTEX
  5
8BD
  8
DATA
  6
CONTINUOUS
 62
     7
 10
238.52947519688789
 20
19.833794964241399
 30
0.0
  0
VERTEX
  5
8BE
  8
DATA
  6
CONTINUOUS
 62
     7
 10
238.52804419299781
 20
19.727592679082079
 30
0.0
  0
VERTEX
  5
8BF
  8
DATA
  6
CONTINUOUS
 62
     7
 10
238.52604078755169
 20
19.62161388240273
 30
0.0
  0
VERTEX
  5
8C0
  8
DATA
  6
CONTINUOUS
 62
     7
 10
238.52346498054951
 20
19.515858574203349
 30
0.0
  0
VERTEX
  5
8C1
  8
DATA
  6
CONTINUOUS
 62
     7
 10
238.52031677199139
 20
19.41032675448395
 30
0.0
  0
VERTEX
  5
8C2
  8
DATA
  6
CONTINUOUS
 62
     7
 10
238.5165961618772
 20
19.30501842324453
 30
0.0
  0
VERTEX
  5
8C3
  8
DATA
  6
CONTINUOUS
 62
     7
 10
238.51230315020689
 20
19.199933580485091
 30
0.0
  0
VERTEX
  5
8C4
  8
DATA
  6
CONTINUOUS
 62
     7
 10
238.50743773698051
 20
19.09507222620563
 30
0.0
  0
VERTEX
  5
8C5
  8
DATA
  6
CONTINUOUS
 62
     7
 10
238.50199992219831
 20
18.990434360406141
 30
0.0
  0
VERTEX
  5
8C6
  8
DATA
  6
CONTINUOUS
 62
     7
 10
238.4959897058599
 20
18.886019983086619
 30
0.0
  0
VERTEX
  5
8C7
  8
DATA
  6
CONTINUOUS
 62
     7
 10
238.4894070879655
 20
18.78182909424708
 30
0.0
  0
VERTEX
  5
8C8
  8
DATA
  6
CONTINUOUS
 62
     7
 10
238.48225206851501
 20
18.677861693887522
 30
0.0
  0
VERTEX
  5
8C9
  8
DATA
  6
CONTINUOUS
 62
     7
 10
238.4745246475085
 20
18.574117782007921
 30
0.0
  0
VERTEX
  5
8CA
  8
DATA
  6
CONTINUOUS
 62
     7
 10
238.4662248249461
 20
18.47059735860833
 30
0.0
  0
VERTEX
  5
8CB
  8
DATA
  6
CONTINUOUS
 62
     7
 10
238.45735260082759
 20
18.3673004236887
 30
0.0
  0
VERTEX
  5
8CC
  8
DATA
  6
CONTINUOUS
 62
     7
 10
238.44790797515299
 20
18.264226977249049
 30
0.0
  0
VERTEX
  5
8CD
  8
DATA
  6
CONTINUOUS
 62
     7
 10
238.4378909479224
 20
18.161377019289372
 30
0.0
  0
VERTEX
  5
8CE
  8
DATA
  6
CONTINUOUS
 62
     7
 10
238.42730151913571
 20
18.058750549809691
 30
0.0
  0
VERTEX
  5
8CF
  8
DATA
  6
CONTINUOUS
 62
     7
 10
238.41613968879309
 20
17.956347568809981
 30
0.0
  0
VERTEX
  5
8D0
  8
DATA
  6
CONTINUOUS
 62
     7
 10
238.4044054568943
 20
17.854168076290229
 30
0.0
  0
VERTEX
  5
8D1
  8
DATA
  6
CONTINUOUS
 62
     7
 10
238.3920988234396
 20
17.752212072250469
 30
0.0
  0
VERTEX
  5
8D2
  8
DATA
  6
CONTINUOUS
 62
     7
 10
238.3792197884288
 20
17.65047955669068
 30
0.0
  0
VERTEX
  5
8D3
  8
DATA
  6
CONTINUOUS
 62
     7
 10
238.36576835186199
 20
17.54897052961087
 30
0.0
  0
VERTEX
  5
8D4
  8
DATA
  6
CONTINUOUS
 62
     7
 10
238.35174451373911
 20
17.447684991011041
 30
0.0
  0
VERTEX
  5
8D5
  8
DATA
  6
CONTINUOUS
 62
     7
 10
238.33714827406021
 20
17.346622940891191
 30
0.0
  0
VERTEX
  5
8D6
  8
DATA
  6
CONTINUOUS
 62
     7
 10
238.3219796328253
 20
17.245784379251319
 30
0.0
  0
VERTEX
  5
8D7
  8
DATA
  6
CONTINUOUS
 62
     7
 10
238.30623859003441
 20
17.145169306091422
 30
0.0
  0
VERTEX
  5
8D8
  8
DATA
  6
CONTINUOUS
 62
     7
 10
238.28992514568731
 20
17.044777721411499
 30
0.0
  0
VERTEX
  5
8D9
  8
DATA
  6
CONTINUOUS
 62
     7
 10
238.27303929978439
 20
16.944609625211569
 30
0.0
  0
VERTEX
  5
8DA
  8
DATA
  6
CONTINUOUS
 62
     7
 10
238.25558105232531
 20
16.84466501749159
 30
0.0
  0
VERTEX
  5
8DB
  8
DATA
  6
CONTINUOUS
 62
     7
 10
238.23755040331019
 20
16.744943898251599
 30
0.0
  0
VERTEX
  5
8DC
  8
DATA
  6
CONTINUOUS
 62
     7
 10
238.21894735273901
 20
16.64544626749159
 30
0.0
  0
VERTEX
  5
8DD
  8
DATA
  6
CONTINUOUS
 62
     7
 10
238.19977190061189
 20
16.546172125211569
 30
0.0
  0
VERTEX
  5
8DE
  8
DATA
  6
CONTINUOUS
 62
     7
 10
238.18002404692871
 20
16.447121471411499
 30
0.0
  0
VERTEX
  5
8DF
  8
DATA
  6
CONTINUOUS
 62
     7
 10
238.15970379168951
 20
16.348294306091422
 30
0.0
  0
VERTEX
  5
8E0
  8
DATA
  6
CONTINUOUS
 62
     7
 10
238.1388111348941
 20
16.249690629251319
 30
0.0
  0
VERTEX
  5
8E1
  8
DATA
  6
CONTINUOUS
 62
     7
 10
238.1173460765429
 20
16.151310440891191
 30
0.0
  0
VERTEX
  5
8E2
  8
DATA
  6
CONTINUOUS
 62
     7
 10
238.09530861663561
 20
16.053153741011041
 30
0.0
  0
VERTEX
  5
8E3
  8
DATA
  6
CONTINUOUS
 62
     7
 10
238.07269875517221
 20
15.95522052961087
 30
0.0
  0
VERTEX
  5
8E4
  8
DATA
  6
CONTINUOUS
 62
     7
 10
238.0495164921528
 20
15.85751080669068
 30
0.0
  0
VERTEX
  5
8E5
  8
DATA
  6
CONTINUOUS
 62
     7
 10
238.0257618275773
 20
15.760024572250471
 30
0.0
  0
VERTEX
  5
8E6
  8
DATA
  6
CONTINUOUS
 62
     7
 10
238.00143476144589
 20
15.662761826290231
 30
0.0
  0
VERTEX
  5
8E7
  8
DATA
  6
CONTINUOUS
 62
     7
 10
237.97653529375839
 20
15.565722568809971
 30
0.0
  0
VERTEX
  5
8E8
  8
DATA
  6
CONTINUOUS
 62
     7
 10
237.95106342451481
 20
15.46890679980968
 30
0.0
  0
VERTEX
  5
8E9
  8
DATA
  6
CONTINUOUS
 62
     7
 10
237.92501915371531
 20
15.37231451928937
 30
0.0
  0
VERTEX
  5
8EA
  8
DATA
  6
CONTINUOUS
 62
     7
 10
237.8984024813596
 20
15.27594572724905
 30
0.0
  0
VERTEX
  5
8EB
  8
DATA
  6
CONTINUOUS
 62
     7
 10
237.87121340744801
 20
15.1798004236887
 30
0.0
  0
VERTEX
  5
8EC
  8
DATA
  6
CONTINUOUS
 62
     7
 10
237.8434519319803
 20
15.08387860860833
 30
0.0
  0
VERTEX
  5
8ED
  8
DATA
  6
CONTINUOUS
 62
     7
 10
237.81511805495651
 20
14.98818028200793
 30
0.0
  0
VERTEX
  5
8EE
  8
DATA
  6
CONTINUOUS
 62
     7
 10
237.7862117763768
 20
14.89270544388752
 30
0.0
  0
VERTEX
  5
8EF
  8
DATA
  6
CONTINUOUS
 62
     7
 10
237.75673309624099
 20
14.79745409424709
 30
0.0
  0
VERTEX
  5
8F0
  8
DATA
  6
CONTINUOUS
 62
     7
 10
237.7266820145492
 20
14.702426233086619
 30
0.0
  0
VERTEX
  5
8F1
  8
DATA
  6
CONTINUOUS
 62
     7
 10
237.6960585313013
 20
14.607621860406139
 30
0.0
  0
VERTEX
  5
8F2
  8
DATA
  6
CONTINUOUS
 62
     7
 10
237.6648626464974
 20
14.51304097620563
 30
0.0
  0
VERTEX
  5
8F3
  8
DATA
  6
CONTINUOUS
 62
     7
 10
237.63309436013751
 20
14.418683580485091
 30
0.0
  0
VERTEX
  5
8F4
  8
DATA
  6
CONTINUOUS
 62
     7
 10
237.6007536722216
 20
14.32454967324453
 30
0.0
  0
VERTEX
  5
8F5
  8
DATA
  6
CONTINUOUS
 62
     7
 10
237.5678405827496
 20
14.23063925448395
 30
0.0
  0
VERTEX
  5
8F6
  8
DATA
  6
CONTINUOUS
 62
     7
 10
237.53435509172149
 20
14.136952324203349
 30
0.0
  0
VERTEX
  5
8F7
  8
DATA
  6
CONTINUOUS
 62
     7
 10
237.50029719913741
 20
14.04348888240273
 30
0.0
  0
VERTEX
  5
8F8
  8
DATA
  6
CONTINUOUS
 62
     7
 10
237.46566690499731
 20
13.950248929082081
 30
0.0
  0
VERTEX
  5
8F9
  8
DATA
  6
CONTINUOUS
 62
     7
 10
237.43046420930119
 20
13.857232464241401
 30
0.0
  0
VERTEX
  5
8FA
  8
DATA
  6
CONTINUOUS
 62
     7
 10
237.39468911204901
 20
13.76443948788072
 30
0.0
  0
VERTEX
  5
8FB
  8
DATA
  6
CONTINUOUS
 62
     7
 10
237.35834161324081
 20
13.671870000000011
 30
0.0
  0
VERTEX
  5
8FC
  8
DATA
  6
CONTINUOUS
 62
     7
 10
237.32149840014389
 20
13.57971754730039
 30
0.0
  0
VERTEX
  5
8FD
  8
DATA
  6
CONTINUOUS
 62
     7
 10
237.2842361600257
 20
13.48817567648296
 30
0.0
  0
VERTEX
  5
8FE
  8
DATA
  6
CONTINUOUS
 62
     7
 10
237.24655489288611
 20
13.39724438754776
 30
0.0
  0
VERTEX
  5
8FF
  8
DATA
  6
CONTINUOUS
 62
     7
 10
237.2084545987251
 20
13.30692368049475
 30
0.0
  0
VERTEX
  5
900
  8
DATA
  6
CONTINUOUS
 62
     7
 10
237.16993527754281
 20
13.21721355532395
 30
0.0
  0
VERTEX
  5
901
  8
DATA
  6
CONTINUOUS
 62
     7
 10
237.13099692933929
 20
13.12811401203534
 30
0.0
  0
VERTEX
  5
902
  8
DATA
  6
CONTINUOUS
 62
     7
 10
237.09163955411429
 20
13.03962505062896
 30
0.0
  0
VERTEX
  5
903
  8
DATA
  6
CONTINUOUS
 62
     7
 10
237.05186315186791
 20
12.951746671104759
 30
0.0
  0
VERTEX
  5
904
  8
DATA
  6
CONTINUOUS
 62
     7
 10
237.01166772260021
 20
12.86447887346276
 30
0.0
  0
VERTEX
  5
905
  8
DATA
  6
CONTINUOUS
 62
     7
 10
236.9710532663112
 20
12.77782165770299
 30
0.0
  0
VERTEX
  5
906
  8
DATA
  6
CONTINUOUS
 62
     7
 10
236.9300197830008
 20
12.691775023825411
 30
0.0
  0
VERTEX
  5
907
  8
DATA
  6
CONTINUOUS
 62
     7
 10
236.88856727266901
 20
12.60633897183004
 30
0.0
  0
VERTEX
  5
908
  8
DATA
  6
CONTINUOUS
 62
     7
 10
236.84669573531599
 20
12.521513501716861
 30
0.0
  0
VERTEX
  5
909
  8
DATA
  6
CONTINUOUS
 62
     7
 10
236.80440517094149
 20
12.437298613485909
 30
0.0
  0
VERTEX
  5
90A
  8
DATA
  6
CONTINUOUS
 62
     7
 10
236.76169557954569
 20
12.35369430713715
 30
0.0
  0
VERTEX
  5
90B
  8
DATA
  6
CONTINUOUS
 62
     7
 10
236.7185669611286
 20
12.27070058267058
 30
0.0
  0
VERTEX
  5
90C
  8
DATA
  6
CONTINUOUS
 62
     7
 10
236.67501931569009
 20
12.18831744008622
 30
0.0
  0
VERTEX
  5
90D
  8
DATA
  6
CONTINUOUS
 62
     7
 10
236.6310526432303
 20
12.106544879384071
 30
0.0
  0
VERTEX
  5
90E
  8
DATA
  6
CONTINUOUS
 62
     7
 10
236.58666694374909
 20
12.025382900564139
 30
0.0
  0
VERTEX
  5
90F
  8
DATA
  6
CONTINUOUS
 62
     7
 10
236.54186221724649
 20
11.9448315036264
 30
0.0
  0
VERTEX
  5
910
  8
DATA
  6
CONTINUOUS
 62
     7
 10
236.4966384637226
 20
11.864890688570879
 30
0.0
  0
VERTEX
  5
911
  8
DATA
  6
CONTINUOUS
 62
     7
 10
236.45099568317741
 20
11.785560455397549
 30
0.0
  0
VERTEX
  5
912
  8
DATA
  6
CONTINUOUS
 62
     7
 10
236.40493387561091
 20
11.706840804106429
 30
0.0
  0
VERTEX
  5
913
  8
DATA
  6
CONTINUOUS
 62
     7
 10
236.35845304102301
 20
11.62873173469751
 30
0.0
  0
VERTEX
  5
914
  8
DATA
  6
CONTINUOUS
 62
     7
 10
236.31155317941369
 20
11.55123324717078
 30
0.0
  0
VERTEX
  5
915
  8
DATA
  6
CONTINUOUS
 62
     7
 10
236.26423429078309
 20
11.474345341526259
 30
0.0
  0
VERTEX
  5
916
  8
DATA
  6
CONTINUOUS
 62
     7
 10
236.2164963751311
 20
11.39806801776396
 30
0.0
  0
VERTEX
  5
917
  8
DATA
  6
CONTINUOUS
 62
     7
 10
236.1683394324578
 20
11.322401275883861
 30
0.0
  0
VERTEX
  5
918
  8
DATA
  6
CONTINUOUS
 62
     7
 10
236.11976346276319
 20
11.24734511588596
 30
0.0
  0
VERTEX
  5
919
  8
DATA
  6
CONTINUOUS
 62
     7
 10
236.07076846604721
 20
11.17289953777026
 30
0.0
  0
VERTEX
  5
91A
  8
DATA
  6
CONTINUOUS
 62
     7
 10
236.02135444230981
 20
11.099064541536791
 30
0.0
  0
VERTEX
  5
91B
  8
DATA
  6
CONTINUOUS
 62
     7
 10
235.97152139155099
 20
11.02584012718552
 30
0.0
  0
VERTEX
  5
91C
  8
DATA
  6
CONTINUOUS
 62
     7
 10
235.92126931377101
 20
10.95322629471644
 30
0.0
  0
VERTEX
  5
91D
  8
DATA
  6
CONTINUOUS
 62
     7
 10
235.8705982089696
 20
10.88122304412957
 30
0.0
  0
VERTEX
  5
91E
  8
DATA
  6
CONTINUOUS
 62
     7
 10
235.81950807714679
 20
10.8098303754249
 30
0.0
  0
VERTEX
  5
91F
  8
DATA
  6
CONTINUOUS
 62
     7
 10
235.76799891830279
 20
10.739048288602451
 30
0.0
  0
VERTEX
  5
920
  8
DATA
  6
CONTINUOUS
 62
     7
 10
235.71607073243729
 20
10.668876783662199
 30
0.0
  0
VERTEX
  5
921
  8
DATA
  6
CONTINUOUS
 62
     7
 10
235.6637235195505
 20
10.59931586060412
 30
0.0
  0
VERTEX
  5
922
  8
DATA
  6
CONTINUOUS
 62
     7
 10
235.61095727964229
 20
10.530365519428271
 30
0.0
  0
VERTEX
  5
923
  8
DATA
  6
CONTINUOUS
 62
     7
 10
235.5577720127128
 20
10.462025760134621
 30
0.0
  0
VERTEX
  5
924
  8
DATA
  6
CONTINUOUS
 62
     7
 10
235.50416771876201
 20
10.39429658272317
 30
0.0
  0
VERTEX
  5
925
  8
DATA
  6
CONTINUOUS
 62
     7
 10
235.4501443977897
 20
10.32717798719392
 30
0.0
  0
VERTEX
  5
926
  8
DATA
  6
CONTINUOUS
 62
     7
 10
235.39570204979631
 20
10.260669973546889
 30
0.0
  0
VERTEX
  5
927
  8
DATA
  6
CONTINUOUS
 62
     7
 10
235.3408406747813
 20
10.19477254178207
 30
0.0
  0
VERTEX
  5
928
  8
DATA
  6
CONTINUOUS
 62
     7
 10
235.28556027274499
 20
10.12948569189944
 30
0.0
  0
VERTEX
  5
929
  8
DATA
  6
CONTINUOUS
 62
     7
 10
235.22986084368739
 20
10.064809423899019
 30
0.0
  0
VERTEX
  5
92A
  8
DATA
  6
CONTINUOUS
 62
     7
 10
235.1737423876084
 20
10.000743737780819
 30
0.0
  0
VERTEX
  5
92B
  8
DATA
  6
CONTINUOUS
 62
     7
 10
235.11720490450821
 20
9.9372886335447976
 30
0.0
  0
VERTEX
  5
92C
  8
DATA
  6
CONTINUOUS
 62
     7
 10
235.06024839438649
 20
9.8744441111909662
 30
0.0
  0
VERTEX
  5
92D
  8
DATA
  6
CONTINUOUS
 62
     7
 10
235.0028728572436
 20
9.8122101707193696
 30
0.0
  0
VERTEX
  5
92E
  8
DATA
  6
CONTINUOUS
 62
     7
 10
234.94507829307921
 20
9.750586812129967
 30
0.0
  0
VERTEX
  5
92F
  8
DATA
  6
CONTINUOUS
 62
     7
 10
234.8868647018935
 20
9.6895740354227922
 30
0.0
  0
VERTEX
  5
930
  8
DATA
  6
CONTINUOUS
 62
     7
 10
234.82823208368649
 20
9.6291718405978202
 30
0.0
  0
VERTEX
  5
931
  8
DATA
  6
CONTINUOUS
 62
     7
 10
234.76918043845811
 20
9.5693802276550155
 30
0.0
  0
VERTEX
  5
932
  8
DATA
  6
CONTINUOUS
 62
     7
 10
234.70970976620839
 20
9.5101991965944421
 30
0.0
  0
VERTEX
  5
933
  8
DATA
  6
CONTINUOUS
 62
     7
 10
234.64982006693731
 20
9.4516287474160663
 30
0.0
  0
VERTEX
  5
934
  8
DATA
  6
CONTINUOUS
 62
     7
 10
234.5895113406448
 20
9.3936688801198862
 30
0.0
  0
VERTEX
  5
935
  8
DATA
  6
CONTINUOUS
 62
     7
 10
234.52878358733099
 20
9.3363195947059126
 30
0.0
  0
VERTEX
  5
936
  8
DATA
  6
CONTINUOUS
 62
     7
 10
234.46763680699601
 20
9.2795808911741631
 30
0.0
  0
VERTEX
  5
937
  8
DATA
  6
CONTINUOUS
 62
     7
 10
234.40607099963941
 20
9.2234527695246111
 30
0.0
  0
VERTEX
  5
938
  8
DATA
  6
CONTINUOUS
 62
     7
 10
234.34408616526159
 20
9.1679352297572621
 30
0.0
  0
VERTEX
  5
939
  8
DATA
  6
CONTINUOUS
 62
     7
 10
234.2816823038624
 20
9.1130282718721105
 30
0.0
  0
VERTEX
  5
93A
  8
DATA
  6
CONTINUOUS
 62
     7
 10
234.2188594154419
 20
9.0587318958691583
 30
0.0
  0
VERTEX
  5
93B
  8
DATA
  6
CONTINUOUS
 62
     7
 10
234.15561750000001
 20
9.0050461017484054
 30
0.0
  0
VERTEX
  5
93C
  8
DATA
  6
CONTINUOUS
 62
     7
 10
234.09208938378009
 20
8.9520826337498534
 30
0.0
  0
VERTEX
  5
93D
  8
DATA
  6
CONTINUOUS
 62
     7
 10
234.02840789302559
 20
8.8999532361134754
 30
0.0
  0
VERTEX
  5
93E
  8
DATA
  6
CONTINUOUS
 62
     7
 10
233.96457302773629
 20
8.8486579088393
 30
0.0
  0
VERTEX
  5
93F
  8
DATA
  6
CONTINUOUS
 62
     7
 10
233.90058478791229
 20
8.7981966519272952
 30
0.0
  0
VERTEX
  5
940
  8
DATA
  6
CONTINUOUS
 62
     7
 10
233.8364431735537
 20
8.7485694653775017
 30
0.0
  0
VERTEX
  5
941
  8
DATA
  6
CONTINUOUS
 62
     7
 10
233.77214818466041
 20
8.6997763491898468
 30
0.0
  0
VERTEX
  5
942
  8
DATA
  6
CONTINUOUS
 62
     7
 10
233.7076998212323
 20
8.6518173033643961
 30
0.0
  0
VERTEX
  5
943
  8
DATA
  6
CONTINUOUS
 62
     7
 10
233.64309808326959
 20
8.6046923279011178
 30
0.0
  0
VERTEX
  5
944
  8
DATA
  6
CONTINUOUS
 62
     7
 10
233.5783429707723
 20
8.5584014228000456
 30
0.0
  0
VERTEX
  5
945
  8
DATA
  6
CONTINUOUS
 62
     7
 10
233.51343448374021
 20
8.5129445880611172
 30
0.0
  0
VERTEX
  5
946
  8
DATA
  6
CONTINUOUS
 62
     7
 10
233.44837262217339
 20
8.4683218236843896
 30
0.0
  0
VERTEX
  5
947
  8
DATA
  6
CONTINUOUS
 62
     7
 10
233.38315738607201
 20
8.4245331296698378
 30
0.0
  0
VERTEX
  5
948
  8
DATA
  6
CONTINUOUS
 62
     7
 10
233.3177887754359
 20
8.3815785060174903
 30
0.0
  0
VERTEX
  5
949
  8
DATA
  6
CONTINUOUS
 62
     7
 10
233.25226679026511
 20
8.3394579527272867
 30
0.0
  0
VERTEX
  5
94A
  8
DATA
  6
CONTINUOUS
 62
     7
 10
233.18659143055959
 20
8.2981714697992857
 30
0.0
  0
VERTEX
  5
94B
  8
DATA
  6
CONTINUOUS
 62
     7
 10
233.1207626963193
 20
8.2577190572334871
 30
0.0
  0
VERTEX
  5
94C
  8
DATA
  6
CONTINUOUS
 62
     7
 10
233.0547805875444
 20
8.2181007150298626
 30
0.0
  0
VERTEX
  5
94D
  8
DATA
  6
CONTINUOUS
 62
     7
 10
232.98864510423491
 20
8.1793164431883838
 30
0.0
  0
VERTEX
  5
94E
  8
DATA
  6
CONTINUOUS
 62
     7
 10
232.92235624639071
 20
8.1413662417091341
 30
0.0
  0
VERTEX
  5
94F
  8
DATA
  6
CONTINUOUS
 62
     7
 10
232.85591401401169
 20
8.1042501105920337
 30
0.0
  0
VERTEX
  5
950
  8
DATA
  6
CONTINUOUS
 62
     7
 10
232.78931840709811
 20
8.067968049837134
 30
0.0
  0
VERTEX
  5
951
  8
DATA
  6
CONTINUOUS
 62
     7
 10
232.72256942564979
 20
8.0325200594443782
 30
0.0
  0
VERTEX
  5
952
  8
DATA
  6
CONTINUOUS
 62
     7
 10
232.6556670696668
 20
7.9979061394138569
 30
0.0
  0
VERTEX
  5
953
  8
DATA
  6
CONTINUOUS
 62
     7
 10
232.5886113391492
 20
7.9641262897454776
 30
0.0
  0
VERTEX
  5
954
  8
DATA
  6
CONTINUOUS
 62
     7
 10
232.5214022340968
 20
7.9311805104392761
 30
0.0
  0
VERTEX
  5
955
  8
DATA
  6
CONTINUOUS
 62
     7
 10
232.45403975450969
 20
7.8990688014952752
 30
0.0
  0
VERTEX
  5
956
  8
DATA
  6
CONTINUOUS
 62
     7
 10
232.38652390038811
 20
7.867791162913476
 30
0.0
  0
VERTEX
  5
957
  8
DATA
  6
CONTINUOUS
 62
     7
 10
232.31885467173171
 20
7.8373475946938518
 30
0.0
  0
VERTEX
  5
958
  8
DATA
  6
CONTINUOUS
 62
     7
 10
232.2510320685405
 20
7.8077380968364007
 30
0.0
  0
VERTEX
  5
959
  8
DATA
  6
CONTINUOUS
 62
     7
 10
232.18305609081469
 20
7.7789626693411256
 30
0.0
  0
VERTEX
  5
95A
  8
DATA
  6
CONTINUOUS
 62
     7
 10
232.11492673855429
 20
7.7510213122080227
 30
0.0
  0
VERTEX
  5
95B
  8
DATA
  6
CONTINUOUS
 62
     7
 10
232.0466440117591
 20
7.723914025437125
 30
0.0
  0
VERTEX
  5
95C
  8
DATA
  6
CONTINUOUS
 62
     7
 10
231.97820791042921
 20
7.6976408090283979
 30
0.0
  0
VERTEX
  5
95D
  8
DATA
  6
CONTINUOUS
 62
     7
 10
231.90961843456481
 20
7.6722016629818199
 30
0.0
  0
VERTEX
  5
95E
  8
DATA
  6
CONTINUOUS
 62
     7
 10
231.84087558416559
 20
7.6475965872974703
 30
0.0
  0
VERTEX
  5
95F
  8
DATA
  6
CONTINUOUS
 62
     7
 10
231.77197935923169
 20
7.6238255819752947
 30
0.0
  0
VERTEX
  5
960
  8
DATA
  6
CONTINUOUS
 62
     7
 10
231.70292975976301
 20
7.6008886470153252
 30
0.0
  0
VERTEX
  5
961
  8
DATA
  6
CONTINUOUS
 62
     7
 10
231.63372678575971
 20
7.5787857824174676
 30
0.0
  0
VERTEX
  5
962
  8
DATA
  6
CONTINUOUS
 62
     7
 10
231.56437043722181
 20
7.5575169881818436
 30
0.0
  0
VERTEX
  5
963
  8
DATA
  6
CONTINUOUS
 62
     7
 10
231.49486071414921
 20
7.537082264308367
 30
0.0
  0
VERTEX
  5
964
  8
DATA
  6
CONTINUOUS
 62
     7
 10
231.42519761654171
 20
7.5174816107971179
 30
0.0
  0
VERTEX
  5
965
  8
DATA
  6
CONTINUOUS
 62
     7
 10
231.3553811443997
 20
7.4987150276480179
 30
0.0
  0
VERTEX
  5
966
  8
DATA
  6
CONTINUOUS
 62
     7
 10
231.2854112977231
 20
7.4807825148611178
 30
0.0
  0
VERTEX
  5
967
  8
DATA
  6
CONTINUOUS
 62
     7
 10
231.21528807651171
 20
7.4636840724363651
 30
0.0
  0
VERTEX
  5
968
  8
DATA
  6
CONTINUOUS
 62
     7
 10
231.14501148076559
 20
7.4474197003738407
 30
0.0
  0
VERTEX
  5
969
  8
DATA
  6
CONTINUOUS
 62
     7
 10
231.0745815104849
 20
7.4319893986734646
 30
0.0
  0
VERTEX
  5
96A
  8
DATA
  6
CONTINUOUS
 62
     7
 10
231.0039981656694
 20
7.4173931673353177
 30
0.0
  0
VERTEX
  5
96B
  8
DATA
  6
CONTINUOUS
 62
     7
 10
230.93326144631931
 20
7.4036310063592889
 30
0.0
  0
VERTEX
  5
96C
  8
DATA
  6
CONTINUOUS
 62
     7
 10
230.86237135243451
 20
7.3907029157454627
 30
0.0
  0
VERTEX
  5
96D
  8
DATA
  6
CONTINUOUS
 62
     7
 10
230.791327884015
 20
7.3786088954938114
 30
0.0
  0
VERTEX
  5
96E
  8
DATA
  6
CONTINUOUS
 62
     7
 10
230.7201310410608
 20
7.367348945604391
 30
0.0
  0
VERTEX
  5
96F
  8
DATA
  6
CONTINUOUS
 62
     7
 10
230.648780823572
 20
7.3569230660771154
 30
0.0
  0
VERTEX
  5
970
  8
DATA
  6
CONTINUOUS
 62
     7
 10
230.57727723154841
 20
7.3473312569120139
 30
0.0
  0
VERTEX
  5
971
  8
DATA
  6
CONTINUOUS
 62
     7
 10
230.50562026499011
 20
7.3385735181091141
 30
0.0
  0
VERTEX
  5
972
  8
DATA
  6
CONTINUOUS
 62
     7
 10
230.43380992389729
 20
7.3306498496683901
 30
0.0
  0
VERTEX
  5
973
  8
DATA
  6
CONTINUOUS
 62
     7
 10
230.36184620826961
 20
7.3235602515898384
 30
0.0
  0
VERTEX
  5
974
  8
DATA
  6
CONTINUOUS
 62
     7
 10
230.28972911810729
 20
7.3173047238734616
 30
0.0
  0
VERTEX
  5
975
  8
DATA
  6
CONTINUOUS
 62
     7
 10
230.2174586534104
 20
7.3118832665192599
 30
0.0
  0
VERTEX
  5
976
  8
DATA
  6
CONTINUOUS
 62
     7
 10
230.14503481417859
 20
7.3072958795272598
 30
0.0
  0
VERTEX
  5
977
  8
DATA
  6
CONTINUOUS
 62
     7
 10
230.07245760041229
 20
7.3035425628974622
 30
0.0
  0
VERTEX
  5
978
  8
DATA
  6
CONTINUOUS
 62
     7
 10
229.99972701211121
 20
7.3006233166298378
 30
0.0
  0
VERTEX
  5
979
  8
DATA
  6
CONTINUOUS
 62
     7
 10
229.92684304927559
 20
7.2985381407243608
 30
0.0
  0
VERTEX
  5
97A
  8
DATA
  6
CONTINUOUS
 62
     7
 10
229.8538057119051
 20
7.2972870351811139
 30
0.0
  0
VERTEX
  5
97B
  8
DATA
  6
CONTINUOUS
 62
     7
 10
229.7806149999999
 20
7.2968700000000117
 30
0.0
  0
VERTEX
  5
97C
  8
DATA
  6
CONTINUOUS
 62
     7
 10
229.70742428809481
 20
7.2972870351811139
 30
0.0
  0
VERTEX
  5
97D
  8
DATA
  6
CONTINUOUS
 62
     7
 10
229.63438695072449
 20
7.2985381407243608
 30
0.0
  0
VERTEX
  5
97E
  8
DATA
  6
CONTINUOUS
 62
     7
 10
229.5615029878887
 20
7.3006233166298378
 30
0.0
  0
VERTEX
  5
97F
  8
DATA
  6
CONTINUOUS
 62
     7
 10
229.4887723995877
 20
7.3035425628974622
 30
0.0
  0
VERTEX
  5
980
  8
DATA
  6
CONTINUOUS
 62
     7
 10
229.41619518582129
 20
7.3072958795272598
 30
0.0
  0
VERTEX
  5
981
  8
DATA
  6
CONTINUOUS
 62
     7
 10
229.34377134658959
 20
7.3118832665192599
 30
0.0
  0
VERTEX
  5
982
  8
DATA
  6
CONTINUOUS
 62
     7
 10
229.27150088189259
 20
7.3173047238734616
 30
0.0
  0
VERTEX
  5
983
  8
DATA
  6
CONTINUOUS
 62
     7
 10
229.19938379173041
 20
7.3235602515898384
 30
0.0
  0
VERTEX
  5
984
  8
DATA
  6
CONTINUOUS
 62
     7
 10
229.12742007610279
 20
7.3306498496683901
 30
0.0
  0
VERTEX
  5
985
  8
DATA
  6
CONTINUOUS
 62
     7
 10
229.0556097350098
 20
7.3385735181091141
 30
0.0
  0
VERTEX
  5
986
  8
DATA
  6
CONTINUOUS
 62
     7
 10
228.98395276845159
 20
7.3473312569120139
 30
0.0
  0
VERTEX
  5
987
  8
DATA
  6
CONTINUOUS
 62
     7
 10
228.912449176428
 20
7.3569230660771154
 30
0.0
  0
VERTEX
  5
988
  8
DATA
  6
CONTINUOUS
 62
     7
 10
228.84109895893911
 20
7.367348945604391
 30
0.0
  0
VERTEX
  5
989
  8
DATA
  6
CONTINUOUS
 62
     7
 10
228.76990211598491
 20
7.3786088954938114
 30
0.0
  0
VERTEX
  5
98A
  8
DATA
  6
CONTINUOUS
 62
     7
 10
228.6988586475654
 20
7.3907029157454627
 30
0.0
  0
VERTEX
  5
98B
  8
DATA
  6
CONTINUOUS
 62
     7
 10
228.6279685536806
 20
7.4036310063592889
 30
0.0
  0
VERTEX
  5
98C
  8
DATA
  6
CONTINUOUS
 62
     7
 10
228.55723183433051
 20
7.4173931673353177
 30
0.0
  0
VERTEX
  5
98D
  8
DATA
  6
CONTINUOUS
 62
     7
 10
228.48664848951501
 20
7.4319893986734646
 30
0.0
  0
VERTEX
  5
98E
  8
DATA
  6
CONTINUOUS
 62
     7
 10
228.41621851923429
 20
7.4474197003738407
 30
0.0
  0
VERTEX
  5
98F
  8
DATA
  6
CONTINUOUS
 62
     7
 10
228.3459419234882
 20
7.4636840724363651
 30
0.0
  0
VERTEX
  5
990
  8
DATA
  6
CONTINUOUS
 62
     7
 10
228.27581870227689
 20
7.4807825148611178
 30
0.0
  0
VERTEX
  5
991
  8
DATA
  6
CONTINUOUS
 62
     7
 10
228.2058488556001
 20
7.4987150276480179
 30
0.0
  0
VERTEX
  5
992
  8
DATA
  6
CONTINUOUS
 62
     7
 10
228.1360323834582
 20
7.5174816107971179
 30
0.0
  0
VERTEX
  5
993
  8
DATA
  6
CONTINUOUS
 62
     7
 10
228.06636928585081
 20
7.537082264308367
 30
0.0
  0
VERTEX
  5
994
  8
DATA
  6
CONTINUOUS
 62
     7
 10
227.9968595627781
 20
7.5575169881818436
 30
0.0
  0
VERTEX
  5
995
  8
DATA
  6
CONTINUOUS
 62
     7
 10
227.9275032142402
 20
7.5787857824174676
 30
0.0
  0
VERTEX
  5
996
  8
DATA
  6
CONTINUOUS
 62
     7
 10
227.8583002402369
 20
7.6008886470153252
 30
0.0
  0
VERTEX
  5
997
  8
DATA
  6
CONTINUOUS
 62
     7
 10
227.78925064076839
 20
7.6238255819752947
 30
0.0
  0
VERTEX
  5
998
  8
DATA
  6
CONTINUOUS
 62
     7
 10
227.72035441583441
 20
7.6475965872974703
 30
0.0
  0
VERTEX
  5
999
  8
DATA
  6
CONTINUOUS
 62
     7
 10
227.65161156543519
 20
7.6722016629818199
 30
0.0
  0
VERTEX
  5
99A
  8
DATA
  6
CONTINUOUS
 62
     7
 10
227.5830220895707
 20
7.6976408090283979
 30
0.0
  0
VERTEX
  5
99B
  8
DATA
  6
CONTINUOUS
 62
     7
 10
227.5145859882409
 20
7.723914025437125
 30
0.0
  0
VERTEX
  5
99C
  8
DATA
  6
CONTINUOUS
 62
     7
 10
227.44630326144571
 20
7.7510213122080227
 30
0.0
  0
VERTEX
  5
99D
  8
DATA
  6
CONTINUOUS
 62
     7
 10
227.37817390918519
 20
7.7789626693411256
 30
0.0
  0
VERTEX
  5
99E
  8
DATA
  6
CONTINUOUS
 62
     7
 10
227.31019793145941
 20
7.8077380968364007
 30
0.0
  0
VERTEX
  5
99F
  8
DATA
  6
CONTINUOUS
 62
     7
 10
227.24237532826839
 20
7.8373475946938518
 30
0.0
  0
VERTEX
  5
9A0
  8
DATA
  6
CONTINUOUS
 62
     7
 10
227.17470609961191
 20
7.867791162913476
 30
0.0
  0
VERTEX
  5
9A1
  8
DATA
  6
CONTINUOUS
 62
     7
 10
227.1071902454901
 20
7.8990688014952752
 30
0.0
  0
VERTEX
  5
9A2
  8
DATA
  6
CONTINUOUS
 62
     7
 10
227.0398277659032
 20
7.9311805104392761
 30
0.0
  0
VERTEX
  5
9A3
  8
DATA
  6
CONTINUOUS
 62
     7
 10
226.9726186608508
 20
7.9641262897454776
 30
0.0
  0
VERTEX
  5
9A4
  8
DATA
  6
CONTINUOUS
 62
     7
 10
226.9055629303331
 20
7.9979061394138569
 30
0.0
  0
VERTEX
  5
9A5
  8
DATA
  6
CONTINUOUS
 62
     7
 10
226.83866057435009
 20
8.0325200594443782
 30
0.0
  0
VERTEX
  5
9A6
  8
DATA
  6
CONTINUOUS
 62
     7
 10
226.7719115929018
 20
8.067968049837134
 30
0.0
  0
VERTEX
  5
9A7
  8
DATA
  6
CONTINUOUS
 62
     7
 10
226.70531598598811
 20
8.1042501105920337
 30
0.0
  0
VERTEX
  5
9A8
  8
DATA
  6
CONTINUOUS
 62
     7
 10
226.63887375360929
 20
8.1413662417091341
 30
0.0
  0
VERTEX
  5
9A9
  8
DATA
  6
CONTINUOUS
 62
     7
 10
226.572584895765
 20
8.1793164431883838
 30
0.0
  0
VERTEX
  5
9AA
  8
DATA
  6
CONTINUOUS
 62
     7
 10
226.50644941245551
 20
8.2181007150298626
 30
0.0
  0
VERTEX
  5
9AB
  8
DATA
  6
CONTINUOUS
 62
     7
 10
226.44046730368061
 20
8.2577190572334871
 30
0.0
  0
VERTEX
  5
9AC
  8
DATA
  6
CONTINUOUS
 62
     7
 10
226.37463856944041
 20
8.2981714697992857
 30
0.0
  0
VERTEX
  5
9AD
  8
DATA
  6
CONTINUOUS
 62
     7
 10
226.30896320973491
 20
8.3394579527272867
 30
0.0
  0
VERTEX
  5
9AE
  8
DATA
  6
CONTINUOUS
 62
     7
 10
226.24344122456409
 20
8.3815785060174903
 30
0.0
  0
VERTEX
  5
9AF
  8
DATA
  6
CONTINUOUS
 62
     7
 10
226.17807261392801
 20
8.4245331296698378
 30
0.0
  0
VERTEX
  5
9B0
  8
DATA
  6
CONTINUOUS
 62
     7
 10
226.1128573778266
 20
8.4683218236843896
 30
0.0
  0
VERTEX
  5
9B1
  8
DATA
  6
CONTINUOUS
 62
     7
 10
226.0477955162599
 20
8.5129445880611172
 30
0.0
  0
VERTEX
  5
9B2
  8
DATA
  6
CONTINUOUS
 62
     7
 10
225.9828870292277
 20
8.5584014228000456
 30
0.0
  0
VERTEX
  5
9B3
  8
DATA
  6
CONTINUOUS
 62
     7
 10
225.9181319167304
 20
8.6046923279011178
 30
0.0
  0
VERTEX
  5
9B4
  8
DATA
  6
CONTINUOUS
 62
     7
 10
225.85353017876761
 20
8.6518173033643961
 30
0.0
  0
VERTEX
  5
9B5
  8
DATA
  6
CONTINUOUS
 62
     7
 10
225.7890818153397
 20
8.6997763491898468
 30
0.0
  0
VERTEX
  5
9B6
  8
DATA
  6
CONTINUOUS
 62
     7
 10
225.7247868264464
 20
8.7485694653775017
 30
0.0
  0
VERTEX
  5
9B7
  8
DATA
  6
CONTINUOUS
 62
     7
 10
225.6606452120877
 20
8.7981966519272952
 30
0.0
  0
VERTEX
  5
9B8
  8
DATA
  6
CONTINUOUS
 62
     7
 10
225.5966569722637
 20
8.8486579088393
 30
0.0
  0
VERTEX
  5
9B9
  8
DATA
  6
CONTINUOUS
 62
     7
 10
225.53282210697449
 20
8.8999532361134754
 30
0.0
  0
VERTEX
  5
9BA
  8
DATA
  6
CONTINUOUS
 62
     7
 10
225.4691406162199
 20
8.9520826337498534
 30
0.0
  0
VERTEX
  5
9BB
  8
DATA
  6
CONTINUOUS
 62
     7
 10
225.40561249999999
 20
9.0050461017484054
 30
0.0
  0
VERTEX
  5
9BC
  8
DATA
  6
CONTINUOUS
 62
     7
 10
225.3423705845581
 20
9.0587318958691583
 30
0.0
  0
VERTEX
  5
9BD
  8
DATA
  6
CONTINUOUS
 62
     7
 10
225.2795476961376
 20
9.1130282718721105
 30
0.0
  0
VERTEX
  5
9BE
  8
DATA
  6
CONTINUOUS
 62
     7
 10
225.21714383473841
 20
9.1679352297572621
 30
0.0
  0
VERTEX
  5
9BF
  8
DATA
  6
CONTINUOUS
 62
     7
 10
225.1551590003605
 20
9.2234527695246111
 30
0.0
  0
VERTEX
  5
9C0
  8
DATA
  6
CONTINUOUS
 62
     7
 10
225.09359319300401
 20
9.2795808911741631
 30
0.0
  0
VERTEX
  5
9C1
  8
DATA
  6
CONTINUOUS
 62
     7
 10
225.03244641266889
 20
9.3363195947059126
 30
0.0
  0
VERTEX
  5
9C2
  8
DATA
  6
CONTINUOUS
 62
     7
 10
224.97171865935519
 20
9.3936688801198862
 30
0.0
  0
VERTEX
  5
9C3
  8
DATA
  6
CONTINUOUS
 62
     7
 10
224.91140993306271
 20
9.4516287474160663
 30
0.0
  0
VERTEX
  5
9C4
  8
DATA
  6
CONTINUOUS
 62
     7
 10
224.8515202337916
 20
9.5101991965944421
 30
0.0
  0
VERTEX
  5
9C5
  8
DATA
  6
CONTINUOUS
 62
     7
 10
224.79204956154189
 20
9.5693802276550155
 30
0.0
  0
VERTEX
  5
9C6
  8
DATA
  6
CONTINUOUS
 62
     7
 10
224.73299791631351
 20
9.6291718405978202
 30
0.0
  0
VERTEX
  5
9C7
  8
DATA
  6
CONTINUOUS
 62
     7
 10
224.67436529810649
 20
9.6895740354227922
 30
0.0
  0
VERTEX
  5
9C8
  8
DATA
  6
CONTINUOUS
 62
     7
 10
224.61615170692079
 20
9.750586812129967
 30
0.0
  0
VERTEX
  5
9C9
  8
DATA
  6
CONTINUOUS
 62
     7
 10
224.55835714275639
 20
9.8122101707193696
 30
0.0
  0
VERTEX
  5
9CA
  8
DATA
  6
CONTINUOUS
 62
     7
 10
224.5009816056135
 20
9.8744441111909662
 30
0.0
  0
VERTEX
  5
9CB
  8
DATA
  6
CONTINUOUS
 62
     7
 10
224.44402509549181
 20
9.9372886335447976
 30
0.0
  0
VERTEX
  5
9CC
  8
DATA
  6
CONTINUOUS
 62
     7
 10
224.3874876123914
 20
10.000743737780819
 30
0.0
  0
VERTEX
  5
9CD
  8
DATA
  6
CONTINUOUS
 62
     7
 10
224.33136915631249
 20
10.064809423899019
 30
0.0
  0
VERTEX
  5
9CE
  8
DATA
  6
CONTINUOUS
 62
     7
 10
224.27566972725489
 20
10.12948569189944
 30
0.0
  0
VERTEX
  5
9CF
  8
DATA
  6
CONTINUOUS
 62
     7
 10
224.2203893252186
 20
10.19477254178207
 30
0.0
  0
VERTEX
  5
9D0
  8
DATA
  6
CONTINUOUS
 62
     7
 10
224.1655279502038
 20
10.260669973546889
 30
0.0
  0
VERTEX
  5
9D1
  8
DATA
  6
CONTINUOUS
 62
     7
 10
224.11108560221021
 20
10.32717798719392
 30
0.0
  0
VERTEX
  5
9D2
  8
DATA
  6
CONTINUOUS
 62
     7
 10
224.05706228123799
 20
10.39429658272317
 30
0.0
  0
VERTEX
  5
9D3
  8
DATA
  6
CONTINUOUS
 62
     7
 10
224.00345798728719
 20
10.462025760134621
 30
0.0
  0
VERTEX
  5
9D4
  8
DATA
  6
CONTINUOUS
 62
     7
 10
223.95027272035759
 20
10.530365519428271
 30
0.0
  0
VERTEX
  5
9D5
  8
DATA
  6
CONTINUOUS
 62
     7
 10
223.89750648044949
 20
10.59931586060412
 30
0.0
  0
VERTEX
  5
9D6
  8
DATA
  6
CONTINUOUS
 62
     7
 10
223.84515926756271
 20
10.668876783662199
 30
0.0
  0
VERTEX
  5
9D7
  8
DATA
  6
CONTINUOUS
 62
     7
 10
223.7932310816972
 20
10.739048288602451
 30
0.0
  0
VERTEX
  5
9D8
  8
DATA
  6
CONTINUOUS
 62
     7
 10
223.74172192285309
 20
10.8098303754249
 30
0.0
  0
VERTEX
  5
9D9
  8
DATA
  6
CONTINUOUS
 62
     7
 10
223.6906317910304
 20
10.88122304412957
 30
0.0
  0
VERTEX
  5
9DA
  8
DATA
  6
CONTINUOUS
 62
     7
 10
223.63996068622899
 20
10.95322629471644
 30
0.0
  0
VERTEX
  5
9DB
  8
DATA
  6
CONTINUOUS
 62
     7
 10
223.5897086084488
 20
11.02584012718552
 30
0.0
  0
VERTEX
  5
9DC
  8
DATA
  6
CONTINUOUS
 62
     7
 10
223.5398755576901
 20
11.099064541536791
 30
0.0
  0
VERTEX
  5
9DD
  8
DATA
  6
CONTINUOUS
 62
     7
 10
223.49046153395281
 20
11.17289953777026
 30
0.0
  0
VERTEX
  5
9DE
  8
DATA
  6
CONTINUOUS
 62
     7
 10
223.44146653723681
 20
11.24734511588596
 30
0.0
  0
VERTEX
  5
9DF
  8
DATA
  6
CONTINUOUS
 62
     7
 10
223.39289056754211
 20
11.322401275883861
 30
0.0
  0
VERTEX
  5
9E0
  8
DATA
  6
CONTINUOUS
 62
     7
 10
223.34473362486881
 20
11.39806801776396
 30
0.0
  0
VERTEX
  5
9E1
  8
DATA
  6
CONTINUOUS
 62
     7
 10
223.29699570921679
 20
11.474345341526259
 30
0.0
  0
VERTEX
  5
9E2
  8
DATA
  6
CONTINUOUS
 62
     7
 10
223.24967682058619
 20
11.55123324717078
 30
0.0
  0
VERTEX
  5
9E3
  8
DATA
  6
CONTINUOUS
 62
     7
 10
223.2027769589769
 20
11.62873173469751
 30
0.0
  0
VERTEX
  5
9E4
  8
DATA
  6
CONTINUOUS
 62
     7
 10
223.156296124389
 20
11.706840804106429
 30
0.0
  0
VERTEX
  5
9E5
  8
DATA
  6
CONTINUOUS
 62
     7
 10
223.1102343168225
 20
11.785560455397549
 30
0.0
  0
VERTEX
  5
9E6
  8
DATA
  6
CONTINUOUS
 62
     7
 10
223.06459153627719
 20
11.864890688570879
 30
0.0
  0
VERTEX
  5
9E7
  8
DATA
  6
CONTINUOUS
 62
     7
 10
223.01936778275331
 20
11.9448315036264
 30
0.0
  0
VERTEX
  5
9E8
  8
DATA
  6
CONTINUOUS
 62
     7
 10
222.97456305625079
 20
12.025382900564139
 30
0.0
  0
VERTEX
  5
9E9
  8
DATA
  6
CONTINUOUS
 62
     7
 10
222.93017735676969
 20
12.106544879384071
 30
0.0
  0
VERTEX
  5
9EA
  8
DATA
  6
CONTINUOUS
 62
     7
 10
222.8862106843099
 20
12.18831744008622
 30
0.0
  0
VERTEX
  5
9EB
  8
DATA
  6
CONTINUOUS
 62
     7
 10
222.84266303887139
 20
12.27070058267058
 30
0.0
  0
VERTEX
  5
9EC
  8
DATA
  6
CONTINUOUS
 62
     7
 10
222.79953442045431
 20
12.35369430713715
 30
0.0
  0
VERTEX
  5
9ED
  8
DATA
  6
CONTINUOUS
 62
     7
 10
222.75682482905839
 20
12.437298613485909
 30
0.0
  0
VERTEX
  5
9EE
  8
DATA
  6
CONTINUOUS
 62
     7
 10
222.714534264684
 20
12.521513501716861
 30
0.0
  0
VERTEX
  5
9EF
  8
DATA
  6
CONTINUOUS
 62
     7
 10
222.6726627273309
 20
12.60633897183004
 30
0.0
  0
VERTEX
  5
9F0
  8
DATA
  6
CONTINUOUS
 62
     7
 10
222.63121021699919
 20
12.691775023825411
 30
0.0
  0
VERTEX
  5
9F1
  8
DATA
  6
CONTINUOUS
 62
     7
 10
222.59017673368879
 20
12.77782165770299
 30
0.0
  0
VERTEX
  5
9F2
  8
DATA
  6
CONTINUOUS
 62
     7
 10
222.54956227739979
 20
12.86447887346276
 30
0.0
  0
VERTEX
  5
9F3
  8
DATA
  6
CONTINUOUS
 62
     7
 10
222.50936684813209
 20
12.951746671104759
 30
0.0
  0
VERTEX
  5
9F4
  8
DATA
  6
CONTINUOUS
 62
     7
 10
222.4695904458857
 20
13.03962505062896
 30
0.0
  0
VERTEX
  5
9F5
  8
DATA
  6
CONTINUOUS
 62
     7
 10
222.43023307066071
 20
13.12811401203534
 30
0.0
  0
VERTEX
  5
9F6
  8
DATA
  6
CONTINUOUS
 62
     7
 10
222.3912947224571
 20
13.21721355532395
 30
0.0
  0
VERTEX
  5
9F7
  8
DATA
  6
CONTINUOUS
 62
     7
 10
222.35277540127481
 20
13.30692368049475
 30
0.0
  0
VERTEX
  5
9F8
  8
DATA
  6
CONTINUOUS
 62
     7
 10
222.31467510711391
 20
13.39724438754776
 30
0.0
  0
VERTEX
  5
9F9
  8
DATA
  6
CONTINUOUS
 62
     7
 10
222.2769938399743
 20
13.48817567648296
 30
0.0
  0
VERTEX
  5
9FA
  8
DATA
  6
CONTINUOUS
 62
     7
 10
222.2397315998561
 20
13.57971754730039
 30
0.0
  0
VERTEX
  5
9FB
  8
DATA
  6
CONTINUOUS
 62
     7
 10
222.2028883867591
 20
13.671870000000011
 30
0.0
  0
VERTEX
  5
9FC
  8
DATA
  6
CONTINUOUS
 62
     7
 10
222.1665408879509
 20
13.76443948788072
 30
0.0
  0
VERTEX
  5
9FD
  8
DATA
  6
CONTINUOUS
 62
     7
 10
222.13076579069869
 20
13.857232464241401
 30
0.0
  0
VERTEX
  5
9FE
  8
DATA
  6
CONTINUOUS
 62
     7
 10
222.0955630950026
 20
13.950248929082081
 30
0.0
  0
VERTEX
  5
9FF
  8
DATA
  6
CONTINUOUS
 62
     7
 10
222.0609328008625
 20
14.04348888240273
 30
0.0
  0
VERTEX
  5
A00
  8
DATA
  6
CONTINUOUS
 62
     7
 10
222.02687490827839
 20
14.136952324203349
 30
0.0
  0
VERTEX
  5
A01
  8
DATA
  6
CONTINUOUS
 62
     7
 10
221.9933894172504
 20
14.23063925448395
 30
0.0
  0
VERTEX
  5
A02
  8
DATA
  6
CONTINUOUS
 62
     7
 10
221.96047632777839
 20
14.32454967324453
 30
0.0
  0
VERTEX
  5
A03
  8
DATA
  6
CONTINUOUS
 62
     7
 10
221.9281356398624
 20
14.418683580485091
 30
0.0
  0
VERTEX
  5
A04
  8
DATA
  6
CONTINUOUS
 62
     7
 10
221.89636735350251
 20
14.51304097620563
 30
0.0
  0
VERTEX
  5
A05
  8
DATA
  6
CONTINUOUS
 62
     7
 10
221.86517146869861
 20
14.607621860406139
 30
0.0
  0
VERTEX
  5
A06
  8
DATA
  6
CONTINUOUS
 62
     7
 10
221.8345479854508
 20
14.702426233086619
 30
0.0
  0
VERTEX
  5
A07
  8
DATA
  6
CONTINUOUS
 62
     7
 10
221.80449690375889
 20
14.79745409424709
 30
0.0
  0
VERTEX
  5
A08
  8
DATA
  6
CONTINUOUS
 62
     7
 10
221.77501822362311
 20
14.89270544388752
 30
0.0
  0
VERTEX
  5
A09
  8
DATA
  6
CONTINUOUS
 62
     7
 10
221.7461119450434
 20
14.98818028200793
 30
0.0
  0
VERTEX
  5
A0A
  8
DATA
  6
CONTINUOUS
 62
     7
 10
221.7177780680197
 20
15.08387860860833
 30
0.0
  0
VERTEX
  5
A0B
  8
DATA
  6
CONTINUOUS
 62
     7
 10
221.69001659255201
 20
15.1798004236887
 30
0.0
  0
VERTEX
  5
A0C
  8
DATA
  6
CONTINUOUS
 62
     7
 10
221.6628275186404
 20
15.27594572724905
 30
0.0
  0
VERTEX
  5
A0D
  8
DATA
  6
CONTINUOUS
 62
     7
 10
221.63621084628471
 20
15.37231451928937
 30
0.0
  0
VERTEX
  5
A0E
  8
DATA
  6
CONTINUOUS
 62
     7
 10
221.61016657548521
 20
15.46890679980968
 30
0.0
  0
VERTEX
  5
A0F
  8
DATA
  6
CONTINUOUS
 62
     7
 10
221.58469470624161
 20
15.565722568809971
 30
0.0
  0
VERTEX
  5
A10
  8
DATA
  6
CONTINUOUS
 62
     7
 10
221.5597952385541
 20
15.662761826290231
 30
0.0
  0
VERTEX
  5
A11
  8
DATA
  6
CONTINUOUS
 62
     7
 10
221.53546817242261
 20
15.760024572250471
 30
0.0
  0
VERTEX
  5
A12
  8
DATA
  6
CONTINUOUS
 62
     7
 10
221.51171350784719
 20
15.85751080669068
 30
0.0
  0
VERTEX
  5
A13
  8
DATA
  6
CONTINUOUS
 62
     7
 10
221.4885312448277
 20
15.95522052961087
 30
0.0
  0
VERTEX
  5
A14
  8
DATA
  6
CONTINUOUS
 62
     7
 10
221.46592138336439
 20
16.053153741011041
 30
0.0
  0
VERTEX
  5
A15
  8
DATA
  6
CONTINUOUS
 62
     7
 10
221.44388392345709
 20
16.151310440891191
 30
0.0
  0
VERTEX
  5
A16
  8
DATA
  6
CONTINUOUS
 62
     7
 10
221.42241886510581
 20
16.249690629251319
 30
0.0
  0
VERTEX
  5
A17
  8
DATA
  6
CONTINUOUS
 62
     7
 10
221.40152620831049
 20
16.348294306091422
 30
0.0
  0
VERTEX
  5
A18
  8
DATA
  6
CONTINUOUS
 62
     7
 10
221.38120595307129
 20
16.447121471411499
 30
0.0
  0
VERTEX
  5
A19
  8
DATA
  6
CONTINUOUS
 62
     7
 10
221.3614580993881
 20
16.546172125211569
 30
0.0
  0
VERTEX
  5
A1A
  8
DATA
  6
CONTINUOUS
 62
     7
 10
221.3422826472609
 20
16.64544626749159
 30
0.0
  0
VERTEX
  5
A1B
  8
DATA
  6
CONTINUOUS
 62
     7
 10
221.3236795966898
 20
16.744943898251599
 30
0.0
  0
VERTEX
  5
A1C
  8
DATA
  6
CONTINUOUS
 62
     7
 10
221.30564894767471
 20
16.84466501749159
 30
0.0
  0
VERTEX
  5
A1D
  8
DATA
  6
CONTINUOUS
 62
     7
 10
221.28819070021561
 20
16.944609625211569
 30
0.0
  0
VERTEX
  5
A1E
  8
DATA
  6
CONTINUOUS
 62
     7
 10
221.27130485431249
 20
17.044777721411499
 30
0.0
  0
VERTEX
  5
A1F
  8
DATA
  6
CONTINUOUS
 62
     7
 10
221.25499140996561
 20
17.145169306091422
 30
0.0
  0
VERTEX
  5
A20
  8
DATA
  6
CONTINUOUS
 62
     7
 10
221.23925036717461
 20
17.245784379251319
 30
0.0
  0
VERTEX
  5
A21
  8
DATA
  6
CONTINUOUS
 62
     7
 10
221.2240817259397
 20
17.346622940891191
 30
0.0
  0
VERTEX
  5
A22
  8
DATA
  6
CONTINUOUS
 62
     7
 10
221.20948548626089
 20
17.447684991011041
 30
0.0
  0
VERTEX
  5
A23
  8
DATA
  6
CONTINUOUS
 62
     7
 10
221.19546164813801
 20
17.54897052961087
 30
0.0
  0
VERTEX
  5
A24
  8
DATA
  6
CONTINUOUS
 62
     7
 10
221.1820102115712
 20
17.65047955669068
 30
0.0
  0
VERTEX
  5
A25
  8
DATA
  6
CONTINUOUS
 62
     7
 10
221.1691311765604
 20
17.752212072250469
 30
0.0
  0
VERTEX
  5
A26
  8
DATA
  6
CONTINUOUS
 62
     7
 10
221.15682454310561
 20
17.854168076290229
 30
0.0
  0
VERTEX
  5
A27
  8
DATA
  6
CONTINUOUS
 62
     7
 10
221.14509031120701
 20
17.956347568809981
 30
0.0
  0
VERTEX
  5
A28
  8
DATA
  6
CONTINUOUS
 62
     7
 10
221.13392848086431
 20
18.058750549809691
 30
0.0
  0
VERTEX
  5
A29
  8
DATA
  6
CONTINUOUS
 62
     7
 10
221.1233390520776
 20
18.161377019289372
 30
0.0
  0
VERTEX
  5
A2A
  8
DATA
  6
CONTINUOUS
 62
     7
 10
221.11332202484701
 20
18.264226977249049
 30
0.0
  0
VERTEX
  5
A2B
  8
DATA
  6
CONTINUOUS
 62
     7
 10
221.1038773991724
 20
18.3673004236887
 30
0.0
  0
VERTEX
  5
A2C
  8
DATA
  6
CONTINUOUS
 62
     7
 10
221.0950051750539
 20
18.47059735860833
 30
0.0
  0
VERTEX
  5
A2D
  8
DATA
  6
CONTINUOUS
 62
     7
 10
221.08670535249141
 20
18.574117782007921
 30
0.0
  0
VERTEX
  5
A2E
  8
DATA
  6
CONTINUOUS
 62
     7
 10
221.0789779314849
 20
18.677861693887522
 30
0.0
  0
VERTEX
  5
A2F
  8
DATA
  6
CONTINUOUS
 62
     7
 10
221.07182291203449
 20
18.78182909424708
 30
0.0
  0
VERTEX
  5
A30
  8
DATA
  6
CONTINUOUS
 62
     7
 10
221.0652402941401
 20
18.886019983086619
 30
0.0
  0
VERTEX
  5
A31
  8
DATA
  6
CONTINUOUS
 62
     7
 10
221.05923007780169
 20
18.990434360406141
 30
0.0
  0
VERTEX
  5
A32
  8
DATA
  6
CONTINUOUS
 62
     7
 10
221.0537922630194
 20
19.09507222620563
 30
0.0
  0
VERTEX
  5
A33
  8
DATA
  6
CONTINUOUS
 62
     7
 10
221.04892684979311
 20
19.199933580485091
 30
0.0
  0
VERTEX
  5
A34
  8
DATA
  6
CONTINUOUS
 62
     7
 10
221.04463383812279
 20
19.30501842324453
 30
0.0
  0
VERTEX
  5
A35
  8
DATA
  6
CONTINUOUS
 62
     7
 10
221.04091322800861
 20
19.41032675448395
 30
0.0
  0
VERTEX
  5
A36
  8
DATA
  6
CONTINUOUS
 62
     7
 10
221.03776501945049
 20
19.515858574203349
 30
0.0
  0
VERTEX
  5
A37
  8
DATA
  6
CONTINUOUS
 62
     7
 10
221.03518921244819
 20
19.62161388240273
 30
0.0
  0
VERTEX
  5
A38
  8
DATA
  6
CONTINUOUS
 62
     7
 10
221.03318580700221
 20
19.727592679082079
 30
0.0
  0
VERTEX
  5
A39
  8
DATA
  6
CONTINUOUS
 62
     7
 10
221.03175480311199
 20
19.833794964241399
 30
0.0
  0
VERTEX
  5
A3A
  8
DATA
  6
CONTINUOUS
 62
     7
 10
221.03089620077799
 20
19.940220737880718
 30
0.0
  0
VERTEX
  5
A3B
  8
DATA
  6
CONTINUOUS
 62
     7
 10
221.03061
 20
20.046870000000009
 30
0.0
  0
VERTEX
  5
A3C
  8
DATA
  6
CONTINUOUS
 62
     7
 10
221.03089620077799
 20
20.15351926211931
 30
0.0
  0
VERTEX
  5
A3D
  8
DATA
  6
CONTINUOUS
 62
     7
 10
221.03175480311199
 20
20.259945035758609
 30
0.0
  0
VERTEX
  5
A3E
  8
DATA
  6
CONTINUOUS
 62
     7
 10
221.03318580700221
 20
20.36614732091795
 30
0.0
  0
VERTEX
  5
A3F
  8
DATA
  6
CONTINUOUS
 62
     7
 10
221.03518921244819
 20
20.472126117597298
 30
0.0
  0
VERTEX
  5
A40
  8
DATA
  6
CONTINUOUS
 62
     7
 10
221.03776501945049
 20
20.577881425796679
 30
0.0
  0
VERTEX
  5
A41
  8
DATA
  6
CONTINUOUS
 62
     7
 10
221.04091322800861
 20
20.683413245516078
 30
0.0
  0
VERTEX
  5
A42
  8
DATA
  6
CONTINUOUS
 62
     7
 10
221.04463383812279
 20
20.788721576755488
 30
0.0
  0
VERTEX
  5
A43
  8
DATA
  6
CONTINUOUS
 62
     7
 10
221.04892684979311
 20
20.893806419514931
 30
0.0
  0
VERTEX
  5
A44
  8
DATA
  6
CONTINUOUS
 62
     7
 10
221.0537922630194
 20
20.998667773794391
 30
0.0
  0
VERTEX
  5
A45
  8
DATA
  6
CONTINUOUS
 62
     7
 10
221.05923007780169
 20
21.103305639593891
 30
0.0
  0
VERTEX
  5
A46
  8
DATA
  6
CONTINUOUS
 62
     7
 10
221.0652402941401
 20
21.207720016913399
 30
0.0
  0
VERTEX
  5
A47
  8
DATA
  6
CONTINUOUS
 62
     7
 10
221.07182291203449
 20
21.311910905752931
 30
0.0
  0
VERTEX
  5
A48
  8
DATA
  6
CONTINUOUS
 62
     7
 10
221.0789779314849
 20
21.4158783061125
 30
0.0
  0
VERTEX
  5
A49
  8
DATA
  6
CONTINUOUS
 62
     7
 10
221.08670535249141
 20
21.519622217992101
 30
0.0
  0
VERTEX
  5
A4A
  8
DATA
  6
CONTINUOUS
 62
     7
 10
221.0950051750539
 20
21.623142641391691
 30
0.0
  0
VERTEX
  5
A4B
  8
DATA
  6
CONTINUOUS
 62
     7
 10
221.1038773991724
 20
21.726439576311321
 30
0.0
  0
VERTEX
  5
A4C
  8
DATA
  6
CONTINUOUS
 62
     7
 10
221.11332202484701
 20
21.829513022750969
 30
0.0
  0
VERTEX
  5
A4D
  8
DATA
  6
CONTINUOUS
 62
     7
 10
221.1233390520776
 20
21.93236298071065
 30
0.0
  0
VERTEX
  5
A4E
  8
DATA
  6
CONTINUOUS
 62
     7
 10
221.13392848086431
 20
22.034989450190331
 30
0.0
  0
VERTEX
  5
A4F
  8
DATA
  6
CONTINUOUS
 62
     7
 10
221.14509031120701
 20
22.137392431190051
 30
0.0
  0
VERTEX
  5
A50
  8
DATA
  6
CONTINUOUS
 62
     7
 10
221.15682454310561
 20
22.239571923709789
 30
0.0
  0
VERTEX
  5
A51
  8
DATA
  6
CONTINUOUS
 62
     7
 10
221.1691311765604
 20
22.341527927749549
 30
0.0
  0
VERTEX
  5
A52
  8
DATA
  6
CONTINUOUS
 62
     7
 10
221.1820102115712
 20
22.443260443309342
 30
0.0
  0
VERTEX
  5
A53
  8
DATA
  6
CONTINUOUS
 62
     7
 10
221.19546164813801
 20
22.544769470389159
 30
0.0
  0
VERTEX
  5
A54
  8
DATA
  6
CONTINUOUS
 62
     7
 10
221.20948548626089
 20
22.646055008988981
 30
0.0
  0
VERTEX
  5
A55
  8
DATA
  6
CONTINUOUS
 62
     7
 10
221.2240817259397
 20
22.747117059108831
 30
0.0
  0
VERTEX
  5
A56
  8
DATA
  6
CONTINUOUS
 62
     7
 10
221.23925036717461
 20
22.847955620748699
 30
0.0
  0
VERTEX
  5
A57
  8
DATA
  6
CONTINUOUS
 62
     7
 10
221.25499140996561
 20
22.948570693908611
 30
0.0
  0
VERTEX
  5
A58
  8
DATA
  6
CONTINUOUS
 62
     7
 10
221.27130485431249
 20
23.048962278588519
 30
0.0
  0
VERTEX
  5
A59
  8
DATA
  6
CONTINUOUS
 62
     7
 10
221.28819070021561
 20
23.149130374788449
 30
0.0
  0
VERTEX
  5
A5A
  8
DATA
  6
CONTINUOUS
 62
     7
 10
221.30564894767471
 20
23.249074982508429
 30
0.0
  0
VERTEX
  5
A5B
  8
DATA
  6
CONTINUOUS
 62
     7
 10
221.3236795966898
 20
23.34879610174843
 30
0.0
  0
VERTEX
  5
A5C
  8
DATA
  6
CONTINUOUS
 62
     7
 10
221.3422826472609
 20
23.448293732508429
 30
0.0
  0
VERTEX
  5
A5D
  8
DATA
  6
CONTINUOUS
 62
     7
 10
221.3614580993881
 20
23.547567874788449
 30
0.0
  0
VERTEX
  5
A5E
  8
DATA
  6
CONTINUOUS
 62
     7
 10
221.38120595307129
 20
23.646618528588519
 30
0.0
  0
VERTEX
  5
A5F
  8
DATA
  6
CONTINUOUS
 62
     7
 10
221.40152620831049
 20
23.745445693908611
 30
0.0
  0
VERTEX
  5
A60
  8
DATA
  6
CONTINUOUS
 62
     7
 10
221.42241886510581
 20
23.844049370748699
 30
0.0
  0
VERTEX
  5
A61
  8
DATA
  6
CONTINUOUS
 62
     7
 10
221.44388392345709
 20
23.942429559108831
 30
0.0
  0
VERTEX
  5
A62
  8
DATA
  6
CONTINUOUS
 62
     7
 10
221.46592138336439
 20
24.040586258988981
 30
0.0
  0
VERTEX
  5
A63
  8
DATA
  6
CONTINUOUS
 62
     7
 10
221.4885312448277
 20
24.138519470389159
 30
0.0
  0
VERTEX
  5
A64
  8
DATA
  6
CONTINUOUS
 62
     7
 10
221.51171350784719
 20
24.236229193309349
 30
0.0
  0
VERTEX
  5
A65
  8
DATA
  6
CONTINUOUS
 62
     7
 10
221.53546817242261
 20
24.333715427749549
 30
0.0
  0
VERTEX
  5
A66
  8
DATA
  6
CONTINUOUS
 62
     7
 10
221.5597952385541
 20
24.430978173709789
 30
0.0
  0
VERTEX
  5
A67
  8
DATA
  6
CONTINUOUS
 62
     7
 10
221.58469470624161
 20
24.528017431190051
 30
0.0
  0
VERTEX
  5
A68
  8
DATA
  6
CONTINUOUS
 62
     7
 10
221.61016657548521
 20
24.624833200190341
 30
0.0
  0
VERTEX
  5
A69
  8
DATA
  6
CONTINUOUS
 62
     7
 10
221.63621084628471
 20
24.72142548071065
 30
0.0
  0
VERTEX
  5
A6A
  8
DATA
  6
CONTINUOUS
 62
     7
 10
221.6628275186404
 20
24.817794272750969
 30
0.0
  0
VERTEX
  5
A6B
  8
DATA
  6
CONTINUOUS
 62
     7
 10
221.69001659255201
 20
24.913939576311321
 30
0.0
  0
VERTEX
  5
A6C
  8
DATA
  6
CONTINUOUS
 62
     7
 10
221.7177780680197
 20
25.009861391391691
 30
0.0
  0
VERTEX
  5
A6D
  8
DATA
  6
CONTINUOUS
 62
     7
 10
221.7461119450434
 20
25.10555971799209
 30
0.0
  0
VERTEX
  5
A6E
  8
DATA
  6
CONTINUOUS
 62
     7
 10
221.77501822362311
 20
25.201034556112511
 30
0.0
  0
VERTEX
  5
A6F
  8
DATA
  6
CONTINUOUS
 62
     7
 10
221.80449690375889
 20
25.296285905752939
 30
0.0
  0
VERTEX
  5
A70
  8
DATA
  6
CONTINUOUS
 62
     7
 10
221.8345479854508
 20
25.391313766913399
 30
0.0
  0
VERTEX
  5
A71
  8
DATA
  6
CONTINUOUS
 62
     7
 10
221.86517146869861
 20
25.486118139593891
 30
0.0
  0
VERTEX
  5
A72
  8
DATA
  6
CONTINUOUS
 62
     7
 10
221.89636735350251
 20
25.580699023794399
 30
0.0
  0
VERTEX
  5
A73
  8
DATA
  6
CONTINUOUS
 62
     7
 10
221.9281356398624
 20
25.675056419514931
 30
0.0
  0
VERTEX
  5
A74
  8
DATA
  6
CONTINUOUS
 62
     7
 10
221.96047632777839
 20
25.769190326755499
 30
0.0
  0
VERTEX
  5
A75
  8
DATA
  6
CONTINUOUS
 62
     7
 10
221.9933894172504
 20
25.863100745516078
 30
0.0
  0
VERTEX
  5
A76
  8
DATA
  6
CONTINUOUS
 62
     7
 10
222.02687490827839
 20
25.956787675796679
 30
0.0
  0
VERTEX
  5
A77
  8
DATA
  6
CONTINUOUS
 62
     7
 10
222.0609328008625
 20
26.050251117597298
 30
0.0
  0
VERTEX
  5
A78
  8
DATA
  6
CONTINUOUS
 62
     7
 10
222.0955630950026
 20
26.14349107091795
 30
0.0
  0
VERTEX
  5
A79
  8
DATA
  6
CONTINUOUS
 62
     7
 10
222.13076579069869
 20
26.236507535758619
 30
0.0
  0
VERTEX
  5
A7A
  8
DATA
  6
CONTINUOUS
 62
     7
 10
222.1665408879509
 20
26.32930051211931
 30
0.0
  0
VERTEX
  5
A7B
  8
DATA
  6
CONTINUOUS
 62
     7
 10
222.2028883867591
 20
26.421870000000009
 30
0.0
  0
VERTEX
  5
A7C
  8
DATA
  6
CONTINUOUS
 62
     7
 10
222.2397315998561
 20
26.514022452699638
 30
0.0
  0
VERTEX
  5
A7D
  8
DATA
  6
CONTINUOUS
 62
     7
 10
222.2769938399743
 20
26.605564323517061
 30
0.0
  0
VERTEX
  5
A7E
  8
DATA
  6
CONTINUOUS
 62
     7
 10
222.31467510711391
 20
26.696495612452271
 30
0.0
  0
VERTEX
  5
A7F
  8
DATA
  6
CONTINUOUS
 62
     7
 10
222.35277540127481
 20
26.786816319505281
 30
0.0
  0
VERTEX
  5
A80
  8
DATA
  6
CONTINUOUS
 62
     7
 10
222.3912947224571
 20
26.876526444676081
 30
0.0
  0
VERTEX
  5
A81
  8
DATA
  6
CONTINUOUS
 62
     7
 10
222.43023307066071
 20
26.965625987964678
 30
0.0
  0
VERTEX
  5
A82
  8
DATA
  6
CONTINUOUS
 62
     7
 10
222.4695904458857
 20
27.054114949371069
 30
0.0
  0
VERTEX
  5
A83
  8
DATA
  6
CONTINUOUS
 62
     7
 10
222.50936684813209
 20
27.141993328895271
 30
0.0
  0
VERTEX
  5
A84
  8
DATA
  6
CONTINUOUS
 62
     7
 10
222.54956227739979
 20
27.229261126537271
 30
0.0
  0
VERTEX
  5
A85
  8
DATA
  6
CONTINUOUS
 62
     7
 10
222.59017673368879
 20
27.315918342297039
 30
0.0
  0
VERTEX
  5
A86
  8
DATA
  6
CONTINUOUS
 62
     7
 10
222.63121021699919
 20
27.401964976174611
 30
0.0
  0
VERTEX
  5
A87
  8
DATA
  6
CONTINUOUS
 62
     7
 10
222.6726627273309
 20
27.487401028169991
 30
0.0
  0
VERTEX
  5
A88
  8
DATA
  6
CONTINUOUS
 62
     7
 10
222.714534264684
 20
27.572226498283161
 30
0.0
  0
VERTEX
  5
A89
  8
DATA
  6
CONTINUOUS
 62
     7
 10
222.75682482905839
 20
27.656441386514121
 30
0.0
  0
VERTEX
  5
A8A
  8
DATA
  6
CONTINUOUS
 62
     7
 10
222.79953442045431
 20
27.740045692862878
 30
0.0
  0
VERTEX
  5
A8B
  8
DATA
  6
CONTINUOUS
 62
     7
 10
222.84266303887139
 20
27.82303941732944
 30
0.0
  0
VERTEX
  5
A8C
  8
DATA
  6
CONTINUOUS
 62
     7
 10
222.8862106843099
 20
27.905422559913799
 30
0.0
  0
VERTEX
  5
A8D
  8
DATA
  6
CONTINUOUS
 62
     7
 10
222.93017735676969
 20
27.987195120615951
 30
0.0
  0
VERTEX
  5
A8E
  8
DATA
  6
CONTINUOUS
 62
     7
 10
222.97456305625079
 20
28.0683570994359
 30
0.0
  0
VERTEX
  5
A8F
  8
DATA
  6
CONTINUOUS
 62
     7
 10
223.01936778275331
 20
28.148908496373629
 30
0.0
  0
VERTEX
  5
A90
  8
DATA
  6
CONTINUOUS
 62
     7
 10
223.06459153627719
 20
28.228849311429141
 30
0.0
  0
VERTEX
  5
A91
  8
DATA
  6
CONTINUOUS
 62
     7
 10
223.1102343168225
 20
28.308179544602471
 30
0.0
  0
VERTEX
  5
A92
  8
DATA
  6
CONTINUOUS
 62
     7
 10
223.156296124389
 20
28.386899195893591
 30
0.0
  0
VERTEX
  5
A93
  8
DATA
  6
CONTINUOUS
 62
     7
 10
223.2027769589769
 20
28.465008265302519
 30
0.0
  0
VERTEX
  5
A94
  8
DATA
  6
CONTINUOUS
 62
     7
 10
223.24967682058619
 20
28.54250675282924
 30
0.0
  0
VERTEX
  5
A95
  8
DATA
  6
CONTINUOUS
 62
     7
 10
223.29699570921679
 20
28.619394658473741
 30
0.0
  0
VERTEX
  5
A96
  8
DATA
  6
CONTINUOUS
 62
     7
 10
223.34473362486881
 20
28.695671982236039
 30
0.0
  0
VERTEX
  5
A97
  8
DATA
  6
CONTINUOUS
 62
     7
 10
223.39289056754211
 20
28.771338724116148
 30
0.0
  0
VERTEX
  5
A98
  8
DATA
  6
CONTINUOUS
 62
     7
 10
223.44146653723681
 20
28.846394884114041
 30
0.0
  0
VERTEX
  5
A99
  8
DATA
  6
CONTINUOUS
 62
     7
 10
223.49046153395281
 20
28.92084046222973
 30
0.0
  0
VERTEX
  5
A9A
  8
DATA
  6
CONTINUOUS
 62
     7
 10
223.5398755576901
 20
28.994675458463242
 30
0.0
  0
VERTEX
  5
A9B
  8
DATA
  6
CONTINUOUS
 62
     7
 10
223.5897086084488
 20
29.067899872814511
 30
0.0
  0
VERTEX
  5
A9C
  8
DATA
  6
CONTINUOUS
 62
     7
 10
223.63996068622899
 20
29.140513705283581
 30
0.0
  0
VERTEX
  5
A9D
  8
DATA
  6
CONTINUOUS
 62
     7
 10
223.6906317910304
 20
29.212516955870448
 30
0.0
  0
VERTEX
  5
A9E
  8
DATA
  6
CONTINUOUS
 62
     7
 10
223.74172192285309
 20
29.283909624575131
 30
0.0
  0
VERTEX
  5
A9F
  8
DATA
  6
CONTINUOUS
 62
     7
 10
223.7932310816972
 20
29.354691711397589
 30
0.0
  0
VERTEX
  5
AA0
  8
DATA
  6
CONTINUOUS
 62
     7
 10
223.84515926756271
 20
29.424863216337851
 30
0.0
  0
VERTEX
  5
AA1
  8
DATA
  6
CONTINUOUS
 62
     7
 10
223.89750648044949
 20
29.49442413939591
 30
0.0
  0
VERTEX
  5
AA2
  8
DATA
  6
CONTINUOUS
 62
     7
 10
223.95027272035759
 20
29.563374480571749
 30
0.0
  0
VERTEX
  5
AA3
  8
DATA
  6
CONTINUOUS
 62
     7
 10
224.00345798728719
 20
29.63171423986541
 30
0.0
  0
VERTEX
  5
AA4
  8
DATA
  6
CONTINUOUS
 62
     7
 10
224.05706228123799
 20
29.69944341727685
 30
0.0
  0
VERTEX
  5
AA5
  8
DATA
  6
CONTINUOUS
 62
     7
 10
224.11108560221021
 20
29.766562012806091
 30
0.0
  0
VERTEX
  5
AA6
  8
DATA
  6
CONTINUOUS
 62
     7
 10
224.1655279502038
 20
29.833070026453129
 30
0.0
  0
VERTEX
  5
AA7
  8
DATA
  6
CONTINUOUS
 62
     7
 10
224.2203893252186
 20
29.89896745821795
 30
0.0
  0
VERTEX
  5
AA8
  8
DATA
  6
CONTINUOUS
 62
     7
 10
224.27566972725489
 20
29.964254308100578
 30
0.0
  0
VERTEX
  5
AA9
  8
DATA
  6
CONTINUOUS
 62
     7
 10
224.33136915631249
 20
30.028930576101001
 30
0.0
  0
VERTEX
  5
AAA
  8
DATA
  6
CONTINUOUS
 62
     7
 10
224.3874876123914
 20
30.092996262219209
 30
0.0
  0
VERTEX
  5
AAB
  8
DATA
  6
CONTINUOUS
 62
     7
 10
224.44402509549181
 20
30.156451366455229
 30
0.0
  0
VERTEX
  5
AAC
  8
DATA
  6
CONTINUOUS
 62
     7
 10
224.5009816056135
 20
30.219295888809029
 30
0.0
  0
VERTEX
  5
AAD
  8
DATA
  6
CONTINUOUS
 62
     7
 10
224.55835714275639
 20
30.28152982928065
 30
0.0
  0
VERTEX
  5
AAE
  8
DATA
  6
CONTINUOUS
 62
     7
 10
224.61615170692079
 20
30.34315318787003
 30
0.0
  0
VERTEX
  5
AAF
  8
DATA
  6
CONTINUOUS
 62
     7
 10
224.67436529810649
 20
30.404165964577231
 30
0.0
  0
VERTEX
  5
AB0
  8
DATA
  6
CONTINUOUS
 62
     7
 10
224.73299791631351
 20
30.464568159402209
 30
0.0
  0
VERTEX
  5
AB1
  8
DATA
  6
CONTINUOUS
 62
     7
 10
224.79204956154189
 20
30.524359772345019
 30
0.0
  0
VERTEX
  5
AB2
  8
DATA
  6
CONTINUOUS
 62
     7
 10
224.8515202337916
 20
30.58354080340559
 30
0.0
  0
VERTEX
  5
AB3
  8
DATA
  6
CONTINUOUS
 62
     7
 10
224.91140993306271
 20
30.642111252583959
 30
0.0
  0
VERTEX
  5
AB4
  8
DATA
  6
CONTINUOUS
 62
     7
 10
224.97171865935519
 20
30.700071119880128
 30
0.0
  0
VERTEX
  5
AB5
  8
DATA
  6
CONTINUOUS
 62
     7
 10
225.03244641266889
 20
30.757420405294098
 30
0.0
  0
VERTEX
  5
AB6
  8
DATA
  6
CONTINUOUS
 62
     7
 10
225.09359319300401
 20
30.814159108825869
 30
0.0
  0
VERTEX
  5
AB7
  8
DATA
  6
CONTINUOUS
 62
     7
 10
225.1551590003605
 20
30.87028723047543
 30
0.0
  0
VERTEX
  5
AB8
  8
DATA
  6
CONTINUOUS
 62
     7
 10
225.21714383473841
 20
30.925804770242792
 30
0.0
  0
VERTEX
  5
AB9
  8
DATA
  6
CONTINUOUS
 62
     7
 10
225.2795476961376
 20
30.980711728127929
 30
0.0
  0
VERTEX
  5
ABA
  8
DATA
  6
CONTINUOUS
 62
     7
 10
225.3423705845581
 20
31.035008104130871
 30
0.0
  0
VERTEX
  5
ABB
  8
DATA
  6
CONTINUOUS
 62
     7
 10
225.40561249999999
 20
31.088693898251609
 30
0.0
  0
VERTEX
  5
ABC
  8
DATA
  6
CONTINUOUS
 62
     7
 10
225.40561249999999
 20
31.088693898251609
 30
0.0
  0
SEQEND
  5
ABD
  8
DATA
  6
CONTINUOUS
 62
     7
  0
TEXT
  5
425
  8
DATA
 62
     7
 10
232.45060140000001
 20
11.296870000000011
 30
0.0
 40
5.386711054687499
  1
SHURE
 50
90.0
 41
0.7
 11
227.0638903453125
 21
11.296870000000011
 31
0.0
 73
     3
  0
LINE
  5
426
  8
DATA
  6
CONTINUOUS
 62
     7
 10
36.060009999999991
 20
38.75001000000001
 30
0.0
 11
36.060009999999991
 21
1.25
 31
0.0
  0
CIRCLE
  5
427
  8
DATA
  6
CONTINUOUS
 62
     7
 10
230.0
 20
20.000010000000021
 30
0.0
 40
18.749999999999979
  0
CIRCLE
  5
428
  8
DATA
  6
CONTINUOUS
 62
     7
 10
230.0
 20
20.000010000000021
 30
0.0
 40
19.499999999999979
  0
CIRCLE
  5
429
  8
DATA
  6
CONTINUOUS
 62
     7
 10
230.0
 20
20.000010000000021
 30
0.0
 40
25.0
  0
CIRCLE
  5
42A
  8
DATA
  6
CONTINUOUS
 62
     7
 10
230.0
 20
20.000010000000021
 30
0.0
 40
15.99999999999998
  0
ARC
  5
42B
  8
DATA
  6
CONTINUOUS
 62
     7
 10
230.0
 20
20.000010000000021
 30
0.0
 40
16.750001406149192
 50
221.8966165261273
 51
318.02204490606653
  0
ARC
  5
42C
  8
DATA
  6
CONTINUOUS
 62
     7
 10
230.0
 20
20.000010000000021
 30
0.0
 40
16.74999930986565
 50
42.410633902143289
 51
137.50699778358711
  0
LINE
  5
42D
  8
DATA
  6
CONTINUOUS
 62
     7
 10
217.64922000000001
 20
31.314630000000012
 30
0.0
 11
219.64922000000001
 21
31.314630000000012
 31
0.0
  0
LINE
  5
42E
  8
DATA
  6
CONTINUOUS
 62
     7
 10
242.36703
 20
31.296870000000009
 30
0.0
 11
240.36703
 21
31.296870000000009
 31
0.0
  0
LINE
  5
42F
  8
DATA
  6
CONTINUOUS
 62
     7
 10
217.53211999999999
 20
8.8145500000000254
 30
0.0
 11
219.53211999999999
 21
8.8145500000000254
 31
0.0
  0
LINE
  5
430
  8
DATA
  6
CONTINUOUS
 62
     7
 10
242.45199
 20
8.7968700000000126
 30
0.0
 11
240.45199
 21
8.7968700000000126
 31
0.0
  0
LINE
  5
431
  8
DATA
  6
CONTINUOUS
 62
     7
 10
190.99999
 20
5.2000100000000202
 30
0.0
 11
190.99999
 21
34.800010000000007
 31
0.0
  0
LINE
  5
432
  8
DATA
  6
CONTINUOUS
 62
     7
 10
126.90000000000001
 20
1.5
 30
0.0
 11
126.90000000000001
 21
38.50001000000001
 31
0.0
  0
LINE
  5
433
  8
DATA
  6
CONTINUOUS
 62
     7
 10
127.8829157177168
 20
1.5170842822831501
 30
0.0
 11
189.55303000000001
 21
3.6988100000000079
 31
0.0
  0
LINE
  5
434
  8
DATA
  6
CONTINUOUS
 62
     7
 10
127.88291564267379
 20
38.482925642673848
 30
0.0
 11
189.55303000000001
 21
36.301190000000013
 31
0.0
  0
LINE
  5
435
  8
DATA
  6
CONTINUOUS
 62
     7
 10
127.40000000000001
 20
2.0
 30
0.0
 11
127.40000000000001
 21
38.000010000000003
 31
0.0
  0
LINE
  5
436
  8
DATA
  6
CONTINUOUS
 62
     7
 10
126.90000000000001
 20
38.50001000000001
 30
0.0
 11
127.40000000000001
 21
38.000010000000003
 31
0.0
  0
LINE
  5
437
  8
DATA
  6
CONTINUOUS
 62
     7
 10
127.88291564267379
 20
38.482925642673848
 30
0.0
 11
127.40000000000001
 21
38.000010000000003
 31
0.0
  0
LINE
  5
438
  8
DATA
  6
CONTINUOUS
 62
     7
 10
126.90000000000001
 20
1.5
 30
0.0
 11
127.40000000000001
 21
2.0
 31
0.0
  0
LINE
  5
439
  8
DATA
  6
CONTINUOUS
 62
     7
 10
127.8829157177168
 20
1.5170842822831501
 30
0.0
 11
127.40000000000001
 21
2.0
 31
0.0
  0
ARC
  5
43A
  8
DATA
  6
CONTINUOUS
 62
     7
 10
189.49999
 20
34.802130000000012
 30
0.0
 40
1.5
 50
0.0
 51
87.973609668365384
  0
ARC
  5
43B
  8
DATA
  6
CONTINUOUS
 62
     7
 10
189.49999
 20
5.1978799999999969
 30
0.0
 40
1.5000080354784651
 50
272.0263903316345
 51
0.0
  0
POLYLINE
  5
43C
  8
DATA
  6
CONTINUOUS
 62
     7
 66
     1
 10
0.0
 20
0.0
 30
0.0
 70
   128
  0
VERTEX
  5
ABE
  8
DATA
  6
CONTINUOUS
 62
     7
 10
191.01570000000001
 20
8.75
 30
0.0
  0
VERTEX
  5
ABF
  8
DATA
  6
CONTINUOUS
 62
     7
 10
191.0156961645508
 20
8.75
 30
0.0
  0
VERTEX
  5
AC0
  8
DATA
  6
CONTINUOUS
 62
     7
 10
191.0156846582031
 20
8.75
 30
0.0
  0
VERTEX
  5
AC1
  8
DATA
  6
CONTINUOUS
 62
     7
 10
191.01566548095701
 20
8.75
 30
0.0
  0
VERTEX
  5
AC2
  8
DATA
  6
CONTINUOUS
 62
     7
 10
191.0156386328124
 20
8.75
 30
0.0
  0
VERTEX
  5
AC3
  8
DATA
  6
CONTINUOUS
 62
     7
 10
191.0156041137694
 20
8.75
 30
0.0
  0
VERTEX
  5
AC4
  8
DATA
  6
CONTINUOUS
 62
     7
 10
191.01556192382799
 20
8.75
 30
0.0
  0
VERTEX
  5
AC5
  8
DATA
  6
CONTINUOUS
 62
     7
 10
191.01551206298819
 20
8.75
 30
0.0
  0
VERTEX
  5
AC6
  8
DATA
  6
CONTINUOUS
 62
     7
 10
191.01545453124999
 20
8.75
 30
0.0
  0
VERTEX
  5
AC7
  8
DATA
  6
CONTINUOUS
 62
     7
 10
191.0153893286132
 20
8.75
 30
0.0
  0
VERTEX
  5
AC8
  8
DATA
  6
CONTINUOUS
 62
     7
 10
191.01531645507811
 20
8.75
 30
0.0
  0
VERTEX
  5
AC9
  8
DATA
  6
CONTINUOUS
 62
     7
 10
191.01523591064441
 20
8.75
 30
0.0
  0
VERTEX
  5
ACA
  8
DATA
  6
CONTINUOUS
 62
     7
 10
191.01514769531241
 20
8.75
 30
0.0
  0
VERTEX
  5
ACB
  8
DATA
  6
CONTINUOUS
 62
     7
 10
191.015051809082
 20
8.75
 30
0.0
  0
VERTEX
  5
ACC
  8
DATA
  6
CONTINUOUS
 62
     7
 10
191.01494825195309
 20
8.75
 30
0.0
  0
VERTEX
  5
ACD
  8
DATA
  6
CONTINUOUS
 62
     7
 10
191.01483702392571
 20
8.75
 30
0.0
  0
VERTEX
  5
ACE
  8
DATA
  6
CONTINUOUS
 62
     7
 10
191.014718125
 20
8.75
 30
0.0
  0
VERTEX
  5
ACF
  8
DATA
  6
CONTINUOUS
 62
     7
 10
191.01459155517571
 20
8.75
 30
0.0
  0
VERTEX
  5
AD0
  8
DATA
  6
CONTINUOUS
 62
     7
 10
191.0144573144531
 20
8.75
 30
0.0
  0
VERTEX
  5
AD1
  8
DATA
  6
CONTINUOUS
 62
     7
 10
191.01431540283201
 20
8.75
 30
0.0
  0
VERTEX
  5
AD2
  8
DATA
  6
CONTINUOUS
 62
     7
 10
191.0141658203124
 20
8.75
 30
0.0
  0
VERTEX
  5
AD3
  8
DATA
  6
CONTINUOUS
 62
     7
 10
191.0140085668944
 20
8.75
 30
0.0
  0
VERTEX
  5
AD4
  8
DATA
  6
CONTINUOUS
 62
     7
 10
191.013843642578
 20
8.75
 30
0.0
  0
VERTEX
  5
AD5
  8
DATA
  6
CONTINUOUS
 62
     7
 10
191.01367104736329
 20
8.75
 30
0.0
  0
VERTEX
  5
AD6
  8
DATA
  6
CONTINUOUS
 62
     7
 10
191.01349078125
 20
8.75
 30
0.0
  0
VERTEX
  5
AD7
  8
DATA
  6
CONTINUOUS
 62
     7
 10
191.01330284423821
 20
8.75
 30
0.0
  0
VERTEX
  5
AD8
  8
DATA
  6
CONTINUOUS
 62
     7
 10
191.0131072363281
 20
8.75
 30
0.0
  0
VERTEX
  5
AD9
  8
DATA
  6
CONTINUOUS
 62
     7
 10
191.01290395751951
 20
8.75
 30
0.0
  0
VERTEX
  5
ADA
  8
DATA
  6
CONTINUOUS
 62
     7
 10
191.0126930078124
 20
8.75
 30
0.0
  0
VERTEX
  5
ADB
  8
DATA
  6
CONTINUOUS
 62
     7
 10
191.01247438720699
 20
8.75
 30
0.0
  0
VERTEX
  5
ADC
  8
DATA
  6
CONTINUOUS
 62
     7
 10
191.01224809570309
 20
8.75
 30
0.0
  0
VERTEX
  5
ADD
  8
DATA
  6
CONTINUOUS
 62
     7
 10
191.0120141333008
 20
8.75
 30
0.0
  0
VERTEX
  5
ADE
  8
DATA
  6
CONTINUOUS
 62
     7
 10
191.01177250000001
 20
8.75
 30
0.0
  0
VERTEX
  5
ADF
  8
DATA
  6
CONTINUOUS
 62
     7
 10
191.01152319580081
 20
8.75
 30
0.0
  0
VERTEX
  5
AE0
  8
DATA
  6
CONTINUOUS
 62
     7
 10
191.01126622070311
 20
8.75
 30
0.0
  0
VERTEX
  5
AE1
  8
DATA
  6
CONTINUOUS
 62
     7
 10
191.011001574707
 20
8.75
 30
0.0
  0
VERTEX
  5
AE2
  8
DATA
  6
CONTINUOUS
 62
     7
 10
191.0107292578125
 20
8.75
 30
0.0
  0
VERTEX
  5
AE3
  8
DATA
  6
CONTINUOUS
 62
     7
 10
191.01044927001951
 20
8.75
 30
0.0
  0
VERTEX
  5
AE4
  8
DATA
  6
CONTINUOUS
 62
     7
 10
191.01016161132799
 20
8.75
 30
0.0
  0
VERTEX
  5
AE5
  8
DATA
  6
CONTINUOUS
 62
     7
 10
191.0098662817382
 20
8.75
 30
0.0
  0
VERTEX
  5
AE6
  8
DATA
  6
CONTINUOUS
 62
     7
 10
191.00956328125
 20
8.75
 30
0.0
  0
VERTEX
  5
AE7
  8
DATA
  6
CONTINUOUS
 62
     7
 10
191.00925260986321
 20
8.75
 30
0.0
  0
VERTEX
  5
AE8
  8
DATA
  6
CONTINUOUS
 62
     7
 10
191.0089342675781
 20
8.75
 30
0.0
  0
VERTEX
  5
AE9
  8
DATA
  6
CONTINUOUS
 62
     7
 10
191.0086082543944
 20
8.75
 30
0.0
  0
VERTEX
  5
AEA
  8
DATA
  6
CONTINUOUS
 62
     7
 10
191.00827457031241
 20
8.75
 30
0.0
  0
VERTEX
  5
AEB
  8
DATA
  6
CONTINUOUS
 62
     7
 10
191.007933215332
 20
8.75
 30
0.0
  0
VERTEX
  5
AEC
  8
DATA
  6
CONTINUOUS
 62
     7
 10
191.0075841894531
 20
8.75
 30
0.0
  0
VERTEX
  5
AED
  8
DATA
  6
CONTINUOUS
 62
     7
 10
191.0072274926757
 20
8.75
 30
0.0
  0
VERTEX
  5
AEE
  8
DATA
  6
CONTINUOUS
 62
     7
 10
191.006863125
 20
8.75
 30
0.0
  0
VERTEX
  5
AEF
  8
DATA
  6
CONTINUOUS
 62
     7
 10
191.00649108642571
 20
8.75
 30
0.0
  0
VERTEX
  5
AF0
  8
DATA
  6
CONTINUOUS
 62
     7
 10
191.0061113769531
 20
8.75
 30
0.0
  0
VERTEX
  5
AF1
  8
DATA
  6
CONTINUOUS
 62
     7
 10
191.00572399658199
 20
8.75
 30
0.0
  0
VERTEX
  5
AF2
  8
DATA
  6
CONTINUOUS
 62
     7
 10
191.0053289453125
 20
8.75
 30
0.0
  0
VERTEX
  5
AF3
  8
DATA
  6
CONTINUOUS
 62
     7
 10
191.00492622314439
 20
8.75
 30
0.0
  0
VERTEX
  5
AF4
  8
DATA
  6
CONTINUOUS
 62
     7
 10
191.00451583007799
 20
8.75
 30
0.0
  0
VERTEX
  5
AF5
  8
DATA
  6
CONTINUOUS
 62
     7
 10
191.00409776611329
 20
8.75
 30
0.0
  0
VERTEX
  5
AF6
  8
DATA
  6
CONTINUOUS
 62
     7
 10
191.00367203125001
 20
8.75
 30
0.0
  0
VERTEX
  5
AF7
  8
DATA
  6
CONTINUOUS
 62
     7
 10
191.00323862548831
 20
8.75
 30
0.0
  0
VERTEX
  5
AF8
  8
DATA
  6
CONTINUOUS
 62
     7
 10
191.00279754882811
 20
8.75
 30
0.0
  0
VERTEX
  5
AF9
  8
DATA
  6
CONTINUOUS
 62
     7
 10
191.00234880126951
 20
8.75
 30
0.0
  0
VERTEX
  5
AFA
  8
DATA
  6
CONTINUOUS
 62
     7
 10
191.0018923828124
 20
8.75
 30
0.0
  0
VERTEX
  5
AFB
  8
DATA
  6
CONTINUOUS
 62
     7
 10
191.001428293457
 20
8.75
 30
0.0
  0
VERTEX
  5
AFC
  8
DATA
  6
CONTINUOUS
 62
     7
 10
191.00095653320309
 20
8.75
 30
0.0
  0
VERTEX
  5
AFD
  8
DATA
  6
CONTINUOUS
 62
     7
 10
191.0004771020507
 20
8.75
 30
0.0
  0
VERTEX
  5
AFE
  8
DATA
  6
CONTINUOUS
 62
     7
 10
190.99999
 20
8.75
 30
0.0
  0
VERTEX
  5
AFF
  8
DATA
  6
CONTINUOUS
 62
     7
 10
190.99999
 20
8.75
 30
0.0
  0
VERTEX
  5
B00
  8
DATA
  6
CONTINUOUS
 62
     7
 10
190.7490504321288
 20
8.7503679736328195
 30
0.0
  0
VERTEX
  5
B01
  8
DATA
  6
CONTINUOUS
 62
     7
 10
190.49863672851561
 20
8.7514718945312495
 30
0.0
  0
VERTEX
  5
B02
  8
DATA
  6
CONTINUOUS
 62
     7
 10
190.24874888916011
 20
8.7533117626953185
 30
0.0
  0
VERTEX
  5
B03
  8
DATA
  6
CONTINUOUS
 62
     7
 10
189.9993869140624
 20
8.7558875781249981
 30
0.0
  0
VERTEX
  5
B04
  8
DATA
  6
CONTINUOUS
 62
     7
 10
189.75055080322269
 20
8.7591993408203166
 30
0.0
  0
VERTEX
  5
B05
  8
DATA
  6
CONTINUOUS
 62
     7
 10
189.5022405566406
 20
8.7632470507812457
 30
0.0
  0
VERTEX
  5
B06
  8
DATA
  6
CONTINUOUS
 62
     7
 10
189.2544561743164
 20
8.7680307080078101
 30
0.0
  0
VERTEX
  5
B07
  8
DATA
  6
CONTINUOUS
 62
     7
 10
189.00719765625001
 20
8.7735503124999923
 30
0.0
  0
VERTEX
  5
B08
  8
DATA
  6
CONTINUOUS
 62
     7
 10
188.76046500244141
 20
8.7798058642578116
 30
0.0
  0
VERTEX
  5
B09
  8
DATA
  6
CONTINUOUS
 62
     7
 10
188.5142582128905
 20
8.7867973632812362
 30
0.0
  0
VERTEX
  5
B0A
  8
DATA
  6
CONTINUOUS
 62
     7
 10
188.26857728759751
 20
8.794524809570305
 30
0.0
  0
VERTEX
  5
B0B
  8
DATA
  6
CONTINUOUS
 62
     7
 10
188.0234222265625
 20
8.8029882031249826
 30
0.0
  0
VERTEX
  5
B0C
  8
DATA
  6
CONTINUOUS
 62
     7
 10
187.77879302978511
 20
8.8121875439452992
 30
0.0
  0
VERTEX
  5
B0D
  8
DATA
  6
CONTINUOUS
 62
     7
 10
187.53468969726561
 20
8.8221228320312264
 30
0.0
  0
VERTEX
  5
B0E
  8
DATA
  6
CONTINUOUS
 62
     7
 10
187.2911122290038
 20
8.8327940673827925
 30
0.0
  0
VERTEX
  5
B0F
  8
DATA
  6
CONTINUOUS
 62
     7
 10
187.04806062500001
 20
8.8442012499999976
 30
0.0
  0
VERTEX
  5
B10
  8
DATA
  6
CONTINUOUS
 62
     7
 10
186.80553488525391
 20
8.8563443798828416
 30
0.0
  0
VERTEX
  5
B11
  8
DATA
  6
CONTINUOUS
 62
     7
 10
186.56353500976559
 20
8.8692234570312678
 30
0.0
  0
VERTEX
  5
B12
  8
DATA
  6
CONTINUOUS
 62
     7
 10
186.32206099853511
 20
8.8828384814453312
 30
0.0
  0
VERTEX
  5
B13
  8
DATA
  6
CONTINUOUS
 62
     7
 10
186.08111285156241
 20
8.8971894531250086
 30
0.0
  0
VERTEX
  5
B14
  8
DATA
  6
CONTINUOUS
 62
     7
 10
185.84069056884761
 20
8.9122763720703233
 30
0.0
  0
VERTEX
  5
B15
  8
DATA
  6
CONTINUOUS
 62
     7
 10
185.6007941503905
 20
8.9280992382812485
 30
0.0
  0
VERTEX
  5
B16
  8
DATA
  6
CONTINUOUS
 62
     7
 10
185.3614235961914
 20
8.9446580517578091
 30
0.0
  0
VERTEX
  5
B17
  8
DATA
  6
CONTINUOUS
 62
     7
 10
185.12257890625
 20
8.9619528124999874
 30
0.0
  0
VERTEX
  5
B18
  8
DATA
  6
CONTINUOUS
 62
     7
 10
184.88426008056641
 20
8.9799835205078011
 30
0.0
  0
VERTEX
  5
B19
  8
DATA
  6
CONTINUOUS
 62
     7
 10
184.6464671191406
 20
8.9987501757812254
 30
0.0
  0
VERTEX
  5
B1A
  8
DATA
  6
CONTINUOUS
 62
     7
 10
184.40920002197259
 20
9.0182527783202886
 30
0.0
  0
VERTEX
  5
B1B
  8
DATA
  6
CONTINUOUS
 62
     7
 10
184.1724587890624
 20
9.0384913281249926
 30
0.0
  0
VERTEX
  5
B1C
  8
DATA
  6
CONTINUOUS
 62
     7
 10
183.93624342041011
 20
9.0594658251953035
 30
0.0
  0
VERTEX
  5
B1D
  8
DATA
  6
CONTINUOUS
 62
     7
 10
183.70055391601559
 20
9.0811762695312552
 30
0.0
  0
VERTEX
  5
B1E
  8
DATA
  6
CONTINUOUS
 62
     7
 10
183.4653902758788
 20
9.1036226611328157
 30
0.0
  0
VERTEX
  5
B1F
  8
DATA
  6
CONTINUOUS
 62
     7
 10
183.23075249999999
 20
9.1268049999999903
 30
0.0
  0
VERTEX
  5
B20
  8
DATA
  6
CONTINUOUS
 62
     7
 10
182.99664058837891
 20
9.1507232861328021
 30
0.0
  0
VERTEX
  5
B21
  8
DATA
  6
CONTINUOUS
 62
     7
 10
182.76305454101561
 20
9.1753775195312244
 30
0.0
  0
VERTEX
  5
B22
  8
DATA
  6
CONTINUOUS
 62
     7
 10
182.52999435791011
 20
9.2007677001952821
 30
0.0
  0
VERTEX
  5
B23
  8
DATA
  6
CONTINUOUS
 62
     7
 10
182.2974600390624
 20
9.2268938281249842
 30
0.0
  0
VERTEX
  5
B24
  8
DATA
  6
CONTINUOUS
 62
     7
 10
182.06545158447261
 20
9.2537559033202967
 30
0.0
  0
VERTEX
  5
B25
  8
DATA
  6
CONTINUOUS
 62
     7
 10
181.83396899414049
 20
9.2813539257812465
 30
0.0
  0
VERTEX
  5
B26
  8
DATA
  6
CONTINUOUS
 62
     7
 10
181.60301226806641
 20
9.3096878955078086
 30
0.0
  0
VERTEX
  5
B27
  8
DATA
  6
CONTINUOUS
 62
     7
 10
181.37258140624999
 20
9.3387578124999742
 30
0.0
  0
VERTEX
  5
B28
  8
DATA
  6
CONTINUOUS
 62
     7
 10
181.1426764086913
 20
9.3685636767577893
 30
0.0
  0
VERTEX
  5
B29
  8
DATA
  6
CONTINUOUS
 62
     7
 10
180.91329727539059
 20
9.3991054882812346
 30
0.0
  0
VERTEX
  5
B2A
  8
DATA
  6
CONTINUOUS
 62
     7
 10
180.6844440063476
 20
9.4303832470703224
 30
0.0
  0
VERTEX
  5
B2B
  8
DATA
  6
CONTINUOUS
 62
     7
 10
180.4561166015624
 20
9.4623969531249941
 30
0.0
  0
VERTEX
  5
B2C
  8
DATA
  6
CONTINUOUS
 62
     7
 10
180.22831506103509
 20
9.4951466064453047
 30
0.0
  0
VERTEX
  5
B2D
  8
DATA
  6
CONTINUOUS
 62
     7
 10
180.00103938476559
 20
9.5286322070312508
 30
0.0
  0
VERTEX
  5
B2E
  8
DATA
  6
CONTINUOUS
 62
     7
 10
179.7742895727539
 20
9.5628537548828358
 30
0.0
  0
VERTEX
  5
B2F
  8
DATA
  6
CONTINUOUS
 62
     7
 10
179.54806562499999
 20
9.5978112500000066
 30
0.0
  0
VERTEX
  5
B30
  8
DATA
  6
CONTINUOUS
 62
     7
 10
179.32236754150381
 20
9.6335046923828145
 30
0.0
  0
VERTEX
  5
B31
  8
DATA
  6
CONTINUOUS
 62
     7
 10
179.09719532226561
 20
9.6699340820312614
 30
0.0
  0
VERTEX
  5
B32
  8
DATA
  6
CONTINUOUS
 62
     7
 10
178.8725489672851
 20
9.7070994189453472
 30
0.0
  0
VERTEX
  5
B33
  8
DATA
  6
CONTINUOUS
 62
     7
 10
178.6484284765624
 20
9.7450007031250152
 30
0.0
  0
VERTEX
  5
B34
  8
DATA
  6
CONTINUOUS
 62
     7
 10
178.4248338500976
 20
9.7836379345703222
 30
0.0
  0
VERTEX
  5
B35
  8
DATA
  6
CONTINUOUS
 62
     7
 10
178.20176508789061
 20
9.8230111132812681
 30
0.0
  0
VERTEX
  5
B36
  8
DATA
  6
CONTINUOUS
 62
     7
 10
177.97922218994131
 20
9.8631202392578512
 30
0.0
  0
VERTEX
  5
B37
  8
DATA
  6
CONTINUOUS
 62
     7
 10
177.75720515625
 20
9.9039653125000182
 30
0.0
  0
VERTEX
  5
B38
  8
DATA
  6
CONTINUOUS
 62
     7
 10
177.5357139868164
 20
9.9455463330078242
 30
0.0
  0
VERTEX
  5
B39
  8
DATA
  6
CONTINUOUS
 62
     7
 10
177.31474868164059
 20
9.9878633007812727
 30
0.0
  0
VERTEX
  5
B3A
  8
DATA
  6
CONTINUOUS
 62
     7
 10
177.09430924072259
 20
10.03091621582035
 30
0.0
  0
VERTEX
  5
B3B
  8
DATA
  6
CONTINUOUS
 62
     7
 10
176.8743956640624
 20
10.074705078125019
 30
0.0
  0
VERTEX
  5
B3C
  8
DATA
  6
CONTINUOUS
 62
     7
 10
176.65500795166011
 20
10.119229887695321
 30
0.0
  0
VERTEX
  5
B3D
  8
DATA
  6
CONTINUOUS
 62
     7
 10
176.4361461035156
 20
10.16449064453127
 30
0.0
  0
VERTEX
  5
B3E
  8
DATA
  6
CONTINUOUS
 62
     7
 10
176.21781011962881
 20
10.210487348632849
 30
0.0
  0
VERTEX
  5
B3F
  8
DATA
  6
CONTINUOUS
 62
     7
 10
176.0
 20
10.25722000000002
 30
0.0
  0
VERTEX
  5
B40
  8
DATA
  6
CONTINUOUS
 62
     7
 10
176.0
 20
10.25722000000002
 30
0.0
  0
VERTEX
  5
B41
  8
DATA
  6
CONTINUOUS
 62
     7
 10
175.78317052246089
 20
10.30458968994142
 30
0.0
  0
VERTEX
  5
B42
  8
DATA
  6
CONTINUOUS
 62
     7
 10
175.56777771484369
 20
10.35249813476562
 30
0.0
  0
VERTEX
  5
B43
  8
DATA
  6
CONTINUOUS
 62
     7
 10
175.35382157714841
 20
10.400945334472651
 30
0.0
  0
VERTEX
  5
B44
  8
DATA
  6
CONTINUOUS
 62
     7
 10
175.14130210937489
 20
10.4499312890625
 30
0.0
  0
VERTEX
  5
B45
  8
DATA
  6
CONTINUOUS
 62
     7
 10
174.93021931152339
 20
10.499455998535151
 30
0.0
  0
VERTEX
  5
B46
  8
DATA
  6
CONTINUOUS
 62
     7
 10
174.7205731835937
 20
10.54951946289065
 30
0.0
  0
VERTEX
  5
B47
  8
DATA
  6
CONTINUOUS
 62
     7
 10
174.51236372558591
 20
10.60012168212892
 30
0.0
  0
VERTEX
  5
B48
  8
DATA
  6
CONTINUOUS
 62
     7
 10
174.3055909375
 20
10.651262656250021
 30
0.0
  0
VERTEX
  5
B49
  8
DATA
  6
CONTINUOUS
 62
     7
 10
174.1002548193359
 20
10.70294238525392
 30
0.0
  0
VERTEX
  5
B4A
  8
DATA
  6
CONTINUOUS
 62
     7
 10
173.89635537109359
 20
10.75516086914064
 30
0.0
  0
VERTEX
  5
B4B
  8
DATA
  6
CONTINUOUS
 62
     7
 10
173.69389259277341
 20
10.807918107910149
 30
0.0
  0
VERTEX
  5
B4C
  8
DATA
  6
CONTINUOUS
 62
     7
 10
173.49286648437501
 20
10.86121410156249
 30
0.0
  0
VERTEX
  5
B4D
  8
DATA
  6
CONTINUOUS
 62
     7
 10
173.29327704589841
 20
10.91504885009766
 30
0.0
  0
VERTEX
  5
B4E
  8
DATA
  6
CONTINUOUS
 62
     7
 10
173.0951242773437
 20
10.96942235351562
 30
0.0
  0
VERTEX
  5
B4F
  8
DATA
  6
CONTINUOUS
 62
     7
 10
172.89840817871081
 20
11.024334611816411
 30
0.0
  0
VERTEX
  5
B50
  8
DATA
  6
CONTINUOUS
 62
     7
 10
172.70312874999991
 20
11.079785625
 30
0.0
  0
VERTEX
  5
B51
  8
DATA
  6
CONTINUOUS
 62
     7
 10
172.5092859912109
 20
11.13577539306641
 30
0.0
  0
VERTEX
  5
B52
  8
DATA
  6
CONTINUOUS
 62
     7
 10
172.31687990234369
 20
11.19230391601562
 30
0.0
  0
VERTEX
  5
B53
  8
DATA
  6
CONTINUOUS
 62
     7
 10
172.1259104833984
 20
11.249371193847651
 30
0.0
  0
VERTEX
  5
B54
  8
DATA
  6
CONTINUOUS
 62
     7
 10
171.9363777343749
 20
11.306977226562481
 30
0.0
  0
VERTEX
  5
B55
  8
DATA
  6
CONTINUOUS
 62
     7
 10
171.74828165527339
 20
11.36512201416013
 30
0.0
  0
VERTEX
  5
B56
  8
DATA
  6
CONTINUOUS
 62
     7
 10
171.56162224609369
 20
11.423805556640611
 30
0.0
  0
VERTEX
  5
B57
  8
DATA
  6
CONTINUOUS
 62
     7
 10
171.3763995068359
 20
11.48302785400389
 30
0.0
  0
VERTEX
  5
B58
  8
DATA
  6
CONTINUOUS
 62
     7
 10
171.1926134375
 20
11.54278890624999
 30
0.0
  0
VERTEX
  5
B59
  8
DATA
  6
CONTINUOUS
 62
     7
 10
171.01026403808589
 20
11.60308871337889
 30
0.0
  0
VERTEX
  5
B5A
  8
DATA
  6
CONTINUOUS
 62
     7
 10
170.82935130859369
 20
11.66392727539062
 30
0.0
  0
VERTEX
  5
B5B
  8
DATA
  6
CONTINUOUS
 62
     7
 10
170.64987524902341
 20
11.72530459228514
 30
0.0
  0
VERTEX
  5
B5C
  8
DATA
  6
CONTINUOUS
 62
     7
 10
170.47183585937501
 20
11.787220664062479
 30
0.0
  0
VERTEX
  5
B5D
  8
DATA
  6
CONTINUOUS
 62
     7
 10
170.29523313964839
 20
11.84967549072266
 30
0.0
  0
VERTEX
  5
B5E
  8
DATA
  6
CONTINUOUS
 62
     7
 10
170.1200670898437
 20
11.91266907226562
 30
0.0
  0
VERTEX
  5
B5F
  8
DATA
  6
CONTINUOUS
 62
     7
 10
169.94633770996089
 20
11.97620140869139
 30
0.0
  0
VERTEX
  5
B60
  8
DATA
  6
CONTINUOUS
 62
     7
 10
169.774045
 20
12.040272500000009
 30
0.0
  0
VERTEX
  5
B61
  8
DATA
  6
CONTINUOUS
 62
     7
 10
169.6031889599609
 20
12.104882346191429
 30
0.0
  0
VERTEX
  5
B62
  8
DATA
  6
CONTINUOUS
 62
     7
 10
169.43376958984371
 20
12.170030947265641
 30
0.0
  0
VERTEX
  5
B63
  8
DATA
  6
CONTINUOUS
 62
     7
 10
169.26578688964841
 20
12.235718303222679
 30
0.0
  0
VERTEX
  5
B64
  8
DATA
  6
CONTINUOUS
 62
     7
 10
169.09924085937499
 20
12.30194441406252
 30
0.0
  0
VERTEX
  5
B65
  8
DATA
  6
CONTINUOUS
 62
     7
 10
168.93413149902341
 20
12.368709279785181
 30
0.0
  0
VERTEX
  5
B66
  8
DATA
  6
CONTINUOUS
 62
     7
 10
168.7704588085937
 20
12.436012900390629
 30
0.0
  0
VERTEX
  5
B67
  8
DATA
  6
CONTINUOUS
 62
     7
 10
168.6082227880859
 20
12.50385527587893
 30
0.0
  0
VERTEX
  5
B68
  8
DATA
  6
CONTINUOUS
 62
     7
 10
168.44742343749999
 20
12.57223640625002
 30
0.0
  0
VERTEX
  5
B69
  8
DATA
  6
CONTINUOUS
 62
     7
 10
168.2880607568359
 20
12.641156291503931
 30
0.0
  0
VERTEX
  5
B6A
  8
DATA
  6
CONTINUOUS
 62
     7
 10
168.13013474609369
 20
12.71061493164065
 30
0.0
  0
VERTEX
  5
B6B
  8
DATA
  6
CONTINUOUS
 62
     7
 10
167.9736454052734
 20
12.780612326660171
 30
0.0
  0
VERTEX
  5
B6C
  8
DATA
  6
CONTINUOUS
 62
     7
 10
167.81859273437499
 20
12.851148476562511
 30
0.0
  0
VERTEX
  5
B6D
  8
DATA
  6
CONTINUOUS
 62
     7
 10
167.66497673339839
 20
12.92222338134766
 30
0.0
  0
VERTEX
  5
B6E
  8
DATA
  6
CONTINUOUS
 62
     7
 10
167.51279740234369
 20
12.993837041015629
 30
0.0
  0
VERTEX
  5
B6F
  8
DATA
  6
CONTINUOUS
 62
     7
 10
167.3620547412109
 20
13.06598945556642
 30
0.0
  0
VERTEX
  5
B70
  8
DATA
  6
CONTINUOUS
 62
     7
 10
167.21274875
 20
13.138680625000021
 30
0.0
  0
VERTEX
  5
B71
  8
DATA
  6
CONTINUOUS
 62
     7
 10
167.0648794287109
 20
13.21191054931643
 30
0.0
  0
VERTEX
  5
B72
  8
DATA
  6
CONTINUOUS
 62
     7
 10
166.91844677734369
 20
13.285679228515651
 30
0.0
  0
VERTEX
  5
B73
  8
DATA
  6
CONTINUOUS
 62
     7
 10
166.77345079589841
 20
13.35998666259767
 30
0.0
  0
VERTEX
  5
B74
  8
DATA
  6
CONTINUOUS
 62
     7
 10
166.62989148437489
 20
13.43483285156251
 30
0.0
  0
VERTEX
  5
B75
  8
DATA
  6
CONTINUOUS
 62
     7
 10
166.48776884277339
 20
13.510217795410171
 30
0.0
  0
VERTEX
  5
B76
  8
DATA
  6
CONTINUOUS
 62
     7
 10
166.3470828710937
 20
13.58614149414063
 30
0.0
  0
VERTEX
  5
B77
  8
DATA
  6
CONTINUOUS
 62
     7
 10
166.20783356933589
 20
13.662603947753921
 30
0.0
  0
VERTEX
  5
B78
  8
DATA
  6
CONTINUOUS
 62
     7
 10
166.0700209375
 20
13.73960515625002
 30
0.0
  0
VERTEX
  5
B79
  8
DATA
  6
CONTINUOUS
 62
     7
 10
165.93364497558591
 20
13.817145119628931
 30
0.0
  0
VERTEX
  5
B7A
  8
DATA
  6
CONTINUOUS
 62
     7
 10
165.79870568359371
 20
13.895223837890651
 30
0.0
  0
VERTEX
  5
B7B
  8
DATA
  6
CONTINUOUS
 62
     7
 10
165.66520306152341
 20
13.973841311035191
 30
0.0
  0
VERTEX
  5
B7C
  8
DATA
  6
CONTINUOUS
 62
     7
 10
165.53313710937499
 20
14.052997539062529
 30
0.0
  0
VERTEX
  5
B7D
  8
DATA
  6
CONTINUOUS
 62
     7
 10
165.40250782714841
 20
14.132692521972681
 30
0.0
  0
VERTEX
  5
B7E
  8
DATA
  6
CONTINUOUS
 62
     7
 10
165.27331521484371
 20
14.21292625976565
 30
0.0
  0
VERTEX
  5
B7F
  8
DATA
  6
CONTINUOUS
 62
     7
 10
165.1455592724609
 20
14.293698752441429
 30
0.0
  0
VERTEX
  5
B80
  8
DATA
  6
CONTINUOUS
 62
     7
 10
165.01923999999991
 20
14.375010000000019
 30
0.0
  0
VERTEX
  5
B81
  8
DATA
  6
CONTINUOUS
 62
     7
 10
165.01923999999991
 20
14.375010000000019
 30
0.0
  0
VERTEX
  5
B82
  8
DATA
  6
CONTINUOUS
 62
     7
 10
164.89461969970699
 20
14.456688911132829
 30
0.0
  0
VERTEX
  5
B83
  8
DATA
  6
CONTINUOUS
 62
     7
 10
164.77196192382809
 20
14.538565019531269
 30
0.0
  0
VERTEX
  5
B84
  8
DATA
  6
CONTINUOUS
 62
     7
 10
164.65126667236319
 20
14.62063832519534
 30
0.0
  0
VERTEX
  5
B85
  8
DATA
  6
CONTINUOUS
 62
     7
 10
164.53253394531239
 20
14.702908828125009
 30
0.0
  0
VERTEX
  5
B86
  8
DATA
  6
CONTINUOUS
 62
     7
 10
164.41576374267581
 20
14.78537652832031
 30
0.0
  0
VERTEX
  5
B87
  8
DATA
  6
CONTINUOUS
 62
     7
 10
164.30095606445309
 20
14.86804142578125
 30
0.0
  0
VERTEX
  5
B88
  8
DATA
  6
CONTINUOUS
 62
     7
 10
164.1881109106445
 20
14.950903520507829
 30
0.0
  0
VERTEX
  5
B89
  8
DATA
  6
CONTINUOUS
 62
     7
 10
164.07722828124989
 20
15.03396281250002
 30
0.0
  0
VERTEX
  5
B8A
  8
DATA
  6
CONTINUOUS
 62
     7
 10
163.96830817626949
 20
15.11721930175783
 30
0.0
  0
VERTEX
  5
B8B
  8
DATA
  6
CONTINUOUS
 62
     7
 10
163.8613505957031
 20
15.20067298828126
 30
0.0
  0
VERTEX
  5
B8C
  8
DATA
  6
CONTINUOUS
 62
     7
 10
163.75635553955081
 20
15.284323872070329
 30
0.0
  0
VERTEX
  5
B8D
  8
DATA
  6
CONTINUOUS
 62
     7
 10
163.6533230078125
 20
15.368171953125019
 30
0.0
  0
VERTEX
  5
B8E
  8
DATA
  6
CONTINUOUS
 62
     7
 10
163.55225300048821
 20
15.45221723144533
 30
0.0
  0
VERTEX
  5
B8F
  8
DATA
  6
CONTINUOUS
 62
     7
 10
163.45314551757809
 20
15.53645970703127
 30
0.0
  0
VERTEX
  5
B90
  8
DATA
  6
CONTINUOUS
 62
     7
 10
163.35600055908199
 20
15.620899379882831
 30
0.0
  0
VERTEX
  5
B91
  8
DATA
  6
CONTINUOUS
 62
     7
 10
163.26081812499999
 20
15.705536250000019
 30
0.0
  0
VERTEX
  5
B92
  8
DATA
  6
CONTINUOUS
 62
     7
 10
163.16759821533199
 20
15.790370317382839
 30
0.0
  0
VERTEX
  5
B93
  8
DATA
  6
CONTINUOUS
 62
     7
 10
163.0763408300781
 20
15.875401582031261
 30
0.0
  0
VERTEX
  5
B94
  8
DATA
  6
CONTINUOUS
 62
     7
 10
162.9870459692383
 20
15.96063004394531
 30
0.0
  0
VERTEX
  5
B95
  8
DATA
  6
CONTINUOUS
 62
     7
 10
162.89971363281239
 20
16.046055703124999
 30
0.0
  0
VERTEX
  5
B96
  8
DATA
  6
CONTINUOUS
 62
     7
 10
162.81434382080079
 20
16.131678559570322
 30
0.0
  0
VERTEX
  5
B97
  8
DATA
  6
CONTINUOUS
 62
     7
 10
162.73093653320311
 20
16.217498613281251
 30
0.0
  0
VERTEX
  5
B98
  8
DATA
  6
CONTINUOUS
 62
     7
 10
162.64949177001949
 20
16.3035158642578
 30
0.0
  0
VERTEX
  5
B99
  8
DATA
  6
CONTINUOUS
 62
     7
 10
162.57000953124989
 20
16.38973031250001
 30
0.0
  0
VERTEX
  5
B9A
  8
DATA
  6
CONTINUOUS
 62
     7
 10
162.4924898168945
 20
16.476141958007808
 30
0.0
  0
VERTEX
  5
B9B
  8
DATA
  6
CONTINUOUS
 62
     7
 10
162.4169326269531
 20
16.562750800781259
 30
0.0
  0
VERTEX
  5
B9C
  8
DATA
  6
CONTINUOUS
 62
     7
 10
162.34333796142579
 20
16.649556840820321
 30
0.0
  0
VERTEX
  5
B9D
  8
DATA
  6
CONTINUOUS
 62
     7
 10
162.27170582031241
 20
16.736560078125031
 30
0.0
  0
VERTEX
  5
B9E
  8
DATA
  6
CONTINUOUS
 62
     7
 10
162.2020362036132
 20
16.82376051269533
 30
0.0
  0
VERTEX
  5
B9F
  8
DATA
  6
CONTINUOUS
 62
     7
 10
162.1343291113281
 20
16.911158144531271
 30
0.0
  0
VERTEX
  5
BA0
  8
DATA
  6
CONTINUOUS
 62
     7
 10
162.06858454345701
 20
16.998752973632829
 30
0.0
  0
VERTEX
  5
BA1
  8
DATA
  6
CONTINUOUS
 62
     7
 10
162.0048024999999
 20
17.086545000000012
 30
0.0
  0
VERTEX
  5
BA2
  8
DATA
  6
CONTINUOUS
 62
     7
 10
161.942982980957
 20
17.174534223632829
 30
0.0
  0
VERTEX
  5
BA3
  8
DATA
  6
CONTINUOUS
 62
     7
 10
161.88312598632811
 20
17.262720644531271
 30
0.0
  0
VERTEX
  5
BA4
  8
DATA
  6
CONTINUOUS
 62
     7
 10
161.82523151611321
 20
17.35110426269533
 30
0.0
  0
VERTEX
  5
BA5
  8
DATA
  6
CONTINUOUS
 62
     7
 10
161.7692995703124
 20
17.439685078125031
 30
0.0
  0
VERTEX
  5
BA6
  8
DATA
  6
CONTINUOUS
 62
     7
 10
161.71533014892569
 20
17.528463090820321
 30
0.0
  0
VERTEX
  5
BA7
  8
DATA
  6
CONTINUOUS
 62
     7
 10
161.66332325195299
 20
17.617438300781259
 30
0.0
  0
VERTEX
  5
BA8
  8
DATA
  6
CONTINUOUS
 62
     7
 10
161.6132788793945
 20
17.706610708007819
 30
0.0
  0
VERTEX
  5
BA9
  8
DATA
  6
CONTINUOUS
 62
     7
 10
161.56519703124991
 20
17.79598031250001
 30
0.0
  0
VERTEX
  5
BAA
  8
DATA
  6
CONTINUOUS
 62
     7
 10
161.5190777075195
 20
17.8855471142578
 30
0.0
  0
VERTEX
  5
BAB
  8
DATA
  6
CONTINUOUS
 62
     7
 10
161.4749209082031
 20
17.975311113281251
 30
0.0
  0
VERTEX
  5
BAC
  8
DATA
  6
CONTINUOUS
 62
     7
 10
161.43272663330069
 20
18.065272309570322
 30
0.0
  0
VERTEX
  5
BAD
  8
DATA
  6
CONTINUOUS
 62
     7
 10
161.3924948828124
 20
18.155430703124999
 30
0.0
  0
VERTEX
  5
BAE
  8
DATA
  6
CONTINUOUS
 62
     7
 10
161.35422565673829
 20
18.245786293945319
 30
0.0
  0
VERTEX
  5
BAF
  8
DATA
  6
CONTINUOUS
 62
     7
 10
161.31791895507811
 20
18.336339082031252
 30
0.0
  0
VERTEX
  5
BB0
  8
DATA
  6
CONTINUOUS
 62
     7
 10
161.283574777832
 20
18.427089067382841
 30
0.0
  0
VERTEX
  5
BB1
  8
DATA
  6
CONTINUOUS
 62
     7
 10
161.25119312499999
 20
18.518036250000019
 30
0.0
  0
VERTEX
  5
BB2
  8
DATA
  6
CONTINUOUS
 62
     7
 10
161.22077399658201
 20
18.609180629882829
 30
0.0
  0
VERTEX
  5
BB3
  8
DATA
  6
CONTINUOUS
 62
     7
 10
161.1923173925781
 20
18.70052220703127
 30
0.0
  0
VERTEX
  5
BB4
  8
DATA
  6
CONTINUOUS
 62
     7
 10
161.16582331298829
 20
18.792060981445331
 30
0.0
  0
VERTEX
  5
BB5
  8
DATA
  6
CONTINUOUS
 62
     7
 10
161.1412917578125
 20
18.883796953125021
 30
0.0
  0
VERTEX
  5
BB6
  8
DATA
  6
CONTINUOUS
 62
     7
 10
161.11872272705071
 20
18.975730122070331
 30
0.0
  0
VERTEX
  5
BB7
  8
DATA
  6
CONTINUOUS
 62
     7
 10
161.09811622070299
 20
19.067860488281259
 30
0.0
  0
VERTEX
  5
BB8
  8
DATA
  6
CONTINUOUS
 62
     7
 10
161.07947223876951
 20
19.160188051757832
 30
0.0
  0
VERTEX
  5
BB9
  8
DATA
  6
CONTINUOUS
 62
     7
 10
161.06279078124999
 20
19.252712812500022
 30
0.0
  0
VERTEX
  5
BBA
  8
DATA
  6
CONTINUOUS
 62
     7
 10
161.0480718481445
 20
19.34543477050784
 30
0.0
  0
VERTEX
  5
BBB
  8
DATA
  6
CONTINUOUS
 62
     7
 10
161.03531543945309
 20
19.43835392578125
 30
0.0
  0
VERTEX
  5
BBC
  8
DATA
  6
CONTINUOUS
 62
     7
 10
161.02452155517571
 20
19.53147027832032
 30
0.0
  0
VERTEX
  5
BBD
  8
DATA
  6
CONTINUOUS
 62
     7
 10
161.0156901953124
 20
19.624783828125022
 30
0.0
  0
VERTEX
  5
BBE
  8
DATA
  6
CONTINUOUS
 62
     7
 10
161.0088213598633
 20
19.71829457519534
 30
0.0
  0
VERTEX
  5
BBF
  8
DATA
  6
CONTINUOUS
 62
     7
 10
161.00391504882811
 20
19.81200251953128
 30
0.0
  0
VERTEX
  5
BC0
  8
DATA
  6
CONTINUOUS
 62
     7
 10
161.000971262207
 20
19.905907661132829
 30
0.0
  0
VERTEX
  5
BC1
  8
DATA
  6
CONTINUOUS
 62
     7
 10
160.99999
 20
20.000010000000021
 30
0.0
  0
VERTEX
  5
BC2
  8
DATA
  6
CONTINUOUS
 62
     7
 10
160.99999
 20
20.000010000000021
 30
0.0
  0
VERTEX
  5
BC3
  8
DATA
  6
CONTINUOUS
 62
     7
 10
161.000971262207
 20
20.09411203125002
 30
0.0
  0
VERTEX
  5
BC4
  8
DATA
  6
CONTINUOUS
 62
     7
 10
161.00391504882811
 20
20.18801687500002
 30
0.0
  0
VERTEX
  5
BC5
  8
DATA
  6
CONTINUOUS
 62
     7
 10
161.0088213598633
 20
20.281724531250021
 30
0.0
  0
VERTEX
  5
BC6
  8
DATA
  6
CONTINUOUS
 62
     7
 10
161.0156901953124
 20
20.375235000000028
 30
0.0
  0
VERTEX
  5
BC7
  8
DATA
  6
CONTINUOUS
 62
     7
 10
161.02452155517571
 20
20.46854828125004
 30
0.0
  0
VERTEX
  5
BC8
  8
DATA
  6
CONTINUOUS
 62
     7
 10
161.03531543945309
 20
20.561664375000021
 30
0.0
  0
VERTEX
  5
BC9
  8
DATA
  6
CONTINUOUS
 62
     7
 10
161.0480718481445
 20
20.654583281250009
 30
0.0
  0
VERTEX
  5
BCA
  8
DATA
  6
CONTINUOUS
 62
     7
 10
161.06279078124999
 20
20.747305000000019
 30
0.0
  0
VERTEX
  5
BCB
  8
DATA
  6
CONTINUOUS
 62
     7
 10
161.07947223876951
 20
20.839829531250029
 30
0.0
  0
VERTEX
  5
BCC
  8
DATA
  6
CONTINUOUS
 62
     7
 10
161.09811622070299
 20
20.932156875000029
 30
0.0
  0
VERTEX
  5
BCD
  8
DATA
  6
CONTINUOUS
 62
     7
 10
161.11872272705071
 20
21.024287031250019
 30
0.0
  0
VERTEX
  5
BCE
  8
DATA
  6
CONTINUOUS
 62
     7
 10
161.1412917578125
 20
21.11622000000003
 30
0.0
  0
VERTEX
  5
BCF
  8
DATA
  6
CONTINUOUS
 62
     7
 10
161.16582331298829
 20
21.207955781250021
 30
0.0
  0
VERTEX
  5
BD0
  8
DATA
  6
CONTINUOUS
 62
     7
 10
161.1923173925781
 20
21.29949437500002
 30
0.0
  0
VERTEX
  5
BD1
  8
DATA
  6
CONTINUOUS
 62
     7
 10
161.22077399658201
 20
21.390835781250011
 30
0.0
  0
VERTEX
  5
BD2
  8
DATA
  6
CONTINUOUS
 62
     7
 10
161.25119312499999
 20
21.481980000000021
 30
0.0
  0
VERTEX
  5
BD3
  8
DATA
  6
CONTINUOUS
 62
     7
 10
161.283574777832
 20
21.572927031250011
 30
0.0
  0
VERTEX
  5
BD4
  8
DATA
  6
CONTINUOUS
 62
     7
 10
161.31791895507811
 20
21.663676875000021
 30
0.0
  0
VERTEX
  5
BD5
  8
DATA
  6
CONTINUOUS
 62
     7
 10
161.35422565673829
 20
21.754229531250019
 30
0.0
  0
VERTEX
  5
BD6
  8
DATA
  6
CONTINUOUS
 62
     7
 10
161.3924948828124
 20
21.84458500000002
 30
0.0
  0
VERTEX
  5
BD7
  8
DATA
  6
CONTINUOUS
 62
     7
 10
161.43272663330069
 20
21.934743281250011
 30
0.0
  0
VERTEX
  5
BD8
  8
DATA
  6
CONTINUOUS
 62
     7
 10
161.4749209082031
 20
22.02470437500001
 30
0.0
  0
VERTEX
  5
BD9
  8
DATA
  6
CONTINUOUS
 62
     7
 10
161.5190777075195
 20
22.114468281250009
 30
0.0
  0
VERTEX
  5
BDA
  8
DATA
  6
CONTINUOUS
 62
     7
 10
161.56519703124991
 20
22.204035000000012
 30
0.0
  0
VERTEX
  5
BDB
  8
DATA
  6
CONTINUOUS
 62
     7
 10
161.6132788793945
 20
22.29340453125003
 30
0.0
  0
VERTEX
  5
BDC
  8
DATA
  6
CONTINUOUS
 62
     7
 10
161.66332325195299
 20
22.382576875000019
 30
0.0
  0
VERTEX
  5
BDD
  8
DATA
  6
CONTINUOUS
 62
     7
 10
161.71533014892569
 20
22.47155203125001
 30
0.0
  0
VERTEX
  5
BDE
  8
DATA
  6
CONTINUOUS
 62
     7
 10
161.7692995703124
 20
22.560330000000029
 30
0.0
  0
VERTEX
  5
BDF
  8
DATA
  6
CONTINUOUS
 62
     7
 10
161.82523151611321
 20
22.648910781250009
 30
0.0
  0
VERTEX
  5
BE0
  8
DATA
  6
CONTINUOUS
 62
     7
 10
161.88312598632811
 20
22.737294375000008
 30
0.0
  0
VERTEX
  5
BE1
  8
DATA
  6
CONTINUOUS
 62
     7
 10
161.942982980957
 20
22.825480781250029
 30
0.0
  0
VERTEX
  5
BE2
  8
DATA
  6
CONTINUOUS
 62
     7
 10
162.0048024999999
 20
22.913470000000011
 30
0.0
  0
VERTEX
  5
BE3
  8
DATA
  6
CONTINUOUS
 62
     7
 10
162.06858454345701
 20
23.001262031250029
 30
0.0
  0
VERTEX
  5
BE4
  8
DATA
  6
CONTINUOUS
 62
     7
 10
162.1343291113281
 20
23.088856875000008
 30
0.0
  0
VERTEX
  5
BE5
  8
DATA
  6
CONTINUOUS
 62
     7
 10
162.2020362036132
 20
23.176254531250009
 30
0.0
  0
VERTEX
  5
BE6
  8
DATA
  6
CONTINUOUS
 62
     7
 10
162.27170582031241
 20
23.263455000000029
 30
0.0
  0
VERTEX
  5
BE7
  8
DATA
  6
CONTINUOUS
 62
     7
 10
162.34333796142579
 20
23.35045828125001
 30
0.0
  0
VERTEX
  5
BE8
  8
DATA
  6
CONTINUOUS
 62
     7
 10
162.4169326269531
 20
23.437264375000019
 30
0.0
  0
VERTEX
  5
BE9
  8
DATA
  6
CONTINUOUS
 62
     7
 10
162.4924898168945
 20
23.52387328125003
 30
0.0
  0
VERTEX
  5
BEA
  8
DATA
  6
CONTINUOUS
 62
     7
 10
162.57000953124989
 20
23.610285000000012
 30
0.0
  0
VERTEX
  5
BEB
  8
DATA
  6
CONTINUOUS
 62
     7
 10
162.64949177001949
 20
23.696499531250009
 30
0.0
  0
VERTEX
  5
BEC
  8
DATA
  6
CONTINUOUS
 62
     7
 10
162.73093653320311
 20
23.78251687500001
 30
0.0
  0
VERTEX
  5
BED
  8
DATA
  6
CONTINUOUS
 62
     7
 10
162.81434382080079
 20
23.868337031250011
 30
0.0
  0
VERTEX
  5
BEE
  8
DATA
  6
CONTINUOUS
 62
     7
 10
162.89971363281239
 20
23.953960000000009
 30
0.0
  0
VERTEX
  5
BEF
  8
DATA
  6
CONTINUOUS
 62
     7
 10
162.9870459692383
 20
24.039385781250001
 30
0.0
  0
VERTEX
  5
BF0
  8
DATA
  6
CONTINUOUS
 62
     7
 10
163.0763408300781
 20
24.124614375000011
 30
0.0
  0
VERTEX
  5
BF1
  8
DATA
  6
CONTINUOUS
 62
     7
 10
163.16759821533199
 20
24.209645781250021
 30
0.0
  0
VERTEX
  5
BF2
  8
DATA
  6
CONTINUOUS
 62
     7
 10
163.26081812499999
 20
24.294480000000011
 30
0.0
  0
VERTEX
  5
BF3
  8
DATA
  6
CONTINUOUS
 62
     7
 10
163.35600055908199
 20
24.37911703124999
 30
0.0
  0
VERTEX
  5
BF4
  8
DATA
  6
CONTINUOUS
 62
     7
 10
163.45314551757809
 20
24.463556874999998
 30
0.0
  0
VERTEX
  5
BF5
  8
DATA
  6
CONTINUOUS
 62
     7
 10
163.55225300048821
 20
24.547799531250011
 30
0.0
  0
VERTEX
  5
BF6
  8
DATA
  6
CONTINUOUS
 62
     7
 10
163.6533230078125
 20
24.631844999999998
 30
0.0
  0
VERTEX
  5
BF7
  8
DATA
  6
CONTINUOUS
 62
     7
 10
163.75635553955081
 20
24.715693281250001
 30
0.0
  0
VERTEX
  5
BF8
  8
DATA
  6
CONTINUOUS
 62
     7
 10
163.8613505957031
 20
24.799344375000011
 30
0.0
  0
VERTEX
  5
BF9
  8
DATA
  6
CONTINUOUS
 62
     7
 10
163.96830817626949
 20
24.88279828125
 30
0.0
  0
VERTEX
  5
BFA
  8
DATA
  6
CONTINUOUS
 62
     7
 10
164.07722828124989
 20
24.966055000000001
 30
0.0
  0
VERTEX
  5
BFB
  8
DATA
  6
CONTINUOUS
 62
     7
 10
164.1881109106445
 20
25.049114531249991
 30
0.0
  0
VERTEX
  5
BFC
  8
DATA
  6
CONTINUOUS
 62
     7
 10
164.30095606445309
 20
25.131976874999989
 30
0.0
  0
VERTEX
  5
BFD
  8
DATA
  6
CONTINUOUS
 62
     7
 10
164.41576374267581
 20
25.214642031250008
 30
0.0
  0
VERTEX
  5
BFE
  8
DATA
  6
CONTINUOUS
 62
     7
 10
164.53253394531239
 20
25.297110000000011
 30
0.0
  0
VERTEX
  5
BFF
  8
DATA
  6
CONTINUOUS
 62
     7
 10
164.65126667236319
 20
25.37938078125001
 30
0.0
  0
VERTEX
  5
C00
  8
DATA
  6
CONTINUOUS
 62
     7
 10
164.77196192382809
 20
25.461454374999999
 30
0.0
  0
VERTEX
  5
C01
  8
DATA
  6
CONTINUOUS
 62
     7
 10
164.89461969970699
 20
25.54333078125001
 30
0.0
  0
VERTEX
  5
C02
  8
DATA
  6
CONTINUOUS
 62
     7
 10
165.01923999999991
 20
25.62501000000001
 30
0.0
  0
VERTEX
  5
C03
  8
DATA
  6
CONTINUOUS
 62
     7
 10
165.01923999999991
 20
25.62501000000001
 30
0.0
  0
VERTEX
  5
C04
  8
DATA
  6
CONTINUOUS
 62
     7
 10
165.1455592724609
 20
25.70632093750001
 30
0.0
  0
VERTEX
  5
C05
  8
DATA
  6
CONTINUOUS
 62
     7
 10
165.27331521484371
 20
25.787093124999998
 30
0.0
  0
VERTEX
  5
C06
  8
DATA
  6
CONTINUOUS
 62
     7
 10
165.40250782714841
 20
25.867326562500001
 30
0.0
  0
VERTEX
  5
C07
  8
DATA
  6
CONTINUOUS
 62
     7
 10
165.53313710937499
 20
25.947021250000009
 30
0.0
  0
VERTEX
  5
C08
  8
DATA
  6
CONTINUOUS
 62
     7
 10
165.66520306152341
 20
26.026177187500011
 30
0.0
  0
VERTEX
  5
C09
  8
DATA
  6
CONTINUOUS
 62
     7
 10
165.79870568359371
 20
26.104794375000012
 30
0.0
  0
VERTEX
  5
C0A
  8
DATA
  6
CONTINUOUS
 62
     7
 10
165.93364497558591
 20
26.182872812500008
 30
0.0
  0
VERTEX
  5
C0B
  8
DATA
  6
CONTINUOUS
 62
     7
 10
166.0700209375
 20
26.260412500000001
 30
0.0
  0
VERTEX
  5
C0C
  8
DATA
  6
CONTINUOUS
 62
     7
 10
166.20783356933589
 20
26.33741343749999
 30
0.0
  0
VERTEX
  5
C0D
  8
DATA
  6
CONTINUOUS
 62
     7
 10
166.3470828710937
 20
26.413875624999989
 30
0.0
  0
VERTEX
  5
C0E
  8
DATA
  6
CONTINUOUS
 62
     7
 10
166.48776884277339
 20
26.489799062500001
 30
0.0
  0
VERTEX
  5
C0F
  8
DATA
  6
CONTINUOUS
 62
     7
 10
166.62989148437489
 20
26.565183749999989
 30
0.0
  0
VERTEX
  5
C10
  8
DATA
  6
CONTINUOUS
 62
     7
 10
166.77345079589841
 20
26.64002968749999
 30
0.0
  0
VERTEX
  5
C11
  8
DATA
  6
CONTINUOUS
 62
     7
 10
166.91844677734369
 20
26.71433687499999
 30
0.0
  0
VERTEX
  5
C12
  8
DATA
  6
CONTINUOUS
 62
     7
 10
167.0648794287109
 20
26.78810531249999
 30
0.0
  0
VERTEX
  5
C13
  8
DATA
  6
CONTINUOUS
 62
     7
 10
167.21274875
 20
26.861335
 30
0.0
  0
VERTEX
  5
C14
  8
DATA
  6
CONTINUOUS
 62
     7
 10
167.3620547412109
 20
26.9340259375
 30
0.0
  0
VERTEX
  5
C15
  8
DATA
  6
CONTINUOUS
 62
     7
 10
167.51279740234369
 20
27.006178124999991
 30
0.0
  0
VERTEX
  5
C16
  8
DATA
  6
CONTINUOUS
 62
     7
 10
167.66497673339839
 20
27.0777915625
 30
0.0
  0
VERTEX
  5
C17
  8
DATA
  6
CONTINUOUS
 62
     7
 10
167.81859273437499
 20
27.148866250000001
 30
0.0
  0
VERTEX
  5
C18
  8
DATA
  6
CONTINUOUS
 62
     7
 10
167.9736454052734
 20
27.219402187499991
 30
0.0
  0
VERTEX
  5
C19
  8
DATA
  6
CONTINUOUS
 62
     7
 10
168.13013474609369
 20
27.289399374999999
 30
0.0
  0
VERTEX
  5
C1A
  8
DATA
  6
CONTINUOUS
 62
     7
 10
168.2880607568359
 20
27.358857812500009
 30
0.0
  0
VERTEX
  5
C1B
  8
DATA
  6
CONTINUOUS
 62
     7
 10
168.44742343749999
 20
27.427777500000008
 30
0.0
  0
VERTEX
  5
C1C
  8
DATA
  6
CONTINUOUS
 62
     7
 10
168.6082227880859
 20
27.496158437500011
 30
0.0
  0
VERTEX
  5
C1D
  8
DATA
  6
CONTINUOUS
 62
     7
 10
168.7704588085937
 20
27.564000625000009
 30
0.0
  0
VERTEX
  5
C1E
  8
DATA
  6
CONTINUOUS
 62
     7
 10
168.93413149902341
 20
27.631304062500011
 30
0.0
  0
VERTEX
  5
C1F
  8
DATA
  6
CONTINUOUS
 62
     7
 10
169.09924085937499
 20
27.698068750000001
 30
0.0
  0
VERTEX
  5
C20
  8
DATA
  6
CONTINUOUS
 62
     7
 10
169.26578688964841
 20
27.764294687500009
 30
0.0
  0
VERTEX
  5
C21
  8
DATA
  6
CONTINUOUS
 62
     7
 10
169.43376958984371
 20
27.829981875000001
 30
0.0
  0
VERTEX
  5
C22
  8
DATA
  6
CONTINUOUS
 62
     7
 10
169.6031889599609
 20
27.895130312500001
 30
0.0
  0
VERTEX
  5
C23
  8
DATA
  6
CONTINUOUS
 62
     7
 10
169.774045
 20
27.959740000000011
 30
0.0
  0
VERTEX
  5
C24
  8
DATA
  6
CONTINUOUS
 62
     7
 10
169.94633770996089
 20
28.023810937500009
 30
0.0
  0
VERTEX
  5
C25
  8
DATA
  6
CONTINUOUS
 62
     7
 10
170.1200670898437
 20
28.087343125000022
 30
0.0
  0
VERTEX
  5
C26
  8
DATA
  6
CONTINUOUS
 62
     7
 10
170.29523313964839
 20
28.150336562500009
 30
0.0
  0
VERTEX
  5
C27
  8
DATA
  6
CONTINUOUS
 62
     7
 10
170.47183585937501
 20
28.212791250000009
 30
0.0
  0
VERTEX
  5
C28
  8
DATA
  6
CONTINUOUS
 62
     7
 10
170.64987524902341
 20
28.27470718750001
 30
0.0
  0
VERTEX
  5
C29
  8
DATA
  6
CONTINUOUS
 62
     7
 10
170.82935130859369
 20
28.336084375000009
 30
0.0
  0
VERTEX
  5
C2A
  8
DATA
  6
CONTINUOUS
 62
     7
 10
171.01026403808589
 20
28.396922812500009
 30
0.0
  0
VERTEX
  5
C2B
  8
DATA
  6
CONTINUOUS
 62
     7
 10
171.1926134375
 20
28.457222500000011
 30
0.0
  0
VERTEX
  5
C2C
  8
DATA
  6
CONTINUOUS
 62
     7
 10
171.3763995068359
 20
28.516983437500009
 30
0.0
  0
VERTEX
  5
C2D
  8
DATA
  6
CONTINUOUS
 62
     7
 10
171.56162224609369
 20
28.576205625
 30
0.0
  0
VERTEX
  5
C2E
  8
DATA
  6
CONTINUOUS
 62
     7
 10
171.74828165527339
 20
28.634889062500012
 30
0.0
  0
VERTEX
  5
C2F
  8
DATA
  6
CONTINUOUS
 62
     7
 10
171.9363777343749
 20
28.693033750000009
 30
0.0
  0
VERTEX
  5
C30
  8
DATA
  6
CONTINUOUS
 62
     7
 10
172.1259104833984
 20
28.750639687500009
 30
0.0
  0
VERTEX
  5
C31
  8
DATA
  6
CONTINUOUS
 62
     7
 10
172.31687990234369
 20
28.807706875000012
 30
0.0
  0
VERTEX
  5
C32
  8
DATA
  6
CONTINUOUS
 62
     7
 10
172.5092859912109
 20
28.864235312500011
 30
0.0
  0
VERTEX
  5
C33
  8
DATA
  6
CONTINUOUS
 62
     7
 10
172.70312874999991
 20
28.920225000000009
 30
0.0
  0
VERTEX
  5
C34
  8
DATA
  6
CONTINUOUS
 62
     7
 10
172.89840817871081
 20
28.975675937500011
 30
0.0
  0
VERTEX
  5
C35
  8
DATA
  6
CONTINUOUS
 62
     7
 10
173.0951242773437
 20
29.030588125000008
 30
0.0
  0
VERTEX
  5
C36
  8
DATA
  6
CONTINUOUS
 62
     7
 10
173.29327704589841
 20
29.084961562500009
 30
0.0
  0
VERTEX
  5
C37
  8
DATA
  6
CONTINUOUS
 62
     7
 10
173.49286648437501
 20
29.138796250000009
 30
0.0
  0
VERTEX
  5
C38
  8
DATA
  6
CONTINUOUS
 62
     7
 10
173.69389259277341
 20
29.192092187500009
 30
0.0
  0
VERTEX
  5
C39
  8
DATA
  6
CONTINUOUS
 62
     7
 10
173.89635537109359
 20
29.244849375000001
 30
0.0
  0
VERTEX
  5
C3A
  8
DATA
  6
CONTINUOUS
 62
     7
 10
174.1002548193359
 20
29.297067812500011
 30
0.0
  0
VERTEX
  5
C3B
  8
DATA
  6
CONTINUOUS
 62
     7
 10
174.3055909375
 20
29.34874750000002
 30
0.0
  0
VERTEX
  5
C3C
  8
DATA
  6
CONTINUOUS
 62
     7
 10
174.51236372558591
 20
29.39988843750001
 30
0.0
  0
VERTEX
  5
C3D
  8
DATA
  6
CONTINUOUS
 62
     7
 10
174.7205731835937
 20
29.450490625000011
 30
0.0
  0
VERTEX
  5
C3E
  8
DATA
  6
CONTINUOUS
 62
     7
 10
174.93021931152339
 20
29.500554062500012
 30
0.0
  0
VERTEX
  5
C3F
  8
DATA
  6
CONTINUOUS
 62
     7
 10
175.14130210937489
 20
29.550078750000011
 30
0.0
  0
VERTEX
  5
C40
  8
DATA
  6
CONTINUOUS
 62
     7
 10
175.35382157714841
 20
29.599064687500022
 30
0.0
  0
VERTEX
  5
C41
  8
DATA
  6
CONTINUOUS
 62
     7
 10
175.56777771484369
 20
29.647511875000021
 30
0.0
  0
VERTEX
  5
C42
  8
DATA
  6
CONTINUOUS
 62
     7
 10
175.78317052246089
 20
29.695420312500019
 30
0.0
  0
VERTEX
  5
C43
  8
DATA
  6
CONTINUOUS
 62
     7
 10
176.0
 20
29.74279000000001
 30
0.0
  0
VERTEX
  5
C44
  8
DATA
  6
CONTINUOUS
 62
     7
 10
176.0
 20
29.74279000000001
 30
0.0
  0
VERTEX
  5
C45
  8
DATA
  6
CONTINUOUS
 62
     7
 10
176.21781011962881
 20
29.7895226513672
 30
0.0
  0
VERTEX
  5
C46
  8
DATA
  6
CONTINUOUS
 62
     7
 10
176.4361461035156
 20
29.835519355468762
 30
0.0
  0
VERTEX
  5
C47
  8
DATA
  6
CONTINUOUS
 62
     7
 10
176.65500795166011
 20
29.880780112304699
 30
0.0
  0
VERTEX
  5
C48
  8
DATA
  6
CONTINUOUS
 62
     7
 10
176.8743956640624
 20
29.925304921875011
 30
0.0
  0
VERTEX
  5
C49
  8
DATA
  6
CONTINUOUS
 62
     7
 10
177.09430924072259
 20
29.969093784179691
 30
0.0
  0
VERTEX
  5
C4A
  8
DATA
  6
CONTINUOUS
 62
     7
 10
177.31474868164059
 20
30.012146699218761
 30
0.0
  0
VERTEX
  5
C4B
  8
DATA
  6
CONTINUOUS
 62
     7
 10
177.5357139868164
 20
30.054463666992209
 30
0.0
  0
VERTEX
  5
C4C
  8
DATA
  6
CONTINUOUS
 62
     7
 10
177.75720515625
 20
30.096044687500012
 30
0.0
  0
VERTEX
  5
C4D
  8
DATA
  6
CONTINUOUS
 62
     7
 10
177.97922218994131
 20
30.1368897607422
 30
0.0
  0
VERTEX
  5
C4E
  8
DATA
  6
CONTINUOUS
 62
     7
 10
178.20176508789061
 20
30.17699888671876
 30
0.0
  0
VERTEX
  5
C4F
  8
DATA
  6
CONTINUOUS
 62
     7
 10
178.4248338500976
 20
30.216372065429709
 30
0.0
  0
VERTEX
  5
C50
  8
DATA
  6
CONTINUOUS
 62
     7
 10
178.6484284765624
 20
30.255009296875009
 30
0.0
  0
VERTEX
  5
C51
  8
DATA
  6
CONTINUOUS
 62
     7
 10
178.8725489672851
 20
30.292910581054699
 30
0.0
  0
VERTEX
  5
C52
  8
DATA
  6
CONTINUOUS
 62
     7
 10
179.09719532226561
 20
30.33007591796877
 30
0.0
  0
VERTEX
  5
C53
  8
DATA
  6
CONTINUOUS
 62
     7
 10
179.32236754150381
 20
30.366505307617189
 30
0.0
  0
VERTEX
  5
C54
  8
DATA
  6
CONTINUOUS
 62
     7
 10
179.54806562499999
 20
30.402198750000011
 30
0.0
  0
VERTEX
  5
C55
  8
DATA
  6
CONTINUOUS
 62
     7
 10
179.7742895727539
 20
30.437156245117201
 30
0.0
  0
VERTEX
  5
C56
  8
DATA
  6
CONTINUOUS
 62
     7
 10
180.00103938476559
 20
30.471377792968749
 30
0.0
  0
VERTEX
  5
C57
  8
DATA
  6
CONTINUOUS
 62
     7
 10
180.22831506103509
 20
30.5048633935547
 30
0.0
  0
VERTEX
  5
C58
  8
DATA
  6
CONTINUOUS
 62
     7
 10
180.4561166015624
 20
30.537613046875009
 30
0.0
  0
VERTEX
  5
C59
  8
DATA
  6
CONTINUOUS
 62
     7
 10
180.6844440063476
 20
30.56962675292969
 30
0.0
  0
VERTEX
  5
C5A
  8
DATA
  6
CONTINUOUS
 62
     7
 10
180.91329727539059
 20
30.60090451171877
 30
0.0
  0
VERTEX
  5
C5B
  8
DATA
  6
CONTINUOUS
 62
     7
 10
181.1426764086913
 20
30.631446323242191
 30
0.0
  0
VERTEX
  5
C5C
  8
DATA
  6
CONTINUOUS
 62
     7
 10
181.37258140624999
 20
30.661252187500011
 30
0.0
  0
VERTEX
  5
C5D
  8
DATA
  6
CONTINUOUS
 62
     7
 10
181.60301226806641
 20
30.6903221044922
 30
0.0
  0
VERTEX
  5
C5E
  8
DATA
  6
CONTINUOUS
 62
     7
 10
181.83396899414049
 20
30.71865607421876
 30
0.0
  0
VERTEX
  5
C5F
  8
DATA
  6
CONTINUOUS
 62
     7
 10
182.06545158447261
 20
30.746254096679699
 30
0.0
  0
VERTEX
  5
C60
  8
DATA
  6
CONTINUOUS
 62
     7
 10
182.2974600390624
 20
30.77311617187501
 30
0.0
  0
VERTEX
  5
C61
  8
DATA
  6
CONTINUOUS
 62
     7
 10
182.52999435791011
 20
30.7992422998047
 30
0.0
  0
VERTEX
  5
C62
  8
DATA
  6
CONTINUOUS
 62
     7
 10
182.76305454101561
 20
30.824632480468761
 30
0.0
  0
VERTEX
  5
C63
  8
DATA
  6
CONTINUOUS
 62
     7
 10
182.99664058837891
 20
30.849286713867201
 30
0.0
  0
VERTEX
  5
C64
  8
DATA
  6
CONTINUOUS
 62
     7
 10
183.23075249999999
 20
30.873205000000009
 30
0.0
  0
VERTEX
  5
C65
  8
DATA
  6
CONTINUOUS
 62
     7
 10
183.4653902758788
 20
30.8963873388672
 30
0.0
  0
VERTEX
  5
C66
  8
DATA
  6
CONTINUOUS
 62
     7
 10
183.70055391601559
 20
30.918833730468759
 30
0.0
  0
VERTEX
  5
C67
  8
DATA
  6
CONTINUOUS
 62
     7
 10
183.93624342041011
 20
30.9405441748047
 30
0.0
  0
VERTEX
  5
C68
  8
DATA
  6
CONTINUOUS
 62
     7
 10
184.1724587890624
 20
30.961518671875009
 30
0.0
  0
VERTEX
  5
C69
  8
DATA
  6
CONTINUOUS
 62
     7
 10
184.40920002197259
 20
30.9817572216797
 30
0.0
  0
VERTEX
  5
C6A
  8
DATA
  6
CONTINUOUS
 62
     7
 10
184.6464671191406
 20
31.00125982421876
 30
0.0
  0
VERTEX
  5
C6B
  8
DATA
  6
CONTINUOUS
 62
     7
 10
184.88426008056641
 20
31.020026479492198
 30
0.0
  0
VERTEX
  5
C6C
  8
DATA
  6
CONTINUOUS
 62
     7
 10
185.12257890625
 20
31.038057187500019
 30
0.0
  0
VERTEX
  5
C6D
  8
DATA
  6
CONTINUOUS
 62
     7
 10
185.3614235961914
 20
31.055351948242201
 30
0.0
  0
VERTEX
  5
C6E
  8
DATA
  6
CONTINUOUS
 62
     7
 10
185.6007941503905
 20
31.071910761718762
 30
0.0
  0
VERTEX
  5
C6F
  8
DATA
  6
CONTINUOUS
 62
     7
 10
185.84069056884761
 20
31.08773362792968
 30
0.0
  0
VERTEX
  5
C70
  8
DATA
  6
CONTINUOUS
 62
     7
 10
186.08111285156241
 20
31.102820546875009
 30
0.0
  0
VERTEX
  5
C71
  8
DATA
  6
CONTINUOUS
 62
     7
 10
186.32206099853511
 20
31.117171518554699
 30
0.0
  0
VERTEX
  5
C72
  8
DATA
  6
CONTINUOUS
 62
     7
 10
186.56353500976559
 20
31.13078654296876
 30
0.0
  0
VERTEX
  5
C73
  8
DATA
  6
CONTINUOUS
 62
     7
 10
186.80553488525391
 20
31.14366562011719
 30
0.0
  0
VERTEX
  5
C74
  8
DATA
  6
CONTINUOUS
 62
     7
 10
187.04806062500001
 20
31.155808750000009
 30
0.0
  0
VERTEX
  5
C75
  8
DATA
  6
CONTINUOUS
 62
     7
 10
187.2911122290038
 20
31.167215932617179
 30
0.0
  0
VERTEX
  5
C76
  8
DATA
  6
CONTINUOUS
 62
     7
 10
187.53468969726561
 20
31.177887167968748
 30
0.0
  0
VERTEX
  5
C77
  8
DATA
  6
CONTINUOUS
 62
     7
 10
187.77879302978511
 20
31.187822456054679
 30
0.0
  0
VERTEX
  5
C78
  8
DATA
  6
CONTINUOUS
 62
     7
 10
188.0234222265625
 20
31.19702179687501
 30
0.0
  0
VERTEX
  5
C79
  8
DATA
  6
CONTINUOUS
 62
     7
 10
188.26857728759751
 20
31.205485190429702
 30
0.0
  0
VERTEX
  5
C7A
  8
DATA
  6
CONTINUOUS
 62
     7
 10
188.5142582128905
 20
31.213212636718769
 30
0.0
  0
VERTEX
  5
C7B
  8
DATA
  6
CONTINUOUS
 62
     7
 10
188.76046500244141
 20
31.2202041357422
 30
0.0
  0
VERTEX
  5
C7C
  8
DATA
  6
CONTINUOUS
 62
     7
 10
189.00719765625001
 20
31.226459687500011
 30
0.0
  0
VERTEX
  5
C7D
  8
DATA
  6
CONTINUOUS
 62
     7
 10
189.2544561743164
 20
31.2319792919922
 30
0.0
  0
VERTEX
  5
C7E
  8
DATA
  6
CONTINUOUS
 62
     7
 10
189.5022405566406
 20
31.236762949218761
 30
0.0
  0
VERTEX
  5
C7F
  8
DATA
  6
CONTINUOUS
 62
     7
 10
189.75055080322269
 20
31.240810659179701
 30
0.0
  0
VERTEX
  5
C80
  8
DATA
  6
CONTINUOUS
 62
     7
 10
189.9993869140624
 20
31.244122421875009
 30
0.0
  0
VERTEX
  5
C81
  8
DATA
  6
CONTINUOUS
 62
     7
 10
190.24874888916011
 20
31.246698237304681
 30
0.0
  0
VERTEX
  5
C82
  8
DATA
  6
CONTINUOUS
 62
     7
 10
190.49863672851561
 20
31.248538105468761
 30
0.0
  0
VERTEX
  5
C83
  8
DATA
  6
CONTINUOUS
 62
     7
 10
190.7490504321288
 20
31.24964202636718
 30
0.0
  0
VERTEX
  5
C84
  8
DATA
  6
CONTINUOUS
 62
     7
 10
190.99999
 20
31.25001000000001
 30
0.0
  0
VERTEX
  5
C85
  8
DATA
  6
CONTINUOUS
 62
     7
 10
190.99999
 20
31.25001000000001
 30
0.0
  0
SEQEND
  5
C86
  8
DATA
  6
CONTINUOUS
 62
     7
  0
CIRCLE
  5
606
  8
DATA
  6
CONTINUOUS
 62
     7
 10
230.0
 20
20.000010000000021
 30
0.0
 40
24.5
  0
LINE
  5
607
  8
DATA
  6
CONTINUOUS
 62
     7
 10
127.8829157177168
 20
1.5170842822831501
 30
0.0
 11
127.8829157177168
 21
38.482925717716867
 31
0.0
  0
LINE
  5
608
  8
DATA
  6
CONTINUOUS
 62
     7
 10
82.000010000000003
 20
10.00000500000001
 30
0.0
 11
55.000009999999989
 21
10.00000500000001
 31
0.0
  0
LINE
  5
609
  8
DATA
  6
CONTINUOUS
 62
     7
 10
81.705323136932336
 20
10.00000500000001
 30
0.0
 11
81.705323520562416
 21
10.00000500000001
 31
0.0
  0
LINE
  5
60A
  8
DATA
  6
CONTINUOUS
 62
     7
 10
52.000009999999989
 20
13.000005000000019
 30
0.0
 11
52.000009999999989
 21
27.000005000000019
 31
0.0
  0
LINE
  5
60B
  8
DATA
  6
CONTINUOUS
 62
     7
 10
54.700009999999992
 20
27.35000500000001
 30
0.0
 11
65.300009999999986
 21
27.35000500000001
 31
0.0
  0
LINE
  5
60C
  8
DATA
  6
CONTINUOUS
 62
     7
 10
54.700009999999992
 20
12.65000500000002
 30
0.0
 11
65.300009999999986
 21
12.65000500000002
 31
0.0
  0
LINE
  5
60D
  8
DATA
  6
CONTINUOUS
 62
     7
 10
53.500009999999982
 20
13.850005000000021
 30
0.0
 11
53.500009999999982
 21
26.150005000000011
 31
0.0
  0
LINE
  5
60E
  8
DATA
  6
CONTINUOUS
 62
     7
 10
66.500009999999989
 20
13.850005000000021
 30
0.0
 11
66.500009999999989
 21
26.150005000000011
 31
0.0
  0
ARC
  5
60F
  8
DATA
  6
CONTINUOUS
 62
     7
 10
55.000009999999989
 20
27.000005000000019
 30
0.0
 40
3.0
 50
90.0
 51
180.0
  0
ARC
  5
610
  8
DATA
  6
CONTINUOUS
 62
     7
 10
55.000009999999989
 20
13.000005000000019
 30
0.0
 40
3.0
 50
180.0
 51
270.0
  0
ARC
  5
611
  8
DATA
  6
CONTINUOUS
 62
     7
 10
54.700009999999992
 20
26.150005000000021
 30
0.0
 40
1.199999999999988
 50
90.0
 51
180.00000000000071
  0
ARC
  5
612
  8
DATA
  6
CONTINUOUS
 62
     7
 10
54.700009999999992
 20
13.850005000000021
 30
0.0
 40
1.200000000000002
 50
180.0
 51
270.0
  0
ARC
  5
613
  8
DATA
  6
CONTINUOUS
 62
     7
 10
65.300009999999986
 20
13.85000500000001
 30
0.0
 40
1.199999999999988
 50
270.0
 51
0.0000000000006821
  0
ARC
  5
614
  8
DATA
  6
CONTINUOUS
 62
     7
 10
65.300009999999986
 20
26.150005000000011
 30
0.0
 40
1.200000000000002
 50
0.0
 51
90.0
  0
ARC
  5
615
  8
DATA
  6
CONTINUOUS
 62
     7
 10
74.399814726560535
 20
25.000005000000041
 30
0.0
 40
1.6000000119161411
 50
89.993007285077482
 51
270.00699271492249
  0
LINE
  5
616
  8
DATA
  6
CONTINUOUS
 62
     7
 10
76.200009999999978
 20
26.60000500000001
 30
0.0
 11
74.400009999651573
 21
26.60000500000001
 31
0.0
  0
LINE
  5
617
  8
DATA
  6
CONTINUOUS
 62
     7
 10
76.200009999999978
 20
23.400005000000021
 30
0.0
 11
74.400000000000006
 21
23.400005000000021
 31
0.0
  0
CIRCLE
  5
618
  8
DATA
  6
CONTINUOUS
 62
     7
 10
79.033093601383072
 20
20.000005000000002
 30
0.0
 40
1.100000000000001
  0
ARC
  5
619
  8
DATA
  6
CONTINUOUS
 62
     7
 10
74.42681765548339
 20
25.000005000000041
 30
0.0
 40
1.5520000115586541
 50
89.99300728507751
 51
270.00699271492249
  0
ARC
  5
61A
  8
DATA
  6
CONTINUOUS
 62
     7
 10
76.173007070719649
 20
25.000005000000019
 30
0.0
 40
1.5519999999999921
 50
269.99999999999977
 51
90.000000000000114
  0
LINE
  5
61B
  8
DATA
  6
CONTINUOUS
 62
     7
 10
76.173007070719649
 20
26.552005000000008
 30
0.0
 11
74.427007070381705
 21
26.552005000000008
 31
0.0
  0
LINE
  5
61C
  8
DATA
  6
CONTINUOUS
 62
     7
 10
76.173007070719649
 20
23.44800500000002
 30
0.0
 11
74.426997370719647
 21
23.44800500000002
 31
0.0
  0
LINE
  5
61D
  8
DATA
  6
CONTINUOUS
 62
     7
 10
76.200009999999978
 20
23.400005000000021
 30
0.0
 11
80.738965186343009
 21
23.400005000000021
 31
0.0
  0
LINE
  5
61E
  8
DATA
  6
CONTINUOUS
 62
     7
 10
76.200009999999978
 20
26.60000500000001
 30
0.0
 11
78.767266129740193
 21
26.60000500000001
 31
0.0
  0
LINE
  5
61F
  8
DATA
  6
CONTINUOUS
 62
     7
 10
80.908564847144049
 20
23.706004788000651
 30
0.0
 11
79.276065112143229
 21
26.318004364001929
 31
0.0
  0
ARC
  5
620
  8
DATA
  6
CONTINUOUS
 62
     7
 10
78.767266129740193
 20
26.000005000000019
 30
0.0
 40
0.5999999999999968
 50
32.005383208083487
 51
90.0
  0
ARC
  5
621
  8
DATA
  6
CONTINUOUS
 62
     7
 10
80.738965186343009
 20
23.600005000000031
 30
0.0
 40
0.2000000000000028
 50
270.00000000000102
 51
32.005383208082023
  0
ARC
  5
622
  8
DATA
  6
CONTINUOUS
 62
     7
 10
74.399814726560535
 20
15.00000499999997
 30
0.0
 40
1.600000011916169
 50
89.993007285077482
 51
270.00699271492249
  0
LINE
  5
623
  8
DATA
  6
CONTINUOUS
 62
     7
 10
76.200009999999978
 20
13.40000499999999
 30
0.0
 11
74.400009999651573
 21
13.40000499999999
 31
0.0
  0
LINE
  5
624
  8
DATA
  6
CONTINUOUS
 62
     7
 10
76.200009999999978
 20
16.600004999999982
 30
0.0
 11
74.400000000000006
 21
16.600004999999982
 31
0.0
  0
ARC
  5
625
  8
DATA
  6
CONTINUOUS
 62
     7
 10
74.42681765548339
 20
15.00000499999997
 30
0.0
 40
1.5520000115586541
 50
89.99300728507751
 51
270.00699271492249
  0
ARC
  5
626
  8
DATA
  6
CONTINUOUS
 62
     7
 10
76.173007070719649
 20
15.00000499999998
 30
0.0
 40
1.5519999999999921
 50
269.99999999999977
 51
90.000000000000114
  0
LINE
  5
627
  8
DATA
  6
CONTINUOUS
 62
     7
 10
76.173007070719649
 20
13.44800499999999
 30
0.0
 11
74.427007070381705
 21
13.44800499999999
 31
0.0
  0
LINE
  5
628
  8
DATA
  6
CONTINUOUS
 62
     7
 10
76.173007070719649
 20
16.55200499999998
 30
0.0
 11
74.426997370719647
 21
16.55200499999998
 31
0.0
  0
LINE
  5
629
  8
DATA
  6
CONTINUOUS
 62
     7
 10
76.200009999999978
 20
16.600004999999982
 30
0.0
 11
80.738965186343009
 21
16.600004999999982
 31
0.0
  0
LINE
  5
62A
  8
DATA
  6
CONTINUOUS
 62
     7
 10
76.200009999999978
 20
13.40000499999999
 30
0.0
 11
78.767266129740193
 21
13.40000499999999
 31
0.0
  0
LINE
  5
62B
  8
DATA
  6
CONTINUOUS
 62
     7
 10
80.908564847144049
 20
16.294005211999352
 30
0.0
 11
79.276065112143229
 21
13.682005635998079
 31
0.0
  0
ARC
  5
62C
  8
DATA
  6
CONTINUOUS
 62
     7
 10
78.767266129740193
 20
14.000004999999989
 30
0.0
 40
0.5999999999999944
 50
270.0
 51
327.99461679191648
  0
ARC
  5
62D
  8
DATA
  6
CONTINUOUS
 62
     7
 10
80.738965186343009
 20
16.400004999999979
 30
0.0
 40
0.1999999999999984
 50
327.99461679191802
 51
89.999999999999005
  0
TEXT
  5
62E
  8
DATA
 62
     7
 10
72.062398400938534
 20
22.894059096245272
 30
0.0
 40
2.3085860546874999
  1
SET
 50
90.0
 41
0.7
 11
69.753812346251053
 21
22.894059096245272
 31
0.0
 73
     3
  0
TEXT
  5
62F
  8
DATA
 62
     7
 10
72.062398400938534
 20
11.970148606579301
 30
0.0
 40
2.3085860546874999
  1
MODE
 50
90.0
 41
0.7
 11
69.753812346251053
 21
11.970148606579301
 31
0.0
 73
     3
  0
LINE
  5
630
  8
DATA
  6
CONTINUOUS
 62
     7
 10
93.205599089436333
 20
17.750010000000021
 30
0.0
 11
89.705599089436305
 21
17.750010000000021
 31
0.0
  0
LINE
  5
631
  8
DATA
  6
CONTINUOUS
 62
     7
 10
87.814602926563296
 20
20.000010000000032
 30
0.0
 11
88.914602926563305
 21
20.60001000000004
 31
0.0
  0
LINE
  5
632
  8
DATA
  6
CONTINUOUS
 62
     7
 10
88.914602926563305
 20
19.400010000000041
 30
0.0
 11
87.814602926563296
 21
20.000010000000032
 31
0.0
  0
LINE
  5
633
  8
DATA
  6
CONTINUOUS
 62
     7
 10
88.914602926563305
 20
19.400010000000041
 30
0.0
 11
88.914602926563305
 21
20.600000000000001
 31
0.0
  0
LINE
  5
634
  8
DATA
  6
CONTINUOUS
 62
     7
 10
95.096595252309285
 20
20.000010000000032
 30
0.0
 11
93.996595252309305
 21
20.60001000000004
 31
0.0
  0
LINE
  5
635
  8
DATA
  6
CONTINUOUS
 62
     7
 10
93.996595252309305
 20
19.400010000000041
 30
0.0
 11
95.096595252309285
 21
20.000010000000032
 31
0.0
  0
LINE
  5
636
  8
DATA
  6
CONTINUOUS
 62
     7
 10
93.996595252309305
 20
19.400010000000041
 30
0.0
 11
93.996595252309305
 21
20.600000000000001
 31
0.0
  0
LINE
  5
637
  8
DATA
  6
CONTINUOUS
 62
     7
 10
93.996595252309305
 20
20.000010000000032
 30
0.0
 11
88.914602926563305
 21
20.000010000000032
 31
0.0
  0
LINE
  5
638
  8
DATA
  6
CONTINUOUS
 62
     7
 10
87.814602926563282
 20
20.000010000000032
 30
0.0
 11
87.799999999999983
 21
20.000010000000032
 31
0.0
  0
ARC
  5
639
  8
DATA
  6
CONTINUOUS
 62
     7
 10
81.625311949440345
 20
0.0000049423060489
 30
0.0
 40
30.0
 50
79.34561813776854
 51
89.999999999999915
  0
ARC
  5
63A
  8
DATA
  6
CONTINUOUS
 62
     7
 10
81.705323136932407
 20
40.000005000000037
 30
0.0
 40
30.000000000000028
 50
269.99999999999977
 51
280.58805407992128
  0
LINE
  5
63B
  8
DATA
  6
CONTINUOUS
 62
     7
 10
81.625311949440402
 20
30.000004942306049
 30
0.0
 11
55.000598356893299
 21
30.000004942306049
 31
0.0
  0
POLYLINE
  5
63C
  8
DATA
  6
CONTINUOUS
 62
     7
 66
     1
 10
0.0
 20
0.0
 30
0.0
 70
   128
  0
VERTEX
  5
C87
  8
DATA
  6
CONTINUOUS
 62
     7
 10
87.171714662643339
 20
29.482837309231851
 30
0.0
  0
VERTEX
  5
C88
  8
DATA
  6
CONTINUOUS
 62
     7
 10
87.364200645801901
 20
29.436757257043951
 30
0.0
  0
VERTEX
  5
C89
  8
DATA
  6
CONTINUOUS
 62
     7
 10
87.555473177642895
 20
29.390222157518831
 30
0.0
  0
VERTEX
  5
C8A
  8
DATA
  6
CONTINUOUS
 62
     7
 10
87.745532258166349
 20
29.343232010656521
 30
0.0
  0
VERTEX
  5
C8B
  8
DATA
  6
CONTINUOUS
 62
     7
 10
87.934377887372193
 20
29.295786816456999
 30
0.0
  0
VERTEX
  5
C8C
  8
DATA
  6
CONTINUOUS
 62
     7
 10
88.122010065260497
 20
29.247886574920269
 30
0.0
  0
VERTEX
  5
C8D
  8
DATA
  6
CONTINUOUS
 62
     7
 10
88.308428791831233
 20
29.199531286046319
 30
0.0
  0
VERTEX
  5
C8E
  8
DATA
  6
CONTINUOUS
 62
     7
 10
88.493634067084372
 20
29.150720949835179
 30
0.0
  0
VERTEX
  5
C8F
  8
DATA
  6
CONTINUOUS
 62
     7
 10
88.677625891019957
 20
29.10145556628682
 30
0.0
  0
VERTEX
  5
C90
  8
DATA
  6
CONTINUOUS
 62
     7
 10
88.860404263637975
 20
29.051735135401248
 30
0.0
  0
VERTEX
  5
C91
  8
DATA
  6
CONTINUOUS
 62
     7
 10
89.041969184938424
 20
29.001559657178479
 30
0.0
  0
VERTEX
  5
C92
  8
DATA
  6
CONTINUOUS
 62
     7
 10
89.222320654921305
 20
28.950929131618491
 30
0.0
  0
VERTEX
  5
C93
  8
DATA
  6
CONTINUOUS
 62
     7
 10
89.401458673586603
 20
28.899843558721301
 30
0.0
  0
VERTEX
  5
C94
  8
DATA
  6
CONTINUOUS
 62
     7
 10
89.579383240934348
 20
28.84830293848691
 30
0.0
  0
VERTEX
  5
C95
  8
DATA
  6
CONTINUOUS
 62
     7
 10
89.75609435696451
 20
28.79630727091531
 30
0.0
  0
VERTEX
  5
C96
  8
DATA
  6
CONTINUOUS
 62
     7
 10
89.931592021677133
 20
28.743856556006499
 30
0.0
  0
VERTEX
  5
C97
  8
DATA
  6
CONTINUOUS
 62
     7
 10
90.105876235072131
 20
28.690950793760479
 30
0.0
  0
VERTEX
  5
C98
  8
DATA
  6
CONTINUOUS
 62
     7
 10
90.278946997149603
 20
28.63758998417725
 30
0.0
  0
VERTEX
  5
C99
  8
DATA
  6
CONTINUOUS
 62
     7
 10
90.450804307909493
 20
28.58377412725682
 30
0.0
  0
VERTEX
  5
C9A
  8
DATA
  6
CONTINUOUS
 62
     7
 10
90.621448167351801
 20
28.529503222999178
 30
0.0
  0
VERTEX
  5
C9B
  8
DATA
  6
CONTINUOUS
 62
     7
 10
90.790878575476569
 20
28.474777271404321
 30
0.0
  0
VERTEX
  5
C9C
  8
DATA
  6
CONTINUOUS
 62
     7
 10
90.959095532283769
 20
28.419596272472269
 30
0.0
  0
VERTEX
  5
C9D
  8
DATA
  6
CONTINUOUS
 62
     7
 10
91.126099037773358
 20
28.363960226202991
 30
0.0
  0
VERTEX
  5
C9E
  8
DATA
  6
CONTINUOUS
 62
     7
 10
91.291889091945407
 20
28.307869132596512
 30
0.0
  0
VERTEX
  5
C9F
  8
DATA
  6
CONTINUOUS
 62
     7
 10
91.456465694799874
 20
28.251322991652831
 30
0.0
  0
VERTEX
  5
CA0
  8
DATA
  6
CONTINUOUS
 62
     7
 10
91.619828846336773
 20
28.194321803371931
 30
0.0
  0
VERTEX
  5
CA1
  8
DATA
  6
CONTINUOUS
 62
     7
 10
91.781978546556118
 20
28.13686556775383
 30
0.0
  0
VERTEX
  5
CA2
  8
DATA
  6
CONTINUOUS
 62
     7
 10
91.942914795457867
 20
28.078954284798531
 30
0.0
  0
VERTEX
  5
CA3
  8
DATA
  6
CONTINUOUS
 62
     7
 10
92.102637593042104
 20
28.020587954506009
 30
0.0
  0
VERTEX
  5
CA4
  8
DATA
  6
CONTINUOUS
 62
     7
 10
92.261146939308702
 20
27.96176657687629
 30
0.0
  0
VERTEX
  5
CA5
  8
DATA
  6
CONTINUOUS
 62
     7
 10
92.418442834257775
 20
27.902490151909362
 30
0.0
  0
VERTEX
  5
CA6
  8
DATA
  6
CONTINUOUS
 62
     7
 10
92.574525277889236
 20
27.842758679605229
 30
0.0
  0
VERTEX
  5
CA7
  8
DATA
  6
CONTINUOUS
 62
     7
 10
92.729394270203159
 20
27.78257215996387
 30
0.0
  0
VERTEX
  5
CA8
  8
DATA
  6
CONTINUOUS
 62
     7
 10
92.883049811199513
 20
27.721930592985309
 30
0.0
  0
VERTEX
  5
CA9
  8
DATA
  6
CONTINUOUS
 62
     7
 10
93.035491900878256
 20
27.66083397866953
 30
0.0
  0
VERTEX
  5
CAA
  8
DATA
  6
CONTINUOUS
 62
     7
 10
93.186720539239502
 20
27.59928231701657
 30
0.0
  0
VERTEX
  5
CAB
  8
DATA
  6
CONTINUOUS
 62
     7
 10
93.336735726283152
 20
27.537275608026391
 30
0.0
  0
VERTEX
  5
CAC
  8
DATA
  6
CONTINUOUS
 62
     7
 10
93.485537462009205
 20
27.474813851699
 30
0.0
  0
VERTEX
  5
CAD
  8
DATA
  6
CONTINUOUS
 62
     7
 10
93.63312574641769
 20
27.411897048034412
 30
0.0
  0
VERTEX
  5
CAE
  8
DATA
  6
CONTINUOUS
 62
     7
 10
93.77950057950865
 20
27.348525197032611
 30
0.0
  0
VERTEX
  5
CAF
  8
DATA
  6
CONTINUOUS
 62
     7
 10
93.924661961282027
 20
27.284698298693598
 30
0.0
  0
VERTEX
  5
CB0
  8
DATA
  6
CONTINUOUS
 62
     7
 10
94.068609891737808
 20
27.220416353017391
 30
0.0
  0
VERTEX
  5
CB1
  8
DATA
  6
CONTINUOUS
 62
     7
 10
94.211344370876006
 20
27.155679360003951
 30
0.0
  0
VERTEX
  5
CB2
  8
DATA
  6
CONTINUOUS
 62
     7
 10
94.35286539869665
 20
27.09048731965331
 30
0.0
  0
VERTEX
  5
CB3
  8
DATA
  6
CONTINUOUS
 62
     7
 10
94.493172975199727
 20
27.02484023196547
 30
0.0
  0
VERTEX
  5
CB4
  8
DATA
  6
CONTINUOUS
 62
     7
 10
94.632267100385263
 20
26.958738096940429
 30
0.0
  0
VERTEX
  5
CB5
  8
DATA
  6
CONTINUOUS
 62
     7
 10
94.770147774253203
 20
26.892180914578152
 30
0.0
  0
VERTEX
  5
CB6
  8
DATA
  6
CONTINUOUS
 62
     7
 10
94.906814996803575
 20
26.825168684878701
 30
0.0
  0
VERTEX
  5
CB7
  8
DATA
  6
CONTINUOUS
 62
     7
 10
95.042268768036365
 20
26.757701407842021
 30
0.0
  0
VERTEX
  5
CB8
  8
DATA
  6
CONTINUOUS
 62
     7
 10
95.176509087951587
 20
26.68977908346816
 30
0.0
  0
VERTEX
  5
CB9
  8
DATA
  6
CONTINUOUS
 62
     7
 10
95.309535956549283
 20
26.621401711757059
 30
0.0
  0
VERTEX
  5
CBA
  8
DATA
  6
CONTINUOUS
 62
     7
 10
95.441349373829382
 20
26.55256929270875
 30
0.0
  0
VERTEX
  5
CBB
  8
DATA
  6
CONTINUOUS
 62
     7
 10
95.571949339791914
 20
26.48328182632325
 30
0.0
  0
VERTEX
  5
CBC
  8
DATA
  6
CONTINUOUS
 62
     7
 10
95.701335854436834
 20
26.41353931260053
 30
0.0
  0
VERTEX
  5
CBD
  8
DATA
  6
CONTINUOUS
 62
     7
 10
95.82950891776423
 20
26.34334175154061
 30
0.0
  0
VERTEX
  5
CBE
  8
DATA
  6
CONTINUOUS
 62
     7
 10
95.956468529774057
 20
26.272689143143481
 30
0.0
  0
VERTEX
  5
CBF
  8
DATA
  6
CONTINUOUS
 62
     7
 10
96.082214690466287
 20
26.20158148740915
 30
0.0
  0
VERTEX
  5
CC0
  8
DATA
  6
CONTINUOUS
 62
     7
 10
96.206747399840964
 20
26.130018784337601
 30
0.0
  0
VERTEX
  5
CC1
  8
DATA
  6
CONTINUOUS
 62
     7
 10
96.330066657898087
 20
26.058001033928861
 30
0.0
  0
VERTEX
  5
CC2
  8
DATA
  6
CONTINUOUS
 62
     7
 10
96.452172464637627
 20
25.985528236182891
 30
0.0
  0
VERTEX
  5
CC3
  8
DATA
  6
CONTINUOUS
 62
     7
 10
96.573064820059642
 20
25.912600391099719
 30
0.0
  0
VERTEX
  5
CC4
  8
DATA
  6
CONTINUOUS
 62
     7
 10
96.692743724164004
 20
25.839217498679339
 30
0.0
  0
VERTEX
  5
CC5
  8
DATA
  6
CONTINUOUS
 62
     7
 10
96.811209176950825
 20
25.765379558921751
 30
0.0
  0
VERTEX
  5
CC6
  8
DATA
  6
CONTINUOUS
 62
     7
 10
96.928461178420093
 20
25.691086571826961
 30
0.0
  0
VERTEX
  5
CC7
  8
DATA
  6
CONTINUOUS
 62
     7
 10
97.044499728571779
 20
25.616338537394949
 30
0.0
  0
VERTEX
  5
CC8
  8
DATA
  6
CONTINUOUS
 62
     7
 10
97.044499728571779
 20
25.616338537394949
 30
0.0
  0
VERTEX
  5
CC9
  8
DATA
  6
CONTINUOUS
 62
     7
 10
97.169120028864768
 20
25.53465962626214
 30
0.0
  0
VERTEX
  5
CCA
  8
DATA
  6
CONTINUOUS
 62
     7
 10
97.291777804743646
 20
25.45278351786369
 30
0.0
  0
VERTEX
  5
CCB
  8
DATA
  6
CONTINUOUS
 62
     7
 10
97.412473056208484
 20
25.370710212199629
 30
0.0
  0
VERTEX
  5
CCC
  8
DATA
  6
CONTINUOUS
 62
     7
 10
97.531205783259281
 20
25.288439709269952
 30
0.0
  0
VERTEX
  5
CCD
  8
DATA
  6
CONTINUOUS
 62
     7
 10
97.647975985895997
 20
25.20597200907465
 30
0.0
  0
VERTEX
  5
CCE
  8
DATA
  6
CONTINUOUS
 62
     7
 10
97.762783664118643
 20
25.12330711161372
 30
0.0
  0
VERTEX
  5
CCF
  8
DATA
  6
CONTINUOUS
 62
     7
 10
97.875628817927236
 20
25.04044501688713
 30
0.0
  0
VERTEX
  5
CD0
  8
DATA
  6
CONTINUOUS
 62
     7
 10
97.98651144732176
 20
24.957385724894952
 30
0.0
  0
VERTEX
  5
CD1
  8
DATA
  6
CONTINUOUS
 62
     7
 10
98.09543155230223
 20
24.874129235637149
 30
0.0
  0
VERTEX
  5
CD2
  8
DATA
  6
CONTINUOUS
 62
     7
 10
98.202389132868646
 20
24.790675549113701
 30
0.0
  0
VERTEX
  5
CD3
  8
DATA
  6
CONTINUOUS
 62
     7
 10
98.307384189020993
 20
24.707024665324639
 30
0.0
  0
VERTEX
  5
CD4
  8
DATA
  6
CONTINUOUS
 62
     7
 10
98.410416720759272
 20
24.623176584269942
 30
0.0
  0
VERTEX
  5
CD5
  8
DATA
  6
CONTINUOUS
 62
     7
 10
98.511486728083483
 20
24.539131305949638
 30
0.0
  0
VERTEX
  5
CD6
  8
DATA
  6
CONTINUOUS
 62
     7
 10
98.610594210993639
 20
24.4548888303637
 30
0.0
  0
VERTEX
  5
CD7
  8
DATA
  6
CONTINUOUS
 62
     7
 10
98.707739169489727
 20
24.370449157512141
 30
0.0
  0
VERTEX
  5
CD8
  8
DATA
  6
CONTINUOUS
 62
     7
 10
98.802921603571775
 20
24.28581228739495
 30
0.0
  0
VERTEX
  5
CD9
  8
DATA
  6
CONTINUOUS
 62
     7
 10
98.896141513239769
 20
24.200978220012129
 30
0.0
  0
VERTEX
  5
CDA
  8
DATA
  6
CONTINUOUS
 62
     7
 10
98.987398898493637
 20
24.115946955363711
 30
0.0
  0
VERTEX
  5
CDB
  8
DATA
  6
CONTINUOUS
 62
     7
 10
99.07669375933348
 20
24.030718493449651
 30
0.0
  0
VERTEX
  5
CDC
  8
DATA
  6
CONTINUOUS
 62
     7
 10
99.164026095759283
 20
23.945292834269971
 30
0.0
  0
VERTEX
  5
CDD
  8
DATA
  6
CONTINUOUS
 62
     7
 10
99.249395907771003
 20
23.859669977824652
 30
0.0
  0
VERTEX
  5
CDE
  8
DATA
  6
CONTINUOUS
 62
     7
 10
99.332803195368626
 20
23.773849924113708
 30
0.0
  0
VERTEX
  5
CDF
  8
DATA
  6
CONTINUOUS
 62
     7
 10
99.414247958552224
 20
23.687832673137169
 30
0.0
  0
VERTEX
  5
CE0
  8
DATA
  6
CONTINUOUS
 62
     7
 10
99.493730197321781
 20
23.60161822489497
 30
0.0
  0
VERTEX
  5
CE1
  8
DATA
  6
CONTINUOUS
 62
     7
 10
99.571249911677242
 20
23.515206579387151
 30
0.0
  0
VERTEX
  5
CE2
  8
DATA
  6
CONTINUOUS
 62
     7
 10
99.646807101618634
 20
23.428597736613721
 30
0.0
  0
VERTEX
  5
CE3
  8
DATA
  6
CONTINUOUS
 62
     7
 10
99.720401767146001
 20
23.341791696574649
 30
0.0
  0
VERTEX
  5
CE4
  8
DATA
  6
CONTINUOUS
 62
     7
 10
99.792033908259285
 20
23.254788459269939
 30
0.0
  0
VERTEX
  5
CE5
  8
DATA
  6
CONTINUOUS
 62
     7
 10
99.8617035249585
 20
23.16758802469964
 30
0.0
  0
VERTEX
  5
CE6
  8
DATA
  6
CONTINUOUS
 62
     7
 10
99.929410617243661
 20
23.080190392863688
 30
0.0
  0
VERTEX
  5
CE7
  8
DATA
  6
CONTINUOUS
 62
     7
 10
99.995155185114768
 20
22.992595563762141
 30
0.0
  0
VERTEX
  5
CE8
  8
DATA
  6
CONTINUOUS
 62
     7
 10
100.05893722857169
 20
22.904803537394951
 30
0.0
  0
VERTEX
  5
CE9
  8
DATA
  6
CONTINUOUS
 62
     7
 10
100.12075674761471
 20
22.816814313762141
 30
0.0
  0
VERTEX
  5
CEA
  8
DATA
  6
CONTINUOUS
 62
     7
 10
100.18061374224359
 20
22.728627892863688
 30
0.0
  0
VERTEX
  5
CEB
  8
DATA
  6
CONTINUOUS
 62
     7
 10
100.2385082124585
 20
22.64024427469964
 30
0.0
  0
VERTEX
  5
CEC
  8
DATA
  6
CONTINUOUS
 62
     7
 10
100.29444015825931
 20
22.551663459269939
 30
0.0
  0
VERTEX
  5
CED
  8
DATA
  6
CONTINUOUS
 62
     7
 10
100.348409579646
 20
22.462885446574649
 30
0.0
  0
VERTEX
  5
CEE
  8
DATA
  6
CONTINUOUS
 62
     7
 10
100.4004164766186
 20
22.373910236613721
 30
0.0
  0
VERTEX
  5
CEF
  8
DATA
  6
CONTINUOUS
 62
     7
 10
100.4504608491772
 20
22.284737829387151
 30
0.0
  0
VERTEX
  5
CF0
  8
DATA
  6
CONTINUOUS
 62
     7
 10
100.4985426973218
 20
22.19536822489497
 30
0.0
  0
VERTEX
  5
CF1
  8
DATA
  6
CONTINUOUS
 62
     7
 10
100.5446620210522
 20
22.105801423137169
 30
0.0
  0
VERTEX
  5
CF2
  8
DATA
  6
CONTINUOUS
 62
     7
 10
100.5888188203686
 20
22.016037424113708
 30
0.0
  0
VERTEX
  5
CF3
  8
DATA
  6
CONTINUOUS
 62
     7
 10
100.631013095271
 20
21.926076227824652
 30
0.0
  0
VERTEX
  5
CF4
  8
DATA
  6
CONTINUOUS
 62
     7
 10
100.6712448457592
 20
21.835917834269971
 30
0.0
  0
VERTEX
  5
CF5
  8
DATA
  6
CONTINUOUS
 62
     7
 10
100.7095140718335
 20
21.745562243449658
 30
0.0
  0
VERTEX
  5
CF6
  8
DATA
  6
CONTINUOUS
 62
     7
 10
100.74582077349361
 20
21.655009455363711
 30
0.0
  0
VERTEX
  5
CF7
  8
DATA
  6
CONTINUOUS
 62
     7
 10
100.7801649507397
 20
21.564259470012129
 30
0.0
  0
VERTEX
  5
CF8
  8
DATA
  6
CONTINUOUS
 62
     7
 10
100.8125466035717
 20
21.47331228739495
 30
0.0
  0
VERTEX
  5
CF9
  8
DATA
  6
CONTINUOUS
 62
     7
 10
100.84296573198969
 20
21.382167907512141
 30
0.0
  0
VERTEX
  5
CFA
  8
DATA
  6
CONTINUOUS
 62
     7
 10
100.8714223359936
 20
21.2908263303637
 30
0.0
  0
VERTEX
  5
CFB
  8
DATA
  6
CONTINUOUS
 62
     7
 10
100.8979164155835
 20
21.199287555949638
 30
0.0
  0
VERTEX
  5
CFC
  8
DATA
  6
CONTINUOUS
 62
     7
 10
100.92244797075929
 20
21.107551584269949
 30
0.0
  0
VERTEX
  5
CFD
  8
DATA
  6
CONTINUOUS
 62
     7
 10
100.94501700152099
 20
21.015618415324639
 30
0.0
  0
VERTEX
  5
CFE
  8
DATA
  6
CONTINUOUS
 62
     7
 10
100.9656235078686
 20
20.923488049113701
 30
0.0
  0
VERTEX
  5
CFF
  8
DATA
  6
CONTINUOUS
 62
     7
 10
100.98426748980221
 20
20.831160485637149
 30
0.0
  0
VERTEX
  5
D00
  8
DATA
  6
CONTINUOUS
 62
     7
 10
101.0009489473217
 20
20.738635724894952
 30
0.0
  0
VERTEX
  5
D01
  8
DATA
  6
CONTINUOUS
 62
     7
 10
101.0156678804272
 20
20.645913766887141
 30
0.0
  0
VERTEX
  5
D02
  8
DATA
  6
CONTINUOUS
 62
     7
 10
101.0284242891186
 20
20.552994611613709
 30
0.0
  0
VERTEX
  5
D03
  8
DATA
  6
CONTINUOUS
 62
     7
 10
101.03921817339599
 20
20.45987825907466
 30
0.0
  0
VERTEX
  5
D04
  8
DATA
  6
CONTINUOUS
 62
     7
 10
101.0480495332592
 20
20.366564709269952
 30
0.0
  0
VERTEX
  5
D05
  8
DATA
  6
CONTINUOUS
 62
     7
 10
101.0549183687085
 20
20.273053962199629
 30
0.0
  0
VERTEX
  5
D06
  8
DATA
  6
CONTINUOUS
 62
     7
 10
101.0598246797436
 20
20.17934601786369
 30
0.0
  0
VERTEX
  5
D07
  8
DATA
  6
CONTINUOUS
 62
     7
 10
101.0627684663647
 20
20.08544087626214
 30
0.0
  0
VERTEX
  5
D08
  8
DATA
  6
CONTINUOUS
 62
     7
 10
101.06374972857169
 20
19.991338537394949
 30
0.0
  0
VERTEX
  5
D09
  8
DATA
  6
CONTINUOUS
 62
     7
 10
101.06374972857169
 20
19.991338537394949
 30
0.0
  0
VERTEX
  5
D0A
  8
DATA
  6
CONTINUOUS
 62
     7
 10
101.0627684663647
 20
19.897236506144949
 30
0.0
  0
VERTEX
  5
D0B
  8
DATA
  6
CONTINUOUS
 62
     7
 10
101.0598246797436
 20
19.80333166239495
 30
0.0
  0
VERTEX
  5
D0C
  8
DATA
  6
CONTINUOUS
 62
     7
 10
101.0549183687085
 20
19.70962400614496
 30
0.0
  0
VERTEX
  5
D0D
  8
DATA
  6
CONTINUOUS
 62
     7
 10
101.0480495332592
 20
19.61611353739497
 30
0.0
  0
VERTEX
  5
D0E
  8
DATA
  6
CONTINUOUS
 62
     7
 10
101.03921817339599
 20
19.522800256144961
 30
0.0
  0
VERTEX
  5
D0F
  8
DATA
  6
CONTINUOUS
 62
     7
 10
101.0284242891186
 20
19.42968416239496
 30
0.0
  0
VERTEX
  5
D10
  8
DATA
  6
CONTINUOUS
 62
     7
 10
101.0156678804272
 20
19.336765256144961
 30
0.0
  0
VERTEX
  5
D11
  8
DATA
  6
CONTINUOUS
 62
     7
 10
101.0009489473217
 20
19.244043537394958
 30
0.0
  0
VERTEX
  5
D12
  8
DATA
  6
CONTINUOUS
 62
     7
 10
100.98426748980221
 20
19.151519006144969
 30
0.0
  0
VERTEX
  5
D13
  8
DATA
  6
CONTINUOUS
 62
     7
 10
100.9656235078686
 20
19.059191662394969
 30
0.0
  0
VERTEX
  5
D14
  8
DATA
  6
CONTINUOUS
 62
     7
 10
100.94501700152099
 20
18.967061506144962
 30
0.0
  0
VERTEX
  5
D15
  8
DATA
  6
CONTINUOUS
 62
     7
 10
100.92244797075929
 20
18.875128537394961
 30
0.0
  0
VERTEX
  5
D16
  8
DATA
  6
CONTINUOUS
 62
     7
 10
100.8979164155835
 20
18.783392756144959
 30
0.0
  0
VERTEX
  5
D17
  8
DATA
  6
CONTINUOUS
 62
     7
 10
100.8714223359936
 20
18.691854162394961
 30
0.0
  0
VERTEX
  5
D18
  8
DATA
  6
CONTINUOUS
 62
     7
 10
100.84296573198969
 20
18.600512756144958
 30
0.0
  0
VERTEX
  5
D19
  8
DATA
  6
CONTINUOUS
 62
     7
 10
100.8125466035717
 20
18.509368537394959
 30
0.0
  0
VERTEX
  5
D1A
  8
DATA
  6
CONTINUOUS
 62
     7
 10
100.7801649507397
 20
18.418421506144949
 30
0.0
  0
VERTEX
  5
D1B
  8
DATA
  6
CONTINUOUS
 62
     7
 10
100.74582077349361
 20
18.327671662394959
 30
0.0
  0
VERTEX
  5
D1C
  8
DATA
  6
CONTINUOUS
 62
     7
 10
100.7095140718335
 20
18.237119006144962
 30
0.0
  0
VERTEX
  5
D1D
  8
DATA
  6
CONTINUOUS
 62
     7
 10
100.6712448457592
 20
18.146763537394961
 30
0.0
  0
VERTEX
  5
D1E
  8
DATA
  6
CONTINUOUS
 62
     7
 10
100.631013095271
 20
18.056605256144959
 30
0.0
  0
VERTEX
  5
D1F
  8
DATA
  6
CONTINUOUS
 62
     7
 10
100.5888188203686
 20
17.96664416239495
 30
0.0
  0
VERTEX
  5
D20
  8
DATA
  6
CONTINUOUS
 62
     7
 10
100.5446620210522
 20
17.876880256144961
 30
0.0
  0
VERTEX
  5
D21
  8
DATA
  6
CONTINUOUS
 62
     7
 10
100.4985426973218
 20
17.787313537394962
 30
0.0
  0
VERTEX
  5
D22
  8
DATA
  6
CONTINUOUS
 62
     7
 10
100.4504608491772
 20
17.697944006144962
 30
0.0
  0
VERTEX
  5
D23
  8
DATA
  6
CONTINUOUS
 62
     7
 10
100.4004164766186
 20
17.608771662394972
 30
0.0
  0
VERTEX
  5
D24
  8
DATA
  6
CONTINUOUS
 62
     7
 10
100.348409579646
 20
17.519796506144981
 30
0.0
  0
VERTEX
  5
D25
  8
DATA
  6
CONTINUOUS
 62
     7
 10
100.29444015825931
 20
17.431018537394969
 30
0.0
  0
VERTEX
  5
D26
  8
DATA
  6
CONTINUOUS
 62
     7
 10
100.2385082124585
 20
17.342437756144971
 30
0.0
  0
VERTEX
  5
D27
  8
DATA
  6
CONTINUOUS
 62
     7
 10
100.18061374224359
 20
17.254054162394961
 30
0.0
  0
VERTEX
  5
D28
  8
DATA
  6
CONTINUOUS
 62
     7
 10
100.12075674761471
 20
17.165867756144959
 30
0.0
  0
VERTEX
  5
D29
  8
DATA
  6
CONTINUOUS
 62
     7
 10
100.05893722857169
 20
17.077878537394959
 30
0.0
  0
VERTEX
  5
D2A
  8
DATA
  6
CONTINUOUS
 62
     7
 10
99.995155185114768
 20
16.990086506144959
 30
0.0
  0
VERTEX
  5
D2B
  8
DATA
  6
CONTINUOUS
 62
     7
 10
99.929410617243661
 20
16.902491662394961
 30
0.0
  0
VERTEX
  5
D2C
  8
DATA
  6
CONTINUOUS
 62
     7
 10
99.8617035249585
 20
16.815094006144971
 30
0.0
  0
VERTEX
  5
D2D
  8
DATA
  6
CONTINUOUS
 62
     7
 10
99.792033908259285
 20
16.727893537394969
 30
0.0
  0
VERTEX
  5
D2E
  8
DATA
  6
CONTINUOUS
 62
     7
 10
99.720401767146001
 20
16.640890256144981
 30
0.0
  0
VERTEX
  5
D2F
  8
DATA
  6
CONTINUOUS
 62
     7
 10
99.646807101618634
 20
16.554084162394972
 30
0.0
  0
VERTEX
  5
D30
  8
DATA
  6
CONTINUOUS
 62
     7
 10
99.571249911677242
 20
16.467475256144962
 30
0.0
  0
VERTEX
  5
D31
  8
DATA
  6
CONTINUOUS
 62
     7
 10
99.493730197321781
 20
16.381063537394962
 30
0.0
  0
VERTEX
  5
D32
  8
DATA
  6
CONTINUOUS
 62
     7
 10
99.414247958552224
 20
16.294849006144961
 30
0.0
  0
VERTEX
  5
D33
  8
DATA
  6
CONTINUOUS
 62
     7
 10
99.332803195368626
 20
16.20883166239496
 30
0.0
  0
VERTEX
  5
D34
  8
DATA
  6
CONTINUOUS
 62
     7
 10
99.249395907771003
 20
16.123011506144959
 30
0.0
  0
VERTEX
  5
D35
  8
DATA
  6
CONTINUOUS
 62
     7
 10
99.164026095759283
 20
16.037388537394961
 30
0.0
  0
VERTEX
  5
D36
  8
DATA
  6
CONTINUOUS
 62
     7
 10
99.07669375933348
 20
15.95196275614496
 30
0.0
  0
VERTEX
  5
D37
  8
DATA
  6
CONTINUOUS
 62
     7
 10
98.987398898493637
 20
15.866734162394961
 30
0.0
  0
VERTEX
  5
D38
  8
DATA
  6
CONTINUOUS
 62
     7
 10
98.896141513239769
 20
15.78170275614495
 30
0.0
  0
VERTEX
  5
D39
  8
DATA
  6
CONTINUOUS
 62
     7
 10
98.802921603571775
 20
15.696868537394961
 30
0.0
  0
VERTEX
  5
D3A
  8
DATA
  6
CONTINUOUS
 62
     7
 10
98.707739169489727
 20
15.61223150614496
 30
0.0
  0
VERTEX
  5
D3B
  8
DATA
  6
CONTINUOUS
 62
     7
 10
98.610594210993639
 20
15.527791662394961
 30
0.0
  0
VERTEX
  5
D3C
  8
DATA
  6
CONTINUOUS
 62
     7
 10
98.511486728083483
 20
15.443549006144959
 30
0.0
  0
VERTEX
  5
D3D
  8
DATA
  6
CONTINUOUS
 62
     7
 10
98.410416720759272
 20
15.35950353739495
 30
0.0
  0
VERTEX
  5
D3E
  8
DATA
  6
CONTINUOUS
 62
     7
 10
98.307384189020993
 20
15.27565525614496
 30
0.0
  0
VERTEX
  5
D3F
  8
DATA
  6
CONTINUOUS
 62
     7
 10
98.202389132868646
 20
15.19200416239496
 30
0.0
  0
VERTEX
  5
D40
  8
DATA
  6
CONTINUOUS
 62
     7
 10
98.09543155230223
 20
15.10855025614496
 30
0.0
  0
VERTEX
  5
D41
  8
DATA
  6
CONTINUOUS
 62
     7
 10
97.98651144732176
 20
15.02529353739496
 30
0.0
  0
VERTEX
  5
D42
  8
DATA
  6
CONTINUOUS
 62
     7
 10
97.875628817927236
 20
14.94223400614495
 30
0.0
  0
VERTEX
  5
D43
  8
DATA
  6
CONTINUOUS
 62
     7
 10
97.762783664118643
 20
14.85937166239496
 30
0.0
  0
VERTEX
  5
D44
  8
DATA
  6
CONTINUOUS
 62
     7
 10
97.647975985895997
 20
14.77670650614496
 30
0.0
  0
VERTEX
  5
D45
  8
DATA
  6
CONTINUOUS
 62
     7
 10
97.531205783259281
 20
14.694238537394961
 30
0.0
  0
VERTEX
  5
D46
  8
DATA
  6
CONTINUOUS
 62
     7
 10
97.412473056208484
 20
14.61196775614496
 30
0.0
  0
VERTEX
  5
D47
  8
DATA
  6
CONTINUOUS
 62
     7
 10
97.291777804743646
 20
14.52989416239495
 30
0.0
  0
VERTEX
  5
D48
  8
DATA
  6
CONTINUOUS
 62
     7
 10
97.169120028864768
 20
14.448017756144949
 30
0.0
  0
VERTEX
  5
D49
  8
DATA
  6
CONTINUOUS
 62
     7
 10
97.044499728571779
 20
14.366338537394951
 30
0.0
  0
VERTEX
  5
D4A
  8
DATA
  6
CONTINUOUS
 62
     7
 10
97.044499728571779
 20
14.366338537394951
 30
0.0
  0
VERTEX
  5
D4B
  8
DATA
  6
CONTINUOUS
 62
     7
 10
96.92889530013754
 20
14.29186814046488
 30
0.0
  0
VERTEX
  5
D4C
  8
DATA
  6
CONTINUOUS
 62
     7
 10
96.81208643601795
 20
14.217849405893441
 30
0.0
  0
VERTEX
  5
D4D
  8
DATA
  6
CONTINUOUS
 62
     7
 10
96.694073136213078
 20
14.14428233368062
 30
0.0
  0
VERTEX
  5
D4E
  8
DATA
  6
CONTINUOUS
 62
     7
 10
96.574855400722853
 20
14.07116692382642
 30
0.0
  0
VERTEX
  5
D4F
  8
DATA
  6
CONTINUOUS
 62
     7
 10
96.454433229547277
 20
13.998503176330839
 30
0.0
  0
VERTEX
  5
D50
  8
DATA
  6
CONTINUOUS
 62
     7
 10
96.332806622686405
 20
13.926291091193869
 30
0.0
  0
VERTEX
  5
D51
  8
DATA
  6
CONTINUOUS
 62
     7
 10
96.209975580140167
 20
13.85453066841553
 30
0.0
  0
VERTEX
  5
D52
  8
DATA
  6
CONTINUOUS
 62
     7
 10
96.085940101908591
 20
13.7832219079958
 30
0.0
  0
VERTEX
  5
D53
  8
DATA
  6
CONTINUOUS
 62
     7
 10
95.960700187991719
 20
13.71236480993471
 30
0.0
  0
VERTEX
  5
D54
  8
DATA
  6
CONTINUOUS
 62
     7
 10
95.834255838389495
 20
13.64195937423222
 30
0.0
  0
VERTEX
  5
D55
  8
DATA
  6
CONTINUOUS
 62
     7
 10
95.706607053101962
 20
13.57200560088836
 30
0.0
  0
VERTEX
  5
D56
  8
DATA
  6
CONTINUOUS
 62
     7
 10
95.577753832129062
 20
13.50250348990312
 30
0.0
  0
VERTEX
  5
D57
  8
DATA
  6
CONTINUOUS
 62
     7
 10
95.447696175470853
 20
13.43345304127649
 30
0.0
  0
VERTEX
  5
D58
  8
DATA
  6
CONTINUOUS
 62
     7
 10
95.316434083127305
 20
13.364854255008479
 30
0.0
  0
VERTEX
  5
D59
  8
DATA
  6
CONTINUOUS
 62
     7
 10
95.183967555098434
 20
13.29670713109908
 30
0.0
  0
VERTEX
  5
D5A
  8
DATA
  6
CONTINUOUS
 62
     7
 10
95.050296591384225
 20
13.22901166954833
 30
0.0
  0
VERTEX
  5
D5B
  8
DATA
  6
CONTINUOUS
 62
     7
 10
94.915421191984677
 20
13.161767870356179
 30
0.0
  0
VERTEX
  5
D5C
  8
DATA
  6
CONTINUOUS
 62
     7
 10
94.779341356899792
 20
13.094975733522659
 30
0.0
  0
VERTEX
  5
D5D
  8
DATA
  6
CONTINUOUS
 62
     7
 10
94.642057086129583
 20
13.028635259047739
 30
0.0
  0
VERTEX
  5
D5E
  8
DATA
  6
CONTINUOUS
 62
     7
 10
94.503568379674036
 20
12.962746446931471
 30
0.0
  0
VERTEX
  5
D5F
  8
DATA
  6
CONTINUOUS
 62
     7
 10
94.363875237533207
 20
12.8973092971738
 30
0.0
  0
VERTEX
  5
D60
  8
DATA
  6
CONTINUOUS
 62
     7
 10
94.222977659706999
 20
12.832323809774749
 30
0.0
  0
VERTEX
  5
D61
  8
DATA
  6
CONTINUOUS
 62
     7
 10
94.080875646195494
 20
12.767789984734319
 30
0.0
  0
VERTEX
  5
D62
  8
DATA
  6
CONTINUOUS
 62
     7
 10
93.937569196998638
 20
12.70370782205252
 30
0.0
  0
VERTEX
  5
D63
  8
DATA
  6
CONTINUOUS
 62
     7
 10
93.793058312116429
 20
12.640077321729329
 30
0.0
  0
VERTEX
  5
D64
  8
DATA
  6
CONTINUOUS
 62
     7
 10
93.647342991548925
 20
12.57689848376476
 30
0.0
  0
VERTEX
  5
D65
  8
DATA
  6
CONTINUOUS
 62
     7
 10
93.500423235296054
 20
12.51417130815882
 30
0.0
  0
VERTEX
  5
D66
  8
DATA
  6
CONTINUOUS
 62
     7
 10
93.352299043357874
 20
12.45189579491149
 30
0.0
  0
VERTEX
  5
D67
  8
DATA
  6
CONTINUOUS
 62
     7
 10
93.202970415734384
 20
12.39007194402279
 30
0.0
  0
VERTEX
  5
D68
  8
DATA
  6
CONTINUOUS
 62
     7
 10
93.0524373524255
 20
12.3286997554927
 30
0.0
  0
VERTEX
  5
D69
  8
DATA
  6
CONTINUOUS
 62
     7
 10
92.90069985343132
 20
12.26777922932123
 30
0.0
  0
VERTEX
  5
D6A
  8
DATA
  6
CONTINUOUS
 62
     7
 10
92.747757918751773
 20
12.2073103655084
 30
0.0
  0
VERTEX
  5
D6B
  8
DATA
  6
CONTINUOUS
 62
     7
 10
92.59361154838696
 20
12.14729316405419
 30
0.0
  0
VERTEX
  5
D6C
  8
DATA
  6
CONTINUOUS
 62
     7
 10
92.438260742336794
 20
12.087727624958591
 30
0.0
  0
VERTEX
  5
D6D
  8
DATA
  6
CONTINUOUS
 62
     7
 10
92.281705500601277
 20
12.0286137482216
 30
0.0
  0
VERTEX
  5
D6E
  8
DATA
  6
CONTINUOUS
 62
     7
 10
92.123945823180449
 20
11.96995153384324
 30
0.0
  0
VERTEX
  5
D6F
  8
DATA
  6
CONTINUOUS
 62
     7
 10
91.964981710074255
 20
11.911740981823471
 30
0.0
  0
VERTEX
  5
D70
  8
DATA
  6
CONTINUOUS
 62
     7
 10
91.804813161282809
 20
11.85398209216234
 30
0.0
  0
VERTEX
  5
D71
  8
DATA
  6
CONTINUOUS
 62
     7
 10
91.643440176805953
 20
11.796674864859821
 30
0.0
  0
VERTEX
  5
D72
  8
DATA
  6
CONTINUOUS
 62
     7
 10
91.480862756643788
 20
11.739819299915951
 30
0.0
  0
VERTEX
  5
D73
  8
DATA
  6
CONTINUOUS
 62
     7
 10
91.317080900796299
 20
11.683415397330689
 30
0.0
  0
VERTEX
  5
D74
  8
DATA
  6
CONTINUOUS
 62
     7
 10
91.152094609263472
 20
11.627463157104041
 30
0.0
  0
VERTEX
  5
D75
  8
DATA
  6
CONTINUOUS
 62
     7
 10
90.985903882045307
 20
11.571962579236009
 30
0.0
  0
VERTEX
  5
D76
  8
DATA
  6
CONTINUOUS
 62
     7
 10
90.818508719141846
 20
11.516913663726619
 30
0.0
  0
VERTEX
  5
D77
  8
DATA
  6
CONTINUOUS
 62
     7
 10
90.649909120552977
 20
11.46231641057585
 30
0.0
  0
VERTEX
  5
D78
  8
DATA
  6
CONTINUOUS
 62
     7
 10
90.48010508627884
 20
11.40817081978366
 30
0.0
  0
VERTEX
  5
D79
  8
DATA
  6
CONTINUOUS
 62
     7
 10
90.309096616319366
 20
11.35447689135011
 30
0.0
  0
VERTEX
  5
D7A
  8
DATA
  6
CONTINUOUS
 62
     7
 10
90.136883710674567
 20
11.30123462527518
 30
0.0
  0
VERTEX
  5
D7B
  8
DATA
  6
CONTINUOUS
 62
     7
 10
89.963466369344431
 20
11.248444021558861
 30
0.0
  0
VERTEX
  5
D7C
  8
DATA
  6
CONTINUOUS
 62
     7
 10
89.788844592328914
 20
11.196105080201161
 30
0.0
  0
VERTEX
  5
D7D
  8
DATA
  6
CONTINUOUS
 62
     7
 10
89.613018379628116
 20
11.1442178012021
 30
0.0
  0
VERTEX
  5
D7E
  8
DATA
  6
CONTINUOUS
 62
     7
 10
89.435987731241994
 20
11.092782184561649
 30
0.0
  0
VERTEX
  5
D7F
  8
DATA
  6
CONTINUOUS
 62
     7
 10
89.257752647170506
 20
11.04179823027982
 30
0.0
  0
VERTEX
  5
D80
  8
DATA
  6
CONTINUOUS
 62
     7
 10
89.078313127413736
 20
10.9912659383566
 30
0.0
  0
VERTEX
  5
D81
  8
DATA
  6
CONTINUOUS
 62
     7
 10
88.897669171971572
 20
10.941185308792029
 30
0.0
  0
VERTEX
  5
D82
  8
DATA
  6
CONTINUOUS
 62
     7
 10
88.715820780844112
 20
10.891556341586069
 30
0.0
  0
VERTEX
  5
D83
  8
DATA
  6
CONTINUOUS
 62
     7
 10
88.532767954031314
 20
10.84237903673872
 30
0.0
  0
VERTEX
  5
D84
  8
DATA
  6
CONTINUOUS
 62
     7
 10
88.348510691533178
 20
10.793653394249979
 30
0.0
  0
VERTEX
  5
D85
  8
DATA
  6
CONTINUOUS
 62
     7
 10
88.163048993349747
 20
10.74537941411989
 30
0.0
  0
VERTEX
  5
D86
  8
DATA
  6
CONTINUOUS
 62
     7
 10
87.976382859480935
 20
10.697557096348421
 30
0.0
  0
VERTEX
  5
D87
  8
DATA
  6
CONTINUOUS
 62
     7
 10
87.788512289926814
 20
10.650186440935549
 30
0.0
  0
VERTEX
  5
D88
  8
DATA
  6
CONTINUOUS
 62
     7
 10
87.599437284687369
 20
10.603267447881301
 30
0.0
  0
VERTEX
  5
D89
  8
DATA
  6
CONTINUOUS
 62
     7
 10
87.409157843762571
 20
10.55680011718567
 30
0.0
  0
VERTEX
  5
D8A
  8
DATA
  6
CONTINUOUS
 62
     7
 10
87.217673967152464
 20
10.51078444884868
 30
0.0
  0
VERTEX
  5
D8B
  8
DATA
  6
CONTINUOUS
 62
     7
 10
87.217673967152464
 20
10.51078444884868
 30
0.0
  0
SEQEND
  5
D8C
  8
DATA
  6
CONTINUOUS
 62
     7
  0
LINE
  5
743
  8
DATA
  6
CONTINUOUS
 62
     7
 10
36.500009999999989
 20
38.75001000000001
 30
0.0
 11
36.049999999999997
 21
38.751254496819101
 31
0.0
  0
LINE
  5
744
  8
DATA
  6
CONTINUOUS
 62
     7
 10
36.500009999999989
 20
1.25
 30
0.0
 11
36.060009999999991
 21
1.25
 31
0.0
  0
LINE
  5
745
  8
DATA
  6
CONTINUOUS
 62
     7
 10
35.003625125066172
 20
1.5028148708304621
 30
0.0
 11
35.003625125066172
 21
38.50281487083047
 31
0.0
  0
TEXT
  5
746
  8
DATA
 62
     7
 10
33.762791791732838
 20
13.38823153749712
 30
0.0
 40
4.072102864583333
  1
SM87A
 50
90.0
 41
0.7
 11
29.690688927149509
 21
13.38823153749712
 31
0.0
 73
     3
  0
LINE
  5
747
  8
DATA
  6
CONTINUOUS
 62
     7
 10
35.003625125066172
 20
1.5028148708304621
 30
0.0
 11
28.003625125066161
 21
1.5028148708304621
 31
0.0
  0
LINE
  5
748
  8
DATA
  6
CONTINUOUS
 62
     7
 10
35.003625125066172
 20
38.50281487083047
 30
0.0
 11
28.003625125066161
 21
38.50281487083047
 31
0.0
  0
LINE
  5
749
  8
DATA
  6
CONTINUOUS
 62
     7
 10
35.003625125066172
 20
2.7528148708304618
 30
0.0
 11
35.503625125066158
 21
2.7528148708304618
 31
0.0
  0
LINE
  5
74A
  8
DATA
  6
CONTINUOUS
 62
     7
 10
35.003625125066172
 20
37.75281487083047
 30
0.0
 11
35.503625125066158
 21
37.75281487083047
 31
0.0
  0
LINE
  5
74B
  8
DATA
  6
CONTINUOUS
 62
     7
 10
28.003625125066161
 20
1.5028148708304621
 30
0.0
 11
28.003625125066161
 21
38.50281487083047
 31
0.0
  0
LINE
  5
74C
  8
DATA
  6
CONTINUOUS
 62
     7
 10
26.00362512506619
 20
2.0028148708304618
 30
0.0
 11
26.00362512506619
 21
38.00281487083047
 31
0.0
  0
LINE
  5
74D
  8
DATA
  6
CONTINUOUS
 62
     7
 10
26.00362512506619
 20
2.0028148708304618
 30
0.0
 11
28.003625125066161
 21
1.5028148708304621
 31
0.0
  0
LINE
  5
74E
  8
DATA
  6
CONTINUOUS
 62
     7
 10
26.00362512506619
 20
38.00281487083047
 30
0.0
 11
28.003625125066161
 21
38.50281487083047
 31
0.0
  0
LINE
  5
74F
  8
DATA
  6
CONTINUOUS
 62
     7
 10
20.003625125066328
 20
0.7528148708304628
 30
0.0
 11
20.003625125066328
 21
39.25281487083047
 31
0.0
  0
LINE
  5
750
  8
DATA
  6
CONTINUOUS
 62
     7
 10
20.003625125066328
 20
0.7528148708304628
 30
0.0
 11
26.00362512506619
 21
2.0028148708304618
 31
0.0
  0
LINE
  5
751
  8
DATA
  6
CONTINUOUS
 62
     7
 10
20.003625125066328
 20
39.25281487083047
 30
0.0
 11
26.00362512506619
 21
38.00281487083047
 31
0.0
  0
LINE
  5
752
  8
DATA
  6
CONTINUOUS
 62
     7
 10
-3.996374874933323
 20
-4.7471851291695364
 30
0.0
 11
-3.996374874933323
 21
44.75281487083047
 31
0.0
  0
LINE
  5
753
  8
DATA
  6
CONTINUOUS
 62
     7
 10
-8.9963748749333234
 20
-3.9971851291695359
 30
0.0
 11
-8.9963748749333234
 21
44.00281487083047
 31
0.0
  0
LINE
  5
754
  8
DATA
  6
CONTINUOUS
 62
     7
 10
-8.9963748749333234
 20
-3.9971851291695359
 30
0.0
 11
-3.996374874933323
 21
-4.7471851291695364
 31
0.0
  0
LINE
  5
755
  8
DATA
  6
CONTINUOUS
 62
     7
 10
-8.9963748749333234
 20
44.00281487083047
 30
0.0
 11
-3.996374874933323
 21
44.75281487083047
 31
0.0
  0
LINE
  5
756
  8
DATA
  6
CONTINUOUS
 62
     7
 10
-33.996374874933331
 20
5.1394823072413374
 30
0.0
 11
-33.996374874933331
 21
34.866147434419588
 31
0.0
  0
LINE
  5
757
  8
DATA
  6
CONTINUOUS
 62
     7
 10
20.003625125066311
 20
1.5028148708304621
 30
0.0
 11
1.3851106276785139
 21
-3.1366075299244178
 31
0.0
  0
LINE
  5
758
  8
DATA
  6
CONTINUOUS
 62
     7
 10
-3.9963748749332662
 20
-3.730033884612368
 30
0.0
 11
-3.4506829317158321
 21
-3.730033884612368
 31
0.0
  0
ARC
  5
759
  8
DATA
  6
CONTINUOUS
 62
     7
 10
-5.8341675170737934
 20
64.762012195245106
 30
0.0
 40
68.33240501217179
 50
247.93960187798641
 51
267.34758544127573
  0
ARC
  5
75A
  8
DATA
  6
CONTINUOUS
 62
     7
 10
-29.996374874933331
 20
5.1394823072413374
 30
0.0
 40
4.0
 50
180.0
 51
247.93960187798641
  0
ARC
  5
75B
  8
DATA
  6
CONTINUOUS
 62
     7
 10
-3.4506829317158041
 20
16.269966115387628
 30
0.0
 40
20.0
 50
269.99999999999989
 51
283.99219270650372
  0
ARC
  5
75C
  8
DATA
  6
CONTINUOUS
 62
     7
 10
-5.8341675170737934
 20
-24.756382453584202
 30
0.0
 40
68.33240501217179
 50
92.652414558724288
 51
112.06039812201359
  0
ARC
  5
75D
  8
DATA
  6
CONTINUOUS
 62
     7
 10
-29.996374874933331
 20
34.866147434419588
 30
0.0
 40
3.999999999999992
 50
112.06039812201359
 51
180.0
  0
LINE
  5
75E
  8
DATA
  6
CONTINUOUS
 62
     7
 10
20.003625125066311
 20
38.50281487083047
 30
0.0
 11
1.3851106276785139
 21
43.14223727158533
 31
0.0
  0
LINE
  5
75F
  8
DATA
  6
CONTINUOUS
 62
     7
 10
-3.9963748749332662
 20
43.735663626273279
 30
0.0
 11
-3.4506829317158321
 21
43.735663626273279
 31
0.0
  0
ARC
  5
760
  8
DATA
  6
CONTINUOUS
 62
     7
 10
-3.4506829317158041
 20
23.73566362627329
 30
0.0
 40
20.0
 50
76.007807293496271
 51
90.000000000000114
  0
LINE
  5
761
  8
DATA
  6
CONTINUOUS
 62
     7
 10
35.503625125066158
 20
37.75281487083047
 30
0.0
 11
36.060009999999991
 21
37.75281487083047
 31
0.0
  0
LINE
  5
762
  8
DATA
  6
CONTINUOUS
 62
     7
 10
35.503625125066158
 20
2.7528148708304618
 30
0.0
 11
36.060009999999991
 21
2.7528148708304618
 31
0.0
  0
TEXT
  5
763
  8
DATA
 62
     7
 10
-60.000009999999989
 20
-107.992175
 30
0.0
 40
3.2576822916666659
  1
仕様および外観は予告なく変更されることがありますので、ご了承ください。
 41
0.7
 11
-60.000009999999989
 21
-104.73449270833331
 31
0.0
 73
     3
  0
ENDSEC
  0
EOF
