  0
SECTION
  2
HEADER
  9
$ACADVER
  1
AC1009
  9
$INSBASE
 10
0.0
 20
0.0
 30
0.0
  9
$EXTMIN
 10
-260.02196097928459
 20
-399.89217451641349
 30
-0.0015258207003583
  9
$EXTMAX
 10
460.0219643320458
 20
670.62806302742274
 30
0.0000000349246037
  9
$LIMMIN
 10
0.0
 20
0.0
  9
$LIMMAX
 10
0.0
 20
0.0
  9
$ORTHOMODE
 70
     0
  9
$REGENMODE
 70
     1
  9
$FILLMODE
 70
     1
  9
$QTEXTMODE
 70
     0
  9
$MIRRTEXT
 70
     1
  9
$DRAGMODE
 70
     2
  9
$LTSCALE
 40
20.32
  9
$OSMODE
 70
   231
  9
$ATTMODE
 70
     1
  9
$TEXTSIZE
 40
0.0
  9
$TRACEWID
 40
1.0
  9
$TEXTSTYLE
  7
STANDARD
  9
$CLAYER
  8
DATA
  9
$CELTYPE
  6
CONTINUOUS
  9
$CECOLOR
 62
   256
  9
$DIMSCALE
 40
1.0
  9
$DIMASZ
 40
0.18
  9
$DIMEXO
 40
0.0625
  9
$DIMDLI
 40
0.38
  9
$DIMRND
 40
0.0
  9
$DIMDLE
 40
0.0
  9
$DIMEXE
 40
0.18
  9
$DIMTP
 40
0.0
  9
$DIMTM
 40
0.0
  9
$DIMTXT
 40
0.18
  9
$DIMCEN
 40
0.09
  9
$DIMTSZ
 40
0.0
  9
$DIMTOL
 70
     0
  9
$DIMLIM
 70
     0
  9
$DIMTIH
 70
     1
  9
$DIMTOH
 70
     1
  9
$DIMSE1
 70
     0
  9
$DIMSE2
 70
     0
  9
$DIMTAD
 70
     0
  9
$DIMZIN
 70
     0
  9
$DIMBLK
  1

  9
$DIMASO
 70
     1
  9
$DIMSHO
 70
     1
  9
$DIMPOST
  1

  9
$DIMAPOST
  1

  9
$DIMALT
 70
     0
  9
$DIMALTD
 70
     2
  9
$DIMALTF
 40
25.399999999999999
  9
$DIMLFAC
 40
1.0
  9
$DIMTOFL
 70
     0
  9
$DIMTVP
 40
0.0
  9
$DIMTIX
 70
     0
  9
$DIMSOXD
 70
     0
  9
$DIMSAH
 70
     0
  9
$DIMBLK1
  1

  9
$DIMBLK2
  1

  9
$DIMSTYLE
  2
STANDARD
  9
$DIMCLRD
 70
     0
  9
$DIMCLRE
 70
     0
  9
$DIMCLRT
 70
     0
  9
$DIMTFAC
 40
1.0
  9
$DIMGAP
 40
0.09
  9
$LUNITS
 70
     2
  9
$LUPREC
 70
     4
  9
$SKETCHINC
 40
0.1
  9
$FILLETRAD
 40
0.0
  9
$AUNITS
 70
     0
  9
$AUPREC
 70
     0
  9
$MENU
  1
acad
  9
$ELEVATION
 40
0.0
  9
$PELEVATION
 40
0.0
  9
$THICKNESS
 40
0.0
  9
$LIMCHECK
 70
     0
  9
$BLIPMODE
 70
     0
  9
$CHAMFERA
 40
0.0
  9
$CHAMFERB
 40
0.0
  9
$SKPOLY
 70
     0
  9
$TDCREATE
 40
2453875.6516666668
  9
$TDUPDATE
 40
2453875.653405556
  9
$TDINDWG
 40
0.0003376505
  9
$TDUSRTIMER
 40
0.0003374769
  9
$USRTIMER
 70
     1
  9
$ANGBASE
 50
0.0
  9
$ANGDIR
 70
     0
  9
$PDMODE
 70
     1
  9
$PDSIZE
 40
-2.0
  9
$PLINEWID
 40
0.0
  9
$COORDS
 70
     1
  9
$SPLFRAME
 70
     0
  9
$SPLINETYPE
 70
     6
  9
$SPLINESEGS
 70
     8
  9
$ATTDIA
 70
     0
  9
$ATTREQ
 70
     1
  9
$HANDLING
 70
     1
  9
$HANDSEED
  5
574
  9
$SURFTAB1
 70
     6
  9
$SURFTAB2
 70
     6
  9
$SURFTYPE
 70
     6
  9
$SURFU
 70
     6
  9
$SURFV
 70
     6
  9
$UCSNAME
  2

  9
$UCSORG
 10
0.0
 20
0.0
 30
0.0
  9
$UCSXDIR
 10
1.0
 20
0.0
 30
0.0
  9
$UCSYDIR
 10
0.0
 20
1.0
 30
0.0
  9
$PUCSNAME
  2

  9
$PUCSORG
 10
0.0
 20
0.0
 30
0.0
  9
$PUCSXDIR
 10
1.0
 20
0.0
 30
0.0
  9
$PUCSYDIR
 10
0.0
 20
1.0
 30
0.0
  9
$USERI1
 70
     0
  9
$USERI2
 70
     0
  9
$USERI3
 70
     0
  9
$USERI4
 70
     0
  9
$USERI5
 70
     0
  9
$USERR1
 40
0.0
  9
$USERR2
 40
0.0
  9
$USERR3
 40
0.0
  9
$USERR4
 40
0.0
  9
$USERR5
 40
0.0
  9
$WORLDVIEW
 70
     1
  9
$SHADEDGE
 70
     3
  9
$SHADEDIF
 70
    70
  9
$TILEMODE
 70
     1
  9
$MAXACTVP
 70
    64
  9
$PLIMCHECK
 70
     0
  9
$PEXTMIN
 10
1.0000000000000000E+020
 20
1.0000000000000000E+020
 30
1.0000000000000000E+020
  9
$PEXTMAX
 10
-1.0000000000000000E+020
 20
-1.0000000000000000E+020
 30
-1.0000000000000000E+020
  9
$PLIMMIN
 10
0.0
 20
0.0
  9
$PLIMMAX
 10
12.0
 20
9.0
  9
$UNITMODE
 70
     0
  9
$VISRETAIN
 70
     0
  9
$PLINEGEN
 70
     1
  9
$PSLTSCALE
 70
     0
  0
ENDSEC
  0
SECTION
  2
TABLES
  0
TABLE
  2
VPORT
 70
     1
  0
VPORT
  2
*ACTIVE
 70
     0
 10
0.0
 20
0.0
 11
1.0
 21
1.0
 12
100.00000167638061
 22
135.3679442555046
 13
0.0
 23
0.0
 14
1.0
 24
1.0
 15
0.0
 25
0.0
 16
0.0
 26
0.0
 36
1.0
 17
0.0
 27
0.0
 37
0.0
 40
1079.4042229176439
 41
1.6703601108033239
 42
50.0
 43
0.0
 44
0.0
 50
0.0
 51
0.0
 71
     0
 72
  2000
 73
     1
 74
     1
 75
     0
 76
     0
 77
     0
 78
     0
  0
ENDTAB
  0
TABLE
  2
LTYPE
 70
    11
  0
LTYPE
  2
CONTINUOUS
 70
     0
  3
Solid line
 72
    65
 73
     0
 40
0.0
  0
ENDTAB
  0
TABLE
  2
LAYER
 70
     5
  0
LAYER
  2
0
 70
     0
 62
     7
  6
CONTINUOUS
  0
LAYER
  2
DATA
 70
     0
 62
     7
  6
CONTINUOUS
  0
LAYER
  2
HIBINO-BASE
 70
     0
 62
     7
  6
CONTINUOUS
  0
LAYER
  2
SPEC
 70
     0
 62
     7
  6
CONTINUOUS
  0
LAYER
  2
DIMNSIONS
 70
     0
 62
     7
  6
CONTINUOUS
  0
ENDTAB
  0
TABLE
  2
STYLE
 70
     2
  0
STYLE
  2
STANDARD
 70
     0
 40
0.0
 41
1.0
 50
0.0
 71
     0
 42
0.0
  3
txt
  4
BIGFONT.SHX
  0
ENDTAB
  0
TABLE
  2
VIEW
 70
     0
  0
ENDTAB
  0
TABLE
  2
UCS
 70
     0
  0
ENDTAB
  0
TABLE
  2
APPID
 70
     1
  0
APPID
  2
ACAD
 70
     0
  0
ENDTAB
  0
TABLE
  2
DIMSTYLE
 70
     1
  0
DIMSTYLE
  2
STANDARD
 70
     0
  3

  4

  5

  6

  7

 40
1.0
 41
0.18
 42
0.0625
 43
0.38
 44
0.18
 45
0.0
 46
0.0
 47
0.0
 48
0.0
140
0.18
141
0.09
142
0.0
143
25.399999999999999
144
1.0
145
0.0
146
1.0
147
0.09
 71
     0
 72
     0
 73
     1
 74
     1
 75
     0
 76
     0
 77
     0
 78
     0
170
     0
171
     2
172
     0
173
     0
174
     0
175
     0
176
     0
177
     0
178
     0
  0
ENDTAB
  0
ENDSEC
  0
SECTION
  2
BLOCKS
  0
BLOCK
  8
0
  2
$MODEL_SPACE
 70
     0
 10
0.0
 20
0.0
 30
0.0
  3
$MODEL_SPACE
  1

  0
ENDBLK
  5
43A
  8
0
  0
BLOCK
 67
     1
  8
0
  2
$PAPER_SPACE
 70
     0
 10
0.0
 20
0.0
 30
0.0
  3
$PAPER_SPACE
  1

  0
ENDBLK
  5
436
 67
     1
  8
0
  0
ENDSEC
  0
SECTION
  2
ENTITIES
  0
LINE
  5
2C
  8
HIBINO-BASE
  6
CONTINUOUS
 62
     7
 10
-259.99999000000003
 20
670.59546
 30
0.0
 11
459.99999000000003
 21
670.59546
 31
0.0
  0
LINE
  5
2D
  8
HIBINO-BASE
  6
CONTINUOUS
 62
     7
 10
459.99999000000003
 20
-369.40453000000002
 30
0.0
 11
-259.99999000000003
 21
-369.40453000000002
 31
0.0
  0
LINE
  5
2E
  8
HIBINO-BASE
  6
CONTINUOUS
 62
     7
 10
-259.99999000000003
 20
-369.40453000000002
 30
0.0
 11
-259.99999000000003
 21
670.59546
 31
0.0
  0
TEXT
  5
2F
  8
HIBINO-BASE
 62
     7
 10
-231.26399000000001
 20
-395.03923259999988
 30
0.0
 40
14.400169023437501
  1
Hibino Corporation
 41
0.8
 11
-231.26399000000001
 21
-380.63906357656231
 31
0.0
 73
     3
  0
LINE
  5
30
  8
HIBINO-BASE
  6
CONTINUOUS
 62
     7
 10
459.99999000000003
 20
670.59546
 30
0.0
 11
459.99999000000003
 21
-369.40453000000002
 31
0.0
  0
LINE
  5
31
  8
HIBINO-BASE
  6
CONTINUOUS
 62
     7
 10
100.0
 20
-279.40453000000002
 30
0.0
 11
459.99999000000003
 21
-279.40453000000002
 31
0.0
  0
LINE
  5
32
  8
HIBINO-BASE
  6
CONTINUOUS
 62
     7
 10
100.0
 20
-369.40453000000002
 30
0.0
 11
100.0
 21
-279.40453000000002
 31
0.0
  0
TEXT
  5
33
  8
HIBINO-BASE
 62
     7
 10
103.59999000000001
 20
-290.20454280000001
 30
0.0
 40
7.2001037500000002
  1
NOTE
 41
0.8
 11
103.59999000000001
 21
-283.00443904999997
 31
0.0
 73
     3
  0
LINE
  5
34
  8
HIBINO-BASE
  6
CONTINUOUS
 62
     7
 10
240.0
 20
-369.40453000000002
 30
0.0
 11
240.0
 21
-279.40453000000002
 31
0.0
  0
TEXT
  5
35
  8
HIBINO-BASE
 62
     7
 10
243.59999999999999
 20
-290.20454280000001
 30
0.0
 40
7.2001037500000002
  1
TITLE
 41
0.8
 11
243.59999999999999
 21
-283.00443904999997
 31
0.0
 73
     3
  0
TEXT
  5
36
  8
HIBINO-BASE
 62
     7
 10
300.27355
 20
-395.03923259999988
 30
0.0
 40
14.400169023437501
  1
ヒビノ株式会社
 41
0.8
 11
300.27355
 21
-380.63906357656231
 31
0.0
 73
     3
  0
LINE
  5
37
  8
HIBINO-BASE
  6
CONTINUOUS
 62
     7
 10
100.0
 20
-329.40453000000002
 30
0.0
 11
459.99999000000003
 21
-329.40453000000002
 31
0.0
  0
TEXT
  5
38
  8
HIBINO-BASE
 62
     7
 10
293.60000000000002
 20
-339.97926280000001
 30
0.0
 40
7.2001037500000002
  1
DRAWN
 41
0.8
 11
293.60000000000002
 21
-332.77915904999998
 31
0.0
 73
     3
  0
TEXT
  5
39
  8
HIBINO-BASE
 62
     7
 10
193.59999999999999
 20
-339.97926280000001
 30
0.0
 40
7.2001037500000002
  1
DATE
 41
0.8
 11
193.59999999999999
 21
-332.77915904999998
 31
0.0
 73
     3
  0
TEXT
  5
3A
  8
HIBINO-BASE
 62
     7
 10
104.39999
 20
-339.88234619999992
 30
0.0
 40
6.5153671484374991
  1
図面サイズ
 41
0.8
 11
104.39999
 21
-333.3669790515624
 31
0.0
 73
     3
  0
TEXT
  5
3B
  8
HIBINO-BASE
 62
     7
 10
153.59998999999999
 20
-339.97926280000001
 30
0.0
 40
7.2001037500000002
  1
SCALE
 41
0.8
 11
153.59998999999999
 21
-332.77915904999998
 31
0.0
 73
     3
  0
TEXT
  5
3C
  8
HIBINO-BASE
 62
     7
 10
243.59999999999999
 20
-339.97926280000001
 30
0.0
 40
7.2001037500000002
  1
DESIGN
 41
0.8
 11
243.59999999999999
 21
-332.77915904999998
 31
0.0
 73
     3
  0
TEXT
  5
3D
  8
HIBINO-BASE
 62
     7
 10
393.59998999999999
 20
-339.97926280000001
 30
0.0
 40
7.2001037500000002
  1
DRAWING NO.
 41
0.8
 11
393.59998999999999
 21
-332.77915904999998
 31
0.0
 73
     3
  0
TEXT
  5
3E
  8
HIBINO-BASE
 62
     7
 10
343.59998999999999
 20
-339.97926280000001
 30
0.0
 40
7.2001037500000002
  1
CHECK
 41
0.8
 11
343.59998999999999
 21
-332.77915904999998
 31
0.0
 73
     3
  0
LINE
  5
3F
  8
HIBINO-BASE
  6
CONTINUOUS
 62
     7
 10
157.49998999999991
 20
-364.40453000000002
 30
0.0
 11
172.5
 21
-349.40453000000002
 31
0.0
  0
TEXT
  5
40
  8
HIBINO-BASE
 62
     7
 10
154.99998999999991
 20
-356.2674068
 30
0.0
 40
8.6871459375000004
  1
1
 41
0.8
 11
154.99998999999991
 21
-347.58026086249993
 31
0.0
 73
     3
  0
LINE
  5
41
  8
HIBINO-BASE
  6
CONTINUOUS
 62
     7
 10
149.99998999999991
 20
-369.40453000000002
 30
0.0
 11
149.99998999999991
 21
-329.40453000000002
 31
0.0
  0
LINE
  5
42
  8
HIBINO-BASE
  6
CONTINUOUS
 62
     7
 10
189.99999
 20
-369.40453000000002
 30
0.0
 11
189.99999
 21
-329.40453000000002
 31
0.0
  0
LINE
  5
43
  8
HIBINO-BASE
  6
CONTINUOUS
 62
     7
 10
289.99999000000003
 20
-329.40453000000002
 30
0.0
 11
289.99999000000003
 21
-369.40453000000002
 31
0.0
  0
LINE
  5
44
  8
HIBINO-BASE
  6
CONTINUOUS
 62
     7
 10
390.0
 20
-329.40453000000002
 30
0.0
 11
390.0
 21
-369.40453000000002
 31
0.0
  0
LINE
  5
45
  8
HIBINO-BASE
  6
CONTINUOUS
 62
     7
 10
339.99999000000003
 20
-369.40453000000002
 30
0.0
 11
339.99999000000003
 21
-329.40453000000002
 31
0.0
  0
TEXT
  5
46
  8
HIBINO-BASE
 62
     7
 10
115.64355999999999
 20
-359.41070660000003
 30
0.0
 40
13.030711210937501
  1
A4
 41
0.8
 11
115.64355999999999
 21
-346.37999538906251
 31
0.0
 73
     3
  0
TEXT
  5
47
  8
HIBINO-BASE
 62
     7
 10
193.42616000000001
 20
-358.7151927999999
 30
0.0
 40
7.2001037500000002
  1
'06.03.
 41
0.8
 11
193.42616000000001
 21
-351.51508904999997
 31
0.0
 73
     3
  0
TEXT
  5
48
  8
HIBINO-BASE
 62
     7
 10
170.0
 20
-363.76740679999989
 30
0.0
 40
8.6871459375000004
  1
4
 41
0.8
 11
170.0
 21
-355.08026086249993
 31
0.0
 73
     3
  0
TEXT
  5
49
  8
HIBINO-BASE
 62
     7
 10
296.02323004413847
 20
-357.94994333333318
 30
0.0
 40
6.5153645833333318
  1
N.Sasaki
 41
0.8
 11
296.02323004413847
 21
-351.4345787499999
 31
0.0
 73
     3
  0
LINE
  5
4A
  8
SPEC
  6
CONTINUOUS
 62
     7
 10
-229.99999
 20
630.59545000000003
 30
0.0
 11
360.0
 21
630.59545000000003
 31
0.0
  0
LINE
  5
4B
  8
SPEC
  6
CONTINUOUS
 62
     7
 10
-229.99999
 20
615.59544999999991
 30
0.0
 11
360.0
 21
615.59544999999991
 31
0.0
  0
LINE
  5
4C
  8
SPEC
  6
CONTINUOUS
 62
     7
 10
-229.99999
 20
630.59545000000003
 30
0.0
 11
-229.99999
 21
450.59545000000003
 31
0.0
  0
TEXT
  5
4D
  8
SPEC
 62
     7
 10
-224.99999
 20
636.16853999999989
 30
0.0
 40
9.7730468750000004
  1
仕様
 41
0.8
 11
-224.99999
 21
645.94158687499987
 31
0.0
 73
     3
  0
LINE
  5
4E
  8
SPEC
  6
CONTINUOUS
 62
     7
 10
-99.999989999999983
 20
630.59545000000003
 30
0.0
 11
-99.999989999999983
 21
450.59545000000003
 31
0.0
  0
LINE
  5
4F
  8
SPEC
  6
CONTINUOUS
 62
     7
 10
360.0
 20
630.59545000000003
 30
0.0
 11
360.0
 21
450.59545000000003
 31
0.0
  0
TEXT
  5
50
  8
SPEC
 62
     7
 10
-96.041388654131282
 20
619.31630807490615
 30
0.0
 40
7.6012373046874986
  1
A帯・B帯共用シングルチャンネル・ダイバーシティ受信機(Single cannel diversity)
 41
0.8
 11
-96.041388654131282
 21
626.91754537959378
 31
0.0
 73
     3
  0
TEXT
  5
51
  8
SPEC
 62
     7
 10
-226.39999
 20
619.29184497056997
 30
0.0
 40
7.6012373046874986
  1
形式
 41
0.8
 11
-226.39999
 21
626.8930822752576
 31
0.0
 73
     3
  0
TEXT
  5
52
  8
SPEC
 62
     7
 10
-226.745494601063
 20
603.93752934651513
 30
0.0
 40
7.6012373046874986
  1
受信周波数
 41
0.8
 11
-226.745494601063
 21
611.53876665120265
 31
0.0
 73
     3
  0
TEXT
  5
53
  8
SPEC
 62
     7
 10
-95.969668384957586
 20
603.74715499999979
 30
0.0
 40
7.6012373046874986
  1
B型 (806～810MHz)30チャンネル、A型 (797～806MHz)71チャンネル
 41
0.8
 11
-95.969668384957586
 21
611.34839230468731
 31
0.0
 73
     3
  0
TEXT
  5
54
  8
SPEC
 62
     7
 10
-226.39999
 20
559.40465418981125
 30
0.0
 40
7.6012373046874986
  1
アンテナ入力  
 41
0.8
 11
-226.39999
 21
567.00589149449888
 31
0.0
 73
     3
  0
TEXT
  5
55
  8
SPEC
 62
     7
 10
-98.336437267690926
 20
559.3565364257413
 30
0.0
 40
7.6012373046874986
  1
実効インピーダンス/50Ω、コネクタ ー/BNC
 41
0.8
 11
-98.336437267690926
 21
566.95777373042881
 31
0.0
 73
     3
  0
TEXT
  5
56
  8
SPEC
 62
     7
 10
-226.39999
 20
544.22309086628809
 30
0.0
 40
7.6012373046874986
  1
感度(12dB SINAD)
 41
0.8
 11
-226.39999
 21
551.82432817097549
 31
0.0
 73
     3
  0
TEXT
  5
57
  8
SPEC
 62
     7
 10
-97.260633230084835
 20
484.64341750243631
 30
0.0
 40
7.6012373046874986
  1
アンバランス:-2dBV
 41
0.8
 11
-97.260633230084835
 21
492.24465480712382
 31
0.0
 73
     3
  0
TEXT
  5
58
  8
SPEC
 62
     7
 10
-96.113108923305049
 20
544.15340928382761
 30
0.0
 40
7.6012373046874986
  1
1.26μV(標準)
 41
0.8
 11
-96.113108923305049
 21
551.75464658851513
 31
0.0
 73
     3
  0
TEXT
  5
59
  8
SPEC
 62
     7
 10
-97.619234575953541
 20
499.44029036052251
 30
0.0
 40
7.6012373046874986
  1
バランス:+3.9dBV(ライン)、-17dBV(マイク)
 41
0.8
 11
-97.619234575953541
 21
507.04152766521003
 31
0.0
 73
     3
  0
TEXT
  5
5A
  8
SPEC
 62
     7
 10
-226.39999
 20
439.345156731614
 30
0.0
 40
7.6012373046874986
  1
質量
 41
0.8
 11
-226.39999
 21
446.94639403630151
 31
0.0
 73
     3
  0
TEXT
  5
5B
  8
SPEC
 62
     7
 10
-96.113108923305049
 20
454.34652827770827
 30
0.0
 40
7.6012373046874986
  1
219.5×43×154mm(コネクタ ・アンテナ・保護ダンパー・突起含まず)
 41
0.8
 11
-96.113108923305049
 21
461.94776558239579
 31
0.0
 73
     3
  0
TEXT
  5
5C
  8
SPEC
 62
     7
 10
-96.041388654131282
 20
439.6930959579696
 30
0.0
 40
7.6012373046874986
  1
1.1kg
 41
0.8
 11
-96.041388654131282
 21
447.29433326265712
 31
0.0
 73
     3
  0
TEXT
  5
5D
  8
SPEC
 62
     7
 10
-226.4863661502657
 20
454.60428518241127
 30
0.0
 40
7.6012373046874986
  1
寸法(W+H+D)
 41
0.8
 11
-226.4863661502657
 21
462.20552248709879
 31
0.0
 73
     3
  0
TEXT
  5
5E
  8
SPEC
 62
     7
 10
-226.39999
 20
424.699472355669
 30
0.0
 40
7.6012373046874986
  1
付属品
 41
0.8
 11
-226.39999
 21
432.30070966035652
 31
0.0
 73
     3
  0
TEXT
  5
5F
  8
SPEC
 62
     7
 10
-96.041388654131282
 20
424.79465952892639
 30
0.0
 40
7.6012373046874986
  1
1/2波長アンテナ×2、ACアダプタ、ラックマウント金具大・小×各1 、リンクバー×1、ネジ一式 
 41
0.8
 11
-96.041388654131282
 21
432.39589683361402
 31
0.0
 73
     3
  0
TEXT
  5
60
  8
SPEC
 62
     7
 10
-97.404073768432312
 20
411.79464952892653
 30
0.0
 40
7.6012373046874986
  1
ゴム足×4(1シート)
 41
0.8
 11
-97.404073768432312
 21
419.3958868336141
 31
0.0
 73
     3
  0
LINE
  5
61
  8
SPEC
  6
CONTINUOUS
 62
     7
 10
-229.99999
 20
585.59545000000003
 30
0.0
 11
360.0
 21
585.59545000000003
 31
0.0
  0
LINE
  5
62
  8
SPEC
  6
CONTINUOUS
 62
     7
 10
-229.99999
 20
570.59545000000003
 30
0.0
 11
360.0
 21
570.59545000000003
 31
0.0
  0
LINE
  5
63
  8
SPEC
  6
CONTINUOUS
 62
     7
 10
-229.99999
 20
555.59545000000003
 30
0.0
 11
360.0
 21
555.59545000000003
 31
0.0
  0
LINE
  5
64
  8
SPEC
  6
CONTINUOUS
 62
     7
 10
-229.99999
 20
540.59544999999991
 30
0.0
 11
360.0
 21
540.59544999999991
 31
0.0
  0
LINE
  5
65
  8
SPEC
  6
CONTINUOUS
 62
     7
 10
-181.0
 20
525.59545000000003
 30
0.0
 11
360.0
 21
525.59545000000003
 31
0.0
  0
LINE
  5
66
  8
SPEC
  6
CONTINUOUS
 62
     7
 10
-181.0
 20
510.59545000000003
 30
0.0
 11
360.0
 21
510.59545000000003
 31
0.0
  0
LINE
  5
67
  8
SPEC
  6
CONTINUOUS
 62
     7
 10
-99.999989999999983
 20
495.59545000000003
 30
0.0
 11
360.0
 21
495.59545000000003
 31
0.0
  0
LINE
  5
68
  8
SPEC
  6
CONTINUOUS
 62
     7
 10
-99.999989999999983
 20
495.59545000000003
 30
0.0
 11
360.0
 21
495.59545000000003
 31
0.0
  0
LINE
  5
69
  8
SPEC
  6
CONTINUOUS
 62
     7
 10
-229.99999
 20
480.59545000000003
 30
0.0
 11
360.0
 21
480.59545000000003
 31
0.0
  0
LINE
  5
6A
  8
SPEC
  6
CONTINUOUS
 62
     7
 10
-229.99999
 20
480.59545000000003
 30
0.0
 11
360.0
 21
480.59545000000003
 31
0.0
  0
LINE
  5
6B
  8
SPEC
  6
CONTINUOUS
 62
     7
 10
-229.99999
 20
450.59545000000003
 30
0.0
 11
360.0
 21
450.59545000000003
 31
0.0
  0
TEXT
  5
6C
  8
SPEC
 62
     7
 10
-98.049556190995958
 20
589.45809999669825
 30
0.0
 40
7.6012373046874986
  1
合計101チャンネルのうち任意の1チャンネル
 41
0.8
 11
-98.049556190995958
 21
597.05933730138577
 31
0.0
 73
     3
  0
TEXT
  5
6D
  8
SPEC
 62
     7
 10
-226.39999
 20
574.12790369303025
 30
0.0
 40
7.6012373046874986
  1
トーン信号周波数  
 41
0.8
 11
-226.39999
 21
581.72914099771788
 31
0.0
 73
     3
  0
TEXT
  5
6E
  8
SPEC
 62
     7
 10
-96.184829192478773
 20
574.25497285478446
 30
0.0
 40
7.6012373046874986
  1
32.768kHz
 41
0.8
 11
-96.184829192478773
 21
581.85621015947197
 31
0.0
 73
     3
  0
TEXT
  5
6F
  8
SPEC
 62
     7
 10
-226.73650380318929
 20
528.74715499999979
 30
0.0
 40
7.6012373046874986
  1
音声出力
 41
0.8
 11
-226.73650380318929
 21
536.34839230468731
 31
0.0
 73
     3
  0
LINE
  5
70
  8
SPEC
  6
CONTINUOUS
 62
     7
 10
-181.0
 20
540.59544999999991
 30
0.0
 11
-181.0
 21
480.59545000000003
 31
0.0
  0
TEXT
  5
71
  8
SPEC
 62
     7
 10
-175.37766089366471
 20
529.22309086628798
 30
0.0
 40
7.6012373046874986
  1
コネクタ 
 41
0.8
 11
-175.37766089366471
 21
536.8243281709756
 31
0.0
 73
     3
  0
TEXT
  5
72
  8
SPEC
 62
     7
 10
-175.72316549472771
 20
514.58621751333465
 30
0.0
 40
7.6012373046874986
  1
インピーダンス
 41
0.8
 11
-175.72316549472771
 21
522.18745481802216
 31
0.0
 73
     3
  0
TEXT
  5
73
  8
SPEC
 62
     7
 10
-175.89591779525929
 20
498.74715499999991
 30
0.0
 40
7.6012373046874986
  1
最大出力レベル
 41
0.8
 11
-175.89591779525929
 21
506.34839230468742
 31
0.0
 73
     3
  0
TEXT
  5
74
  8
SPEC
 62
     7
 10
-96.399990000000017
 20
514.26700652039176
 30
0.0
 40
7.6012373046874986
  1
50Ω(ライン)、2kΩ(マイク)
 41
0.8
 11
-96.399990000000017
 21
521.86824382507939
 31
0.0
 73
     3
  0
TEXT
  5
75
  8
SPEC
 62
     7
 10
-98.049556190995958
 20
529.32669312395819
 30
0.0
 40
7.6012373046874986
  1
バランス(XLR3ピン,オス)/アンバランス(フォーンジャック)
 41
0.8
 11
-98.049556190995958
 21
536.92793042864571
 31
0.0
 73
     3
  0
TEXT
  5
76
  8
SPEC
 62
     7
 10
-226.65911845079731
 20
469.12790369303042
 30
0.0
 40
7.6012373046874986
  1
電源
 41
0.8
 11
-226.65911845079731
 21
476.72914099771799
 31
0.0
 73
     3
  0
LINE
  5
77
  8
SPEC
  6
CONTINUOUS
 62
     7
 10
-229.99999
 20
465.59544999999991
 30
0.0
 11
360.0
 21
465.59544999999991
 31
0.0
  0
LINE
  5
78
  8
SPEC
  6
CONTINUOUS
 62
     7
 10
-229.99999
 20
435.59545000000003
 30
0.0
 11
360.0
 21
435.59545000000003
 31
0.0
  0
LINE
  5
79
  8
SPEC
  6
CONTINUOUS
 62
     7
 10
-229.99999
 20
405.59545000000003
 30
0.0
 11
360.0
 21
405.59545000000003
 31
0.0
  0
TEXT
  5
7A
  8
SPEC
 62
     7
 10
-95.969668384957558
 20
469.1534092838275
 30
0.0
 40
7.6012373046874986
  1
DC14～18V(550mA)、付属のACアダプタ(AC100V、50/60Hz)
 41
0.8
 11
-95.969668384957558
 21
476.75464658851507
 31
0.0
 73
     3
  0
LINE
  5
7B
  8
SPEC
  6
CONTINUOUS
 62
     7
 10
-229.99999
 20
450.59545000000003
 30
0.0
 11
-229.99999
 21
405.59545000000003
 31
0.0
  0
LINE
  5
7C
  8
SPEC
  6
CONTINUOUS
 62
     7
 10
-99.999989999999983
 20
450.59545000000003
 30
0.0
 11
-99.999989999999983
 21
405.59545000000003
 31
0.0
  0
LINE
  5
7D
  8
SPEC
  6
CONTINUOUS
 62
     7
 10
360.0
 20
405.59545000000003
 30
0.0
 11
360.0
 21
450.59545000000003
 31
0.0
  0
TEXT
  5
7E
  8
DIMNSIONS
 62
     7
 10
19.999999999999979
 20
-320.32657
 30
0.0
 40
9.7730468750000004
  1
(単位：mm)
 41
0.8
 11
19.999999999999979
 21
-310.55352312500003
 31
0.0
 73
     3
  0
LINE
  5
7F
  8
DIMNSIONS
  6
CONTINUOUS
 62
     7
 10
-156.7499899701977
 20
-110.0
 30
0.0
 11
-182.49999997019771
 21
-110.0
 31
0.0
  0
LINE
  5
80
  8
DIMNSIONS
  6
CONTINUOUS
 62
     7
 10
-157.99998997019759
 20
44.0
 30
0.0
 11
-182.49999997019771
 21
44.0
 31
0.0
  0
LINE
  5
81
  8
DIMNSIONS
  6
CONTINUOUS
 62
     7
 10
-174.5
 20
-110.0
 30
0.0
 11
-174.5
 21
44.0
 31
0.0
  0
LINE
  5
82
  8
DIMNSIONS
  6
CONTINUOUS
 62
     7
 10
-174.5
 20
-110.0
 30
0.0
 11
-177.90295474387531
 21
-97.299999999999997
 31
0.0
  0
LINE
  5
83
  8
DIMNSIONS
  6
CONTINUOUS
 62
     7
 10
-174.5
 20
-110.0
 30
0.0
 11
-171.09704525612469
 21
-97.299999999999997
 31
0.0
  0
LINE
  5
84
  8
DIMNSIONS
  6
CONTINUOUS
 62
     7
 10
-174.5
 20
44.0
 30
0.0
 11
-171.09704525612469
 21
31.300000000000001
 31
0.0
  0
LINE
  5
85
  8
DIMNSIONS
  6
CONTINUOUS
 62
     7
 10
-174.5
 20
44.0
 30
0.0
 11
-177.90295474387531
 21
31.300000000000001
 31
0.0
  0
TEXT
  5
86
  8
DIMNSIONS
 62
     7
 10
-180.47555554065431
 20
-43.583333333333307
 30
0.0
 40
10.85894097222222
  1
154
 50
90.0
 41
0.8
 11
-191.33449651287651
 21
-43.583333333333307
 31
0.0
 73
     3
  0
LINE
  5
87
  8
DIMNSIONS
  6
CONTINUOUS
 62
     7
 10
-157.99998997019759
 20
44.0
 30
0.0
 11
-182.49999997019771
 21
44.0
 31
0.0
  0
LINE
  5
88
  8
DIMNSIONS
  6
CONTINUOUS
 62
     7
 10
-137.7599999701977
 20
58.499999999999993
 30
0.0
 11
-182.49999997019771
 21
58.499999999999993
 31
0.0
  0
LINE
  5
89
  8
DIMNSIONS
  6
CONTINUOUS
 62
     7
 10
-174.5
 20
58.499999999999993
 30
0.0
 11
-174.5
 21
44.0
 31
0.0
  0
LINE
  5
8A
  8
DIMNSIONS
  6
CONTINUOUS
 62
     7
 10
-174.5
 20
44.0
 30
0.0
 11
-174.5
 21
23.99999997988343
 31
0.0
  0
LINE
  5
8B
  8
DIMNSIONS
  6
CONTINUOUS
 62
     7
 10
-174.5
 20
44.0
 30
0.0
 11
-171.09704525612469
 21
31.300000000000001
 31
0.0
  0
LINE
  5
8C
  8
DIMNSIONS
  6
CONTINUOUS
 62
     7
 10
-174.5
 20
44.0
 30
0.0
 11
-177.90295474387531
 21
31.300000000000001
 31
0.0
  0
LINE
  5
8D
  8
DIMNSIONS
  6
CONTINUOUS
 62
     7
 10
-174.5
 20
58.499999999999993
 30
0.0
 11
-174.5
 21
95.2222222222222
 31
0.0
  0
LINE
  5
8E
  8
DIMNSIONS
  6
CONTINUOUS
 62
     7
 10
-174.5
 20
58.499999999999993
 30
0.0
 11
-177.90295474387531
 21
71.199999999999974
 31
0.0
  0
LINE
  5
8F
  8
DIMNSIONS
  6
CONTINUOUS
 62
     7
 10
-174.5
 20
58.499999999999993
 30
0.0
 11
-171.09704525612469
 21
71.199999999999974
 31
0.0
  0
TEXT
  5
90
  8
DIMNSIONS
 62
     7
 10
-180.47555554065431
 20
66.999999999999986
 30
0.0
 40
10.85894097222222
  1
14.5
 50
90.0
 41
0.8
 11
-191.33449651287651
 21
66.999999999999986
 31
0.0
 73
     3
  0
LINE
  5
91
  8
DIMNSIONS
  6
CONTINUOUS
 62
     7
 10
-157.99999997019759
 20
-200.0
 30
0.0
 11
-207.99999997019771
 21
-200.0
 31
0.0
  0
LINE
  5
92
  8
DIMNSIONS
  6
CONTINUOUS
 62
     7
 10
-157.99999997019759
 20
-155.99999999999989
 30
0.0
 11
-207.99999997019771
 21
-155.99999999999989
 31
0.0
  0
LINE
  5
93
  8
DIMNSIONS
  6
CONTINUOUS
 62
     7
 10
-200.0
 20
-200.0
 30
0.0
 11
-200.0
 21
-155.99999999999989
 31
0.0
  0
LINE
  5
94
  8
DIMNSIONS
  6
CONTINUOUS
 62
     7
 10
-200.0
 20
-200.0
 30
0.0
 11
-203.40295474387531
 21
-187.2999999999999
 31
0.0
  0
LINE
  5
95
  8
DIMNSIONS
  6
CONTINUOUS
 62
     7
 10
-200.0
 20
-200.0
 30
0.0
 11
-196.59704525612469
 21
-187.2999999999999
 31
0.0
  0
LINE
  5
96
  8
DIMNSIONS
  6
CONTINUOUS
 62
     7
 10
-200.0
 20
-155.99999999999989
 30
0.0
 11
-196.59704525612469
 21
-168.6999999999999
 31
0.0
  0
LINE
  5
97
  8
DIMNSIONS
  6
CONTINUOUS
 62
     7
 10
-200.0
 20
-155.99999999999989
 30
0.0
 11
-203.40295474387531
 21
-168.6999999999999
 31
0.0
  0
TEXT
  5
98
  8
DIMNSIONS
 62
     7
 10
-205.97555554065431
 20
-185.0555555555554
 30
0.0
 40
10.85894097222222
  1
43
 50
90.0
 41
0.8
 11
-216.8344965128766
 21
-185.0555555555554
 31
0.0
 73
     3
  0
LINE
  5
99
  8
DIMNSIONS
  6
CONTINUOUS
 62
     7
 10
-150.0
 20
-207.99999997019759
 30
0.0
 11
-150.0
 21
-257.99999997019768
 31
0.0
  0
LINE
  5
9A
  8
DIMNSIONS
  6
CONTINUOUS
 62
     7
 10
69.500000000000014
 20
-207.99999997019759
 30
0.0
 11
69.500000000000014
 21
-257.99999997019768
 31
0.0
  0
LINE
  5
9B
  8
DIMNSIONS
  6
CONTINUOUS
 62
     7
 10
-150.0
 20
-250.0
 30
0.0
 11
69.500000000000014
 21
-250.0
 31
0.0
  0
LINE
  5
9C
  8
DIMNSIONS
  6
CONTINUOUS
 62
     7
 10
-150.0
 20
-250.0
 30
0.0
 11
-137.30000000000001
 21
-246.59704525612469
 31
0.0
  0
LINE
  5
9D
  8
DIMNSIONS
  6
CONTINUOUS
 62
     7
 10
-150.0
 20
-250.0
 30
0.0
 11
-137.30000000000001
 21
-253.40295474387531
 31
0.0
  0
LINE
  5
9E
  8
DIMNSIONS
  6
CONTINUOUS
 62
     7
 10
69.500000000000014
 20
-250.0
 30
0.0
 11
56.800000000000018
 21
-253.40295474387531
 31
0.0
  0
LINE
  5
9F
  8
DIMNSIONS
  6
CONTINUOUS
 62
     7
 10
69.500000000000014
 20
-250.0
 30
0.0
 11
56.800000000000018
 21
-246.59704525612469
 31
0.0
  0
TEXT
  5
A0
  8
DIMNSIONS
 62
     7
 10
-57.888888888888857
 20
-244.02444445934569
 30
0.0
 40
10.85894097222222
  1
219.5
 41
0.8
 11
-57.888888888888857
 21
-233.16550348712349
 31
0.0
 73
     3
  0
LINE
  5
A1
  8
DIMNSIONS
  6
CONTINUOUS
 62
     7
 10
-22.454999970197679
 20
-115.078182591044
 30
0.0
 11
-208.07905862626791
 21
-115.078182591044
 31
0.0
  0
LINE
  5
A2
  8
DIMNSIONS
  6
CONTINUOUS
 62
     7
 10
-137.7599999701977
 20
58.499999999999993
 30
0.0
 11
-208.07905862626791
 21
58.499999999999993
 31
0.0
  0
LINE
  5
A3
  8
DIMNSIONS
  6
CONTINUOUS
 62
     7
 10
-200.0790586560702
 20
-115.078182591044
 30
0.0
 11
-200.0790586560702
 21
58.499999999999993
 31
0.0
  0
LINE
  5
A4
  8
DIMNSIONS
  6
CONTINUOUS
 62
     7
 10
-200.0790586560702
 20
-115.078182591044
 30
0.0
 11
-203.48201339994549
 21
-102.37818259104399
 31
0.0
  0
LINE
  5
A5
  8
DIMNSIONS
  6
CONTINUOUS
 62
     7
 10
-200.0790586560702
 20
-115.078182591044
 30
0.0
 11
-196.67610391219489
 21
-102.37818259104399
 31
0.0
  0
LINE
  5
A6
  8
DIMNSIONS
  6
CONTINUOUS
 62
     7
 10
-200.0790586560702
 20
58.499999999999993
 30
0.0
 11
-196.67610391219489
 21
45.799999999999983
 31
0.0
  0
LINE
  5
A7
  8
DIMNSIONS
  6
CONTINUOUS
 62
     7
 10
-200.0790586560702
 20
58.499999999999993
 30
0.0
 11
-203.48201339994549
 21
45.799999999999983
 31
0.0
  0
TEXT
  5
A8
  8
DIMNSIONS
 62
     7
 10
-206.0546141967246
 20
-45.927980184410892
 30
0.0
 40
10.85894097222222
  1
173.6
 50
90.0
 41
0.8
 11
-216.91355516894691
 21
-45.927980184410892
 31
0.0
 73
     3
  0
TEXT
  5
A9
  8
DATA
 62
     7
 10
285.07145216807839
 20
-324.43581208676278
 30
0.0
 40
9.7730468750000004
  1
ULXP4-ABJ
 41
0.8
 11
285.07145216807839
 21
-314.66276521176292
 31
0.0
 73
     3
  0
TEXT
  5
AA
  8
DATA
 62
     7
 10
291.31314844603099
 20
-295.88096999999999
 30
0.0
 40
9.7730468750000004
  1
SHURE
 41
0.8
 11
291.31314844603099
 21
-286.10792312500001
 31
0.0
 73
     3
  0
TEXT
  5
AB
  8
DATA
 62
     7
 10
256.35727839043358
 20
-308.42834699267019
 30
0.0
 40
6.5153645833333318
  1
シングルチャンネル・ダイバーシティ受信機
 41
0.8
 11
256.35727839043358
 21
-301.91298240933691
 31
0.0
 73
     3
  0
LINE
  5
AC
  8
DATA
  6
CONTINUOUS
 62
     7
 10
53.188999999999993
 20
45.042215134507487
 30
0.0
 11
53.188999999999993
 21
50.04222513450754
 31
0.0
  0
LINE
  5
AD
  8
DATA
  6
CONTINUOUS
 62
     7
 10
54.088999999999992
 20
44.0
 30
0.0
 11
54.088999999999992
 21
45.042215134507487
 31
0.0
  0
LINE
  5
AE
  8
DATA
  6
CONTINUOUS
 62
     7
 10
44.588999999999977
 20
44.0
 30
0.0
 11
44.588999999999977
 21
45.042215134507487
 31
0.0
  0
LINE
  5
AF
  8
DATA
  6
CONTINUOUS
 62
     7
 10
45.489009999999993
 20
45.042215134507487
 30
0.0
 11
45.489009999999993
 21
50.04222513450754
 31
0.0
  0
LINE
  5
B0
  8
DATA
  6
CONTINUOUS
 62
     7
 10
44.588999999999977
 20
45.042215134507487
 30
0.0
 11
54.088999999999992
 21
45.042215134507487
 31
0.0
  0
LINE
  5
B1
  8
DATA
  6
CONTINUOUS
 62
     7
 10
45.489009999999993
 20
50.04222513450754
 30
0.0
 11
53.188999999999993
 21
50.04222513450754
 31
0.0
  0
LINE
  5
B2
  8
DATA
  6
CONTINUOUS
 62
     7
 10
49.338999999999977
 20
45.042215134507487
 30
0.0
 11
49.338999999999977
 21
44.0
 31
0.0
  0
POLYLINE
  5
B3
  8
DATA
  6
CONTINUOUS
 62
     7
 66
     1
 10
0.0
 20
0.0
 30
0.0
 70
     1
  0
VERTEX
  5
457
  8
DATA
  6
CONTINUOUS
 62
     7
 10
-150.0
 20
-155.99999999999989
 30
0.0
  0
VERTEX
  5
458
  8
DATA
  6
CONTINUOUS
 62
     7
 10
69.500000000000014
 20
-155.99999999999989
 30
0.0
  0
VERTEX
  5
459
  8
DATA
  6
CONTINUOUS
 62
     7
 10
69.500000000000014
 20
-200.0
 30
0.0
  0
VERTEX
  5
45A
  8
DATA
  6
CONTINUOUS
 62
     7
 10
-150.0
 20
-200.0
 30
0.0
  0
SEQEND
  5
45B
  8
DATA
  6
CONTINUOUS
 62
     7
  0
CIRCLE
  5
BA
  8
DATA
  6
CONTINUOUS
 62
     7
 10
-145.0
 20
-163.99999999999989
 30
0.0
 40
3.3499999999999939
  0
POLYLINE
  5
BB
  8
DATA
  6
CONTINUOUS
 62
     7
 66
     1
 10
0.0
 20
0.0
 30
0.0
  0
VERTEX
  5
45C
  8
DATA
  6
CONTINUOUS
 62
     7
 10
-144.34999999999999
 20
-163.34999999999991
 30
0.0
  0
VERTEX
  5
45D
  8
DATA
  6
CONTINUOUS
 62
     7
 10
-144.34999999999999
 20
-161.99999999999989
 30
0.0
  0
VERTEX
  5
45E
  8
DATA
  6
CONTINUOUS
 62
     7
 10
-145.65000000000001
 20
-161.99999999999989
 30
0.0
  0
VERTEX
  5
45F
  8
DATA
  6
CONTINUOUS
 62
     7
 10
-145.65000000000001
 20
-163.34999999999991
 30
0.0
  0
SEQEND
  5
460
  8
DATA
  6
CONTINUOUS
 62
     7
  0
POLYLINE
  5
C2
  8
DATA
  6
CONTINUOUS
 62
     7
 66
     1
 10
0.0
 20
0.0
 30
0.0
  0
VERTEX
  5
461
  8
DATA
  6
CONTINUOUS
 62
     7
 10
-144.34999999999999
 20
-164.64999999999989
 30
0.0
  0
VERTEX
  5
462
  8
DATA
  6
CONTINUOUS
 62
     7
 10
-144.34999999999999
 20
-165.99999999999989
 30
0.0
  0
VERTEX
  5
463
  8
DATA
  6
CONTINUOUS
 62
     7
 10
-145.65000000000001
 20
-165.99999999999989
 30
0.0
  0
VERTEX
  5
464
  8
DATA
  6
CONTINUOUS
 62
     7
 10
-145.65000000000001
 20
-164.64999999999989
 30
0.0
  0
SEQEND
  5
465
  8
DATA
  6
CONTINUOUS
 62
     7
  0
POLYLINE
  5
C9
  8
DATA
  6
CONTINUOUS
 62
     7
 66
     1
 10
0.0
 20
0.0
 30
0.0
  0
VERTEX
  5
466
  8
DATA
  6
CONTINUOUS
 62
     7
 10
-144.34999999999999
 20
-164.64999999999989
 30
0.0
  0
VERTEX
  5
467
  8
DATA
  6
CONTINUOUS
 62
     7
 10
-143.0
 20
-164.64999999999989
 30
0.0
  0
VERTEX
  5
468
  8
DATA
  6
CONTINUOUS
 62
     7
 10
-143.0
 20
-163.34999999999991
 30
0.0
  0
VERTEX
  5
469
  8
DATA
  6
CONTINUOUS
 62
     7
 10
-144.34999999999999
 20
-163.34999999999991
 30
0.0
  0
SEQEND
  5
46A
  8
DATA
  6
CONTINUOUS
 62
     7
  0
POLYLINE
  5
D0
  8
DATA
  6
CONTINUOUS
 62
     7
 66
     1
 10
0.0
 20
0.0
 30
0.0
  0
VERTEX
  5
46B
  8
DATA
  6
CONTINUOUS
 62
     7
 10
-145.65000000000001
 20
-164.64999999999989
 30
0.0
  0
VERTEX
  5
46C
  8
DATA
  6
CONTINUOUS
 62
     7
 10
-147.0
 20
-164.64999999999989
 30
0.0
  0
VERTEX
  5
46D
  8
DATA
  6
CONTINUOUS
 62
     7
 10
-147.0
 20
-163.34999999999991
 30
0.0
  0
VERTEX
  5
46E
  8
DATA
  6
CONTINUOUS
 62
     7
 10
-145.65000000000001
 20
-163.34999999999991
 30
0.0
  0
SEQEND
  5
46F
  8
DATA
  6
CONTINUOUS
 62
     7
  0
CIRCLE
  5
D7
  8
DATA
  6
CONTINUOUS
 62
     7
 10
-145.0
 20
-191.99999999999989
 30
0.0
 40
3.3499999999999939
  0
POLYLINE
  5
D8
  8
DATA
  6
CONTINUOUS
 62
     7
 66
     1
 10
0.0
 20
0.0
 30
0.0
  0
VERTEX
  5
470
  8
DATA
  6
CONTINUOUS
 62
     7
 10
-144.34999999999999
 20
-191.34999999999999
 30
0.0
  0
VERTEX
  5
471
  8
DATA
  6
CONTINUOUS
 62
     7
 10
-144.34999999999999
 20
-190.0
 30
0.0
  0
VERTEX
  5
472
  8
DATA
  6
CONTINUOUS
 62
     7
 10
-145.65000000000001
 20
-190.0
 30
0.0
  0
VERTEX
  5
473
  8
DATA
  6
CONTINUOUS
 62
     7
 10
-145.65000000000001
 20
-191.34999999999999
 30
0.0
  0
SEQEND
  5
474
  8
DATA
  6
CONTINUOUS
 62
     7
  0
POLYLINE
  5
DF
  8
DATA
  6
CONTINUOUS
 62
     7
 66
     1
 10
0.0
 20
0.0
 30
0.0
  0
VERTEX
  5
475
  8
DATA
  6
CONTINUOUS
 62
     7
 10
-144.34999999999999
 20
-192.64999999999989
 30
0.0
  0
VERTEX
  5
476
  8
DATA
  6
CONTINUOUS
 62
     7
 10
-144.34999999999999
 20
-193.99999999999989
 30
0.0
  0
VERTEX
  5
477
  8
DATA
  6
CONTINUOUS
 62
     7
 10
-145.65000000000001
 20
-193.99999999999989
 30
0.0
  0
VERTEX
  5
478
  8
DATA
  6
CONTINUOUS
 62
     7
 10
-145.65000000000001
 20
-192.64999999999989
 30
0.0
  0
SEQEND
  5
479
  8
DATA
  6
CONTINUOUS
 62
     7
  0
POLYLINE
  5
E6
  8
DATA
  6
CONTINUOUS
 62
     7
 66
     1
 10
0.0
 20
0.0
 30
0.0
  0
VERTEX
  5
47A
  8
DATA
  6
CONTINUOUS
 62
     7
 10
-144.34999999999999
 20
-192.64999999999989
 30
0.0
  0
VERTEX
  5
47B
  8
DATA
  6
CONTINUOUS
 62
     7
 10
-143.0
 20
-192.64999999999989
 30
0.0
  0
VERTEX
  5
47C
  8
DATA
  6
CONTINUOUS
 62
     7
 10
-143.0
 20
-191.34999999999999
 30
0.0
  0
VERTEX
  5
47D
  8
DATA
  6
CONTINUOUS
 62
     7
 10
-144.34999999999999
 20
-191.34999999999999
 30
0.0
  0
SEQEND
  5
47E
  8
DATA
  6
CONTINUOUS
 62
     7
  0
POLYLINE
  5
ED
  8
DATA
  6
CONTINUOUS
 62
     7
 66
     1
 10
0.0
 20
0.0
 30
0.0
  0
VERTEX
  5
47F
  8
DATA
  6
CONTINUOUS
 62
     7
 10
-145.65000000000001
 20
-192.64999999999989
 30
0.0
  0
VERTEX
  5
480
  8
DATA
  6
CONTINUOUS
 62
     7
 10
-147.0
 20
-192.64999999999989
 30
0.0
  0
VERTEX
  5
481
  8
DATA
  6
CONTINUOUS
 62
     7
 10
-147.0
 20
-191.34999999999999
 30
0.0
  0
VERTEX
  5
482
  8
DATA
  6
CONTINUOUS
 62
     7
 10
-145.65000000000001
 20
-191.34999999999999
 30
0.0
  0
SEQEND
  5
483
  8
DATA
  6
CONTINUOUS
 62
     7
  0
CIRCLE
  5
F4
  8
DATA
  6
CONTINUOUS
 62
     7
 10
64.499999999999943
 20
-163.99999999999989
 30
0.0
 40
3.3499999999999939
  0
POLYLINE
  5
F5
  8
DATA
  6
CONTINUOUS
 62
     7
 66
     1
 10
0.0
 20
0.0
 30
0.0
  0
VERTEX
  5
484
  8
DATA
  6
CONTINUOUS
 62
     7
 10
65.149999999999991
 20
-163.34999999999991
 30
0.0
  0
VERTEX
  5
485
  8
DATA
  6
CONTINUOUS
 62
     7
 10
65.149999999999991
 20
-161.99999999999989
 30
0.0
  0
VERTEX
  5
486
  8
DATA
  6
CONTINUOUS
 62
     7
 10
63.84999999999998
 20
-161.99999999999989
 30
0.0
  0
VERTEX
  5
487
  8
DATA
  6
CONTINUOUS
 62
     7
 10
63.84999999999998
 20
-163.34999999999991
 30
0.0
  0
SEQEND
  5
488
  8
DATA
  6
CONTINUOUS
 62
     7
  0
POLYLINE
  5
FC
  8
DATA
  6
CONTINUOUS
 62
     7
 66
     1
 10
0.0
 20
0.0
 30
0.0
  0
VERTEX
  5
489
  8
DATA
  6
CONTINUOUS
 62
     7
 10
65.149999999999991
 20
-164.64999999999989
 30
0.0
  0
VERTEX
  5
48A
  8
DATA
  6
CONTINUOUS
 62
     7
 10
65.149999999999991
 20
-165.99999999999989
 30
0.0
  0
VERTEX
  5
48B
  8
DATA
  6
CONTINUOUS
 62
     7
 10
63.84999999999998
 20
-165.99999999999989
 30
0.0
  0
VERTEX
  5
48C
  8
DATA
  6
CONTINUOUS
 62
     7
 10
63.84999999999998
 20
-164.64999999999989
 30
0.0
  0
SEQEND
  5
48D
  8
DATA
  6
CONTINUOUS
 62
     7
  0
POLYLINE
  5
103
  8
DATA
  6
CONTINUOUS
 62
     7
 66
     1
 10
0.0
 20
0.0
 30
0.0
  0
VERTEX
  5
48E
  8
DATA
  6
CONTINUOUS
 62
     7
 10
65.149999999999991
 20
-164.64999999999989
 30
0.0
  0
VERTEX
  5
48F
  8
DATA
  6
CONTINUOUS
 62
     7
 10
66.499999999999943
 20
-164.64999999999989
 30
0.0
  0
VERTEX
  5
490
  8
DATA
  6
CONTINUOUS
 62
     7
 10
66.499999999999943
 20
-163.34999999999991
 30
0.0
  0
VERTEX
  5
491
  8
DATA
  6
CONTINUOUS
 62
     7
 10
65.149999999999991
 20
-163.34999999999991
 30
0.0
  0
SEQEND
  5
492
  8
DATA
  6
CONTINUOUS
 62
     7
  0
POLYLINE
  5
10A
  8
DATA
  6
CONTINUOUS
 62
     7
 66
     1
 10
0.0
 20
0.0
 30
0.0
  0
VERTEX
  5
493
  8
DATA
  6
CONTINUOUS
 62
     7
 10
63.84999999999998
 20
-164.64999999999989
 30
0.0
  0
VERTEX
  5
494
  8
DATA
  6
CONTINUOUS
 62
     7
 10
62.499999999999957
 20
-164.64999999999989
 30
0.0
  0
VERTEX
  5
495
  8
DATA
  6
CONTINUOUS
 62
     7
 10
62.499999999999957
 20
-163.34999999999991
 30
0.0
  0
VERTEX
  5
496
  8
DATA
  6
CONTINUOUS
 62
     7
 10
63.84999999999998
 20
-163.34999999999991
 30
0.0
  0
SEQEND
  5
497
  8
DATA
  6
CONTINUOUS
 62
     7
  0
CIRCLE
  5
111
  8
DATA
  6
CONTINUOUS
 62
     7
 10
64.499999999999943
 20
-191.99999999999989
 30
0.0
 40
3.3499999999999939
  0
POLYLINE
  5
112
  8
DATA
  6
CONTINUOUS
 62
     7
 66
     1
 10
0.0
 20
0.0
 30
0.0
  0
VERTEX
  5
498
  8
DATA
  6
CONTINUOUS
 62
     7
 10
65.149999999999991
 20
-191.34999999999999
 30
0.0
  0
VERTEX
  5
499
  8
DATA
  6
CONTINUOUS
 62
     7
 10
65.149999999999991
 20
-190.0
 30
0.0
  0
VERTEX
  5
49A
  8
DATA
  6
CONTINUOUS
 62
     7
 10
63.84999999999998
 20
-190.0
 30
0.0
  0
VERTEX
  5
49B
  8
DATA
  6
CONTINUOUS
 62
     7
 10
63.84999999999998
 20
-191.34999999999999
 30
0.0
  0
SEQEND
  5
49C
  8
DATA
  6
CONTINUOUS
 62
     7
  0
POLYLINE
  5
119
  8
DATA
  6
CONTINUOUS
 62
     7
 66
     1
 10
0.0
 20
0.0
 30
0.0
  0
VERTEX
  5
49D
  8
DATA
  6
CONTINUOUS
 62
     7
 10
65.149999999999991
 20
-192.64999999999989
 30
0.0
  0
VERTEX
  5
49E
  8
DATA
  6
CONTINUOUS
 62
     7
 10
65.149999999999991
 20
-193.99999999999989
 30
0.0
  0
VERTEX
  5
49F
  8
DATA
  6
CONTINUOUS
 62
     7
 10
63.84999999999998
 20
-193.99999999999989
 30
0.0
  0
VERTEX
  5
4A0
  8
DATA
  6
CONTINUOUS
 62
     7
 10
63.84999999999998
 20
-192.64999999999989
 30
0.0
  0
SEQEND
  5
4A1
  8
DATA
  6
CONTINUOUS
 62
     7
  0
POLYLINE
  5
120
  8
DATA
  6
CONTINUOUS
 62
     7
 66
     1
 10
0.0
 20
0.0
 30
0.0
  0
VERTEX
  5
4A2
  8
DATA
  6
CONTINUOUS
 62
     7
 10
65.149999999999991
 20
-192.64999999999989
 30
0.0
  0
VERTEX
  5
4A3
  8
DATA
  6
CONTINUOUS
 62
     7
 10
66.499999999999943
 20
-192.64999999999989
 30
0.0
  0
VERTEX
  5
4A4
  8
DATA
  6
CONTINUOUS
 62
     7
 10
66.499999999999943
 20
-191.34999999999999
 30
0.0
  0
VERTEX
  5
4A5
  8
DATA
  6
CONTINUOUS
 62
     7
 10
65.149999999999991
 20
-191.34999999999999
 30
0.0
  0
SEQEND
  5
4A6
  8
DATA
  6
CONTINUOUS
 62
     7
  0
POLYLINE
  5
127
  8
DATA
  6
CONTINUOUS
 62
     7
 66
     1
 10
0.0
 20
0.0
 30
0.0
  0
VERTEX
  5
4A7
  8
DATA
  6
CONTINUOUS
 62
     7
 10
63.84999999999998
 20
-192.64999999999989
 30
0.0
  0
VERTEX
  5
4A8
  8
DATA
  6
CONTINUOUS
 62
     7
 10
62.499999999999957
 20
-192.64999999999989
 30
0.0
  0
VERTEX
  5
4A9
  8
DATA
  6
CONTINUOUS
 62
     7
 10
62.499999999999957
 20
-191.34999999999999
 30
0.0
  0
VERTEX
  5
4AA
  8
DATA
  6
CONTINUOUS
 62
     7
 10
63.84999999999998
 20
-191.34999999999999
 30
0.0
  0
SEQEND
  5
4AB
  8
DATA
  6
CONTINUOUS
 62
     7
  0
ARC
  5
12E
  8
DATA
  6
CONTINUOUS
 62
     7
 10
-145.0
 20
-163.99999999999989
 30
0.0
 40
3.75
 50
270.0
 51
90.0
  0
LINE
  5
12F
  8
DATA
  6
CONTINUOUS
 62
     7
 10
-145.0
 20
-167.74999999999989
 30
0.0
 11
-148.75
 21
-167.74999999999989
 31
0.0
  0
ARC
  5
130
  8
DATA
  6
CONTINUOUS
 62
     7
 10
-145.0
 20
-191.99999999999989
 30
0.0
 40
3.75
 50
270.0
 51
90.0
  0
LINE
  5
131
  8
DATA
  6
CONTINUOUS
 62
     7
 10
-145.0
 20
-188.25
 30
0.0
 11
-148.75
 21
-188.25
 31
0.0
  0
ARC
  5
132
  8
DATA
  6
CONTINUOUS
 62
     7
 10
64.499999999999943
 20
-163.99999999999989
 30
0.0
 40
3.75
 50
90.0
 51
270.0
  0
LINE
  5
133
  8
DATA
  6
CONTINUOUS
 62
     7
 10
64.499999999999943
 20
-167.74999999999989
 30
0.0
 11
68.249999999999943
 21
-167.74999999999989
 31
0.0
  0
ARC
  5
134
  8
DATA
  6
CONTINUOUS
 62
     7
 10
64.499999999999943
 20
-191.99999999999989
 30
0.0
 40
3.75
 50
90.0
 51
270.0
  0
LINE
  5
135
  8
DATA
  6
CONTINUOUS
 62
     7
 10
64.499999999999943
 20
-188.25
 30
0.0
 11
68.249999999999943
 21
-188.25
 31
0.0
  0
LINE
  5
136
  8
DATA
  6
CONTINUOUS
 62
     7
 10
-34.999999999999993
 20
-163.99999999999989
 30
0.0
 11
-34.999999999999993
 21
-191.99999999999989
 31
0.0
  0
LINE
  5
137
  8
DATA
  6
CONTINUOUS
 62
     7
 10
-132.0
 20
-163.99999999999989
 30
0.0
 11
-34.999999999999993
 21
-163.99999999999989
 31
0.0
  0
LINE
  5
138
  8
DATA
  6
CONTINUOUS
 62
     7
 10
-132.0
 20
-191.99999999999989
 30
0.0
 11
-34.999999999999993
 21
-191.99999999999989
 31
0.0
  0
LINE
  5
139
  8
DATA
  6
CONTINUOUS
 62
     7
 10
-132.0
 20
-191.99999999999989
 30
0.0
 11
-132.0
 21
-164.00000999999989
 31
0.0
  0
CIRCLE
  5
13A
  8
DATA
  6
CONTINUOUS
 62
     7
 10
-1.488215573899808
 20
-178.03410825902691
 30
0.0
 40
14.99999999999998
  0
CIRCLE
  5
13B
  8
DATA
  6
CONTINUOUS
 62
     7
 10
-1.488215573899808
 20
-178.03410825902691
 30
0.0
 40
15.74999999999998
  0
LINE
  5
13C
  8
DATA
  6
CONTINUOUS
 62
     7
 10
41.500000000000007
 20
-195.0
 30
0.0
 11
41.500000000000007
 21
-172.6999999999999
 31
0.0
  0
LINE
  5
13D
  8
DATA
  6
CONTINUOUS
 62
     7
 10
58.500000000000021
 20
-195.0
 30
0.0
 11
58.500000000000021
 21
-172.6999999999999
 31
0.0
  0
LINE
  5
13E
  8
DATA
  6
CONTINUOUS
 62
     7
 10
58.500000000000021
 20
-172.6999999999999
 30
0.0
 11
41.500000000000007
 21
-172.6999999999999
 31
0.0
  0
LINE
  5
13F
  8
DATA
  6
CONTINUOUS
 62
     7
 10
58.500000000000021
 20
-195.0
 30
0.0
 11
41.500000000000007
 21
-195.0
 31
0.0
  0
CIRCLE
  5
140
  8
DATA
  6
CONTINUOUS
 62
     7
 10
29.849999999999952
 20
-183.1430132157725
 30
0.0
 40
9.4999999999999076
  0
CIRCLE
  5
141
  8
DATA
  6
CONTINUOUS
 62
     7
 10
29.849999999999952
 20
-183.1430132157725
 30
0.0
 40
8.9999999999999556
  0
LINE
  5
142
  8
DATA
  6
CONTINUOUS
 62
     7
 10
36.152036684403853
 20
-177.1017191798538
 30
0.0
 11
24.994823981037669
 21
-190.3983675024283
 31
0.0
  0
LINE
  5
143
  8
DATA
  6
CONTINUOUS
 62
     7
 10
34.695760092813451
 20
-175.88136676865761
 30
0.0
 11
23.54013168877589
 21
-189.17612699681541
 31
0.0
  0
LINE
  5
144
  8
DATA
  6
CONTINUOUS
 62
     7
 10
26.363165061397851
 20
-188.76764210401481
 30
0.0
 11
24.907680619471751
 21
-187.54634564561019
 31
0.0
  0
ARC
  5
145
  8
DATA
  6
CONTINUOUS
 62
     7
 10
29.849999999999952
 20
-183.1430132157725
 30
0.0
 40
8.7300000000000821
 50
236.21014595517829
 51
43.789854044821752
  0
ARC
  5
146
  8
DATA
  6
CONTINUOUS
 62
     7
 10
29.849999999999952
 20
-183.1430132157725
 30
0.0
 40
8.7299999999999791
 50
56.284471604500681
 51
223.71552839549901
  0
LINE
  5
147
  8
DATA
  6
CONTINUOUS
 62
     7
 10
42.095000000000013
 20
-193.41949999999991
 30
0.0
 11
42.095000000000013
 21
-174.2804999999999
 31
0.0
  0
LINE
  5
148
  8
DATA
  6
CONTINUOUS
 62
     7
 10
57.905000000000022
 20
-193.41949999999991
 30
0.0
 11
57.905000000000022
 21
-174.2804999999999
 31
0.0
  0
LINE
  5
149
  8
DATA
  6
CONTINUOUS
 62
     7
 10
57.105000000000018
 20
-173.48049999999989
 30
0.0
 11
42.89500000000001
 21
-173.48049999999989
 31
0.0
  0
LINE
  5
14A
  8
DATA
  6
CONTINUOUS
 62
     7
 10
57.105000000000018
 20
-194.2194999999999
 30
0.0
 11
42.89500000000001
 21
-194.2194999999999
 31
0.0
  0
ARC
  5
14B
  8
DATA
  6
CONTINUOUS
 62
     7
 10
79.385881642511265
 20
-183.84999999999991
 30
0.0
 40
35.420881642511283
 50
167.14942797291641
 51
192.85057202708359
  0
ARC
  5
14C
  8
DATA
  6
CONTINUOUS
 62
     7
 10
20.614118357496722
 20
-183.84999999999991
 30
0.0
 40
35.420881642503552
 50
347.1494279729136
 51
12.850572027086679
  0
LINE
  5
14D
  8
DATA
  6
CONTINUOUS
 62
     7
 10
54.367865493247933
 20
-175.34999999999991
 30
0.0
 11
45.632134506752038
 21
-175.34999999999991
 31
0.0
  0
LINE
  5
14E
  8
DATA
  6
CONTINUOUS
 62
     7
 10
54.367865493248352
 20
-192.34999999999991
 30
0.0
 11
45.632134506752038
 21
-192.34999999999991
 31
0.0
  0
ARC
  5
14F
  8
DATA
  6
CONTINUOUS
 62
     7
 10
45.632134506752038
 20
-176.14999999999989
 30
0.0
 40
0.7999999999999546
 50
90.0
 51
167.1494279729223
  0
ARC
  5
150
  8
DATA
  6
CONTINUOUS
 62
     7
 10
54.367865493247933
 20
-176.15000000000001
 30
0.0
 40
0.8000000000001502
 50
12.850572027100251
 51
90.000000000000028
  0
ARC
  5
151
  8
DATA
  6
CONTINUOUS
 62
     7
 10
45.632134506752038
 20
-191.5499999999999
 30
0.0
 40
0.7999999999999843
 50
192.8505720270779
 51
270.0
  0
ARC
  5
152
  8
DATA
  6
CONTINUOUS
 62
     7
 10
54.367865493248352
 20
-191.5500000000003
 30
0.0
 40
0.7999999999996135
 50
270.0
 51
347.14942797294083
  0
ARC
  5
153
  8
DATA
  6
CONTINUOUS
 62
     7
 10
42.89500000000001
 20
-174.28049999999999
 30
0.0
 40
0.8000000000000682
 50
90.0
 51
179.99999999999591
  0
ARC
  5
154
  8
DATA
  6
CONTINUOUS
 62
     7
 10
57.105000000000018
 20
-174.2804999999999
 30
0.0
 40
0.7999999999999972
 50
0.0
 51
90.0
  0
ARC
  5
155
  8
DATA
  6
CONTINUOUS
 62
     7
 10
42.89500000000001
 20
-193.41949999999991
 30
0.0
 40
0.7999999999999972
 50
180.0
 51
270.0
  0
ARC
  5
156
  8
DATA
  6
CONTINUOUS
 62
     7
 10
57.105000000000018
 20
-193.4195
 30
0.0
 40
0.7999999999999546
 50
270.0
 51
0.0000000000040927
  0
LINE
  5
157
  8
DATA
  6
CONTINUOUS
 62
     7
 10
44.386789292384627
 20
-178.40001000000001
 30
0.0
 11
55.613210707615544
 21
-178.40001000000001
 31
0.0
  0
TEXT
  5
158
  8
DATA
 62
     7
 10
48.309759479667171
 20
-191.3925615970077
 30
0.0
 40
5.4294704861111107
  1
o
 41
0.8
 11
48.309759479667171
 21
-185.9630911108965
 31
0.0
 73
     3
  0
TEXT
  5
159
  8
DATA
 62
     7
 10
48.654342437599311
 20
-183.6717480374036
 30
0.0
 40
4.3435763888888879
  1
I
 41
0.8
 11
48.654342437599311
 21
-179.32817164851471
 31
0.0
 73
     3
  0
ARC
  5
15A
  8
DATA
  6
CONTINUOUS
 62
     7
 10
-1.488215573899808
 20
-178.03410825902691
 30
0.0
 40
12.50000000000005
 50
134.45736252580261
 51
165.99108910364129
  0
ARC
  5
15B
  8
DATA
  6
CONTINUOUS
 62
     7
 10
-1.488215573899808
 20
-178.03410825902691
 30
0.0
 40
12.50000000000002
 50
175.07665074500949
 51
204.81712079974741
  0
ARC
  5
15C
  8
DATA
  6
CONTINUOUS
 62
     7
 10
-1.488215573899808
 20
-178.03410825902691
 30
0.0
 40
12.50000000000002
 50
213.90285523138579
 51
246.08138651606629
  0
ARC
  5
15D
  8
DATA
  6
CONTINUOUS
 62
     7
 10
-1.488215573899808
 20
-178.03410825902691
 30
0.0
 40
12.50000000000003
 50
255.1670932951219
 51
285.38286324883882
  0
ARC
  5
15E
  8
DATA
  6
CONTINUOUS
 62
     7
 10
-1.488215573899808
 20
-178.03410825902691
 30
0.0
 40
12.5
 50
294.46803736158449
 51
324.39212599619549
  0
ARC
  5
15F
  8
DATA
  6
CONTINUOUS
 62
     7
 10
-1.488215573899808
 20
-178.03410825902691
 30
0.0
 40
12.500000000000011
 50
333.47886394824872
 51
5.4574167969112173
  0
ARC
  5
160
  8
DATA
  6
CONTINUOUS
 62
     7
 10
-1.488215573899808
 20
-178.03410825902691
 30
0.0
 40
12.50000000000002
 50
14.54258320308791
 51
45.292381769521832
  0
ARC
  5
161
  8
DATA
  6
CONTINUOUS
 62
     7
 10
-1.488215573899808
 20
-178.03410825902691
 30
0.0
 40
12.49999999999998
 50
54.377585934944833
 51
85.307609281796573
  0
ARC
  5
162
  8
DATA
  6
CONTINUOUS
 62
     7
 10
-1.488215573899808
 20
-178.03410825902691
 30
0.0
 40
12.5
 50
94.392806801350673
 51
125.37218604774429
  0
LINE
  5
163
  8
DATA
  6
CONTINUOUS
 62
     7
 10
13.423603634237519
 20
-176.41002454695251
 30
0.0
 11
10.491541080584881
 21
-176.9270262842864
 31
0.0
  0
LINE
  5
164
  8
DATA
  6
CONTINUOUS
 62
     7
 10
13.079780242457
 20
-174.46010519598829
 30
0.0
 11
10.14771768882626
 21
-174.9771069333184
 31
0.0
  0
ARC
  5
165
  8
DATA
  6
CONTINUOUS
 62
     7
 10
10.32950686468153
 20
-175.95035071483019
 30
0.0
 40
0.990025381035945
 50
100.0014688589155
 51
279.4197908142018
  0
LINE
  5
166
  8
DATA
  6
CONTINUOUS
 62
     7
 10
8.9168978182759258
 20
-167.22977508682399
 30
0.0
 11
7.0064983082401682
 21
-169.50650056619941
 31
0.0
  0
LINE
  5
167
  8
DATA
  6
CONTINUOUS
 62
     7
 10
7.4034982260228182
 20
-165.95304131073871
 30
0.0
 11
5.4897303108789108
 21
-168.23378109900301
 31
0.0
  0
ARC
  5
168
  8
DATA
  6
CONTINUOUS
 62
     7
 10
6.2545779428222801
 20
-168.86247725981539
 30
0.0
 40
0.9900253810359611
 50
140.0014688589136
 51
319.41979081420521
  0
LINE
  5
169
  8
DATA
  6
CONTINUOUS
 62
     7
 10
-0.4656387305821
 20
-163.06407577486539
 30
0.0
 11
-0.4656387305821141
 21
-166.04137011955791
 31
0.0
  0
LINE
  5
16A
  8
DATA
  6
CONTINUOUS
 62
     7
 10
-2.445638730582075
 20
-163.0640757748653
 30
0.0
 11
-2.4456387305820608
 21
-166.04137011953571
 31
0.0
  0
ARC
  5
16B
  8
DATA
  6
CONTINUOUS
 62
     7
 10
-1.4556133498714561
 20
-166.03134473882491
 30
0.0
 40
0.9900253810359547
 50
180.00146885891701
 51
359.41979081420237
  0
LINE
  5
16C
  8
DATA
  6
CONTINUOUS
 62
     7
 10
-10.33165588104502
 20
-165.9259046457336
 30
0.0
 11
-8.4178879658868322
 21
-168.206644434015
 31
0.0
  0
LINE
  5
16D
  8
DATA
  6
CONTINUOUS
 62
     7
 10
-11.84842387842057
 20
-167.19862411291291
 30
0.0
 11
-9.9346559632766542
 21
-169.47936390117721
 31
0.0
  0
ARC
  5
16E
  8
DATA
  6
CONTINUOUS
 62
     7
 10
-9.1826967123398067
 20
-168.8353079659976
 30
0.0
 40
0.9900253810359722
 50
220.0014688589161
 51
39.419790814202372
  0
LINE
  5
16F
  8
DATA
  6
CONTINUOUS
 62
     7
 10
-16.075836221389839
 20
-174.57454068033221
 30
0.0
 11
-13.14377366773722
 21
-175.09154241766609
 31
0.0
  0
LINE
  5
170
  8
DATA
  6
CONTINUOUS
 62
     7
 10
-16.412187515497259
 20
-176.52577756371861
 30
0.0
 11
-13.48759705953962
 21
-177.04146176862639
 31
0.0
  0
ARC
  5
171
  8
DATA
  6
CONTINUOUS
 62
     7
 10
-13.325554028986071
 20
-176.0647362089328
 30
0.0
 40
0.9900253810359636
 50
260.0014688589153
 51
79.419790814202543
  0
LINE
  5
172
  8
DATA
  6
CONTINUOUS
 62
     7
 10
10.848274063679581
 20
-186.56704582014279
 30
0.0
 11
8.2740556861062515
 21
-185.08082014689791
 31
0.0
  0
LINE
  5
173
  8
DATA
  6
CONTINUOUS
 62
     7
 10
11.842468223153711
 20
-184.85473701975101
 30
0.0
 11
9.2640556861254701
 21
-183.36608984741591
 31
0.0
  0
ARC
  5
174
  8
DATA
  6
CONTINUOUS
 62
     7
 10
8.7777252301482775
 20
-184.22848966785801
 30
0.0
 40
0.990025381036024
 50
60.001468858915771
 51
239.4197908142043
  0
LINE
  5
175
  8
DATA
  6
CONTINUOUS
 62
     7
 10
2.6818393104542788
 20
-192.4332102560287
 30
0.0
 11
1.6635446719598259
 21
-189.63546873041341
 31
0.0
  0
LINE
  5
176
  8
DATA
  6
CONTINUOUS
 62
     7
 10
4.5424306996103363
 20
-191.75601037224379
 30
0.0
 11
3.5241360611234849
 21
-188.9582688466495
 31
0.0
  0
ARC
  5
177
  8
DATA
  6
CONTINUOUS
 62
     7
 10
2.5972453986265398
 20
-189.30629824553071
 30
0.0
 40
0.9900253810359515
 50
20.001468858914279
 51
199.41979081420439
  0
LINE
  5
178
  8
DATA
  6
CONTINUOUS
 62
     7
 10
-7.4046043559336994
 20
-191.7916148127367
 30
0.0
 11
-6.3863097174392598
 21
-188.9938732871214
 31
0.0
  0
LINE
  5
179
  8
DATA
  6
CONTINUOUS
 62
     7
 10
-5.5440129667776432
 20
-192.46881469652141
 30
0.0
 11
-4.5257183282908073
 21
-189.67107317092709
 31
0.0
  0
ARC
  5
17A
  8
DATA
  6
CONTINUOUS
 62
     7
 10
-5.4594667550829126
 20
-189.3418853245949
 30
0.0
 40
0.9900253810359684
 50
340.001468858914
 51
159.41979081420669
  0
LINE
  5
17B
  8
DATA
  6
CONTINUOUS
 62
     7
 10
-14.97613692451956
 20
-184.5174899882393
 30
0.0
 11
-12.397724387472049
 21
-183.028842815893
 31
0.0
  0
LINE
  5
17C
  8
DATA
  6
CONTINUOUS
 62
     7
 10
-13.986136924519579
 20
-186.2322202877325
 30
0.0
 11
-11.40772438749131
 21
-184.7435731153972
 31
0.0
  0
ARC
  5
17D
  8
DATA
  6
CONTINUOUS
 62
     7
 10
-11.91141931222475
 20
-183.89119867566589
 30
0.0
 40
0.9900253810359785
 50
300.0014688589136
 51
119.4197908142054
  0
LINE
  5
17E
  8
DATA
  6
CONTINUOUS
 62
     7
 10
11.842468223153711
 20
-184.85473701975101
 30
0.0
 11
11.86692565025113
 21
-184.86885752186939
 31
0.0
  0
LINE
  5
17F
  8
DATA
  6
CONTINUOUS
 62
     7
 10
4.5424306996103363
 20
-191.75601037224379
 30
0.0
 11
4.5463246907212351
 21
-191.76670902489261
 31
0.0
  0
LINE
  5
180
  8
DATA
  6
CONTINUOUS
 62
     7
 10
2.6818393104542788
 20
-192.4332102560287
 30
0.0
 11
2.68499973322406
 21
-192.4418934462245
 31
0.0
  0
LINE
  5
181
  8
DATA
  6
CONTINUOUS
 62
     7
 10
-5.5440129667776432
 20
-192.46881469652141
 30
0.0
 11
-5.5459907898888607
 21
-192.47483055039811
 31
0.0
  0
LINE
  5
182
  8
DATA
  6
CONTINUOUS
 62
     7
 10
-7.4046043559336994
 20
-191.7916148127367
 30
0.0
 11
-7.4127920479998863
 21
-191.8145071502976
 31
0.0
  0
LINE
  5
183
  8
DATA
  6
CONTINUOUS
 62
     7
 10
-13.986136924519579
 20
-186.2322202877325
 30
0.0
 11
-14.03199935359817
 21
-186.2592823294145
 31
0.0
  0
LINE
  5
184
  8
DATA
  6
CONTINUOUS
 62
     7
 10
-14.97613692451956
 20
-184.5174899882393
 30
0.0
 11
-15.00662080976703
 21
-184.5343174771119
 31
0.0
  0
LINE
  5
185
  8
DATA
  6
CONTINUOUS
 62
     7
 10
-16.075836221389839
 20
-174.57454068033221
 30
0.0
 11
-16.0834380447887
 21
-174.5729695699163
 31
0.0
  0
LINE
  5
186
  8
DATA
  6
CONTINUOUS
 62
     7
 10
-11.84842387842057
 20
-167.19862411291291
 30
0.0
 11
-11.854009627667621
 21
-167.19204601815781
 31
0.0
  0
POLYLINE
  5
187
  8
DATA
  6
CONTINUOUS
 62
     7
 66
     1
 10
0.0
 20
0.0
 30
0.0
 70
   128
  0
VERTEX
  5
4AC
  8
DATA
  6
CONTINUOUS
 62
     7
 10
-16.626824086143401
 20
-166.57886787250391
 30
0.0
  0
VERTEX
  5
4AD
  8
DATA
  6
CONTINUOUS
 62
     7
 10
-16.626824302110151
 20
-166.57886815791349
 30
0.0
  0
VERTEX
  5
4AE
  8
DATA
  6
CONTINUOUS
 62
     7
 10
-16.62682526171368
 20
-166.5788694260724
 30
0.0
  0
VERTEX
  5
4AF
  8
DATA
  6
CONTINUOUS
 62
     7
 10
-16.62682526171368
 20
-166.5788694260724
 30
0.0
  0
VERTEX
  5
4B0
  8
DATA
  6
CONTINUOUS
 62
     7
 10
-16.62682526171368
 20
-166.5788694260724
 30
0.0
  0
VERTEX
  5
4B1
  8
DATA
  6
CONTINUOUS
 62
     7
 10
-16.626825091017292
 20
-166.57886920048961
 30
0.0
  0
SEQEND
  5
4B2
  8
DATA
  6
CONTINUOUS
 62
     7
  0
POLYLINE
  5
18F
  8
DATA
  6
CONTINUOUS
 62
     7
 66
     1
 10
0.0
 20
0.0
 30
0.0
 70
   128
  0
VERTEX
  5
4B3
  8
DATA
  6
CONTINUOUS
 62
     7
 10
-16.626825503114791
 20
-166.57886974509469
 30
0.0
  0
VERTEX
  5
4B4
  8
DATA
  6
CONTINUOUS
 62
     7
 10
-16.62682526171368
 20
-166.5788694260724
 30
0.0
  0
VERTEX
  5
4B5
  8
DATA
  6
CONTINUOUS
 62
     7
 10
-16.62682526171368
 20
-166.5788694260724
 30
0.0
  0
VERTEX
  5
4B6
  8
DATA
  6
CONTINUOUS
 62
     7
 10
-16.62682526171368
 20
-166.5788694260724
 30
0.0
  0
SEQEND
  5
4B7
  8
DATA
  6
CONTINUOUS
 62
     7
  0
TEXT
  5
195
  8
DATA
 62
     7
 10
23.85489821013272
 20
-197.7474544444446
 30
0.0
 40
3.8006293402777769
  1
LEVEL
 41
0.8
 11
23.85489821013272
 21
-193.94682510416681
 31
0.0
 73
     3
  0
TEXT
  5
196
  8
DATA
 62
     7
 10
15.037050173286159
 20
-171.50021641393161
 30
0.0
 40
4.3435763888888879
  1
ULXP4
 41
0.8
 11
15.037050173286159
 21
-167.15664002504269
 31
0.0
 73
     3
  0
POLYLINE
  5
197
  8
DATA
  6
CONTINUOUS
 62
     7
 66
     1
 10
0.0
 20
0.0
 30
0.0
 70
     1
  0
VERTEX
  5
4B8
  8
DATA
  6
CONTINUOUS
 62
     7
 10
46.399999999999991
 20
-161.70828173657421
 30
0.0
  0
VERTEX
  5
4B9
  8
DATA
  6
CONTINUOUS
 62
     7
 10
58.500000000000021
 20
-161.70828173657421
 30
0.0
  0
VERTEX
  5
4BA
  8
DATA
  6
CONTINUOUS
 62
     7
 10
58.500000000000021
 20
-169.97828173657419
 30
0.0
  0
VERTEX
  5
4BB
  8
DATA
  6
CONTINUOUS
 62
     7
 10
46.399999999999991
 20
-169.97828173657419
 30
0.0
  0
SEQEND
  5
4BC
  8
DATA
  6
CONTINUOUS
 62
     7
  0
TEXT
  5
19E
  8
DATA
 62
     7
 10
47.399990000000003
 20
-165.5334447837447
 30
0.0
 40
2.1717881944444439
  1
797-810
 41
0.8
 11
47.399990000000003
 21
-163.36165658930031
 31
0.0
 73
     3
  0
TEXT
  5
19F
  8
DATA
 62
     7
 10
47.399990000000003
 20
-168.35566700596689
 30
0.0
 40
2.1717881944444439
  1
MHz-JAB
 41
0.8
 11
47.399990000000003
 21
-166.1838788115225
 31
0.0
 73
     3
  0
LINE
  5
1A0
  8
DATA
  6
CONTINUOUS
 62
     7
 10
-108.0
 20
-186.99999999999989
 30
0.0
 11
-108.0
 21
-169.99999999999989
 31
0.0
  0
LINE
  5
1A1
  8
DATA
  6
CONTINUOUS
 62
     7
 10
-41.999999999999993
 20
-186.99999999999989
 30
0.0
 11
-41.999999999999993
 21
-169.99999999999989
 31
0.0
  0
LINE
  5
1A2
  8
DATA
  6
CONTINUOUS
 62
     7
 10
-108.0
 20
-186.99999999999989
 30
0.0
 11
-41.999999999999993
 21
-186.99999999999989
 31
0.0
  0
LINE
  5
1A3
  8
DATA
  6
CONTINUOUS
 62
     7
 10
-108.0
 20
-169.99999999999989
 30
0.0
 11
-41.999999999999993
 21
-169.99999999999989
 31
0.0
  0
CIRCLE
  5
1A4
  8
DATA
  6
CONTINUOUS
 62
     7
 10
-124.59999999999989
 20
-186.99999999999989
 30
0.0
 40
0.8499999999999943
  0
CIRCLE
  5
1A5
  8
DATA
  6
CONTINUOUS
 62
     7
 10
-117.0
 20
-186.99999999999989
 30
0.0
 40
0.8499999999999943
  0
CIRCLE
  5
1A6
  8
DATA
  6
CONTINUOUS
 62
     7
 10
-124.59999999999989
 20
-183.1999999999999
 30
0.0
 40
0.8499999999999943
  0
CIRCLE
  5
1A7
  8
DATA
  6
CONTINUOUS
 62
     7
 10
-117.0
 20
-183.1999999999999
 30
0.0
 40
0.8499999999999943
  0
CIRCLE
  5
1A8
  8
DATA
  6
CONTINUOUS
 62
     7
 10
-124.59999999999989
 20
-179.39999999999989
 30
0.0
 40
0.8499999999999943
  0
CIRCLE
  5
1A9
  8
DATA
  6
CONTINUOUS
 62
     7
 10
-117.0
 20
-179.39999999999989
 30
0.0
 40
0.8499999999999943
  0
CIRCLE
  5
1AA
  8
DATA
  6
CONTINUOUS
 62
     7
 10
-124.59999999999989
 20
-175.59999999999999
 30
0.0
 40
0.8499999999999943
  0
CIRCLE
  5
1AB
  8
DATA
  6
CONTINUOUS
 62
     7
 10
-117.0
 20
-175.59999999999999
 30
0.0
 40
0.8499999999999943
  0
CIRCLE
  5
1AC
  8
DATA
  6
CONTINUOUS
 62
     7
 10
-124.59999999999989
 20
-171.7999999999999
 30
0.0
 40
0.8499999999999943
  0
CIRCLE
  5
1AD
  8
DATA
  6
CONTINUOUS
 62
     7
 10
-117.0
 20
-171.7999999999999
 30
0.0
 40
0.8499999999999943
  0
CIRCLE
  5
1AE
  8
DATA
  6
CONTINUOUS
 62
     7
 10
-128.0
 20
-168.74999999999989
 30
0.0
 40
0.8499999999999943
  0
CIRCLE
  5
1AF
  8
DATA
  6
CONTINUOUS
 62
     7
 10
-122.2236851328921
 20
-168.74999999999989
 30
0.0
 40
0.8499999999999943
  0
TEXT
  5
1B0
  8
DATA
 62
     7
 10
-128.5291766666667
 20
-167.5620099999999
 30
0.0
 40
1.6288411458333329
  1
A
 41
0.8
 11
-128.5291766666667
 21
-165.93316885416661
 31
0.0
 73
     3
  0
TEXT
  5
1B1
  8
DATA
 62
     7
 10
-122.8034606938315
 20
-167.5698226258167
 30
0.0
 40
1.6288411458333329
  1
B
 41
0.8
 11
-122.8034606938315
 21
-165.94098147998341
 31
0.0
 73
     3
  0
TEXT
  5
1B2
  8
DATA
 62
     7
 10
-125.8671092475511
 20
-190.97208626307199
 30
0.0
 40
2.1717881944444439
  1
RF
 41
0.8
 11
-125.8671092475511
 21
-188.8002980686276
 31
0.0
 73
     3
  0
TEXT
  5
1B3
  8
DATA
 62
     7
 10
-121.5123001412436
 20
-191.02712111111109
 30
0.0
 40
2.1717881944444439
  1
TX AUDIO
 41
0.8
 11
-121.5123001412436
 21
-188.8553329166667
 31
0.0
 73
     3
  0
LINE
  5
1B4
  8
DATA
  6
CONTINUOUS
 62
     7
 10
13.500010000000019
 20
-110.0
 30
0.0
 11
62.217528242177018
 21
-110.0
 31
0.0
  0
LINE
  5
1B5
  8
DATA
  6
CONTINUOUS
 62
     7
 10
66.785067629626823
 20
-110.0
 30
0.0
 11
68.250009999999961
 21
-110.0
 31
0.0
  0
LINE
  5
1B6
  8
DATA
  6
CONTINUOUS
 62
     7
 10
-149.99998999999991
 20
44.0
 30
0.0
 11
69.500010000000017
 21
44.0
 31
0.0
  0
LINE
  5
1B7
  8
DATA
  6
CONTINUOUS
 62
     7
 10
-149.99998999999991
 20
-92.420000000000002
 30
0.0
 11
-149.99998999999991
 21
44.0
 31
0.0
  0
LINE
  5
1B8
  8
DATA
  6
CONTINUOUS
 62
     7
 10
69.500010000000017
 20
-92.420000000000002
 30
0.0
 11
69.500010000000017
 21
44.0
 31
0.0
  0
LINE
  5
1B9
  8
DATA
  6
CONTINUOUS
 62
     7
 10
-149.99998999999991
 20
42.469999999999992
 30
0.0
 11
69.500010000000017
 21
42.469999999999992
 31
0.0
  0
LINE
  5
1BA
  8
DATA
  6
CONTINUOUS
 62
     7
 10
-149.99998999999991
 20
-91.0
 30
0.0
 11
69.500010000000017
 21
-91.0
 31
0.0
  0
LINE
  5
1BB
  8
DATA
  6
CONTINUOUS
 62
     7
 10
-149.99998999999991
 20
-92.419999999999987
 30
0.0
 11
69.500010000000017
 21
-92.419999999999987
 31
0.0
  0
LINE
  5
1BC
  8
DATA
  6
CONTINUOUS
 62
     7
 10
-140.24999
 20
42.469999999999992
 30
0.0
 11
-140.24999
 21
-91.0
 31
0.0
  0
LINE
  5
1BD
  8
DATA
  6
CONTINUOUS
 62
     7
 10
-140.24999
 20
-91.0
 30
0.0
 11
-140.24999
 21
42.469999999999992
 31
0.0
  0
LINE
  5
1BE
  8
DATA
  6
CONTINUOUS
 62
     7
 10
59.750009999999961
 20
42.469999999999992
 30
0.0
 11
59.750009999999961
 21
-91.0
 31
0.0
  0
CIRCLE
  5
1BF
  8
DATA
  6
CONTINUOUS
 62
     7
 10
-144.74999
 20
26.07000000000005
 30
0.0
 40
1.75
  0
CIRCLE
  5
1C0
  8
DATA
  6
CONTINUOUS
 62
     7
 10
-144.74999
 20
-73.92999999999995
 30
0.0
 40
1.75
  0
CIRCLE
  5
1C1
  8
DATA
  6
CONTINUOUS
 62
     7
 10
64.250009999999961
 20
26.07000000000005
 30
0.0
 40
1.75
  0
CIRCLE
  5
1C2
  8
DATA
  6
CONTINUOUS
 62
     7
 10
64.250009999999961
 20
-73.92999999999995
 30
0.0
 40
1.75
  0
LINE
  5
1C3
  8
DATA
  6
CONTINUOUS
 62
     7
 10
-148.74999
 20
-110.0
 30
0.0
 11
-149.99998999999991
 21
-92.419999999999987
 31
0.0
  0
LINE
  5
1C4
  8
DATA
  6
CONTINUOUS
 62
     7
 10
68.250009999999961
 20
-110.0
 30
0.0
 11
69.500010000000017
 21
-92.419999999999987
 31
0.0
  0
LINE
  5
1C5
  8
DATA
  6
CONTINUOUS
 62
     7
 10
-148.75
 20
-200.0
 30
0.0
 11
-148.75
 21
-155.99999999999989
 31
0.0
  0
LINE
  5
1C6
  8
DATA
  6
CONTINUOUS
 62
     7
 10
68.249999999999943
 20
-200.0
 30
0.0
 11
68.249999999999943
 21
-155.99999999999989
 31
0.0
  0
POLYLINE
  5
1C7
  8
DATA
  6
CONTINUOUS
 62
     7
 66
     1
 10
0.0
 20
0.0
 30
0.0
 70
   128
  0
VERTEX
  5
4BD
  8
DATA
  6
CONTINUOUS
 62
     7
 10
-87.999999999999901
 20
144.0
 30
0.0
  0
VERTEX
  5
4BE
  8
DATA
  6
CONTINUOUS
 62
     7
 10
-148.4999999999998
 20
144.0
 30
0.0
  0
VERTEX
  5
4BF
  8
DATA
  6
CONTINUOUS
 62
     7
 10
-148.4999999999998
 20
144.0
 30
0.0
  0
VERTEX
  5
4C0
  8
DATA
  6
CONTINUOUS
 62
     7
 10
-148.4999999999998
 20
144.0
 30
0.0
 42
0.4142135623730951
  0
VERTEX
  5
4C1
  8
DATA
  6
CONTINUOUS
 62
     7
 10
-149.9999999999998
 20
142.5
 30
0.0
  0
VERTEX
  5
4C2
  8
DATA
  6
CONTINUOUS
 62
     7
 10
-149.9999999999998
 20
101.5
 30
0.0
  0
VERTEX
  5
4C3
  8
DATA
  6
CONTINUOUS
 62
     7
 10
-149.9999999999998
 20
101.5
 30
0.0
  0
VERTEX
  5
4C4
  8
DATA
  6
CONTINUOUS
 62
     7
 10
-149.9999999999998
 20
101.5
 30
0.0
 42
0.4142135623730951
  0
VERTEX
  5
4C5
  8
DATA
  6
CONTINUOUS
 62
     7
 10
-148.4999999999998
 20
100.0
 30
0.0
  0
VERTEX
  5
4C6
  8
DATA
  6
CONTINUOUS
 62
     7
 10
-87.999999999999901
 20
100.0
 30
0.0
  0
SEQEND
  5
4C7
  8
DATA
  6
CONTINUOUS
 62
     7
  0
POLYLINE
  5
1D3
  8
DATA
  6
CONTINUOUS
 62
     7
 66
     1
 10
0.0
 20
0.0
 30
0.0
 70
   128
  0
VERTEX
  5
4C8
  8
DATA
  6
CONTINUOUS
 62
     7
 10
-64.999999999999901
 20
144.0
 30
0.0
  0
VERTEX
  5
4C9
  8
DATA
  6
CONTINUOUS
 62
     7
 10
67.999999999999986
 20
144.0
 30
0.0
  0
VERTEX
  5
4CA
  8
DATA
  6
CONTINUOUS
 62
     7
 10
67.999999999999986
 20
144.0
 30
0.0
  0
VERTEX
  5
4CB
  8
DATA
  6
CONTINUOUS
 62
     7
 10
67.999999999999986
 20
144.0
 30
0.0
  0
VERTEX
  5
4CC
  8
DATA
  6
CONTINUOUS
 62
     7
 10
67.999999999999986
 20
144.0
 30
0.0
  0
VERTEX
  5
4CD
  8
DATA
  6
CONTINUOUS
 62
     7
 10
67.999999999999986
 20
144.0
 30
0.0
 42
-0.4142135623730951
  0
VERTEX
  5
4CE
  8
DATA
  6
CONTINUOUS
 62
     7
 10
69.499999999999986
 20
142.5
 30
0.0
  0
VERTEX
  5
4CF
  8
DATA
  6
CONTINUOUS
 62
     7
 10
69.499999999999986
 20
101.5
 30
0.0
  0
VERTEX
  5
4D0
  8
DATA
  6
CONTINUOUS
 62
     7
 10
69.499999999999986
 20
101.5
 30
0.0
  0
VERTEX
  5
4D1
  8
DATA
  6
CONTINUOUS
 62
     7
 10
69.499999999999986
 20
101.5
 30
0.0
  0
VERTEX
  5
4D2
  8
DATA
  6
CONTINUOUS
 62
     7
 10
69.499999999999986
 20
101.5
 30
0.0
  0
VERTEX
  5
4D3
  8
DATA
  6
CONTINUOUS
 62
     7
 10
69.499999999999986
 20
101.5
 30
0.0
 42
-0.4142135623730951
  0
VERTEX
  5
4D4
  8
DATA
  6
CONTINUOUS
 62
     7
 10
67.999999999999986
 20
100.0
 30
0.0
  0
VERTEX
  5
4D5
  8
DATA
  6
CONTINUOUS
 62
     7
 10
-64.999999999999901
 20
100.0
 30
0.0
  0
SEQEND
  5
4D6
  8
DATA
  6
CONTINUOUS
 62
     7
  0
CIRCLE
  5
1E3
  8
DATA
  6
CONTINUOUS
 62
     7
 10
65.500000000000099
 20
108.0
 30
0.0
 40
3.3499999999999939
  0
POLYLINE
  5
1E4
  8
DATA
  6
CONTINUOUS
 62
     7
 66
     1
 10
0.0
 20
0.0
 30
0.0
  0
VERTEX
  5
4D7
  8
DATA
  6
CONTINUOUS
 62
     7
 10
65.000000000000099
 20
107.5
 30
0.0
  0
VERTEX
  5
4D8
  8
DATA
  6
CONTINUOUS
 62
     7
 10
65.000000000000099
 20
105.5
 30
0.0
  0
VERTEX
  5
4D9
  8
DATA
  6
CONTINUOUS
 62
     7
 10
66.000000000000099
 20
105.5
 30
0.0
  0
VERTEX
  5
4DA
  8
DATA
  6
CONTINUOUS
 62
     7
 10
66.000000000000099
 20
107.5
 30
0.0
  0
SEQEND
  5
4DB
  8
DATA
  6
CONTINUOUS
 62
     7
  0
POLYLINE
  5
1EB
  8
DATA
  6
CONTINUOUS
 62
     7
 66
     1
 10
0.0
 20
0.0
 30
0.0
  0
VERTEX
  5
4DC
  8
DATA
  6
CONTINUOUS
 62
     7
 10
65.000000000000099
 20
108.5
 30
0.0
  0
VERTEX
  5
4DD
  8
DATA
  6
CONTINUOUS
 62
     7
 10
65.000000000000099
 20
110.5
 30
0.0
  0
VERTEX
  5
4DE
  8
DATA
  6
CONTINUOUS
 62
     7
 10
66.000000000000099
 20
110.5
 30
0.0
  0
VERTEX
  5
4DF
  8
DATA
  6
CONTINUOUS
 62
     7
 10
66.000000000000099
 20
108.5
 30
0.0
  0
SEQEND
  5
4E0
  8
DATA
  6
CONTINUOUS
 62
     7
  0
POLYLINE
  5
1F2
  8
DATA
  6
CONTINUOUS
 62
     7
 66
     1
 10
0.0
 20
0.0
 30
0.0
  0
VERTEX
  5
4E1
  8
DATA
  6
CONTINUOUS
 62
     7
 10
65.000000000000099
 20
108.5
 30
0.0
  0
VERTEX
  5
4E2
  8
DATA
  6
CONTINUOUS
 62
     7
 10
63.000000000000107
 20
108.5
 30
0.0
  0
VERTEX
  5
4E3
  8
DATA
  6
CONTINUOUS
 62
     7
 10
63.000000000000107
 20
107.5
 30
0.0
  0
VERTEX
  5
4E4
  8
DATA
  6
CONTINUOUS
 62
     7
 10
65.000000000000099
 20
107.5
 30
0.0
  0
SEQEND
  5
4E5
  8
DATA
  6
CONTINUOUS
 62
     7
  0
POLYLINE
  5
1F9
  8
DATA
  6
CONTINUOUS
 62
     7
 66
     1
 10
0.0
 20
0.0
 30
0.0
  0
VERTEX
  5
4E6
  8
DATA
  6
CONTINUOUS
 62
     7
 10
66.000000000000099
 20
108.5
 30
0.0
  0
VERTEX
  5
4E7
  8
DATA
  6
CONTINUOUS
 62
     7
 10
68.000000000000099
 20
108.5
 30
0.0
  0
VERTEX
  5
4E8
  8
DATA
  6
CONTINUOUS
 62
     7
 10
68.000000000000099
 20
107.5
 30
0.0
  0
VERTEX
  5
4E9
  8
DATA
  6
CONTINUOUS
 62
     7
 10
66.000000000000099
 20
107.5
 30
0.0
  0
SEQEND
  5
4EA
  8
DATA
  6
CONTINUOUS
 62
     7
  0
CIRCLE
  5
200
  8
DATA
  6
CONTINUOUS
 62
     7
 10
65.500000000000099
 20
136.0
 30
0.0
 40
3.3499999999999939
  0
POLYLINE
  5
201
  8
DATA
  6
CONTINUOUS
 62
     7
 66
     1
 10
0.0
 20
0.0
 30
0.0
  0
VERTEX
  5
4EB
  8
DATA
  6
CONTINUOUS
 62
     7
 10
65.000000000000099
 20
135.5
 30
0.0
  0
VERTEX
  5
4EC
  8
DATA
  6
CONTINUOUS
 62
     7
 10
65.000000000000099
 20
133.5
 30
0.0
  0
VERTEX
  5
4ED
  8
DATA
  6
CONTINUOUS
 62
     7
 10
66.000000000000099
 20
133.5
 30
0.0
  0
VERTEX
  5
4EE
  8
DATA
  6
CONTINUOUS
 62
     7
 10
66.000000000000099
 20
135.5
 30
0.0
  0
SEQEND
  5
4EF
  8
DATA
  6
CONTINUOUS
 62
     7
  0
POLYLINE
  5
208
  8
DATA
  6
CONTINUOUS
 62
     7
 66
     1
 10
0.0
 20
0.0
 30
0.0
  0
VERTEX
  5
4F0
  8
DATA
  6
CONTINUOUS
 62
     7
 10
65.000000000000099
 20
136.5
 30
0.0
  0
VERTEX
  5
4F1
  8
DATA
  6
CONTINUOUS
 62
     7
 10
65.000000000000099
 20
138.5
 30
0.0
  0
VERTEX
  5
4F2
  8
DATA
  6
CONTINUOUS
 62
     7
 10
66.000000000000099
 20
138.5
 30
0.0
  0
VERTEX
  5
4F3
  8
DATA
  6
CONTINUOUS
 62
     7
 10
66.000000000000099
 20
136.5
 30
0.0
  0
SEQEND
  5
4F4
  8
DATA
  6
CONTINUOUS
 62
     7
  0
POLYLINE
  5
20F
  8
DATA
  6
CONTINUOUS
 62
     7
 66
     1
 10
0.0
 20
0.0
 30
0.0
  0
VERTEX
  5
4F5
  8
DATA
  6
CONTINUOUS
 62
     7
 10
65.000000000000099
 20
136.5
 30
0.0
  0
VERTEX
  5
4F6
  8
DATA
  6
CONTINUOUS
 62
     7
 10
63.000000000000107
 20
136.5
 30
0.0
  0
VERTEX
  5
4F7
  8
DATA
  6
CONTINUOUS
 62
     7
 10
63.000000000000107
 20
135.5
 30
0.0
  0
VERTEX
  5
4F8
  8
DATA
  6
CONTINUOUS
 62
     7
 10
65.000000000000099
 20
135.5
 30
0.0
  0
SEQEND
  5
4F9
  8
DATA
  6
CONTINUOUS
 62
     7
  0
POLYLINE
  5
216
  8
DATA
  6
CONTINUOUS
 62
     7
 66
     1
 10
0.0
 20
0.0
 30
0.0
  0
VERTEX
  5
4FA
  8
DATA
  6
CONTINUOUS
 62
     7
 10
66.000000000000099
 20
136.5
 30
0.0
  0
VERTEX
  5
4FB
  8
DATA
  6
CONTINUOUS
 62
     7
 10
68.000000000000099
 20
136.5
 30
0.0
  0
VERTEX
  5
4FC
  8
DATA
  6
CONTINUOUS
 62
     7
 10
68.000000000000099
 20
135.5
 30
0.0
  0
VERTEX
  5
4FD
  8
DATA
  6
CONTINUOUS
 62
     7
 10
66.000000000000099
 20
135.5
 30
0.0
  0
SEQEND
  5
4FE
  8
DATA
  6
CONTINUOUS
 62
     7
  0
CIRCLE
  5
21D
  8
DATA
  6
CONTINUOUS
 62
     7
 10
-145.9999999999998
 20
108.0
 30
0.0
 40
3.3499999999999939
  0
POLYLINE
  5
21E
  8
DATA
  6
CONTINUOUS
 62
     7
 66
     1
 10
0.0
 20
0.0
 30
0.0
  0
VERTEX
  5
4FF
  8
DATA
  6
CONTINUOUS
 62
     7
 10
-146.4999999999998
 20
107.5
 30
0.0
  0
VERTEX
  5
500
  8
DATA
  6
CONTINUOUS
 62
     7
 10
-146.4999999999998
 20
105.5
 30
0.0
  0
VERTEX
  5
501
  8
DATA
  6
CONTINUOUS
 62
     7
 10
-145.4999999999998
 20
105.5
 30
0.0
  0
VERTEX
  5
502
  8
DATA
  6
CONTINUOUS
 62
     7
 10
-145.4999999999998
 20
107.5
 30
0.0
  0
SEQEND
  5
503
  8
DATA
  6
CONTINUOUS
 62
     7
  0
POLYLINE
  5
225
  8
DATA
  6
CONTINUOUS
 62
     7
 66
     1
 10
0.0
 20
0.0
 30
0.0
  0
VERTEX
  5
504
  8
DATA
  6
CONTINUOUS
 62
     7
 10
-146.4999999999998
 20
108.5
 30
0.0
  0
VERTEX
  5
505
  8
DATA
  6
CONTINUOUS
 62
     7
 10
-146.4999999999998
 20
110.5
 30
0.0
  0
VERTEX
  5
506
  8
DATA
  6
CONTINUOUS
 62
     7
 10
-145.4999999999998
 20
110.5
 30
0.0
  0
VERTEX
  5
507
  8
DATA
  6
CONTINUOUS
 62
     7
 10
-145.4999999999998
 20
108.5
 30
0.0
  0
SEQEND
  5
508
  8
DATA
  6
CONTINUOUS
 62
     7
  0
POLYLINE
  5
22C
  8
DATA
  6
CONTINUOUS
 62
     7
 66
     1
 10
0.0
 20
0.0
 30
0.0
  0
VERTEX
  5
509
  8
DATA
  6
CONTINUOUS
 62
     7
 10
-146.4999999999998
 20
108.5
 30
0.0
  0
VERTEX
  5
50A
  8
DATA
  6
CONTINUOUS
 62
     7
 10
-148.4999999999998
 20
108.5
 30
0.0
  0
VERTEX
  5
50B
  8
DATA
  6
CONTINUOUS
 62
     7
 10
-148.4999999999998
 20
107.5
 30
0.0
  0
VERTEX
  5
50C
  8
DATA
  6
CONTINUOUS
 62
     7
 10
-146.4999999999998
 20
107.5
 30
0.0
  0
SEQEND
  5
50D
  8
DATA
  6
CONTINUOUS
 62
     7
  0
POLYLINE
  5
233
  8
DATA
  6
CONTINUOUS
 62
     7
 66
     1
 10
0.0
 20
0.0
 30
0.0
  0
VERTEX
  5
50E
  8
DATA
  6
CONTINUOUS
 62
     7
 10
-145.4999999999998
 20
108.5
 30
0.0
  0
VERTEX
  5
50F
  8
DATA
  6
CONTINUOUS
 62
     7
 10
-143.4999999999998
 20
108.5
 30
0.0
  0
VERTEX
  5
510
  8
DATA
  6
CONTINUOUS
 62
     7
 10
-143.4999999999998
 20
107.5
 30
0.0
  0
VERTEX
  5
511
  8
DATA
  6
CONTINUOUS
 62
     7
 10
-145.4999999999998
 20
107.5
 30
0.0
  0
SEQEND
  5
512
  8
DATA
  6
CONTINUOUS
 62
     7
  0
CIRCLE
  5
23A
  8
DATA
  6
CONTINUOUS
 62
     7
 10
-145.9999999999998
 20
136.0
 30
0.0
 40
3.3499999999999939
  0
POLYLINE
  5
23B
  8
DATA
  6
CONTINUOUS
 62
     7
 66
     1
 10
0.0
 20
0.0
 30
0.0
  0
VERTEX
  5
513
  8
DATA
  6
CONTINUOUS
 62
     7
 10
-146.4999999999998
 20
135.5
 30
0.0
  0
VERTEX
  5
514
  8
DATA
  6
CONTINUOUS
 62
     7
 10
-146.4999999999998
 20
133.5
 30
0.0
  0
VERTEX
  5
515
  8
DATA
  6
CONTINUOUS
 62
     7
 10
-145.4999999999998
 20
133.5
 30
0.0
  0
VERTEX
  5
516
  8
DATA
  6
CONTINUOUS
 62
     7
 10
-145.4999999999998
 20
135.5
 30
0.0
  0
SEQEND
  5
517
  8
DATA
  6
CONTINUOUS
 62
     7
  0
POLYLINE
  5
242
  8
DATA
  6
CONTINUOUS
 62
     7
 66
     1
 10
0.0
 20
0.0
 30
0.0
  0
VERTEX
  5
518
  8
DATA
  6
CONTINUOUS
 62
     7
 10
-146.4999999999998
 20
136.5
 30
0.0
  0
VERTEX
  5
519
  8
DATA
  6
CONTINUOUS
 62
     7
 10
-146.4999999999998
 20
138.5
 30
0.0
  0
VERTEX
  5
51A
  8
DATA
  6
CONTINUOUS
 62
     7
 10
-145.4999999999998
 20
138.5
 30
0.0
  0
VERTEX
  5
51B
  8
DATA
  6
CONTINUOUS
 62
     7
 10
-145.4999999999998
 20
136.5
 30
0.0
  0
SEQEND
  5
51C
  8
DATA
  6
CONTINUOUS
 62
     7
  0
POLYLINE
  5
249
  8
DATA
  6
CONTINUOUS
 62
     7
 66
     1
 10
0.0
 20
0.0
 30
0.0
  0
VERTEX
  5
51D
  8
DATA
  6
CONTINUOUS
 62
     7
 10
-146.4999999999998
 20
136.5
 30
0.0
  0
VERTEX
  5
51E
  8
DATA
  6
CONTINUOUS
 62
     7
 10
-148.4999999999998
 20
136.5
 30
0.0
  0
VERTEX
  5
51F
  8
DATA
  6
CONTINUOUS
 62
     7
 10
-148.4999999999998
 20
135.5
 30
0.0
  0
VERTEX
  5
520
  8
DATA
  6
CONTINUOUS
 62
     7
 10
-146.4999999999998
 20
135.5
 30
0.0
  0
SEQEND
  5
521
  8
DATA
  6
CONTINUOUS
 62
     7
  0
POLYLINE
  5
250
  8
DATA
  6
CONTINUOUS
 62
     7
 66
     1
 10
0.0
 20
0.0
 30
0.0
  0
VERTEX
  5
522
  8
DATA
  6
CONTINUOUS
 62
     7
 10
-145.4999999999998
 20
136.5
 30
0.0
  0
VERTEX
  5
523
  8
DATA
  6
CONTINUOUS
 62
     7
 10
-143.4999999999998
 20
136.5
 30
0.0
  0
VERTEX
  5
524
  8
DATA
  6
CONTINUOUS
 62
     7
 10
-143.4999999999998
 20
135.5
 30
0.0
  0
VERTEX
  5
525
  8
DATA
  6
CONTINUOUS
 62
     7
 10
-145.4999999999998
 20
135.5
 30
0.0
  0
SEQEND
  5
526
  8
DATA
  6
CONTINUOUS
 62
     7
  0
LINE
  5
257
  8
DATA
  6
CONTINUOUS
 62
     7
 10
-5.311568510648172
 20
125.73952195250141
 30
0.0
 11
-5.311568510648172
 21
130.73952195250141
 31
0.0
  0
LINE
  5
258
  8
DATA
  6
CONTINUOUS
 62
     7
 10
-0.311568510648172
 20
129.98952195250141
 30
0.0
 11
-0.311568510648172
 21
126.48952195250141
 31
0.0
  0
LINE
  5
259
  8
DATA
  6
CONTINUOUS
 62
     7
 10
3.1884214893518239
 20
125.73952195250141
 30
0.0
 11
3.1884214893518239
 21
130.73952195250141
 31
0.0
  0
LINE
  5
25A
  8
DATA
  6
CONTINUOUS
 62
     7
 10
-5.311568510648172
 20
130.73952195250141
 30
0.0
 11
3.1884214893518239
 21
130.73952195250141
 31
0.0
  0
LINE
  5
25B
  8
DATA
  6
CONTINUOUS
 62
     7
 10
-5.311568510648172
 20
125.73952195250141
 30
0.0
 11
3.1884214893518239
 21
125.73952195250141
 31
0.0
  0
CIRCLE
  5
25C
  8
DATA
  6
CONTINUOUS
 62
     7
 10
20.730262428641669
 20
120.84052297750431
 30
0.0
 40
1.1900000000000051
  0
CIRCLE
  5
25D
  8
DATA
  6
CONTINUOUS
 62
     7
 10
24.93027242864169
 20
125.04051297750431
 30
0.0
 40
1.1899999999999971
  0
CIRCLE
  5
25E
  8
DATA
  6
CONTINUOUS
 62
     7
 10
29.1302624286417
 20
120.8405029775043
 30
0.0
 40
1.1900000000000071
  0
LINE
  5
25F
  8
DATA
  6
CONTINUOUS
 62
     7
 10
-1.311568510648172
 20
126.48952195250141
 30
0.0
 11
-1.311568510648172
 21
129.98952195250141
 31
0.0
  0
LINE
  5
260
  8
DATA
  6
CONTINUOUS
 62
     7
 10
-2.311568510648172
 20
126.48952195250141
 30
0.0
 11
-2.311568510648172
 21
129.98952195250141
 31
0.0
  0
LINE
  5
261
  8
DATA
  6
CONTINUOUS
 62
     7
 10
-3.311568510648172
 20
126.48952195250141
 30
0.0
 11
-3.311568510648172
 21
129.98952195250141
 31
0.0
  0
LINE
  5
262
  8
DATA
  6
CONTINUOUS
 62
     7
 10
-4.311568510648172
 20
126.48952195250141
 30
0.0
 11
-4.311568510648172
 21
129.98952195250141
 31
0.0
  0
TEXT
  5
263
  8
DATA
 62
     7
 10
-16.766818444022071
 20
140.0171012403969
 30
0.0
 40
2.7703048046875001
  1
HIGH Z
 50
180.0
 41
0.8
 72
     1
 11
-22.233553258605401
 21
137.2467964357094
 31
0.0
 73
     3
  0
TEXT
  5
264
  8
DATA
 62
     7
 10
40.164437121312737
 20
139.7370858880065
 30
0.0
 40
2.7147352430555549
  1
BALANCED LOW Z
 50
180.0
 41
0.8
 72
     1
 11
25.830635037979409
 21
137.0223506449509
 31
0.0
 73
     3
  0
LINE
  5
265
  8
DATA
  6
CONTINUOUS
 62
     7
 10
-1.061568510648172
 20
125.73952195250141
 30
0.0
 11
-1.061568510648172
 21
120.84052297750431
 31
0.0
  0
TEXT
  5
266
  8
DATA
 62
     7
 10
5.1994631560184921
 20
124.8099405846458
 30
0.0
 40
2.1546875000000001
  1
MIC
 50
180.0
 41
0.8
 72
     1
 11
3.1884214893518239
 21
122.65525308464581
 31
0.0
 73
     3
  0
TEXT
  5
267
  8
DATA
 62
     7
 10
-2.4386518439815039
 20
124.8099405846458
 30
0.0
 40
2.1546875000000001
  1
LINE
 50
180.0
 41
0.8
 72
     1
 11
-5.311568510648172
 21
122.65525308464581
 31
0.0
 73
     3
  0
LINE
  5
268
  8
DATA
  6
CONTINUOUS
 62
     7
 10
-0.311568510648172
 20
126.48952195250141
 30
0.0
 11
-5.311568510648172
 21
126.48952195250141
 31
0.0
  0
LINE
  5
269
  8
DATA
  6
CONTINUOUS
 62
     7
 10
-0.311568510648172
 20
129.98952195250141
 30
0.0
 11
-5.311568510648172
 21
129.98952195250141
 31
0.0
  0
CIRCLE
  5
26A
  8
DATA
  6
CONTINUOUS
 62
     7
 10
24.930102428641661
 20
120.84052297750431
 30
0.0
 40
10.9
  0
CIRCLE
  5
26B
  8
DATA
  6
CONTINUOUS
 62
     7
 10
49.317732401517517
 20
126.17242040537781
 30
0.0
 40
3.8499899999999911
  0
POLYLINE
  5
26C
  8
DATA
  6
CONTINUOUS
 62
     7
 66
     1
 10
0.0
 20
0.0
 30
0.0
 70
     1
  0
VERTEX
  5
527
  8
DATA
  6
CONTINUOUS
 62
     7
 10
44.567592401517459
 20
123.43012040537791
 30
0.0
  0
VERTEX
  5
528
  8
DATA
  6
CONTINUOUS
 62
     7
 10
49.317572401517523
 20
120.68760040537791
 30
0.0
  0
VERTEX
  5
529
  8
DATA
  6
CONTINUOUS
 62
     7
 10
54.067712401518371
 20
123.4298304053779
 30
0.0
  0
VERTEX
  5
52A
  8
DATA
  6
CONTINUOUS
 62
     7
 10
54.067912401518363
 20
128.91465040537781
 30
0.0
  0
VERTEX
  5
52B
  8
DATA
  6
CONTINUOUS
 62
     7
 10
49.317902401517493
 20
131.65724040537779
 30
0.0
  0
VERTEX
  5
52C
  8
DATA
  6
CONTINUOUS
 62
     7
 10
44.567762401517491
 20
128.91501040537781
 30
0.0
  0
SEQEND
  5
52D
  8
DATA
  6
CONTINUOUS
 62
     7
  0
CIRCLE
  5
275
  8
DATA
  6
CONTINUOUS
 62
     7
 10
49.317732401517517
 20
126.17242040537781
 30
0.0
 40
5.4447292862092764
  0
CIRCLE
  5
276
  8
DATA
  6
CONTINUOUS
 62
     7
 10
49.317732401517517
 20
126.17242040537781
 30
0.0
 40
2.6499990719998299
  0
CIRCLE
  5
277
  8
DATA
  6
CONTINUOUS
 62
     7
 10
49.317732401517517
 20
126.17242040537781
 30
0.0
 40
1.0000118624296299
  0
LINE
  5
278
  8
DATA
  6
CONTINUOUS
 62
     7
 10
53.094095428453123
 20
134.6615538919103
 30
0.0
 11
55.094095428453571
 21
134.6615538919103
 31
0.0
  0
LINE
  5
279
  8
DATA
  6
CONTINUOUS
 62
     7
 10
51.309275428452921
 20
134.6615538919103
 30
0.0
 11
48.309275428452921
 21
134.6615538919103
 31
0.0
  0
ARC
  5
27A
  8
DATA
  6
CONTINUOUS
 62
     7
 10
51.309275428452921
 20
134.6615538919103
 30
0.0
 40
1.784828398950423
 50
216.33976488686139
 51
149.53652214645771
  0
CIRCLE
  5
27B
  8
DATA
  6
CONTINUOUS
 62
     7
 10
51.309275428452921
 20
134.6615538919103
 30
0.0
 40
0.6180214057781415
  0
TEXT
  5
27C
  8
DATA
 62
     7
 10
47.426226101105279
 20
135.66955389191031
 30
0.0
 40
2.1546875000000001
  1
+
 50
180.0
 41
0.8
 72
     1
 11
46.851642767771942
 21
133.51486639191029
 31
0.0
 73
     3
  0
TEXT
  5
27D
  8
DATA
 62
     7
 10
57.151793257298159
 20
135.61663939639939
 30
0.0
 40
2.1546875000000001
  1
-
 50
180.0
 41
0.8
 72
     1
 11
56.577209923964823
 21
133.4619518963994
 31
0.0
 73
     3
  0
TEXT
  5
27E
  8
DATA
 62
     7
 10
60.329366647348039
 20
110.4505587750895
 30
0.0
 40
2.7147352430555549
  1
DC INPUT
 50
180.0
 41
0.8
 72
     1
 11
52.80050090660729
 21
107.735823532034
 31
0.0
 73
     3
  0
TEXT
  5
27F
  8
DATA
 62
     7
 10
54.755110281607287
 20
113.9783365528673
 30
0.0
 40
2.7147352430555549
  1
   
 50
180.0
 41
0.8
 72
     1
 11
52.80050090660729
 21
111.2636013098118
 31
0.0
 73
     3
  0
TEXT
  5
280
  8
DATA
 62
     7
 10
62.298466136644223
 20
114.4050983369809
 30
0.0
 40
2.7147352430555549
  1
14-18V
 50
180.0
 41
0.8
 11
62.298466136644223
 21
111.6903630939253
 31
0.0
 73
     3
  0
TEXT
  5
281
  8
DATA
 62
     7
 10
57.177521327442342
 20
118.0505849598765
 30
0.0
 40
2.7147352430555549
  1
550mA
 50
180.0
 41
0.8
 11
57.177521327442342
 21
115.335849716821
 31
0.0
 73
     3
  0
LINE
  5
282
  8
DATA
  6
CONTINUOUS
 62
     7
 10
50.650000000000077
 20
112.03162179575131
 30
0.0
 11
45.400000000000077
 21
112.03162179575131
 31
0.0
  0
LINE
  5
283
  8
DATA
  6
CONTINUOUS
 62
     7
 10
50.719661857435199
 20
113.59999999999999
 30
0.0
 11
49.51966185743521
 21
113.59999999999999
 31
0.0
  0
LINE
  5
284
  8
DATA
  6
CONTINUOUS
 62
     7
 10
48.719661857435199
 20
113.59999999999999
 30
0.0
 11
47.51966185743521
 21
113.59999999999999
 31
0.0
  0
LINE
  5
285
  8
DATA
  6
CONTINUOUS
 62
     7
 10
46.719661857435199
 20
113.59999999999999
 30
0.0
 11
45.51966185743521
 21
113.59999999999999
 31
0.0
  0
CIRCLE
  5
286
  8
DATA
  6
CONTINUOUS
 62
     7
 10
24.930102428641661
 20
120.84052297750431
 30
0.0
 40
8.1999999999999869
  0
CIRCLE
  5
287
  8
DATA
  6
CONTINUOUS
 62
     7
 10
34.093306685777868
 20
110.473327961558
 30
0.0
 40
2.3499999999999939
  0
CIRCLE
  5
288
  8
DATA
  6
CONTINUOUS
 62
     7
 10
16.028560077944391
 20
131.2077179934507
 30
0.0
 40
2.3499999999999939
  0
POLYLINE
  5
289
  8
DATA
  6
CONTINUOUS
 62
     7
 66
     1
 10
0.0
 20
0.0
 30
0.0
  0
VERTEX
  5
52E
  8
DATA
  6
CONTINUOUS
 62
     7
 10
33.693306685777991
 20
110.873327961558
 30
0.0
  0
VERTEX
  5
52F
  8
DATA
  6
CONTINUOUS
 62
     7
 10
32.593306685777911
 20
110.873327961558
 30
0.0
  0
VERTEX
  5
530
  8
DATA
  6
CONTINUOUS
 62
     7
 10
32.593306685777911
 20
110.07332796155799
 30
0.0
  0
VERTEX
  5
531
  8
DATA
  6
CONTINUOUS
 62
     7
 10
33.693306685777991
 20
110.07332796155799
 30
0.0
  0
SEQEND
  5
532
  8
DATA
  6
CONTINUOUS
 62
     7
  0
POLYLINE
  5
290
  8
DATA
  6
CONTINUOUS
 62
     7
 66
     1
 10
0.0
 20
0.0
 30
0.0
  0
VERTEX
  5
533
  8
DATA
  6
CONTINUOUS
 62
     7
 10
34.493306685777931
 20
110.873327961558
 30
0.0
  0
VERTEX
  5
534
  8
DATA
  6
CONTINUOUS
 62
     7
 10
35.593306685777911
 20
110.873327961558
 30
0.0
  0
VERTEX
  5
535
  8
DATA
  6
CONTINUOUS
 62
     7
 10
35.593306685777911
 20
110.07332796155799
 30
0.0
  0
VERTEX
  5
536
  8
DATA
  6
CONTINUOUS
 62
     7
 10
34.493306685777931
 20
110.07332796155799
 30
0.0
  0
SEQEND
  5
537
  8
DATA
  6
CONTINUOUS
 62
     7
  0
POLYLINE
  5
297
  8
DATA
  6
CONTINUOUS
 62
     7
 66
     1
 10
0.0
 20
0.0
 30
0.0
  0
VERTEX
  5
538
  8
DATA
  6
CONTINUOUS
 62
     7
 10
34.493306685777931
 20
110.873327961558
 30
0.0
  0
VERTEX
  5
539
  8
DATA
  6
CONTINUOUS
 62
     7
 10
34.493306685777931
 20
111.9733279615581
 30
0.0
  0
VERTEX
  5
53A
  8
DATA
  6
CONTINUOUS
 62
     7
 10
33.693306685777991
 20
111.9733279615581
 30
0.0
  0
VERTEX
  5
53B
  8
DATA
  6
CONTINUOUS
 62
     7
 10
33.693306685777991
 20
110.873327961558
 30
0.0
  0
SEQEND
  5
53C
  8
DATA
  6
CONTINUOUS
 62
     7
  0
POLYLINE
  5
29E
  8
DATA
  6
CONTINUOUS
 62
     7
 66
     1
 10
0.0
 20
0.0
 30
0.0
  0
VERTEX
  5
53D
  8
DATA
  6
CONTINUOUS
 62
     7
 10
34.493306685777931
 20
110.07332796155799
 30
0.0
  0
VERTEX
  5
53E
  8
DATA
  6
CONTINUOUS
 62
     7
 10
34.493306685777931
 20
108.973327961558
 30
0.0
  0
VERTEX
  5
53F
  8
DATA
  6
CONTINUOUS
 62
     7
 10
33.693306685777991
 20
108.973327961558
 30
0.0
  0
VERTEX
  5
540
  8
DATA
  6
CONTINUOUS
 62
     7
 10
33.693306685777991
 20
110.07332796155799
 30
0.0
  0
SEQEND
  5
541
  8
DATA
  6
CONTINUOUS
 62
     7
  0
POLYLINE
  5
2A5
  8
DATA
  6
CONTINUOUS
 62
     7
 66
     1
 10
0.0
 20
0.0
 30
0.0
  0
VERTEX
  5
542
  8
DATA
  6
CONTINUOUS
 62
     7
 10
15.628560077944471
 20
130.80771799345069
 30
0.0
  0
VERTEX
  5
543
  8
DATA
  6
CONTINUOUS
 62
     7
 10
15.628560077944471
 20
129.68489507379101
 30
0.0
  0
VERTEX
  5
544
  8
DATA
  6
CONTINUOUS
 62
     7
 10
16.428560077944422
 20
129.68489507379101
 30
0.0
  0
VERTEX
  5
545
  8
DATA
  6
CONTINUOUS
 62
     7
 10
16.428560077944422
 20
130.80771799345069
 30
0.0
  0
SEQEND
  5
546
  8
DATA
  6
CONTINUOUS
 62
     7
  0
POLYLINE
  5
2AC
  8
DATA
  6
CONTINUOUS
 62
     7
 66
     1
 10
0.0
 20
0.0
 30
0.0
  0
VERTEX
  5
547
  8
DATA
  6
CONTINUOUS
 62
     7
 10
15.628560077944471
 20
131.60771799345071
 30
0.0
  0
VERTEX
  5
548
  8
DATA
  6
CONTINUOUS
 62
     7
 10
15.628560077944471
 20
132.68489507379101
 30
0.0
  0
VERTEX
  5
549
  8
DATA
  6
CONTINUOUS
 62
     7
 10
16.428560077944422
 20
132.68489507379101
 30
0.0
  0
VERTEX
  5
54A
  8
DATA
  6
CONTINUOUS
 62
     7
 10
16.428560077944422
 20
131.60771799345071
 30
0.0
  0
SEQEND
  5
54B
  8
DATA
  6
CONTINUOUS
 62
     7
  0
POLYLINE
  5
2B3
  8
DATA
  6
CONTINUOUS
 62
     7
 66
     1
 10
0.0
 20
0.0
 30
0.0
  0
VERTEX
  5
54C
  8
DATA
  6
CONTINUOUS
 62
     7
 10
15.628560077944471
 20
131.60771799345071
 30
0.0
  0
VERTEX
  5
54D
  8
DATA
  6
CONTINUOUS
 62
     7
 10
14.528560077944441
 20
131.60771799345071
 30
0.0
  0
VERTEX
  5
54E
  8
DATA
  6
CONTINUOUS
 62
     7
 10
14.528560077944441
 20
130.80771799345069
 30
0.0
  0
VERTEX
  5
54F
  8
DATA
  6
CONTINUOUS
 62
     7
 10
15.628560077944471
 20
130.80771799345069
 30
0.0
  0
SEQEND
  5
550
  8
DATA
  6
CONTINUOUS
 62
     7
  0
POLYLINE
  5
2BA
  8
DATA
  6
CONTINUOUS
 62
     7
 66
     1
 10
0.0
 20
0.0
 30
0.0
  0
VERTEX
  5
551
  8
DATA
  6
CONTINUOUS
 62
     7
 10
16.428560077944422
 20
131.60771799345071
 30
0.0
  0
VERTEX
  5
552
  8
DATA
  6
CONTINUOUS
 62
     7
 10
17.528560077944451
 20
131.60771799345071
 30
0.0
  0
VERTEX
  5
553
  8
DATA
  6
CONTINUOUS
 62
     7
 10
17.528560077944451
 20
130.80771799345069
 30
0.0
  0
VERTEX
  5
554
  8
DATA
  6
CONTINUOUS
 62
     7
 10
16.428560077944422
 20
130.80771799345069
 30
0.0
  0
SEQEND
  5
555
  8
DATA
  6
CONTINUOUS
 62
     7
  0
ARC
  5
2C1
  8
DATA
  6
CONTINUOUS
 62
     7
 10
24.930102428641661
 20
120.84052297750431
 30
0.0
 40
8.0605771439618117
 50
248.14976323183839
 51
291.85023676816041
  0
LINE
  5
2C2
  8
DATA
  6
CONTINUOUS
 62
     7
 10
27.930102428641568
 20
113.35901885775939
 30
0.0
 11
27.981993076252181
 21
113.22961215980099
 31
0.0
  0
LINE
  5
2C3
  8
DATA
  6
CONTINUOUS
 62
     7
 10
21.9301024286416
 20
113.35901885775939
 30
0.0
 11
21.863755399894661
 21
113.23542495714339
 31
0.0
  0
LINE
  5
2C4
  8
DATA
  6
CONTINUOUS
 62
     7
 10
-1.061568510648172
 20
120.84052297750431
 30
0.0
 11
14.030102428641939
 21
120.84052297750431
 31
0.0
  0
CIRCLE
  5
2C5
  8
DATA
  6
CONTINUOUS
 62
     7
 10
-125.0064807834765
 20
128.0523833687916
 30
0.0
 40
4.75
  0
POLYLINE
  5
2C6
  8
DATA
  6
CONTINUOUS
 62
     7
 66
     1
 10
0.0
 20
0.0
 30
0.0
 70
     1
  0
VERTEX
  5
556
  8
DATA
  6
CONTINUOUS
 62
     7
 10
-132.00674078347649
 20
124.0112133687916
 30
0.0
  0
VERTEX
  5
557
  8
DATA
  6
CONTINUOUS
 62
     7
 10
-125.00685078347649
 20
119.9694833687916
 30
0.0
  0
VERTEX
  5
558
  8
DATA
  6
CONTINUOUS
 62
     7
 10
-118.0066007834765
 20
124.01056336879159
 30
0.0
  0
VERTEX
  5
559
  8
DATA
  6
CONTINUOUS
 62
     7
 10
-118.00617078347651
 20
132.09345336879159
 30
0.0
  0
VERTEX
  5
55A
  8
DATA
  6
CONTINUOUS
 62
     7
 10
-125.0061207834765
 20
136.13528336879159
 30
0.0
  0
VERTEX
  5
55B
  8
DATA
  6
CONTINUOUS
 62
     7
 10
-132.00638078347649
 20
132.09419336879159
 30
0.0
  0
SEQEND
  5
55C
  8
DATA
  6
CONTINUOUS
 62
     7
  0
CIRCLE
  5
2CF
  8
DATA
  6
CONTINUOUS
 62
     7
 10
-125.0064807834765
 20
128.0523833687916
 30
0.0
 40
8.0829000080169333
  0
CIRCLE
  5
2D0
  8
DATA
  6
CONTINUOUS
 62
     7
 10
-125.0064807834765
 20
128.0523833687916
 30
0.0
 40
2.249997550309804
  0
CIRCLE
  5
2D1
  8
DATA
  6
CONTINUOUS
 62
     7
 10
-125.0064807834765
 20
128.0523833687916
 30
0.0
 40
1.0
  0
LINE
  5
2D2
  8
DATA
  6
CONTINUOUS
 62
     7
 10
-126.0064807834765
 20
125.5368233687916
 30
0.0
 11
-126.0064807834765
 21
126.0368233687916
 31
0.0
  0
LINE
  5
2D3
  8
DATA
  6
CONTINUOUS
 62
     7
 10
-124.0064807834765
 20
125.5368233687916
 30
0.0
 11
-124.0064807834765
 21
126.0368233687916
 31
0.0
  0
LINE
  5
2D4
  8
DATA
  6
CONTINUOUS
 62
     7
 10
-126.0064807834765
 20
125.5368233687916
 30
0.0
 11
-124.0064807834765
 21
125.5368233687916
 31
0.0
  0
LINE
  5
2D5
  8
DATA
  6
CONTINUOUS
 62
     7
 10
-126.0064807834765
 20
130.56794336879159
 30
0.0
 11
-126.0064807834765
 21
130.06794336879159
 31
0.0
  0
LINE
  5
2D6
  8
DATA
  6
CONTINUOUS
 62
     7
 10
-124.0064807834765
 20
130.56794336879159
 30
0.0
 11
-124.0064807834765
 21
130.06794336879159
 31
0.0
  0
LINE
  5
2D7
  8
DATA
  6
CONTINUOUS
 62
     7
 10
-126.0064807834765
 20
130.56794336879159
 30
0.0
 11
-124.0064807834765
 21
130.56794336879159
 31
0.0
  0
CIRCLE
  5
2D8
  8
DATA
  6
CONTINUOUS
 62
     7
 10
-21.398197313506252
 20
128.0
 30
0.0
 40
7.0
  0
CIRCLE
  5
2D9
  8
DATA
  6
CONTINUOUS
 62
     7
 10
-21.398197313506252
 20
127.9292969412397
 30
0.0
 40
3.1500000000000048
  0
CIRCLE
  5
2DA
  8
DATA
  6
CONTINUOUS
 62
     7
 10
-21.398197313506252
 20
128.0
 30
0.0
 40
5.2249999999999934
  0
CIRCLE
  5
2DB
  8
DATA
  6
CONTINUOUS
 62
     7
 10
-42.313773006095381
 20
128.0523833687916
 30
0.0
 40
4.75
  0
POLYLINE
  5
2DC
  8
DATA
  6
CONTINUOUS
 62
     7
 66
     1
 10
0.0
 20
0.0
 30
0.0
 70
     1
  0
VERTEX
  5
55D
  8
DATA
  6
CONTINUOUS
 62
     7
 10
-49.314033006095407
 20
124.0112133687916
 30
0.0
  0
VERTEX
  5
55E
  8
DATA
  6
CONTINUOUS
 62
     7
 10
-42.314143006095392
 20
119.9694833687916
 30
0.0
  0
VERTEX
  5
55F
  8
DATA
  6
CONTINUOUS
 62
     7
 10
-35.313893006095398
 20
124.01056336879159
 30
0.0
  0
VERTEX
  5
560
  8
DATA
  6
CONTINUOUS
 62
     7
 10
-35.313463006095397
 20
132.09345336879159
 30
0.0
  0
VERTEX
  5
561
  8
DATA
  6
CONTINUOUS
 62
     7
 10
-42.313413006095381
 20
136.13528336879159
 30
0.0
  0
VERTEX
  5
562
  8
DATA
  6
CONTINUOUS
 62
     7
 10
-49.313673006095399
 20
132.09419336879159
 30
0.0
  0
SEQEND
  5
563
  8
DATA
  6
CONTINUOUS
 62
     7
  0
CIRCLE
  5
2E5
  8
DATA
  6
CONTINUOUS
 62
     7
 10
-42.313773006095381
 20
128.0523833687916
 30
0.0
 40
8.0829000080169333
  0
CIRCLE
  5
2E6
  8
DATA
  6
CONTINUOUS
 62
     7
 10
-42.313773006095381
 20
128.0523833687916
 30
0.0
 40
2.249997550309804
  0
CIRCLE
  5
2E7
  8
DATA
  6
CONTINUOUS
 62
     7
 10
-42.313773006095381
 20
128.0523833687916
 30
0.0
 40
1.0
  0
LINE
  5
2E8
  8
DATA
  6
CONTINUOUS
 62
     7
 10
-43.313773006095367
 20
125.5368233687916
 30
0.0
 11
-43.313773006095367
 21
126.0368233687916
 31
0.0
  0
LINE
  5
2E9
  8
DATA
  6
CONTINUOUS
 62
     7
 10
-41.313773006095381
 20
125.5368233687916
 30
0.0
 11
-41.313773006095381
 21
126.0368233687916
 31
0.0
  0
LINE
  5
2EA
  8
DATA
  6
CONTINUOUS
 62
     7
 10
-43.313773006095367
 20
125.5368233687916
 30
0.0
 11
-41.313773006095381
 21
125.5368233687916
 31
0.0
  0
LINE
  5
2EB
  8
DATA
  6
CONTINUOUS
 62
     7
 10
-43.313773006095367
 20
130.56794336879159
 30
0.0
 11
-43.313773006095367
 21
130.06794336879159
 31
0.0
  0
LINE
  5
2EC
  8
DATA
  6
CONTINUOUS
 62
     7
 10
-41.313773006095381
 20
130.56794336879159
 30
0.0
 11
-41.313773006095381
 21
130.06794336879159
 31
0.0
  0
LINE
  5
2ED
  8
DATA
  6
CONTINUOUS
 62
     7
 10
-43.313773006095367
 20
130.56794336879159
 30
0.0
 11
-41.313773006095381
 21
130.56794336879159
 31
0.0
  0
LINE
  5
2EE
  8
DATA
  6
CONTINUOUS
 62
     7
 10
68.534424106939682
 20
-104.88103169698221
 30
0.0
 11
-149.03440410693969
 21
-104.88103169698221
 31
0.0
  0
LINE
  5
2EF
  8
DATA
  6
CONTINUOUS
 62
     7
 10
-14.419428842302761
 20
-110.0883699413649
 30
0.0
 11
-11.260000000000019
 21
-110.0883699413649
 31
0.0
  0
LINE
  5
2F0
  8
DATA
  6
CONTINUOUS
 62
     7
 10
-9.1483438771701202
 20
-110.0883699413649
 30
0.0
 11
-2.4456287305821851
 21
-110.0883699413649
 31
0.0
  0
LINE
  5
2F1
  8
DATA
  6
CONTINUOUS
 62
     7
 10
-0.4656287305820969
 20
-110.0883699413649
 30
0.0
 11
6.2128637268840521
 21
-110.0883699413649
 31
0.0
  0
LINE
  5
2F2
  8
DATA
  6
CONTINUOUS
 62
     7
 10
8.3599999999999977
 20
-110.0883699413649
 30
0.0
 11
13.500010000000019
 21
-110.0883699413649
 31
0.0
  0
ARC
  5
2F3
  8
DATA
  6
CONTINUOUS
 62
     7
 10
-1.8749899999999819
 20
-141.10845922707921
 30
0.0
 40
35.520089285714278
 50
64.351203795529685
 51
115.6487962044703
  0
LINE
  5
2F4
  8
DATA
  6
CONTINUOUS
 62
     7
 10
-13.99839005760327
 20
-113.5883699413649
 30
0.0
 11
-16.640106936504289
 21
-110.7448439111182
 31
0.0
  0
LINE
  5
2F5
  8
DATA
  6
CONTINUOUS
 62
     7
 10
13.500010000000019
 20
-110.0883699413649
 30
0.0
 11
13.500010000000019
 21
-109.088369941365
 31
0.0
  0
LINE
  5
2F6
  8
DATA
  6
CONTINUOUS
 62
     7
 10
-13.99839005760327
 20
-113.5883699413649
 30
0.0
 11
-9.9815200467407266
 21
-113.5883699413649
 31
0.0
  0
LINE
  5
2F7
  8
DATA
  6
CONTINUOUS
 62
     7
 10
-7.8744480572384381
 20
-113.5883699413649
 30
0.0
 11
-2.4456287305820719
 21
-113.5883699413649
 31
0.0
  0
LINE
  5
2F8
  8
DATA
  6
CONTINUOUS
 62
     7
 10
-0.4656287305820969
 20
-113.5883699413649
 30
0.0
 11
4.9389679069523282
 21
-113.5883699413649
 31
0.0
  0
LINE
  5
2F9
  8
DATA
  6
CONTINUOUS
 62
     7
 10
7.0460398964546149
 20
-113.5883699413649
 30
0.0
 11
10.2484100576033
 21
-113.5883699413649
 31
0.0
  0
LINE
  5
2FA
  8
DATA
  6
CONTINUOUS
 62
     7
 10
-2.4456287305820719
 20
-114.09836994136489
 30
0.0
 11
-2.4456287305820719
 21
-110.0883699413649
 31
0.0
  0
LINE
  5
2FB
  8
DATA
  6
CONTINUOUS
 62
     7
 10
-0.4656287305820969
 20
-114.09836994136489
 30
0.0
 11
-0.4656287305820969
 21
-110.0883699413649
 31
0.0
  0
ARC
  5
2FC
  8
DATA
  6
CONTINUOUS
 62
     7
 10
-1.455628730582077
 20
-114.09836994136489
 30
0.0
 40
0.9899999999999947
 50
179.99999999999829
 51
0.0000000000016485
  0
ARC
  5
2FD
  8
DATA
  6
CONTINUOUS
 62
     7
 10
-1.454691272311109
 20
-110.08743381842331
 30
0.0
 40
0.990937900441132
 50
180.0541264004695
 51
356.47446442167347
  0
LINE
  5
2FE
  8
DATA
  6
CONTINUOUS
 62
     7
 10
-9.6815452588783586
 20
-114.4125438974224
 30
0.0
 11
-11.053046033614301
 21
-110.644376488071
 31
0.0
  0
LINE
  5
2FF
  8
DATA
  6
CONTINUOUS
 62
     7
 10
-7.8209538697222882
 20
-113.7353440136376
 30
0.0
 11
-9.1483438771701469
 21
-110.0883699413649
 31
0.0
  0
ARC
  5
300
  8
DATA
  6
CONTINUOUS
 62
     7
 10
-8.7512495643003234
 20
-114.07394395553
 30
0.0
 40
0.9900000000000179
 50
200.0000000000004
 51
20.000000000001311
  0
ARC
  5
301
  8
DATA
  6
CONTINUOUS
 62
     7
 10
-10.122189589319399
 20
-110.3045762487459
 30
0.0
 40
0.9909379004411612
 50
200.0541264004726
 51
12.602364054181351
  0
LINE
  5
302
  8
DATA
  6
CONTINUOUS
 62
     7
 10
6.746065108592247
 20
-114.4125438974224
 30
0.0
 11
8.1175658833281972
 21
-110.644376488071
 31
0.0
  0
LINE
  5
303
  8
DATA
  6
CONTINUOUS
 62
     7
 10
4.8854737194361766
 20
-113.7353440136376
 30
0.0
 11
6.2128637268840521
 21
-110.0883699413649
 31
0.0
  0
ARC
  5
304
  8
DATA
  6
CONTINUOUS
 62
     7
 10
5.8157694140142118
 20
-114.07394395553
 30
0.0
 40
0.9899999999999781
 50
159.99999999999869
 51
339.9999999999996
  0
ARC
  5
305
  8
DATA
  6
CONTINUOUS
 62
     7
 10
7.1867094390332928
 20
-110.3045762487459
 30
0.0
 40
0.990937900441086
 50
167.39763594580921
 51
339.94587359952789
  0
LINE
  5
306
  8
DATA
  6
CONTINUOUS
 62
     7
 10
-17.29470558814506
 20
-110.7448439111182
 30
0.0
 11
-17.39984254321071
 21
-112.28836994136491
 31
0.0
  0
ARC
  5
307
  8
DATA
  6
CONTINUOUS
 62
     7
 10
-14.455
 20
-114.2030246669691
 30
0.0
 40
0.8751579240769007
 50
215.21485678984109
 51
44.614705876099812
  0
LINE
  5
308
  8
DATA
  6
CONTINUOUS
 62
     7
 10
-15.17000000001611
 20
-114.7076793925504
 30
0.0
 11
-17.39984254321071
 21
-112.28836994136491
 31
0.0
  0
LINE
  5
309
  8
DATA
  6
CONTINUOUS
 62
     7
 10
10.2484100576033
 20
-113.5883699413649
 30
0.0
 11
13.500010000000019
 21
-110.0883699413649
 31
0.0
  0
LINE
  5
30A
  8
DATA
  6
CONTINUOUS
 62
     7
 10
13.500010000000019
 20
-110.0883699413649
 30
0.0
 11
13.649862543210739
 21
-112.28836994136491
 31
0.0
  0
ARC
  5
30B
  8
DATA
  6
CONTINUOUS
 62
     7
 10
10.70502000000003
 20
-114.2030246669691
 30
0.0
 40
0.8751579240769069
 50
135.3852941239002
 51
324.78514321015888
  0
LINE
  5
30C
  8
DATA
  6
CONTINUOUS
 62
     7
 10
11.42002000001615
 20
-114.7076793925504
 30
0.0
 11
13.649862543210739
 21
-112.28836994136491
 31
0.0
  0
LINE
  5
30D
  8
DATA
  6
CONTINUOUS
 62
     7
 10
-11.053046033614301
 20
-110.644376488071
 30
0.0
 11
-11.26
 21
-110.0883699413649
 31
0.0
  0
LINE
  5
30E
  8
DATA
  6
CONTINUOUS
 62
     7
 10
8.1175658833281972
 20
-110.644376488071
 30
0.0
 11
8.3599999999999977
 21
-110.0883699413649
 31
0.0
  0
LINE
  5
30F
  8
DATA
  6
CONTINUOUS
 62
     7
 10
6.2196454519159508
 20
-110.0883699413649
 30
0.0
 11
6.212863726884037
 21
-110.0883699413649
 31
0.0
  0
LINE
  5
310
  8
DATA
  6
CONTINUOUS
 62
     7
 10
-9.1483438771701202
 20
-110.0883699413649
 30
0.0
 11
-9.1551256022011511
 21
-110.0883699413649
 31
0.0
  0
LINE
  5
311
  8
DATA
  6
CONTINUOUS
 62
     7
 10
-27.50000000000005
 20
-172.59999999999991
 30
0.0
 11
-27.50000000000005
 21
-164.09
 31
0.0
  0
LINE
  5
312
  8
DATA
  6
CONTINUOUS
 62
     7
 10
-27.50000000000005
 20
-172.59999999999991
 30
0.0
 11
-19.700000000000031
 21
-172.59999999999991
 31
0.0
  0
ARC
  5
313
  8
DATA
  6
CONTINUOUS
 62
     7
 10
-1.4999999999999849
 20
-177.99999999999989
 30
0.0
 40
18.984203960134892
 50
132.8855611991051
 51
163.47420361007579
  0
CIRCLE
  5
314
  8
DATA
  6
CONTINUOUS
 62
     7
 10
-25.00000000000005
 20
-166.94499999999999
 30
0.0
 40
0.2999999999999972
  0
CIRCLE
  5
315
  8
DATA
  6
CONTINUOUS
 62
     7
 10
-23.600000000000041
 20
-166.94499999999999
 30
0.0
 40
0.2999999999999972
  0
CIRCLE
  5
316
  8
DATA
  6
CONTINUOUS
 62
     7
 10
-22.19745264475354
 20
-166.94499999999999
 30
0.0
 40
0.2999999999999972
  0
CIRCLE
  5
317
  8
DATA
  6
CONTINUOUS
 62
     7
 10
-25.00000000000005
 20
-168.34499999999991
 30
0.0
 40
0.2999999999999972
  0
CIRCLE
  5
318
  8
DATA
  6
CONTINUOUS
 62
     7
 10
-23.600000000000041
 20
-168.34499999999991
 30
0.0
 40
0.2999999999999972
  0
CIRCLE
  5
319
  8
DATA
  6
CONTINUOUS
 62
     7
 10
-22.19745264475354
 20
-168.34499999999991
 30
0.0
 40
0.2999999999999972
  0
CIRCLE
  5
31A
  8
DATA
  6
CONTINUOUS
 62
     7
 10
-25.00000000000005
 20
-169.74499999999989
 30
0.0
 40
0.2999999999999972
  0
CIRCLE
  5
31B
  8
DATA
  6
CONTINUOUS
 62
     7
 10
-23.600000000000041
 20
-169.74499999999989
 30
0.0
 40
0.2999999999999972
  0
CIRCLE
  5
31C
  8
DATA
  6
CONTINUOUS
 62
     7
 10
-22.19745264475354
 20
-169.74499999999989
 30
0.0
 40
0.2999999999999972
  0
TEXT
  5
31D
  8
DATA
 62
     7
 10
-27.29877157791795
 20
-163.23602189817251
 30
0.0
 40
2.7147352430555549
  1
MODE
 41
0.8
 11
-27.29877157791795
 21
-160.521286655117
 31
0.0
 73
     3
  0
LINE
  5
31E
  8
DATA
  6
CONTINUOUS
 62
     7
 10
-27.50000000000005
 20
-164.09
 30
0.0
 11
-14.41943884230276
 21
-164.09
 31
0.0
  0
LINE
  5
31F
  8
DATA
  6
CONTINUOUS
 62
     7
 10
-27.50000000000005
 20
-183.39999999999989
 30
0.0
 11
-27.50000000000005
 21
-191.90999999999991
 31
0.0
  0
LINE
  5
320
  8
DATA
  6
CONTINUOUS
 62
     7
 10
-27.50000000000005
 20
-183.39999999999989
 30
0.0
 11
-19.700000000000031
 21
-183.39999999999989
 31
0.0
  0
CIRCLE
  5
321
  8
DATA
  6
CONTINUOUS
 62
     7
 10
-25.00000000000005
 20
-189.05499999999989
 30
0.0
 40
0.2999999999999972
  0
CIRCLE
  5
322
  8
DATA
  6
CONTINUOUS
 62
     7
 10
-23.600000000000041
 20
-189.05499999999989
 30
0.0
 40
0.2999999999999972
  0
CIRCLE
  5
323
  8
DATA
  6
CONTINUOUS
 62
     7
 10
-22.19745264475354
 20
-189.05499999999989
 30
0.0
 40
0.2999999999999972
  0
CIRCLE
  5
324
  8
DATA
  6
CONTINUOUS
 62
     7
 10
-25.00000000000005
 20
-187.65499999999989
 30
0.0
 40
0.2999999999999972
  0
CIRCLE
  5
325
  8
DATA
  6
CONTINUOUS
 62
     7
 10
-23.600000000000041
 20
-187.65499999999989
 30
0.0
 40
0.2999999999999972
  0
CIRCLE
  5
326
  8
DATA
  6
CONTINUOUS
 62
     7
 10
-22.19745264475354
 20
-187.65499999999989
 30
0.0
 40
0.2999999999999972
  0
CIRCLE
  5
327
  8
DATA
  6
CONTINUOUS
 62
     7
 10
-25.00000000000005
 20
-186.25499999999991
 30
0.0
 40
0.2999999999999972
  0
CIRCLE
  5
328
  8
DATA
  6
CONTINUOUS
 62
     7
 10
-23.600000000000041
 20
-186.25499999999991
 30
0.0
 40
0.2999999999999972
  0
CIRCLE
  5
329
  8
DATA
  6
CONTINUOUS
 62
     7
 10
-22.19745264475354
 20
-186.25499999999991
 30
0.0
 40
0.2999999999999972
  0
TEXT
  5
32A
  8
DATA
 62
     7
 10
-27.261881682139212
 20
-182.6260434066094
 30
0.0
 40
2.7147352430555549
  1
SET
 41
0.8
 11
-27.261881682139212
 21
-179.9113081635538
 31
0.0
 73
     3
  0
LINE
  5
32B
  8
DATA
  6
CONTINUOUS
 62
     7
 10
-27.50000000000005
 20
-191.90999999999991
 30
0.0
 11
-14.41943884230276
 21
-191.90999999999991
 31
0.0
  0
ARC
  5
32C
  8
DATA
  6
CONTINUOUS
 62
     7
 10
-1.4999999999999849
 20
-177.99999999999989
 30
0.0
 40
18.984203960134892
 50
196.5257963899241
 51
227.1144388008949
  0
LINE
  5
32D
  8
DATA
  6
CONTINUOUS
 62
     7
 10
-27.499990000000039
 20
-110.7448439111182
 30
0.0
 11
-14.419428842302761
 21
-110.7448439111182
 31
0.0
  0
LINE
  5
32E
  8
DATA
  6
CONTINUOUS
 62
     7
 10
-27.499990000000039
 20
-110.7448439111182
 30
0.0
 11
-27.499990000000039
 21
-109.9853981515426
 31
0.0
  0
LINE
  5
32F
  8
DATA
  6
CONTINUOUS
 62
     7
 10
-17.249989999999979
 20
-109.9853981515427
 30
0.0
 11
-14.419428842302761
 21
-109.9853981515427
 31
0.0
  0
LINE
  5
330
  8
DATA
  6
CONTINUOUS
 62
     7
 10
-14.419428842302761
 20
-110.7448439111182
 30
0.0
 11
-14.419428842302761
 21
-109.9853981515427
 31
0.0
  0
ARC
  5
331
  8
DATA
  6
CONTINUOUS
 62
     7
 10
-24.999990000000039
 20
-110.7815415695423
 30
0.0
 40
0.299999999999993
 50
172.97366551166581
 51
7.0263344883341574
  0
ARC
  5
332
  8
DATA
  6
CONTINUOUS
 62
     7
 10
-23.59999000000003
 20
-110.7815415695423
 30
0.0
 40
0.2999999999999907
 50
172.97366551180249
 51
7.0263344881975334
  0
ARC
  5
333
  8
DATA
  6
CONTINUOUS
 62
     7
 10
-22.19744264475354
 20
-110.7815415695423
 30
0.0
 40
0.2999999999999907
 50
172.97366551180249
 51
7.0263344881975334
  0
ARC
  5
334
  8
DATA
  6
CONTINUOUS
 62
     7
 10
29.11795589079464
 20
-105.0275977455514
 30
0.0
 40
7.4724022544485429
 50
221.71574982534341
 51
318.28425017465662
  0
LINE
  5
335
  8
DATA
  6
CONTINUOUS
 62
     7
 10
-148.34998999999999
 20
-109.3749999999993
 30
0.0
 11
-148.34998999999999
 21
-107.0
 31
0.0
  0
LINE
  5
336
  8
DATA
  6
CONTINUOUS
 62
     7
 10
-141.64999
 20
-109.34999999999999
 30
0.0
 11
-141.64999
 21
-107.0
 31
0.0
  0
LINE
  5
337
  8
DATA
  6
CONTINUOUS
 62
     7
 10
-145.05741412812841
 20
-110.5
 30
0.0
 11
-144.99999
 21
-110.5
 31
0.0
  0
ARC
  5
338
  8
DATA
  6
CONTINUOUS
 62
     7
 10
-145.0287020640981
 20
-105.0352203686473
 30
0.0
 40
5.4648550577185206
 50
232.57271539750491
 51
307.85646510771522
  0
LINE
  5
339
  8
DATA
  6
CONTINUOUS
 62
     7
 10
-148.74999
 20
-110.0
 30
0.0
 11
-147.3124717578219
 21
-110.0
 31
0.0
  0
LINE
  5
33A
  8
DATA
  6
CONTINUOUS
 62
     7
 10
-141.64999
 20
-110.0
 30
0.0
 11
-142.7449323703743
 21
-110.0
 31
0.0
  0
LINE
  5
33B
  8
DATA
  6
CONTINUOUS
 62
     7
 10
-148.34998999999999
 20
-107.0
 30
0.0
 11
-141.64999
 21
-107.0
 31
0.0
  0
LINE
  5
33C
  8
DATA
  6
CONTINUOUS
 62
     7
 10
61.180009999999967
 20
-109.3749999999993
 30
0.0
 11
61.180009999999967
 21
-107.0
 31
0.0
  0
LINE
  5
33D
  8
DATA
  6
CONTINUOUS
 62
     7
 10
67.880009999999956
 20
-109.34999999999999
 30
0.0
 11
67.880009999999956
 21
-107.0
 31
0.0
  0
LINE
  5
33E
  8
DATA
  6
CONTINUOUS
 62
     7
 10
64.47258587187163
 20
-110.5
 30
0.0
 11
64.530009999999962
 21
-110.5
 31
0.0
  0
ARC
  5
33F
  8
DATA
  6
CONTINUOUS
 62
     7
 10
64.501297935901917
 20
-105.0352203686473
 30
0.0
 40
5.4648550577185206
 50
232.57271539750491
 51
307.85646510771522
  0
LINE
  5
340
  8
DATA
  6
CONTINUOUS
 62
     7
 10
67.880009999999956
 20
-110.0
 30
0.0
 11
66.785067629625686
 21
-110.0
 31
0.0
  0
LINE
  5
341
  8
DATA
  6
CONTINUOUS
 62
     7
 10
61.180009999999967
 20
-107.0
 30
0.0
 11
67.880009999999956
 21
-107.0
 31
0.0
  0
LINE
  5
342
  8
DATA
  6
CONTINUOUS
 62
     7
 10
69.500010000000017
 20
36.0
 30
0.0
 11
69.500010000000017
 21
44.0
 31
0.0
  0
LINE
  5
343
  8
DATA
  6
CONTINUOUS
 62
     7
 10
-87.999999999999901
 20
100.0
 30
0.0
 11
-64.699999999999889
 21
100.0
 31
0.0
  0
LINE
  5
344
  8
DATA
  6
CONTINUOUS
 62
     7
 10
-87.999999999999901
 20
144.0
 30
0.0
 11
-65.099999999999923
 21
144.0
 31
0.0
  0
LINE
  5
345
  8
DATA
  6
CONTINUOUS
 62
     7
 10
-120.26000000000001
 20
47.199989999999993
 30
0.0
 11
-120.26000000000001
 21
58.499999999999993
 31
0.0
  0
LINE
  5
346
  8
DATA
  6
CONTINUOUS
 62
     7
 10
-118.00999999999991
 20
44.717637112138391
 30
0.0
 11
-118.00999999999991
 21
46.217637112138398
 31
0.0
  0
LINE
  5
347
  8
DATA
  6
CONTINUOUS
 62
     7
 10
-132.00999999999999
 20
44.717637112138391
 30
0.0
 11
-132.00999999999999
 21
46.217637112138398
 31
0.0
  0
LINE
  5
348
  8
DATA
  6
CONTINUOUS
 62
     7
 10
-132.00999999999999
 20
46.217637112138398
 30
0.0
 11
-118.00999999999991
 21
46.217637112138398
 31
0.0
  0
LINE
  5
349
  8
DATA
  6
CONTINUOUS
 62
     7
 10
-129.75999999999999
 20
47.199989999999993
 30
0.0
 11
-129.75999999999999
 21
58.499999999999993
 31
0.0
  0
LINE
  5
34A
  8
DATA
  6
CONTINUOUS
 62
     7
 10
-129.75999999999999
 20
58.499999999999993
 30
0.0
 11
-120.26000000000001
 21
58.499999999999993
 31
0.0
  0
LINE
  5
34B
  8
DATA
  6
CONTINUOUS
 62
     7
 10
-125.00999999999991
 20
46.217637112138398
 30
0.0
 11
-125.00999999999991
 21
44.717637112138391
 31
0.0
  0
CIRCLE
  5
34C
  8
DATA
  6
CONTINUOUS
 62
     7
 10
-125.00999999999991
 20
54.29999999999999
 30
0.0
 40
1.000005433035241
  0
LINE
  5
34D
  8
DATA
  6
CONTINUOUS
 62
     7
 10
-132.00999999999999
 20
44.717637112138391
 30
0.0
 11
-132.00999999999999
 21
44.0
 31
0.0
  0
LINE
  5
34E
  8
DATA
  6
CONTINUOUS
 62
     7
 10
-125.00999999999991
 20
44.717637112138391
 30
0.0
 11
-125.00999999999991
 21
44.0
 31
0.0
  0
LINE
  5
34F
  8
DATA
  6
CONTINUOUS
 62
     7
 10
-118.00999999999991
 20
44.717637112138391
 30
0.0
 11
-118.00999999999991
 21
44.0
 31
0.0
  0
LINE
  5
350
  8
DATA
  6
CONTINUOUS
 62
     7
 10
-131.00999999999999
 20
46.850000000000009
 30
0.0
 11
-119.00999999999991
 21
46.850000000000009
 31
0.0
  0
LINE
  5
351
  8
DATA
  6
CONTINUOUS
 62
     7
 10
-131.00999999999999
 20
46.850000000000009
 30
0.0
 11
-131.00999999999999
 21
46.217637112138398
 31
0.0
  0
LINE
  5
352
  8
DATA
  6
CONTINUOUS
 62
     7
 10
-119.00999999999991
 20
46.850000000000009
 30
0.0
 11
-119.00999999999991
 21
46.217637112138398
 31
0.0
  0
LINE
  5
353
  8
DATA
  6
CONTINUOUS
 62
     7
 10
-120.26000000000001
 20
47.199989999999993
 30
0.0
 11
-120.26000000000001
 21
46.850000000000009
 31
0.0
  0
LINE
  5
354
  8
DATA
  6
CONTINUOUS
 62
     7
 10
-129.75999999999999
 20
47.199989999999993
 30
0.0
 11
-129.75999999999999
 21
46.850000000000009
 31
0.0
  0
LINE
  5
355
  8
DATA
  6
CONTINUOUS
 62
     7
 10
-37.55999999999996
 20
47.199989999999993
 30
0.0
 11
-37.55999999999996
 21
58.499999999999993
 31
0.0
  0
LINE
  5
356
  8
DATA
  6
CONTINUOUS
 62
     7
 10
-35.30999999999996
 20
44.717637112138391
 30
0.0
 11
-35.30999999999996
 21
46.217637112138398
 31
0.0
  0
LINE
  5
357
  8
DATA
  6
CONTINUOUS
 62
     7
 10
-49.30999999999996
 20
44.717637112138391
 30
0.0
 11
-49.30999999999996
 21
46.217637112138398
 31
0.0
  0
LINE
  5
358
  8
DATA
  6
CONTINUOUS
 62
     7
 10
-49.30999999999996
 20
46.217637112138398
 30
0.0
 11
-35.30999999999996
 21
46.217637112138398
 31
0.0
  0
LINE
  5
359
  8
DATA
  6
CONTINUOUS
 62
     7
 10
-47.059999999999953
 20
47.199989999999993
 30
0.0
 11
-47.059999999999953
 21
58.499999999999993
 31
0.0
  0
LINE
  5
35A
  8
DATA
  6
CONTINUOUS
 62
     7
 10
-47.059999999999953
 20
58.499999999999993
 30
0.0
 11
-37.55999999999996
 21
58.499999999999993
 31
0.0
  0
LINE
  5
35B
  8
DATA
  6
CONTINUOUS
 62
     7
 10
-42.30999999999996
 20
46.217637112138398
 30
0.0
 11
-42.30999999999996
 21
44.717637112138391
 31
0.0
  0
CIRCLE
  5
35C
  8
DATA
  6
CONTINUOUS
 62
     7
 10
-42.30999999999996
 20
54.29999999999999
 30
0.0
 40
1.000005433035243
  0
LINE
  5
35D
  8
DATA
  6
CONTINUOUS
 62
     7
 10
-49.30999999999996
 20
44.717637112138391
 30
0.0
 11
-49.30999999999996
 21
44.0
 31
0.0
  0
LINE
  5
35E
  8
DATA
  6
CONTINUOUS
 62
     7
 10
-42.30999999999996
 20
44.717637112138391
 30
0.0
 11
-42.30999999999996
 21
44.0
 31
0.0
  0
LINE
  5
35F
  8
DATA
  6
CONTINUOUS
 62
     7
 10
-35.30999999999996
 20
44.717637112138391
 30
0.0
 11
-35.30999999999996
 21
44.0
 31
0.0
  0
LINE
  5
360
  8
DATA
  6
CONTINUOUS
 62
     7
 10
-48.309999999999953
 20
46.850000000000009
 30
0.0
 11
-36.30999999999996
 21
46.850000000000009
 31
0.0
  0
LINE
  5
361
  8
DATA
  6
CONTINUOUS
 62
     7
 10
-48.309999999999953
 20
46.850000000000009
 30
0.0
 11
-48.309999999999953
 21
46.217637112138398
 31
0.0
  0
LINE
  5
362
  8
DATA
  6
CONTINUOUS
 62
     7
 10
-36.30999999999996
 20
46.850000000000009
 30
0.0
 11
-36.30999999999996
 21
46.217637112138398
 31
0.0
  0
LINE
  5
363
  8
DATA
  6
CONTINUOUS
 62
     7
 10
-37.55999999999996
 20
47.199989999999993
 30
0.0
 11
-37.55999999999996
 21
46.850000000000009
 31
0.0
  0
LINE
  5
364
  8
DATA
  6
CONTINUOUS
 62
     7
 10
-47.059999999999953
 20
47.199989999999993
 30
0.0
 11
-47.059999999999953
 21
46.850000000000009
 31
0.0
  0
LINE
  5
365
  8
DATA
  6
CONTINUOUS
 62
     7
 10
-26.62319731350625
 20
51.0
 30
0.0
 11
-16.173197313506261
 21
51.0
 31
0.0
  0
LINE
  5
366
  8
DATA
  6
CONTINUOUS
 62
     7
 10
-28.398197313506259
 20
46.0
 30
0.0
 11
-14.398197313506261
 21
46.0
 31
0.0
  0
LINE
  5
367
  8
DATA
  6
CONTINUOUS
 62
     7
 10
-26.62319731350625
 20
51.0
 30
0.0
 11
-26.62319731350625
 21
46.0
 31
0.0
  0
LINE
  5
368
  8
DATA
  6
CONTINUOUS
 62
     7
 10
-16.173197313506261
 20
51.0
 30
0.0
 11
-16.173197313506261
 21
46.0
 31
0.0
  0
LINE
  5
369
  8
DATA
  6
CONTINUOUS
 62
     7
 10
-28.398197313506259
 20
46.0
 30
0.0
 11
-28.398197313506259
 21
44.0
 31
0.0
  0
LINE
  5
36A
  8
DATA
  6
CONTINUOUS
 62
     7
 10
-14.398197313506261
 20
46.0
 30
0.0
 11
-14.398197313506261
 21
44.0
 31
0.0
  0
LINE
  5
36B
  8
DATA
  6
CONTINUOUS
 62
     7
 10
-5.311568510648172
 20
48.0
 30
0.0
 11
-0.311568510648172
 21
48.0
 31
0.0
  0
LINE
  5
36C
  8
DATA
  6
CONTINUOUS
 62
     7
 10
-5.311568510648172
 20
48.0
 30
0.0
 11
-5.311568510648172
 21
44.0
 31
0.0
  0
LINE
  5
36D
  8
DATA
  6
CONTINUOUS
 62
     7
 10
-0.311568510648172
 20
48.0
 30
0.0
 11
-0.311568510648172
 21
44.0
 31
0.0
  0
LINE
  5
36E
  8
DATA
  6
CONTINUOUS
 62
     7
 10
13.67856007794439
 20
45.499999999999993
 30
0.0
 11
13.67856007794439
 21
44.0
 31
0.0
  0
LINE
  5
36F
  8
DATA
  6
CONTINUOUS
 62
     7
 10
18.378560077944378
 20
45.499999999999993
 30
0.0
 11
18.378560077944378
 21
45.0
 31
0.0
  0
LINE
  5
370
  8
DATA
  6
CONTINUOUS
 62
     7
 10
31.743306685777881
 20
45.499999999999993
 30
0.0
 11
31.743306685777881
 21
44.0
 31
0.0
  0
LINE
  5
371
  8
DATA
  6
CONTINUOUS
 62
     7
 10
36.44330668577787
 20
45.499999999999993
 30
0.0
 11
36.44330668577787
 21
44.0
 31
0.0
  0
LINE
  5
372
  8
DATA
  6
CONTINUOUS
 62
     7
 10
13.67856007794439
 20
45.499999999999993
 30
0.0
 11
18.378560077944378
 21
45.499999999999993
 31
0.0
  0
LINE
  5
373
  8
DATA
  6
CONTINUOUS
 62
     7
 10
31.743306685777881
 20
45.499999999999993
 30
0.0
 11
36.44330668577787
 21
45.499999999999993
 31
0.0
  0
LINE
  5
374
  8
DATA
  6
CONTINUOUS
 62
     7
 10
14.03010242864165
 20
45.0
 30
0.0
 11
31.743306685777881
 21
45.0
 31
0.0
  0
LINE
  5
375
  8
DATA
  6
CONTINUOUS
 62
     7
 10
14.03010242864165
 20
45.0
 30
0.0
 11
14.03010242864165
 21
44.0
 31
0.0
  0
LINE
  5
376
  8
DATA
  6
CONTINUOUS
 62
     7
 10
189.0
 20
-197.5
 30
0.0
 11
322.5
 21
-197.5
 31
0.0
  0
LINE
  5
377
  8
DATA
  6
CONTINUOUS
 62
     7
 10
189.0
 20
-158.5
 30
0.0
 11
322.5
 21
-158.5
 31
0.0
  0
LINE
  5
378
  8
DATA
  6
CONTINUOUS
 62
     7
 10
324.0
 20
-156.0
 30
0.0
 11
189.0
 21
-156.0
 31
0.0
  0
LINE
  5
379
  8
DATA
  6
CONTINUOUS
 62
     7
 10
324.0
 20
-200.0
 30
0.0
 11
189.0
 21
-200.0
 31
0.0
  0
LINE
  5
37A
  8
DATA
  6
CONTINUOUS
 62
     7
 10
324.0
 20
-200.0
 30
0.0
 11
324.0
 21
-156.0
 31
0.0
  0
LINE
  5
37B
  8
DATA
  6
CONTINUOUS
 62
     7
 10
322.5
 20
-200.0
 30
0.0
 11
322.5
 21
-156.0
 31
0.0
  0
LINE
  5
37C
  8
DATA
  6
CONTINUOUS
 62
     7
 10
189.0
 20
-200.0
 30
0.0
 11
189.0
 21
-156.0
 31
0.0
  0
LINE
  5
37D
  8
DATA
  6
CONTINUOUS
 62
     7
 10
187.40000000000001
 20
-200.0
 30
0.0
 11
187.40000000000001
 21
-156.0
 31
0.0
  0
LINE
  5
37E
  8
DATA
  6
CONTINUOUS
 62
     7
 10
322.5
 20
-167.5
 30
0.0
 11
189.0
 21
-167.5
 31
0.0
  0
LINE
  5
37F
  8
DATA
  6
CONTINUOUS
 62
     7
 10
189.0
 20
-188.5
 30
0.0
 11
322.5
 21
-188.5
 31
0.0
  0
LINE
  5
380
  8
DATA
  6
CONTINUOUS
 62
     7
 10
322.5
 20
-166.75
 30
0.0
 11
189.0
 21
-166.75
 31
0.0
  0
LINE
  5
381
  8
DATA
  6
CONTINUOUS
 62
     7
 10
189.0
 20
-189.25
 30
0.0
 11
322.5
 21
-189.25
 31
0.0
  0
LINE
  5
382
  8
DATA
  6
CONTINUOUS
 62
     7
 10
187.40000000000001
 20
-156.0
 30
0.0
 11
174.72787024022361
 21
-156.72828331952741
 31
0.0
  0
LINE
  5
383
  8
DATA
  6
CONTINUOUS
 62
     7
 10
187.40000000000001
 20
-200.0
 30
0.0
 11
174.72787024022361
 21
-199.27171668047251
 31
0.0
  0
ARC
  5
384
  8
DATA
  6
CONTINUOUS
 62
     7
 10
229.8714110678778
 20
-178.0
 30
0.0
 40
59.87141106787783
 50
170.3851306856175
 51
189.61486931438239
  0
LINE
  5
385
  8
DATA
  6
CONTINUOUS
 62
     7
 10
171.89999999999989
 20
-196.276658860363
 30
0.0
 11
171.89999999999989
 21
-188.0
 31
0.0
  0
LINE
  5
386
  8
DATA
  6
CONTINUOUS
 62
     7
 10
171.89999999999989
 20
-168.0
 30
0.0
 11
171.89999999999989
 21
-159.72334113963689
 31
0.0
  0
ARC
  5
387
  8
DATA
  6
CONTINUOUS
 62
     7
 10
183.61828923700219
 20
-163.99998999999991
 30
0.0
 40
14.011644664206329
 50
166.16734815285849
 51
193.83265184714151
  0
LINE
  5
388
  8
DATA
  6
CONTINUOUS
 62
     7
 10
170.0130076818127
 20
-160.64999
 30
0.0
 11
171.89999999999989
 21
-160.64999
 31
0.0
  0
LINE
  5
389
  8
DATA
  6
CONTINUOUS
 62
     7
 10
170.0130076818127
 20
-167.34998999999991
 30
0.0
 11
171.89999999999989
 21
-167.34998999999991
 31
0.0
  0
LINE
  5
38A
  8
DATA
  6
CONTINUOUS
 62
     7
 10
170.84103021819331
 20
-168.0
 30
0.0
 11
171.89999999999989
 21
-168.0
 31
0.0
  0
ARC
  5
38B
  8
DATA
  6
CONTINUOUS
 62
     7
 10
174.89999999999989
 20
-159.72334113963689
 30
0.0
 40
2.999999999999996
 50
93.289242678491846
 51
180.0
  0
ARC
  5
38C
  8
DATA
  6
CONTINUOUS
 62
     7
 10
174.90000000000001
 20
-196.276658860363
 30
0.0
 40
3.0000000000000142
 50
180.0
 51
266.71075732150791
  0
LINE
  5
38D
  8
DATA
  6
CONTINUOUS
 62
     7
 10
170.84103021819331
 20
-188.0
 30
0.0
 11
171.89999999999989
 21
-188.0
 31
0.0
  0
ARC
  5
38E
  8
DATA
  6
CONTINUOUS
 62
     7
 10
183.61828923700219
 20
-191.99999
 30
0.0
 40
14.011644664206329
 50
166.16734815285849
 51
193.83265184714151
  0
LINE
  5
38F
  8
DATA
  6
CONTINUOUS
 62
     7
 10
170.0130076818127
 20
-188.64999
 30
0.0
 11
171.89999999999989
 21
-188.64999
 31
0.0
  0
LINE
  5
390
  8
DATA
  6
CONTINUOUS
 62
     7
 10
170.0130076818127
 20
-195.34998999999991
 30
0.0
 11
171.89999999999989
 21
-195.34998999999991
 31
0.0
  0
LINE
  5
391
  8
DATA
  6
CONTINUOUS
 62
     7
 10
169.44759207567461
 20
-193.12770747917239
 30
0.0
 11
169.65210008307949
 21
-193.12770747917239
 31
0.0
  0
ARC
  5
392
  8
DATA
  6
CONTINUOUS
 62
     7
 10
174.41049235103961
 20
-184.1482952503853
 30
0.0
 40
7.4724022544489239
 50
131.71574982534639
 51
228.28425017465349
  0
LINE
  5
393
  8
DATA
  6
CONTINUOUS
 62
     7
 10
169.4380900965904
 20
-178.5704810483665
 30
0.0
 11
170.00271795843821
 21
-178.5704810483665
 31
0.0
  0
LINE
  5
394
  8
DATA
  6
CONTINUOUS
 62
     7
 10
169.4380900965904
 20
-189.72610945240419
 30
0.0
 11
169.79238407852361
 21
-189.72610945240419
 31
0.0
  0
LINE
  5
395
  8
DATA
  6
CONTINUOUS
 62
     7
 10
-142.66579576308581
 20
46.066327561271059
 30
0.0
 11
-142.66579576308581
 21
44.0
 31
0.0
  0
LINE
  5
396
  8
DATA
  6
CONTINUOUS
 62
     7
 10
-145.9583716349575
 20
47.191327561271763
 30
0.0
 11
-146.01579576308589
 21
47.191327561271763
 31
0.0
  0
ARC
  5
397
  8
DATA
  6
CONTINUOUS
 62
     7
 10
-145.98708369898779
 20
41.726547929919029
 30
0.0
 40
5.4648550577185206
 50
52.572715397504879
 51
127.8564651077152
  0
LINE
  5
398
  8
DATA
  6
CONTINUOUS
 62
     7
 10
-149.34078576308579
 20
46.041327561271771
 30
0.0
 11
-149.34078576308579
 21
44.0
 31
0.0
  0
LINE
  5
399
  8
DATA
  6
CONTINUOUS
 62
     7
 10
68.834204236914147
 20
46.066327561271059
 30
0.0
 11
68.834204236914147
 21
44.0
 31
0.0
  0
LINE
  5
39A
  8
DATA
  6
CONTINUOUS
 62
     7
 10
65.54162836504247
 20
47.191327561271763
 30
0.0
 11
65.484204236914152
 21
47.191327561271763
 31
0.0
  0
ARC
  5
39B
  8
DATA
  6
CONTINUOUS
 62
     7
 10
65.512916301012197
 20
41.726547929919029
 30
0.0
 40
5.4648550577185206
 50
52.572715397504879
 51
127.8564651077152
  0
LINE
  5
39C
  8
DATA
  6
CONTINUOUS
 62
     7
 10
62.15921423691411
 20
46.041327561271771
 30
0.0
 11
62.15921423691411
 21
44.0
 31
0.0
  0
LINE
  5
39D
  8
DATA
  6
CONTINUOUS
 62
     7
 10
-149.34078576308579
 20
44.5
 30
0.0
 11
-142.66579576308581
 21
44.5
 31
0.0
  0
LINE
  5
39E
  8
DATA
  6
CONTINUOUS
 62
     7
 10
62.15921423691411
 20
44.5
 30
0.0
 11
68.834204236914147
 21
44.5
 31
0.0
  0
LINE
  5
39F
  8
DATA
  6
CONTINUOUS
 62
     7
 10
326.06571245033291
 20
-167.3184922375163
 30
0.0
 11
323.99938488906167
 21
-167.3184922375163
 31
0.0
  0
LINE
  5
3A0
  8
DATA
  6
CONTINUOUS
 62
     7
 10
327.19071245033371
 20
-164.0259163656446
 30
0.0
 11
327.19071245033371
 21
-163.9684922375163
 31
0.0
  0
ARC
  5
3A1
  8
DATA
  6
CONTINUOUS
 62
     7
 10
321.72593281898088
 20
-163.99720430161429
 30
0.0
 40
5.4648550577185402
 50
322.57271539750468
 51
37.856465107715401
  0
LINE
  5
3A2
  8
DATA
  6
CONTINUOUS
 62
     7
 10
326.04071245033361
 20
-160.6435022375162
 30
0.0
 11
323.99938488906167
 21
-160.6435022375162
 31
0.0
  0
LINE
  5
3A3
  8
DATA
  6
CONTINUOUS
 62
     7
 10
324.49938488906167
 20
-160.6435022375162
 30
0.0
 11
324.49938488906167
 21
-167.3184922375163
 31
0.0
  0
LINE
  5
3A4
  8
DATA
  6
CONTINUOUS
 62
     7
 10
326.06571245033291
 20
-195.3484922375163
 30
0.0
 11
323.99938488906167
 21
-195.3484922375163
 31
0.0
  0
LINE
  5
3A5
  8
DATA
  6
CONTINUOUS
 62
     7
 10
327.19071245033371
 20
-192.05591636564461
 30
0.0
 11
327.19071245033371
 21
-191.9984922375163
 31
0.0
  0
ARC
  5
3A6
  8
DATA
  6
CONTINUOUS
 62
     7
 10
321.72593281898088
 20
-192.0272043016144
 30
0.0
 40
5.4648550577185402
 50
322.57271539750468
 51
37.856465107715401
  0
LINE
  5
3A7
  8
DATA
  6
CONTINUOUS
 62
     7
 10
326.04071245033361
 20
-188.6735022375162
 30
0.0
 11
323.99938488906167
 21
-188.6735022375162
 31
0.0
  0
LINE
  5
3A8
  8
DATA
  6
CONTINUOUS
 62
     7
 10
324.49938488906167
 20
-188.6735022375162
 30
0.0
 11
324.49938488906167
 21
-195.3484922375163
 31
0.0
  0
LINE
  5
3A9
  8
DATA
  6
CONTINUOUS
 62
     7
 10
325.04336992783999
 20
-185.36620642911009
 30
0.0
 11
330.04337992784002
 21
-185.36620642911009
 31
0.0
  0
LINE
  5
3AA
  8
DATA
  6
CONTINUOUS
 62
     7
 10
324.00115479333249
 20
-186.2662064291101
 30
0.0
 11
325.04336992783999
 21
-186.2662064291101
 31
0.0
  0
LINE
  5
3AB
  8
DATA
  6
CONTINUOUS
 62
     7
 10
324.00115479333249
 20
-176.7662064291101
 30
0.0
 11
325.04336992783999
 21
-176.7662064291101
 31
0.0
  0
LINE
  5
3AC
  8
DATA
  6
CONTINUOUS
 62
     7
 10
325.04336992783999
 20
-177.66621642911019
 30
0.0
 11
330.04337992784002
 21
-177.66621642911019
 31
0.0
  0
LINE
  5
3AD
  8
DATA
  6
CONTINUOUS
 62
     7
 10
325.04336992783999
 20
-176.7662064291101
 30
0.0
 11
325.04336992783999
 21
-186.2662064291101
 31
0.0
  0
LINE
  5
3AE
  8
DATA
  6
CONTINUOUS
 62
     7
 10
330.04337992784002
 20
-177.66621642911019
 30
0.0
 11
330.04337992784002
 21
-185.36620642911009
 31
0.0
  0
LINE
  5
3AF
  8
DATA
  6
CONTINUOUS
 62
     7
 10
325.04336992783999
 20
-181.5162064291101
 30
0.0
 11
324.00115479333249
 21
-181.5162064291101
 31
0.0
  0
LINE
  5
3B0
  8
DATA
  6
CONTINUOUS
 62
     7
 10
330.99812969919412
 20
-186.2947239098084
 30
0.0
 11
338.5
 21
-186.2947239098084
 31
0.0
  0
LINE
  5
3B1
  8
DATA
  6
CONTINUOUS
 62
     7
 10
324.71763711213839
 20
-188.5447239098084
 30
0.0
 11
326.21763711213839
 21
-188.5447239098084
 31
0.0
  0
LINE
  5
3B2
  8
DATA
  6
CONTINUOUS
 62
     7
 10
325.99812969919412
 20
-174.54472390980831
 30
0.0
 11
326.21763711213839
 21
-174.54472390980831
 31
0.0
  0
LINE
  5
3B3
  8
DATA
  6
CONTINUOUS
 62
     7
 10
326.21763711213839
 20
-174.54472390980831
 30
0.0
 11
326.21763711213839
 21
-176.23153556972721
 31
0.0
  0
LINE
  5
3B4
  8
DATA
  6
CONTINUOUS
 62
     7
 10
326.21763711213839
 20
-186.68153556972709
 30
0.0
 11
326.21763711213839
 21
-188.5447239098084
 31
0.0
  0
LINE
  5
3B5
  8
DATA
  6
CONTINUOUS
 62
     7
 10
330.99812969919412
 20
-176.79472390980831
 30
0.0
 11
338.5
 21
-176.79472390980831
 31
0.0
  0
LINE
  5
3B6
  8
DATA
  6
CONTINUOUS
 62
     7
 10
338.5
 20
-176.79472390980831
 30
0.0
 11
338.5
 21
-186.2947239098084
 31
0.0
  0
CIRCLE
  5
3B7
  8
DATA
  6
CONTINUOUS
 62
     7
 10
334.30000000000001
 20
-181.5447239098084
 30
0.0
 40
1.000005433035229
  0
LINE
  5
3B8
  8
DATA
  6
CONTINUOUS
 62
     7
 10
324.71763711213839
 20
-188.5447239098084
 30
0.0
 11
324.0
 21
-188.5447239098084
 31
0.0
  0
LINE
  5
3B9
  8
DATA
  6
CONTINUOUS
 62
     7
 10
326.85000000000002
 20
-175.54472390980831
 30
0.0
 11
326.85000000000002
 21
-176.23153556972721
 31
0.0
  0
LINE
  5
3BA
  8
DATA
  6
CONTINUOUS
 62
     7
 10
326.85000000000002
 20
-186.68153556972709
 30
0.0
 11
326.85000000000002
 21
-187.5447239098084
 31
0.0
  0
LINE
  5
3BB
  8
DATA
  6
CONTINUOUS
 62
     7
 10
326.85000000000002
 20
-175.54472390980831
 30
0.0
 11
326.21763711213839
 21
-175.54472390980831
 31
0.0
  0
LINE
  5
3BC
  8
DATA
  6
CONTINUOUS
 62
     7
 10
326.85000000000002
 20
-187.5447239098084
 30
0.0
 11
326.21763711213839
 21
-187.5447239098084
 31
0.0
  0
LINE
  5
3BD
  8
DATA
  6
CONTINUOUS
 62
     7
 10
187.40000000000001
 20
-156.30000000000001
 30
0.0
 11
189.0
 21
-156.30000000000001
 31
0.0
  0
LINE
  5
3BE
  8
DATA
  6
CONTINUOUS
 62
     7
 10
187.40000000000001
 20
-199.69999999999999
 30
0.0
 11
189.0
 21
-199.69999999999999
 31
0.0
  0
LINE
  5
3BF
  8
DATA
  6
CONTINUOUS
 62
     7
 10
-141.64999
 20
-110.0
 30
0.0
 11
-108.29998999999999
 21
-110.0
 31
0.0
  0
LINE
  5
3C0
  8
DATA
  6
CONTINUOUS
 62
     7
 10
-43.825000000000003
 20
-110.0
 30
0.0
 11
-29.399999999999991
 21
-110.0
 31
0.0
  0
LINE
  5
3C1
  8
DATA
  6
CONTINUOUS
 62
     7
 10
-29.399999999999991
 20
-110.0
 30
0.0
 11
-27.499990000000039
 21
-110.0
 31
0.0
  0
LINE
  5
3C2
  8
DATA
  6
CONTINUOUS
 62
     7
 10
-107.99999
 20
-109.0
 30
0.0
 11
-44.125000000000021
 21
-109.0
 31
0.0
  0
LINE
  5
3C3
  8
DATA
  6
CONTINUOUS
 62
     7
 10
-107.99999
 20
-109.7
 30
0.0
 11
-107.99999
 21
-109.0
 31
0.0
  0
LINE
  5
3C4
  8
DATA
  6
CONTINUOUS
 62
     7
 10
-44.125000000000021
 20
-109.7
 30
0.0
 11
-44.125000000000021
 21
-109.0
 31
0.0
  0
LINE
  5
3C5
  8
DATA
  6
CONTINUOUS
 62
     7
 10
-17.249989999999979
 20
-109.9853981515427
 30
0.0
 11
-17.249989999999979
 21
-109.088369941365
 31
0.0
  0
LINE
  5
3C6
  8
DATA
  6
CONTINUOUS
 62
     7
 10
-27.499990000000039
 20
-109.9853981515426
 30
0.0
 11
-17.249989999999979
 21
-109.9853981515426
 31
0.0
  0
ARC
  5
3C7
  8
DATA
  6
CONTINUOUS
 62
     7
 10
-108.29998999999999
 20
-109.7
 30
0.0
 40
0.3000000000000114
 50
270.0
 51
0.0
  0
ARC
  5
3C8
  8
DATA
  6
CONTINUOUS
 62
     7
 10
-43.825000000000003
 20
-109.7
 30
0.0
 40
0.3000000000000114
 50
180.0
 51
270.0
  0
TEXT
  5
3C9
  8
DATA
 62
     7
 10
5.801290279609618
 20
108.4338888888888
 30
0.0
 40
2.7147352430555549
  1
OUTPUTS
 50
180.0
 41
0.8
 72
     1
 11
-1.4380037018718641
 21
105.7191536458333
 31
0.0
 73
     3
  0
TEXT
  5
3CA
  8
DATA
 62
     7
 10
-18.319855947045848
 20
118.9961994150498
 30
0.0
 40
2.7703048046875001
  1
AUX
 50
180.0
 41
0.8
 72
     1
 11
-21.27484773871252
 21
116.2258946103623
 31
0.0
 73
     3
  0
TEXT
  5
3CB
  8
DATA
 62
     7
 10
-32.227767399897033
 20
107.49598639999989
 30
0.0
 40
2.7703048046875001
  1
ANTENNA B IN
 50
180.0
 41
0.8
 72
     1
 11
-43.899984976980363
 21
104.72568159531249
 31
0.0
 73
     3
  0
TEXT
  5
3CC
  8
DATA
 62
     7
 10
-29.42293202021219
 20
112.29599640000001
 30
0.0
 40
2.7703048046875001
  1
12V
 50
180.0
 41
0.8
 72
     1
 11
-32.377923811878858
 21
109.52569159531249
 31
0.0
 73
     3
  0
TEXT
  5
3CD
  8
DATA
 62
     7
 10
-41.125541049439242
 20
112.6959914
 30
0.0
 40
2.7703048046875001
  1
75mA OUT
 50
180.0
 41
0.8
 72
     1
 11
-49.1778936817309
 21
109.9256865953125
 31
0.0
 73
     3
  0
TEXT
  5
3CE
  8
DATA
 62
     7
 10
-35.586365185476971
 20
117.0959913999999
 30
0.0
 40
2.7703048046875001
  1
CLASS II
 50
180.0
 41
0.8
 72
     1
 11
-42.899969869851972
 21
114.3256865953125
 31
0.0
 73
     3
  0
LINE
  5
3CF
  8
DATA
  6
CONTINUOUS
 62
     7
 10
-36.078404891184952
 20
110.5308192218709
 30
0.0
 11
-41.328404891184952
 21
110.5308192218709
 31
0.0
  0
LINE
  5
3D0
  8
DATA
  6
CONTINUOUS
 62
     7
 10
-36.008743033749823
 20
112.0991974261196
 30
0.0
 11
-37.208743033749833
 21
112.0991974261196
 31
0.0
  0
LINE
  5
3D1
  8
DATA
  6
CONTINUOUS
 62
     7
 10
-38.008743033749823
 20
112.0991974261196
 30
0.0
 11
-39.208743033749833
 21
112.0991974261196
 31
0.0
  0
LINE
  5
3D2
  8
DATA
  6
CONTINUOUS
 62
     7
 10
-40.008743033749809
 20
112.0991974261196
 30
0.0
 11
-41.208743033749819
 21
112.0991974261196
 31
0.0
  0
TEXT
  5
3D3
  8
DATA
 62
     7
 10
-114.7784171358701
 20
107.49598639999989
 30
0.0
 40
2.7703048046875001
  1
ANTENNA A IN
 50
180.0
 41
0.8
 72
     1
 11
-126.4506347129534
 21
104.72568159531249
 31
0.0
 73
     3
  0
TEXT
  5
3D4
  8
DATA
 62
     7
 10
-111.9735817561852
 20
112.29599640000001
 30
0.0
 40
2.7703048046875001
  1
12V
 50
180.0
 41
0.8
 72
     1
 11
-114.9285735478519
 21
109.52569159531249
 31
0.0
 73
     3
  0
TEXT
  5
3D5
  8
DATA
 62
     7
 10
-123.6761907854122
 20
112.6959914
 30
0.0
 40
2.7703048046875001
  1
75mA OUT
 50
180.0
 41
0.8
 72
     1
 11
-131.72854341770389
 21
109.9256865953125
 31
0.0
 73
     3
  0
TEXT
  5
3D6
  8
DATA
 62
     7
 10
-118.13701492145
 20
117.0959913999999
 30
0.0
 40
2.7703048046875001
  1
CLASS II
 50
180.0
 41
0.8
 72
     1
 11
-125.450619605825
 21
114.3256865953125
 31
0.0
 73
     3
  0
LINE
  5
3D7
  8
DATA
  6
CONTINUOUS
 62
     7
 10
-118.629054627158
 20
110.5308192218709
 30
0.0
 11
-123.879054627158
 21
110.5308192218709
 31
0.0
  0
LINE
  5
3D8
  8
DATA
  6
CONTINUOUS
 62
     7
 10
-118.55939276972281
 20
112.0991974261196
 30
0.0
 11
-119.75939276972279
 21
112.0991974261196
 31
0.0
  0
LINE
  5
3D9
  8
DATA
  6
CONTINUOUS
 62
     7
 10
-120.55939276972281
 20
112.0991974261196
 30
0.0
 11
-121.75939276972279
 21
112.0991974261196
 31
0.0
  0
LINE
  5
3DA
  8
DATA
  6
CONTINUOUS
 62
     7
 10
-122.55939276972281
 20
112.0991974261196
 30
0.0
 11
-123.75939276972279
 21
112.0991974261196
 31
0.0
  0
LINE
  5
3DB
  8
DATA
  6
CONTINUOUS
 62
     7
 10
169.44759207567461
 20
-162.37770747917239
 30
0.0
 11
169.44759207567461
 21
-168.36769747917239
 31
0.0
  0
LINE
  5
3DC
  8
DATA
  6
CONTINUOUS
 62
     7
 10
169.44759207567461
 20
-170.47935360200231
 30
0.0
 11
169.44759207567461
 21
-177.18206874859021
 31
0.0
  0
LINE
  5
3DD
  8
DATA
  6
CONTINUOUS
 62
     7
 10
169.44759207567461
 20
-189.72610945240419
 30
0.0
 11
169.44759207567461
 21
-193.12770747917239
 31
0.0
  0
LINE
  5
3DE
  8
DATA
  6
CONTINUOUS
 62
     7
 10
165.94759207567429
 20
-165.62930742156911
 30
0.0
 11
169.44759207567461
 21
-162.37770747917239
 31
0.0
  0
LINE
  5
3DF
  8
DATA
  6
CONTINUOUS
 62
     7
 10
169.44759207567461
 20
-162.37770747917239
 30
0.0
 11
169.68814631609899
 21
-162.37770747917239
 31
0.0
  0
LINE
  5
3E0
  8
DATA
  6
CONTINUOUS
 62
     7
 10
165.94759207567429
 20
-165.62930742156911
 30
0.0
 11
165.94759207567429
 21
-169.64617743243161
 31
0.0
  0
LINE
  5
3E1
  8
DATA
  6
CONTINUOUS
 62
     7
 10
165.94759207567429
 20
-171.75324942193399
 30
0.0
 11
165.94759207567429
 21
-177.1820687485903
 31
0.0
  0
LINE
  5
3E2
  8
DATA
  6
CONTINUOUS
 62
     7
 10
165.94759207567429
 20
-179.16206874859029
 30
0.0
 11
165.94759207567429
 21
-184.5666653861247
 31
0.0
  0
LINE
  5
3E3
  8
DATA
  6
CONTINUOUS
 62
     7
 10
165.94759207567429
 20
-186.67373737562701
 30
0.0
 11
165.94759207567429
 21
-189.87610753677569
 31
0.0
  0
LINE
  5
3E4
  8
DATA
  6
CONTINUOUS
 62
     7
 10
165.43759207567419
 20
-177.1820687485903
 30
0.0
 11
169.44759207567461
 21
-177.1820687485903
 31
0.0
  0
LINE
  5
3E5
  8
DATA
  6
CONTINUOUS
 62
     7
 10
165.43759207567419
 20
-179.16206874859029
 30
0.0
 11
168.8450327361389
 21
-179.16206874859029
 31
0.0
  0
ARC
  5
3E6
  8
DATA
  6
CONTINUOUS
 62
     7
 10
165.43759207567419
 20
-178.17206874859031
 30
0.0
 40
0.9899999999999524
 50
90.0
 51
270.0
  0
ARC
  5
3E7
  8
DATA
  6
CONTINUOUS
 62
     7
 10
169.44852819861629
 20
-178.17300620686129
 30
0.0
 40
0.9909379004411603
 50
90.054126400469571
 51
240.5231941016749
  0
LINE
  5
3E8
  8
DATA
  6
CONTINUOUS
 62
     7
 10
165.1234181196167
 20
-169.9461522202941
 30
0.0
 11
168.89158552896851
 21
-168.57465144555809
 31
0.0
  0
LINE
  5
3E9
  8
DATA
  6
CONTINUOUS
 62
     7
 10
165.8006180034015
 20
-171.80674360945011
 30
0.0
 11
169.44759207567461
 21
-170.47935360200231
 31
0.0
  0
ARC
  5
3EA
  8
DATA
  6
CONTINUOUS
 62
     7
 10
165.4620180615091
 20
-170.8764479148721
 30
0.0
 40
0.9900000000000543
 50
110.00000000000141
 51
290.00000000000438
  0
ARC
  5
3EB
  8
DATA
  6
CONTINUOUS
 62
     7
 10
169.23138576829359
 20
-169.50550788985299
 30
0.0
 40
0.9909379004411976
 50
110.05412640047351
 51
282.60236405418289
  0
LINE
  5
3EC
  8
DATA
  6
CONTINUOUS
 62
     7
 10
165.1234181196167
 20
-186.3737625877647
 30
0.0
 11
167.62858118491809
 21
-187.28556737551739
 31
0.0
  0
LINE
  5
3ED
  8
DATA
  6
CONTINUOUS
 62
     7
 10
165.8006180034015
 20
-184.5131711986086
 30
0.0
 11
166.98042520373019
 21
-184.94258590170111
 31
0.0
  0
ARC
  5
3EE
  8
DATA
  6
CONTINUOUS
 62
     7
 10
165.4620180615091
 20
-185.4434668931867
 30
0.0
 40
0.9900000000000058
 50
69.999999999996675
 51
249.99999999999741
  0
LINE
  5
3EF
  8
DATA
  6
CONTINUOUS
 62
     7
 10
169.44759207567461
 20
-162.37770747917239
 30
0.0
 11
167.24759207567439
 21
-162.22785493596169
 31
0.0
  0
ARC
  5
3F0
  8
DATA
  6
CONTINUOUS
 62
     7
 10
165.33293735007001
 20
-165.1726974791724
 30
0.0
 40
0.8751579240769336
 50
125.21485678984421
 51
314.6147058761012
  0
LINE
  5
3F1
  8
DATA
  6
CONTINUOUS
 62
     7
 10
164.82828262448859
 20
-164.45769747915631
 30
0.0
 11
167.24759207567439
 21
-162.22785493596169
 31
0.0
  0
LINE
  5
3F2
  8
DATA
  6
CONTINUOUS
 62
     7
 10
165.94759207567429
 20
-189.87610753677569
 30
0.0
 11
169.44759207567461
 21
-193.12770747917239
 31
0.0
  0
LINE
  5
3F3
  8
DATA
  6
CONTINUOUS
 62
     7
 10
169.44759207567461
 20
-193.12770747917239
 30
0.0
 11
167.24759207567439
 21
-193.2775600223832
 31
0.0
  0
ARC
  5
3F4
  8
DATA
  6
CONTINUOUS
 62
     7
 10
165.33293735007001
 20
-190.33271747917249
 30
0.0
 40
0.8751579240769267
 50
45.385294123898859
 51
234.78514321015581
  0
LINE
  5
3F5
  8
DATA
  6
CONTINUOUS
 62
     7
 10
164.82828262448859
 20
-191.04771747918861
 30
0.0
 11
167.24759207567439
 21
-193.2775600223832
 31
0.0
  0
LINE
  5
3F6
  8
DATA
  6
CONTINUOUS
 62
     7
 10
168.89158552896851
 20
-168.57465144555809
 30
0.0
 11
169.44759207567461
 21
-168.36769747917239
 31
0.0
  0
LINE
  5
3F7
  8
DATA
  6
CONTINUOUS
 62
     7
 10
169.44759207567461
 20
-185.84734293108829
 30
0.0
 11
169.44759207567461
 21
-185.84056120605649
 31
0.0
  0
LINE
  5
3F8
  8
DATA
  6
CONTINUOUS
 62
     7
 10
169.44759207567461
 20
-170.47935360200231
 30
0.0
 11
169.44759207567461
 21
-170.47257187697119
 31
0.0
  0
LINE
  5
3F9
  8
DATA
  6
CONTINUOUS
 62
     7
 10
330.99812969919412
 20
-176.23153556972721
 30
0.0
 11
330.99812969919412
 21
-186.68153556972709
 31
0.0
  0
LINE
  5
3FA
  8
DATA
  6
CONTINUOUS
 62
     7
 10
325.99812969919412
 20
-174.45653556972721
 30
0.0
 11
325.99812969919412
 21
-177.66621642911019
 31
0.0
  0
LINE
  5
3FB
  8
DATA
  6
CONTINUOUS
 62
     7
 10
325.99812969919412
 20
-185.36620642911009
 30
0.0
 11
325.99812969919412
 21
-188.45653556972721
 31
0.0
  0
LINE
  5
3FC
  8
DATA
  6
CONTINUOUS
 62
     7
 10
330.99812969919412
 20
-176.23153556972721
 30
0.0
 11
325.99812969919412
 21
-176.23153556972721
 31
0.0
  0
LINE
  5
3FD
  8
DATA
  6
CONTINUOUS
 62
     7
 10
330.99812969919412
 20
-186.68153556972709
 30
0.0
 11
325.99812969919412
 21
-186.68153556972709
 31
0.0
  0
LINE
  5
3FE
  8
DATA
  6
CONTINUOUS
 62
     7
 10
325.99812969919412
 20
-174.45653556972721
 30
0.0
 11
323.99812969919412
 21
-174.45653556972721
 31
0.0
  0
LINE
  5
3FF
  8
DATA
  6
CONTINUOUS
 62
     7
 10
325.99812969919412
 20
-188.45653556972721
 30
0.0
 11
323.99812969919412
 21
-188.45653556972721
 31
0.0
  0
TEXT
  5
400
  8
DATA
 62
     7
 10
-220.00000999999989
 20
-352.45253000000002
 30
0.0
 40
6.5153645833333318
  1
仕様および外観は予告なく変更されることがありますので、ご了承ください。
 41
0.8
 11
-220.00000999999989
 21
-345.93716541666669
 31
0.0
 73
     3
  0
ENDSEC
  0
EOF
