  0
SECTION
  2
HEADER
  9
$ACADVER
  1
AC1009
  9
$INSBASE
 10
0.0
 20
0.0
 30
0.0
  9
$EXTMIN
 10
-260.02196097928459
 20
-399.89217451641349
 30
-0.0015258207003583
  9
$EXTMAX
 10
460.0219643320458
 20
670.62806302742274
 30
0.0000000349246037
  9
$LIMMIN
 10
0.0
 20
0.0
  9
$LIMMAX
 10
0.0
 20
0.0
  9
$ORTHOMODE
 70
     0
  9
$REGENMODE
 70
     1
  9
$FILLMODE
 70
     1
  9
$QTEXTMODE
 70
     0
  9
$MIRRTEXT
 70
     1
  9
$DRAGMODE
 70
     2
  9
$LTSCALE
 40
20.32
  9
$OSMODE
 70
   231
  9
$ATTMODE
 70
     1
  9
$TEXTSIZE
 40
0.0
  9
$TRACEWID
 40
1.0
  9
$TEXTSTYLE
  7
STANDARD
  9
$CLAYER
  8
DATA
  9
$CELTYPE
  6
CONTINUOUS
  9
$CECOLOR
 62
   256
  9
$DIMSCALE
 40
1.0
  9
$DIMASZ
 40
0.18
  9
$DIMEXO
 40
0.0625
  9
$DIMDLI
 40
0.38
  9
$DIMRND
 40
0.0
  9
$DIMDLE
 40
0.0
  9
$DIMEXE
 40
0.18
  9
$DIMTP
 40
0.0
  9
$DIMTM
 40
0.0
  9
$DIMTXT
 40
0.18
  9
$DIMCEN
 40
0.09
  9
$DIMTSZ
 40
0.0
  9
$DIMTOL
 70
     0
  9
$DIMLIM
 70
     0
  9
$DIMTIH
 70
     1
  9
$DIMTOH
 70
     1
  9
$DIMSE1
 70
     0
  9
$DIMSE2
 70
     0
  9
$DIMTAD
 70
     0
  9
$DIMZIN
 70
     0
  9
$DIMBLK
  1

  9
$DIMASO
 70
     1
  9
$DIMSHO
 70
     1
  9
$DIMPOST
  1

  9
$DIMAPOST
  1

  9
$DIMALT
 70
     0
  9
$DIMALTD
 70
     2
  9
$DIMALTF
 40
25.399999999999999
  9
$DIMLFAC
 40
1.0
  9
$DIMTOFL
 70
     0
  9
$DIMTVP
 40
0.0
  9
$DIMTIX
 70
     0
  9
$DIMSOXD
 70
     0
  9
$DIMSAH
 70
     0
  9
$DIMBLK1
  1

  9
$DIMBLK2
  1

  9
$DIMSTYLE
  2
STANDARD
  9
$DIMCLRD
 70
     0
  9
$DIMCLRE
 70
     0
  9
$DIMCLRT
 70
     0
  9
$DIMTFAC
 40
1.0
  9
$DIMGAP
 40
0.09
  9
$LUNITS
 70
     2
  9
$LUPREC
 70
     4
  9
$SKETCHINC
 40
0.1
  9
$FILLETRAD
 40
0.0
  9
$AUNITS
 70
     0
  9
$AUPREC
 70
     0
  9
$MENU
  1
acad
  9
$ELEVATION
 40
0.0
  9
$PELEVATION
 40
0.0
  9
$THICKNESS
 40
0.0
  9
$LIMCHECK
 70
     0
  9
$BLIPMODE
 70
     0
  9
$CHAMFERA
 40
0.0
  9
$CHAMFERB
 40
0.0
  9
$SKPOLY
 70
     0
  9
$TDCREATE
 40
2453875.6524074082
  9
$TDUPDATE
 40
2453875.6537117478
  9
$TDINDWG
 40
0.0002496296
  9
$TDUSRTIMER
 40
0.0002494444
  9
$USRTIMER
 70
     1
  9
$ANGBASE
 50
0.0
  9
$ANGDIR
 70
     0
  9
$PDMODE
 70
     1
  9
$PDSIZE
 40
-2.0
  9
$PLINEWID
 40
0.0
  9
$COORDS
 70
     1
  9
$SPLFRAME
 70
     0
  9
$SPLINETYPE
 70
     6
  9
$SPLINESEGS
 70
     8
  9
$ATTDIA
 70
     0
  9
$ATTREQ
 70
     1
  9
$HANDLING
 70
     1
  9
$HANDSEED
  5
2E5
  9
$SURFTAB1
 70
     6
  9
$SURFTAB2
 70
     6
  9
$SURFTYPE
 70
     6
  9
$SURFU
 70
     6
  9
$SURFV
 70
     6
  9
$UCSNAME
  2

  9
$UCSORG
 10
0.0
 20
0.0
 30
0.0
  9
$UCSXDIR
 10
1.0
 20
0.0
 30
0.0
  9
$UCSYDIR
 10
0.0
 20
1.0
 30
0.0
  9
$PUCSNAME
  2

  9
$PUCSORG
 10
0.0
 20
0.0
 30
0.0
  9
$PUCSXDIR
 10
1.0
 20
0.0
 30
0.0
  9
$PUCSYDIR
 10
0.0
 20
1.0
 30
0.0
  9
$USERI1
 70
     0
  9
$USERI2
 70
     0
  9
$USERI3
 70
     0
  9
$USERI4
 70
     0
  9
$USERI5
 70
     0
  9
$USERR1
 40
0.0
  9
$USERR2
 40
0.0
  9
$USERR3
 40
0.0
  9
$USERR4
 40
0.0
  9
$USERR5
 40
0.0
  9
$WORLDVIEW
 70
     1
  9
$SHADEDGE
 70
     3
  9
$SHADEDIF
 70
    70
  9
$TILEMODE
 70
     1
  9
$MAXACTVP
 70
    64
  9
$PLIMCHECK
 70
     0
  9
$PEXTMIN
 10
1.0000000000000000E+020
 20
1.0000000000000000E+020
 30
1.0000000000000000E+020
  9
$PEXTMAX
 10
-1.0000000000000000E+020
 20
-1.0000000000000000E+020
 30
-1.0000000000000000E+020
  9
$PLIMMIN
 10
0.0
 20
0.0
  9
$PLIMMAX
 10
12.0
 20
9.0
  9
$UNITMODE
 70
     0
  9
$VISRETAIN
 70
     0
  9
$PLINEGEN
 70
     1
  9
$PSLTSCALE
 70
     0
  0
ENDSEC
  0
SECTION
  2
TABLES
  0
TABLE
  2
VPORT
 70
     1
  0
VPORT
  2
*ACTIVE
 70
     0
 10
0.0
 20
0.0
 11
1.0
 21
1.0
 12
100.00000167638061
 22
135.3679442555046
 13
0.0
 23
0.0
 14
1.0
 24
1.0
 15
0.0
 25
0.0
 16
0.0
 26
0.0
 36
1.0
 17
0.0
 27
0.0
 37
0.0
 40
1079.4042229176439
 41
1.6703601108033239
 42
50.0
 43
0.0
 44
0.0
 50
0.0
 51
0.0
 71
     0
 72
  2000
 73
     1
 74
     1
 75
     0
 76
     0
 77
     0
 78
     0
  0
ENDTAB
  0
TABLE
  2
LTYPE
 70
    11
  0
LTYPE
  2
CONTINUOUS
 70
     0
  3
Solid line
 72
    65
 73
     0
 40
0.0
  0
ENDTAB
  0
TABLE
  2
LAYER
 70
     5
  0
LAYER
  2
0
 70
     0
 62
     7
  6
CONTINUOUS
  0
LAYER
  2
DATA
 70
     0
 62
     7
  6
CONTINUOUS
  0
LAYER
  2
HIBINO-BASE
 70
     0
 62
     7
  6
CONTINUOUS
  0
LAYER
  2
SPEC
 70
     0
 62
     7
  6
CONTINUOUS
  0
LAYER
  2
DIMNSIONS
 70
     0
 62
     7
  6
CONTINUOUS
  0
ENDTAB
  0
TABLE
  2
STYLE
 70
     2
  0
STYLE
  2
STANDARD
 70
     0
 40
0.0
 41
1.0
 50
0.0
 71
     0
 42
0.0
  3
txt
  4
BIGFONT.SHX
  0
ENDTAB
  0
TABLE
  2
VIEW
 70
     0
  0
ENDTAB
  0
TABLE
  2
UCS
 70
     0
  0
ENDTAB
  0
TABLE
  2
APPID
 70
     1
  0
APPID
  2
ACAD
 70
     0
  0
ENDTAB
  0
TABLE
  2
DIMSTYLE
 70
     1
  0
DIMSTYLE
  2
STANDARD
 70
     0
  3

  4

  5

  6

  7

 40
1.0
 41
0.18
 42
0.0625
 43
0.38
 44
0.18
 45
0.0
 46
0.0
 47
0.0
 48
0.0
140
0.18
141
0.09
142
0.0
143
25.399999999999999
144
1.0
145
0.0
146
1.0
147
0.09
 71
     0
 72
     0
 73
     1
 74
     1
 75
     0
 76
     0
 77
     0
 78
     0
170
     0
171
     2
172
     0
173
     0
174
     0
175
     0
176
     0
177
     0
178
     0
  0
ENDTAB
  0
ENDSEC
  0
SECTION
  2
BLOCKS
  0
BLOCK
  8
0
  2
$MODEL_SPACE
 70
     0
 10
0.0
 20
0.0
 30
0.0
  3
$MODEL_SPACE
  1

  0
ENDBLK
  5
295
  8
0
  0
BLOCK
 67
     1
  8
0
  2
$PAPER_SPACE
 70
     0
 10
0.0
 20
0.0
 30
0.0
  3
$PAPER_SPACE
  1

  0
ENDBLK
  5
291
 67
     1
  8
0
  0
ENDSEC
  0
SECTION
  2
ENTITIES
  0
LINE
  5
2C
  8
HIBINO-BASE
  6
CONTINUOUS
 62
     7
 10
-259.99999000000003
 20
670.59546
 30
0.0
 11
459.99999000000003
 21
670.59546
 31
0.0
  0
LINE
  5
2D
  8
HIBINO-BASE
  6
CONTINUOUS
 62
     7
 10
459.99999000000003
 20
-369.40453000000002
 30
0.0
 11
-259.99999000000003
 21
-369.40453000000002
 31
0.0
  0
LINE
  5
2E
  8
HIBINO-BASE
  6
CONTINUOUS
 62
     7
 10
-259.99999000000003
 20
-369.40453000000002
 30
0.0
 11
-259.99999000000003
 21
670.59546
 31
0.0
  0
TEXT
  5
2F
  8
HIBINO-BASE
 62
     7
 10
-231.26399000000001
 20
-395.03923259999988
 30
0.0
 40
14.400169023437501
  1
Hibino Corporation
 41
0.8
 11
-231.26399000000001
 21
-380.63906357656231
 31
0.0
 73
     3
  0
LINE
  5
30
  8
HIBINO-BASE
  6
CONTINUOUS
 62
     7
 10
459.99999000000003
 20
670.59546
 30
0.0
 11
459.99999000000003
 21
-369.40453000000002
 31
0.0
  0
LINE
  5
31
  8
HIBINO-BASE
  6
CONTINUOUS
 62
     7
 10
100.0
 20
-279.40453000000002
 30
0.0
 11
459.99999000000003
 21
-279.40453000000002
 31
0.0
  0
LINE
  5
32
  8
HIBINO-BASE
  6
CONTINUOUS
 62
     7
 10
100.0
 20
-369.40453000000002
 30
0.0
 11
100.0
 21
-279.40453000000002
 31
0.0
  0
TEXT
  5
33
  8
HIBINO-BASE
 62
     7
 10
103.59999000000001
 20
-290.20454280000001
 30
0.0
 40
7.2001037500000002
  1
NOTE
 41
0.8
 11
103.59999000000001
 21
-283.00443904999997
 31
0.0
 73
     3
  0
LINE
  5
34
  8
HIBINO-BASE
  6
CONTINUOUS
 62
     7
 10
240.0
 20
-369.40453000000002
 30
0.0
 11
240.0
 21
-279.40453000000002
 31
0.0
  0
TEXT
  5
35
  8
HIBINO-BASE
 62
     7
 10
243.59999999999999
 20
-290.20454280000001
 30
0.0
 40
7.2001037500000002
  1
TITLE
 41
0.8
 11
243.59999999999999
 21
-283.00443904999997
 31
0.0
 73
     3
  0
TEXT
  5
36
  8
HIBINO-BASE
 62
     7
 10
300.27355
 20
-395.03923259999988
 30
0.0
 40
14.400169023437501
  1
ヒビノ株式会社
 41
0.8
 11
300.27355
 21
-380.63906357656231
 31
0.0
 73
     3
  0
LINE
  5
37
  8
HIBINO-BASE
  6
CONTINUOUS
 62
     7
 10
100.0
 20
-329.40453000000002
 30
0.0
 11
459.99999000000003
 21
-329.40453000000002
 31
0.0
  0
TEXT
  5
38
  8
HIBINO-BASE
 62
     7
 10
293.60000000000002
 20
-339.97926280000001
 30
0.0
 40
7.2001037500000002
  1
DRAWN
 41
0.8
 11
293.60000000000002
 21
-332.77915904999998
 31
0.0
 73
     3
  0
TEXT
  5
39
  8
HIBINO-BASE
 62
     7
 10
193.59999999999999
 20
-339.97926280000001
 30
0.0
 40
7.2001037500000002
  1
DATE
 41
0.8
 11
193.59999999999999
 21
-332.77915904999998
 31
0.0
 73
     3
  0
TEXT
  5
3A
  8
HIBINO-BASE
 62
     7
 10
104.39999
 20
-339.88234619999992
 30
0.0
 40
6.5153671484374991
  1
図面サイズ
 41
0.8
 11
104.39999
 21
-333.3669790515624
 31
0.0
 73
     3
  0
TEXT
  5
3B
  8
HIBINO-BASE
 62
     7
 10
153.59998999999999
 20
-339.97926280000001
 30
0.0
 40
7.2001037500000002
  1
SCALE
 41
0.8
 11
153.59998999999999
 21
-332.77915904999998
 31
0.0
 73
     3
  0
TEXT
  5
3C
  8
HIBINO-BASE
 62
     7
 10
243.59999999999999
 20
-339.97926280000001
 30
0.0
 40
7.2001037500000002
  1
DESIGN
 41
0.8
 11
243.59999999999999
 21
-332.77915904999998
 31
0.0
 73
     3
  0
TEXT
  5
3D
  8
HIBINO-BASE
 62
     7
 10
393.59998999999999
 20
-339.97926280000001
 30
0.0
 40
7.2001037500000002
  1
DRAWING NO.
 41
0.8
 11
393.59998999999999
 21
-332.77915904999998
 31
0.0
 73
     3
  0
TEXT
  5
3E
  8
HIBINO-BASE
 62
     7
 10
343.59998999999999
 20
-339.97926280000001
 30
0.0
 40
7.2001037500000002
  1
CHECK
 41
0.8
 11
343.59998999999999
 21
-332.77915904999998
 31
0.0
 73
     3
  0
LINE
  5
3F
  8
HIBINO-BASE
  6
CONTINUOUS
 62
     7
 10
157.49998999999991
 20
-364.40453000000002
 30
0.0
 11
172.5
 21
-349.40453000000002
 31
0.0
  0
TEXT
  5
40
  8
HIBINO-BASE
 62
     7
 10
154.99998999999991
 20
-356.2674068
 30
0.0
 40
8.6871459375000004
  1
1
 41
0.8
 11
154.99998999999991
 21
-347.58026086249993
 31
0.0
 73
     3
  0
LINE
  5
41
  8
HIBINO-BASE
  6
CONTINUOUS
 62
     7
 10
149.99998999999991
 20
-369.40453000000002
 30
0.0
 11
149.99998999999991
 21
-329.40453000000002
 31
0.0
  0
LINE
  5
42
  8
HIBINO-BASE
  6
CONTINUOUS
 62
     7
 10
189.99999
 20
-369.40453000000002
 30
0.0
 11
189.99999
 21
-329.40453000000002
 31
0.0
  0
LINE
  5
43
  8
HIBINO-BASE
  6
CONTINUOUS
 62
     7
 10
289.99999000000003
 20
-329.40453000000002
 30
0.0
 11
289.99999000000003
 21
-369.40453000000002
 31
0.0
  0
LINE
  5
44
  8
HIBINO-BASE
  6
CONTINUOUS
 62
     7
 10
390.0
 20
-329.40453000000002
 30
0.0
 11
390.0
 21
-369.40453000000002
 31
0.0
  0
LINE
  5
45
  8
HIBINO-BASE
  6
CONTINUOUS
 62
     7
 10
339.99999000000003
 20
-369.40453000000002
 30
0.0
 11
339.99999000000003
 21
-329.40453000000002
 31
0.0
  0
TEXT
  5
46
  8
HIBINO-BASE
 62
     7
 10
115.64355999999999
 20
-359.41070660000003
 30
0.0
 40
13.030711210937501
  1
A4
 41
0.8
 11
115.64355999999999
 21
-346.37999538906251
 31
0.0
 73
     3
  0
TEXT
  5
47
  8
HIBINO-BASE
 62
     7
 10
193.42616000000001
 20
-358.7151927999999
 30
0.0
 40
7.2001037500000002
  1
'06.03.
 41
0.8
 11
193.42616000000001
 21
-351.51508904999997
 31
0.0
 73
     3
  0
TEXT
  5
48
  8
HIBINO-BASE
 62
     7
 10
170.0
 20
-363.76740679999989
 30
0.0
 40
8.6871459375000004
  1
4
 41
0.8
 11
170.0
 21
-355.08026086249993
 31
0.0
 73
     3
  0
TEXT
  5
49
  8
HIBINO-BASE
 62
     7
 10
296.02323004413847
 20
-357.94994333333318
 30
0.0
 40
6.5153645833333318
  1
N.Sasaki
 41
0.8
 11
296.02323004413847
 21
-351.4345787499999
 31
0.0
 73
     3
  0
TEXT
  5
4A
  8
SPEC
 62
     7
 10
-224.99999
 20
636.16853999999989
 30
0.0
 40
9.7730468750000004
  1
仕様
 41
0.8
 11
-224.99999
 21
645.94158687499987
 31
0.0
 73
     3
  0
LINE
  5
4B
  8
SPEC
  6
CONTINUOUS
 62
     7
 10
-230.00216758222231
 20
630.60000000000002
 30
0.0
 11
359.99782241778422
 21
630.60000000000002
 31
0.0
  0
LINE
  5
4C
  8
SPEC
  6
CONTINUOUS
 62
     7
 10
-230.00216758222231
 20
615.60000000000002
 30
0.0
 11
359.99782241778422
 21
615.60000000000002
 31
0.0
  0
LINE
  5
4D
  8
SPEC
  6
CONTINUOUS
 62
     7
 10
-230.00216758222231
 20
630.60000000000002
 30
0.0
 11
-230.00216758222231
 21
450.60000000000002
 31
0.0
  0
LINE
  5
4E
  8
SPEC
  6
CONTINUOUS
 62
     7
 10
-100.0021675822198
 20
630.60000000000002
 30
0.0
 11
-100.0021675822198
 21
450.60000000000002
 31
0.0
  0
LINE
  5
4F
  8
SPEC
  6
CONTINUOUS
 62
     7
 10
359.99782241778422
 20
630.60000000000002
 30
0.0
 11
359.99782241778422
 21
450.60000000000002
 31
0.0
  0
TEXT
  5
50
  8
SPEC
 62
     7
 10
-94.440648780793936
 20
619.5351440647637
 30
0.0
 40
7.6012373046874986
  1
A帯・B帯共用シングルチャンネル・ダイバーシティ受信機(Single cannel diversity)
 41
0.8
 11
-94.440648780793936
 21
627.13638136945133
 31
0.0
 73
     3
  0
TEXT
  5
51
  8
SPEC
 62
     7
 10
-226.0112809056765
 20
619.49801379382893
 30
0.0
 40
7.6012373046874986
  1
形式
 41
0.8
 11
-226.0112809056765
 21
627.09925109851645
 31
0.0
 73
     3
  0
TEXT
  5
52
  8
SPEC
 62
     7
 10
-226.40216758222209
 20
603.94207934651524
 30
0.0
 40
7.6012373046874986
  1
受信周波数
 41
0.8
 11
-226.40216758222209
 21
611.54331665120264
 31
0.0
 73
     3
  0
TEXT
  5
53
  8
SPEC
 62
     7
 10
-94.311200386441115
 20
603.7517049999999
 30
0.0
 40
7.6012373046874986
  1
B型 (806～810MHz)30チャンネル、A型 (797～806MHz)71チャンネル
 41
0.8
 11
-94.311200386441115
 21
611.35294230468753
 31
0.0
 73
     3
  0
TEXT
  5
54
  8
SPEC
 62
     7
 10
-226.40216758222209
 20
559.63553738078224
 30
0.0
 40
7.6012373046874986
  1
アンテナ入力  
 41
0.8
 11
-226.40216758222209
 21
567.23677468546975
 31
0.0
 73
     3
  0
TEXT
  5
55
  8
SPEC
 62
     7
 10
-96.877387399442114
 20
559.36108642574129
 30
0.0
 40
7.6012373046874986
  1
実効インピーダンス/50Ω、コネクタ ー/BNC
 41
0.8
 11
-96.877387399442114
 21
566.96232373042869
 31
0.0
 73
     3
  0
TEXT
  5
56
  8
SPEC
 62
     7
 10
-226.40216758222209
 20
544.61852754283359
 30
0.0
 40
7.6012373046874986
  1
感度(12dB SINAD)
 41
0.8
 11
-226.40216758222209
 21
552.21976484752122
 31
0.0
 73
     3
  0
TEXT
  5
57
  8
SPEC
 62
     7
 10
-96.497211545664214
 20
484.45613038918577
 30
0.0
 40
7.6012373046874986
  1
アンバランス:-2dBV
 41
0.8
 11
-96.497211545664214
 21
492.05736769387329
 31
0.0
 73
     3
  0
TEXT
  5
58
  8
SPEC
 62
     7
 10
-94.54881029505232
 20
544.26693489919148
 30
0.0
 40
7.6012373046874986
  1
1.26μV(標準)
 41
0.8
 11
-94.54881029505232
 21
551.86817220387911
 31
0.0
 73
     3
  0
TEXT
  5
59
  8
SPEC
 62
     7
 10
-96.592255509108696
 20
499.15795928382761
 30
0.0
 40
7.6012373046874986
  1
バランス:+3.9dBV(ライン)、-17dBV(マイク)
 41
0.8
 11
-96.592255509108696
 21
506.75919658851501
 31
0.0
 73
     3
  0
TEXT
  5
5A
  8
SPEC
 62
     7
 10
-226.40216758222209
 20
439.60883518241133
 30
0.0
 40
7.6012373046874986
  1
質量
 41
0.8
 11
-226.40216758222209
 21
447.21007248709878
 31
0.0
 73
     3
  0
TEXT
  5
5B
  8
SPEC
 62
     7
 10
-94.738898221941284
 20
454.35195287088919
 30
0.0
 40
7.6012373046874986
  1
219.5×43×151mm(コネクタ ・アンテナ・保護ダンパー・突起含まず)
 41
0.8
 11
-94.738898221941284
 21
461.95319017557682
 31
0.0
 73
     3
  0
TEXT
  5
5C
  8
SPEC
 62
     7
 10
-94.501288313330079
 20
439.55508001280288
 30
0.0
 40
7.6012373046874986
  1
1.0kg
 41
0.8
 11
-94.501288313330079
 21
447.15631731749039
 31
0.0
 73
     3
  0
TEXT
  5
5D
  8
SPEC
 62
     7
 10
-226.40216758222209
 20
454.56692422828348
 30
0.0
 40
7.6012373046874986
  1
寸法(W+H+D)
 41
0.8
 11
-226.40216758222209
 21
462.16816153297111
 31
0.0
 73
     3
  0
TEXT
  5
5E
  8
SPEC
 62
     7
 10
-226.40216758222209
 20
424.70402235566888
 30
0.0
 40
7.6012373046874986
  1
付属品
 41
0.8
 11
-226.40216758222209
 21
432.30525966035651
 31
0.0
 73
     3
  0
TEXT
  5
5F
  8
SPEC
 62
     7
 10
-94.453766331607824
 20
424.75168754720443
 30
0.0
 40
7.6012373046874986
  1
1/4波長アンテナ×2、ACアダプタ、ゴム足×4(シート) 
 41
0.8
 11
-94.453766331607824
 21
432.35292485189188
 31
0.0
 73
     3
  0
LINE
  5
60
  8
SPEC
  6
CONTINUOUS
 62
     7
 10
-230.00216758222231
 20
585.60000000000002
 30
0.0
 11
359.99782241778422
 21
585.60000000000002
 31
0.0
  0
LINE
  5
61
  8
SPEC
  6
CONTINUOUS
 62
     7
 10
-230.00216758222231
 20
570.60000000000002
 30
0.0
 11
359.99782241778422
 21
570.60000000000002
 31
0.0
  0
LINE
  5
62
  8
SPEC
  6
CONTINUOUS
 62
     7
 10
-230.00216758222231
 20
555.60000000000002
 30
0.0
 11
359.99782241778422
 21
555.60000000000002
 31
0.0
  0
LINE
  5
63
  8
SPEC
  6
CONTINUOUS
 62
     7
 10
-230.00216758222231
 20
540.60000000000002
 30
0.0
 11
359.99782241778422
 21
540.60000000000002
 31
0.0
  0
LINE
  5
64
  8
SPEC
  6
CONTINUOUS
 62
     7
 10
-181.0021775822222
 20
525.60000000000002
 30
0.0
 11
359.99782241778422
 21
525.60000000000002
 31
0.0
  0
LINE
  5
65
  8
SPEC
  6
CONTINUOUS
 62
     7
 10
-181.0021775822222
 20
510.60000000000002
 30
0.0
 11
359.99782241778428
 21
510.60000000000002
 31
0.0
  0
LINE
  5
66
  8
SPEC
  6
CONTINUOUS
 62
     7
 10
-100.0021675822198
 20
495.60000000000002
 30
0.0
 11
359.99782241778428
 21
495.60000000000002
 31
0.0
  0
LINE
  5
67
  8
SPEC
  6
CONTINUOUS
 62
     7
 10
-100.0021675822198
 20
495.60000000000002
 30
0.0
 11
359.99782241778428
 21
495.60000000000002
 31
0.0
  0
LINE
  5
68
  8
SPEC
  6
CONTINUOUS
 62
     7
 10
-230.00216758222231
 20
480.60000000000002
 30
0.0
 11
359.99782241778422
 21
480.60000000000002
 31
0.0
  0
LINE
  5
69
  8
SPEC
  6
CONTINUOUS
 62
     7
 10
-230.00216758222231
 20
480.60000000000002
 30
0.0
 11
359.99782241778422
 21
480.60000000000002
 31
0.0
  0
LINE
  5
6A
  8
SPEC
  6
CONTINUOUS
 62
     7
 10
-230.00216758222231
 20
450.60000000000002
 30
0.0
 11
359.99782241778422
 21
450.60000000000002
 31
0.0
  0
TEXT
  5
6B
  8
SPEC
 62
     7
 10
-96.782343435997632
 20
589.46264999669825
 30
0.0
 40
7.6012373046874986
  1
合計101チャンネルのうち任意の1チャンネル
 41
0.8
 11
-96.782343435997632
 21
597.06388730138576
 31
0.0
 73
     3
  0
TEXT
  5
6C
  8
SPEC
 62
     7
 10
-226.63669958814961
 20
574.52334036957609
 30
0.0
 40
7.6012373046874986
  1
トーン信号周波数  
 41
0.8
 11
-226.63669958814961
 21
582.12457767426349
 31
0.0
 73
     3
  0
TEXT
  5
6D
  8
SPEC
 62
     7
 10
-94.406244349885597
 20
574.25952285478445
 30
0.0
 40
7.6012373046874986
  1
32.768kHz
 41
0.8
 11
-94.406244349885597
 21
581.86076015947185
 31
0.0
 73
     3
  0
TEXT
  5
6E
  8
SPEC
 62
     7
 10
-226.24581291160391
 20
528.82988233530921
 30
0.0
 40
7.6012373046874986
  1
音声出力
 41
0.8
 11
-226.24581291160391
 21
536.43111963999672
 31
0.0
 73
     3
  0
LINE
  5
6F
  8
SPEC
  6
CONTINUOUS
 62
     7
 10
-181.0021775822222
 20
540.60000000000002
 30
0.0
 11
-181.0021775822222
 21
480.60000000000002
 31
0.0
  0
TEXT
  5
70
  8
SPEC
 62
     7
 10
-175.37983847588711
 20
529.22764086628797
 30
0.0
 40
7.6012373046874986
  1
コネクタ 
 41
0.8
 11
-175.37983847588711
 21
536.8288781709756
 31
0.0
 73
     3
  0
TEXT
  5
71
  8
SPEC
 62
     7
 10
-175.37983847588711
 20
514.41801521280331
 30
0.0
 40
7.6012373046874986
  1
インピーダンス
 41
0.8
 11
-175.37983847588711
 21
522.01925251749071
 31
0.0
 73
     3
  0
TEXT
  5
72
  8
SPEC
 62
     7
 10
-175.37983847588711
 20
498.75170500000002
 30
0.0
 40
7.6012373046874986
  1
最大出力レベル
 41
0.8
 11
-175.37983847588711
 21
506.35294230468742
 31
0.0
 73
     3
  0
TEXT
  5
73
  8
SPEC
 62
     7
 10
-94.406244349885597
 20
514.24648363975973
 30
0.0
 40
7.6012373046874986
  1
50Ω(ライン)、2kΩ(マイク)
 41
0.8
 11
-94.406244349885597
 21
521.84772094444725
 31
0.0
 73
     3
  0
TEXT
  5
74
  8
SPEC
 62
     7
 10
-96.402167582219718
 20
529.27345450670396
 30
0.0
 40
7.6012373046874986
  1
バランス(XLR3ピン,オス)/アンバランス(フォーンジャック)
 41
0.8
 11
-96.402167582219718
 21
536.87469181139159
 31
0.0
 73
     3
  0
TEXT
  5
75
  8
SPEC
 62
     7
 10
-226.31834567396649
 20
469.4870739883948
 30
0.0
 40
7.6012373046874986
  1
電源
 41
0.8
 11
-226.31834567396649
 21
477.08831129308243
 31
0.0
 73
     3
  0
LINE
  5
76
  8
SPEC
  6
CONTINUOUS
 62
     7
 10
-230.00216758222231
 20
465.60000000000002
 30
0.0
 11
359.99782241778422
 21
465.60000000000002
 31
0.0
  0
LINE
  5
77
  8
SPEC
  6
CONTINUOUS
 62
     7
 10
-230.00216758222231
 20
435.60000000000002
 30
0.0
 11
359.99782241778422
 21
435.60000000000002
 31
0.0
  0
TEXT
  5
78
  8
SPEC
 62
     7
 10
-94.358722368163356
 20
469.06291532038301
 30
0.0
 40
7.6012373046874986
  1
DC14～18V(550mA)、付属のACアダプタ(AC100V、50/60Hz)
 41
0.8
 11
-94.358722368163356
 21
476.66415262507059
 31
0.0
 73
     3
  0
LINE
  5
79
  8
SPEC
  6
CONTINUOUS
 62
     7
 10
-230.00216758222231
 20
450.60000000000002
 30
0.0
 11
-230.00216758222231
 21
420.60000000000002
 31
0.0
  0
LINE
  5
7A
  8
SPEC
  6
CONTINUOUS
 62
     7
 10
-100.0021675822198
 20
450.60000000000002
 30
0.0
 11
-100.0021675822198
 21
420.60000000000002
 31
0.0
  0
LINE
  5
7B
  8
SPEC
  6
CONTINUOUS
 62
     7
 10
359.99782241778422
 20
420.60000000000002
 30
0.0
 11
359.99782241778422
 21
450.60000000000002
 31
0.0
  0
LINE
  5
7C
  8
SPEC
  6
CONTINUOUS
 62
     7
 10
-230.00216758222231
 20
420.60000000000002
 30
0.0
 11
359.99782241778422
 21
420.60000000000002
 31
0.0
  0
TEXT
  5
7D
  8
DIMNSIONS
 62
     7
 10
19.999999999999979
 20
-320.32657
 30
0.0
 40
9.7730468750000004
  1
(単位：mm)
 41
0.8
 11
19.999999999999979
 21
-310.55352312500003
 31
0.0
 73
     3
  0
LINE
  5
7E
  8
DIMNSIONS
  6
CONTINUOUS
 62
     7
 10
-149.99998999999991
 20
-234.99999997019771
 30
0.0
 11
-149.99998999999991
 21
-257.99999997019768
 31
0.0
  0
LINE
  5
7F
  8
DIMNSIONS
  6
CONTINUOUS
 62
     7
 10
69.500010000000017
 20
-234.99999997019771
 30
0.0
 11
69.500010000000017
 21
-257.99999997019768
 31
0.0
  0
LINE
  5
80
  8
DIMNSIONS
  6
CONTINUOUS
 62
     7
 10
-149.99998999999991
 20
-250.0
 30
0.0
 11
69.500010000000017
 21
-250.0
 31
0.0
  0
LINE
  5
81
  8
DIMNSIONS
  6
CONTINUOUS
 62
     7
 10
-149.99998999999991
 20
-250.0
 30
0.0
 11
-137.29998999999989
 21
-246.59704525612469
 31
0.0
  0
LINE
  5
82
  8
DIMNSIONS
  6
CONTINUOUS
 62
     7
 10
-149.99998999999991
 20
-250.0
 30
0.0
 11
-137.29998999999989
 21
-253.40295474387531
 31
0.0
  0
LINE
  5
83
  8
DIMNSIONS
  6
CONTINUOUS
 62
     7
 10
69.500010000000017
 20
-250.0
 30
0.0
 11
56.800010000000022
 21
-253.40295474387531
 31
0.0
  0
LINE
  5
84
  8
DIMNSIONS
  6
CONTINUOUS
 62
     7
 10
69.500010000000017
 20
-250.0
 30
0.0
 11
56.800010000000022
 21
-246.59704525612469
 31
0.0
  0
TEXT
  5
85
  8
DIMNSIONS
 62
     7
 10
-57.888878888888861
 20
-244.02444445934569
 30
0.0
 40
10.85894097222222
  1
219.5
 41
0.8
 11
-57.888878888888861
 21
-233.16550348712349
 31
0.0
 73
     3
  0
LINE
  5
86
  8
DIMNSIONS
  6
CONTINUOUS
 62
     7
 10
69.500010000000017
 20
-234.99999997019771
 30
0.0
 11
69.500010000000017
 21
-208.0
 31
0.0
  0
LINE
  5
87
  8
DIMNSIONS
  6
CONTINUOUS
 62
     7
 10
-149.99998999999991
 20
-234.99999997019771
 30
0.0
 11
-149.99998999999991
 21
-208.0
 31
0.0
  0
LINE
  5
88
  8
DIMNSIONS
  6
CONTINUOUS
 62
     7
 10
-153.99998997019759
 20
-199.99999
 30
0.0
 11
-207.99999997019771
 21
-199.99999
 31
0.0
  0
LINE
  5
89
  8
DIMNSIONS
  6
CONTINUOUS
 62
     7
 10
-153.99998997019759
 20
-157.99998999999991
 30
0.0
 11
-207.99999997019771
 21
-157.99998999999991
 31
0.0
  0
LINE
  5
8A
  8
DIMNSIONS
  6
CONTINUOUS
 62
     7
 10
-200.0
 20
-199.99999
 30
0.0
 11
-200.0
 21
-157.99998999999991
 31
0.0
  0
LINE
  5
8B
  8
DIMNSIONS
  6
CONTINUOUS
 62
     7
 10
-200.0
 20
-199.99999
 30
0.0
 11
-203.40295474387531
 21
-187.29999000000001
 31
0.0
  0
LINE
  5
8C
  8
DIMNSIONS
  6
CONTINUOUS
 62
     7
 10
-200.0
 20
-199.99999
 30
0.0
 11
-196.59704525612469
 21
-187.29999000000001
 31
0.0
  0
LINE
  5
8D
  8
DIMNSIONS
  6
CONTINUOUS
 62
     7
 10
-200.0
 20
-157.99998999999991
 30
0.0
 11
-196.59704525612469
 21
-170.6999899999999
 31
0.0
  0
LINE
  5
8E
  8
DIMNSIONS
  6
CONTINUOUS
 62
     7
 10
-200.0
 20
-157.99998999999991
 30
0.0
 11
-203.40295474387531
 21
-170.6999899999999
 31
0.0
  0
TEXT
  5
8F
  8
DIMNSIONS
 62
     7
 10
-205.97555554065431
 20
-186.05554555555551
 30
0.0
 40
10.85894097222222
  1
43
 50
90.0
 41
0.8
 11
-216.8344965128766
 21
-186.05554555555551
 31
0.0
 73
     3
  0
LINE
  5
90
  8
DIMNSIONS
  6
CONTINUOUS
 62
     7
 10
-155.49998997019759
 20
-107.0
 30
0.0
 11
-182.99999997019771
 21
-107.0
 31
0.0
  0
LINE
  5
91
  8
DIMNSIONS
  6
CONTINUOUS
 62
     7
 10
-157.99998997019759
 20
44.0
 30
0.0
 11
-182.99999997019771
 21
44.0
 31
0.0
  0
LINE
  5
92
  8
DIMNSIONS
  6
CONTINUOUS
 62
     7
 10
-175.0
 20
-107.0
 30
0.0
 11
-175.0
 21
44.0
 31
0.0
  0
LINE
  5
93
  8
DIMNSIONS
  6
CONTINUOUS
 62
     7
 10
-175.0
 20
-107.0
 30
0.0
 11
-178.40295474387531
 21
-94.299999999999983
 31
0.0
  0
LINE
  5
94
  8
DIMNSIONS
  6
CONTINUOUS
 62
     7
 10
-175.0
 20
-107.0
 30
0.0
 11
-171.59704525612469
 21
-94.299999999999983
 31
0.0
  0
LINE
  5
95
  8
DIMNSIONS
  6
CONTINUOUS
 62
     7
 10
-175.0
 20
44.0
 30
0.0
 11
-171.59704525612469
 21
31.300000000000001
 31
0.0
  0
LINE
  5
96
  8
DIMNSIONS
  6
CONTINUOUS
 62
     7
 10
-175.0
 20
44.0
 30
0.0
 11
-178.40295474387531
 21
31.300000000000001
 31
0.0
  0
TEXT
  5
97
  8
DIMNSIONS
 62
     7
 10
-180.97555554065431
 20
-42.083333333333307
 30
0.0
 40
10.85894097222222
  1
151
 50
90.0
 41
0.8
 11
-191.83449651287651
 21
-42.083333333333307
 31
0.0
 73
     3
  0
LINE
  5
98
  8
DIMNSIONS
  6
CONTINUOUS
 62
     7
 10
-42.599989970197662
 20
-110.0
 30
0.0
 11
-207.99999997019771
 21
-110.0
 31
0.0
  0
LINE
  5
99
  8
DIMNSIONS
  6
CONTINUOUS
 62
     7
 10
-140.1113581461197
 20
55.999999999999993
 30
0.0
 11
-207.99999997019771
 21
55.999999999999993
 31
0.0
  0
LINE
  5
9A
  8
DIMNSIONS
  6
CONTINUOUS
 62
     7
 10
-200.0
 20
-110.0
 30
0.0
 11
-200.0
 21
55.999999999999993
 31
0.0
  0
LINE
  5
9B
  8
DIMNSIONS
  6
CONTINUOUS
 62
     7
 10
-200.0
 20
-110.0
 30
0.0
 11
-203.40295474387531
 21
-97.299999999999997
 31
0.0
  0
LINE
  5
9C
  8
DIMNSIONS
  6
CONTINUOUS
 62
     7
 10
-200.0
 20
-110.0
 30
0.0
 11
-196.59704525612469
 21
-97.299999999999997
 31
0.0
  0
LINE
  5
9D
  8
DIMNSIONS
  6
CONTINUOUS
 62
     7
 10
-200.0
 20
55.999999999999993
 30
0.0
 11
-196.59704525612469
 21
43.299999999999983
 31
0.0
  0
LINE
  5
9E
  8
DIMNSIONS
  6
CONTINUOUS
 62
     7
 10
-200.0
 20
55.999999999999993
 30
0.0
 11
-203.40295474387531
 21
43.299999999999983
 31
0.0
  0
TEXT
  5
9F
  8
DIMNSIONS
 62
     7
 10
-205.97555554065431
 20
-37.583333333333307
 30
0.0
 40
10.85894097222222
  1
166
 50
90.0
 41
0.8
 11
-216.8344965128766
 21
-37.583333333333307
 31
0.0
 73
     3
  0
LINE
  5
A0
  8
DIMNSIONS
  6
CONTINUOUS
 62
     7
 10
-157.99998997019759
 20
44.0
 30
0.0
 11
-182.99999997019771
 21
44.0
 31
0.0
  0
LINE
  5
A1
  8
DIMNSIONS
  6
CONTINUOUS
 62
     7
 10
-140.1113581461197
 20
55.999999999999993
 30
0.0
 11
-182.99999997019771
 21
55.999999999999993
 31
0.0
  0
LINE
  5
A2
  8
DIMNSIONS
  6
CONTINUOUS
 62
     7
 10
-175.0
 20
55.999999999999993
 30
0.0
 11
-175.0
 21
44.0
 31
0.0
  0
LINE
  5
A3
  8
DIMNSIONS
  6
CONTINUOUS
 62
     7
 10
-175.0
 20
44.0
 30
0.0
 11
-175.0
 21
23.99999997988343
 31
0.0
  0
LINE
  5
A4
  8
DIMNSIONS
  6
CONTINUOUS
 62
     7
 10
-175.0
 20
44.0
 30
0.0
 11
-171.59704525612469
 21
31.300000000000001
 31
0.0
  0
LINE
  5
A5
  8
DIMNSIONS
  6
CONTINUOUS
 62
     7
 10
-175.0
 20
44.0
 30
0.0
 11
-178.40295474387531
 21
31.300000000000001
 31
0.0
  0
LINE
  5
A6
  8
DIMNSIONS
  6
CONTINUOUS
 62
     7
 10
-175.0
 20
55.999999999999993
 30
0.0
 11
-175.0
 21
77.111111111111143
 31
0.0
  0
LINE
  5
A7
  8
DIMNSIONS
  6
CONTINUOUS
 62
     7
 10
-175.0
 20
55.999999999999993
 30
0.0
 11
-178.40295474387531
 21
68.699999999999989
 31
0.0
  0
LINE
  5
A8
  8
DIMNSIONS
  6
CONTINUOUS
 62
     7
 10
-175.0
 20
55.999999999999993
 30
0.0
 11
-171.59704525612469
 21
68.699999999999989
 31
0.0
  0
TEXT
  5
A9
  8
DIMNSIONS
 62
     7
 10
-180.97555554065431
 20
63.000000000000021
 30
0.0
 40
10.85894097222222
  1
12
 50
90.0
 41
0.8
 11
-191.83449651287651
 21
63.000000000000021
 31
0.0
 73
     3
  0
TEXT
  5
AA
  8
DATA
 62
     7
 10
283.71362711557259
 20
-322.67516230295001
 30
0.0
 40
9.7730468750000004
  1
ULXS4-ABJ
 41
0.8
 11
283.71362711557259
 21
-312.90211542794998
 31
0.0
 73
     3
  0
TEXT
  5
AB
  8
DATA
 62
     7
 10
288.50977837495861
 20
-294.52918039705401
 30
0.0
 40
9.7730468750000004
  1
SHURE
 41
0.8
 11
288.50977837495861
 21
-284.75613352205409
 31
0.0
 73
     3
  0
LINE
  5
AC
  8
DATA
  6
CONTINUOUS
 62
     7
 10
53.008939880674212
 20
44.592064836193011
 30
0.0
 11
53.008939880674212
 21
48.0
 31
0.0
  0
LINE
  5
AD
  8
DATA
  6
CONTINUOUS
 62
     7
 10
53.908939880674197
 20
44.0
 30
0.0
 11
53.908939880674197
 21
44.592064836193011
 31
0.0
  0
LINE
  5
AE
  8
DATA
  6
CONTINUOUS
 62
     7
 10
44.40893988067419
 20
44.0
 30
0.0
 11
44.40893988067419
 21
44.592064836193011
 31
0.0
  0
LINE
  5
AF
  8
DATA
  6
CONTINUOUS
 62
     7
 10
45.308949880674213
 20
44.592064836193011
 30
0.0
 11
45.308949880674213
 21
48.0
 31
0.0
  0
LINE
  5
B0
  8
DATA
  6
CONTINUOUS
 62
     7
 10
44.40893988067419
 20
44.592064836193011
 30
0.0
 11
53.908939880674197
 21
44.592064836193011
 31
0.0
  0
LINE
  5
B1
  8
DATA
  6
CONTINUOUS
 62
     7
 10
49.158939880674197
 20
44.592064836193011
 30
0.0
 11
49.158939880674197
 21
44.0
 31
0.0
  0
POLYLINE
  5
B2
  8
DATA
  6
CONTINUOUS
 62
     7
 66
     1
 10
0.0
 20
0.0
 30
0.0
 70
   129
  0
VERTEX
  5
2B2
  8
DATA
  6
CONTINUOUS
 62
     7
 10
-149.99998999999991
 20
-161.99999
 30
0.0
 42
-0.4142135623730951
  0
VERTEX
  5
2B3
  8
DATA
  6
CONTINUOUS
 62
     7
 10
-145.99998999999991
 20
-157.99998999999991
 30
0.0
  0
VERTEX
  5
2B4
  8
DATA
  6
CONTINUOUS
 62
     7
 10
65.500010000000003
 20
-157.99998999999991
 30
0.0
 42
-0.4142135623730951
  0
VERTEX
  5
2B5
  8
DATA
  6
CONTINUOUS
 62
     7
 10
69.500010000000017
 20
-161.99999
 30
0.0
  0
VERTEX
  5
2B6
  8
DATA
  6
CONTINUOUS
 62
     7
 10
69.500010000000017
 20
-195.99999
 30
0.0
 42
-0.4142135623730951
  0
VERTEX
  5
2B7
  8
DATA
  6
CONTINUOUS
 62
     7
 10
65.500010000000003
 20
-199.99999
 30
0.0
  0
VERTEX
  5
2B8
  8
DATA
  6
CONTINUOUS
 62
     7
 10
-145.99998999999991
 20
-199.99999
 30
0.0
 42
-0.4142135623730951
  0
VERTEX
  5
2B9
  8
DATA
  6
CONTINUOUS
 62
     7
 10
-149.99998999999991
 20
-195.99999
 30
0.0
  0
SEQEND
  5
2BA
  8
DATA
  6
CONTINUOUS
 62
     7
  0
LINE
  5
BC
  8
DATA
  6
CONTINUOUS
 62
     7
 10
29.89104938586182
 20
-190.99183629491591
 30
0.0
 11
29.89104938586182
 21
-168.6918362949159
 31
0.0
  0
LINE
  5
BD
  8
DATA
  6
CONTINUOUS
 62
     7
 10
46.89104938586182
 20
-190.99183629491591
 30
0.0
 11
46.89104938586182
 21
-168.6918362949159
 31
0.0
  0
LINE
  5
BE
  8
DATA
  6
CONTINUOUS
 62
     7
 10
46.89104938586182
 20
-168.6918362949159
 30
0.0
 11
29.89104938586182
 21
-168.6918362949159
 31
0.0
  0
LINE
  5
BF
  8
DATA
  6
CONTINUOUS
 62
     7
 10
46.89104938586182
 20
-190.99183629491591
 30
0.0
 11
29.89104938586182
 21
-190.99183629491591
 31
0.0
  0
LINE
  5
C0
  8
DATA
  6
CONTINUOUS
 62
     7
 10
30.486049385861818
 20
-189.41133629491591
 30
0.0
 11
30.486049385861818
 21
-170.2723362949159
 31
0.0
  0
LINE
  5
C1
  8
DATA
  6
CONTINUOUS
 62
     7
 10
46.296049385861807
 20
-189.41133629491591
 30
0.0
 11
46.296049385861807
 21
-170.2723362949159
 31
0.0
  0
LINE
  5
C2
  8
DATA
  6
CONTINUOUS
 62
     7
 10
45.496049385861809
 20
-169.47233629491589
 30
0.0
 11
31.286049385861819
 21
-169.47233629491589
 31
0.0
  0
LINE
  5
C3
  8
DATA
  6
CONTINUOUS
 62
     7
 10
45.496049385861809
 20
-190.2113362949159
 30
0.0
 11
31.286049385861819
 21
-190.2113362949159
 31
0.0
  0
ARC
  5
C4
  8
DATA
  6
CONTINUOUS
 62
     7
 10
67.77693102837307
 20
-179.84183629491591
 30
0.0
 40
35.420881642511283
 50
167.14942797291641
 51
192.85057202708359
  0
ARC
  5
C5
  8
DATA
  6
CONTINUOUS
 62
     7
 10
9.0051677433585287
 20
-179.84183629491591
 30
0.0
 40
35.420881642503552
 50
347.1494279729136
 51
12.850572027086679
  0
LINE
  5
C6
  8
DATA
  6
CONTINUOUS
 62
     7
 10
42.758914879109717
 20
-171.34183629491591
 30
0.0
 11
34.023183892613858
 21
-171.34183629491591
 31
0.0
  0
LINE
  5
C7
  8
DATA
  6
CONTINUOUS
 62
     7
 10
42.758914879110172
 20
-188.34183629491591
 30
0.0
 11
34.023183892613858
 21
-188.34183629491591
 31
0.0
  0
ARC
  5
C8
  8
DATA
  6
CONTINUOUS
 62
     7
 10
34.023183892613858
 20
-172.14183629491581
 30
0.0
 40
0.7999999999999546
 50
90.0
 51
167.1494279729223
  0
ARC
  5
C9
  8
DATA
  6
CONTINUOUS
 62
     7
 10
42.758914879109717
 20
-172.14183629491609
 30
0.0
 40
0.8000000000001502
 50
12.850572027100251
 51
90.000000000000028
  0
ARC
  5
CA
  8
DATA
  6
CONTINUOUS
 62
     7
 10
34.023183892613858
 20
-187.5418362949159
 30
0.0
 40
0.7999999999999843
 50
192.8505720270779
 51
270.0
  0
ARC
  5
CB
  8
DATA
  6
CONTINUOUS
 62
     7
 10
42.758914879110172
 20
-187.54183629491621
 30
0.0
 40
0.7999999999996135
 50
270.0
 51
347.14942797294083
  0
ARC
  5
CC
  8
DATA
  6
CONTINUOUS
 62
     7
 10
31.286049385861819
 20
-170.27233629491599
 30
0.0
 40
0.8000000000000682
 50
90.0
 51
179.99999999999591
  0
ARC
  5
CD
  8
DATA
  6
CONTINUOUS
 62
     7
 10
45.496049385861809
 20
-170.2723362949159
 30
0.0
 40
0.7999999999999972
 50
0.0
 51
90.0
  0
ARC
  5
CE
  8
DATA
  6
CONTINUOUS
 62
     7
 10
31.286049385861819
 20
-189.41133629491591
 30
0.0
 40
0.7999999999999972
 50
180.0
 51
270.0
  0
ARC
  5
CF
  8
DATA
  6
CONTINUOUS
 62
     7
 10
45.496049385861809
 20
-189.41133629491591
 30
0.0
 40
0.7999999999999546
 50
270.0
 51
0.0000000000040927
  0
LINE
  5
D0
  8
DATA
  6
CONTINUOUS
 62
     7
 10
32.777838678246439
 20
-174.39184629491589
 30
0.0
 11
44.004260093477349
 21
-174.39184629491589
 31
0.0
  0
TEXT
  5
D1
  8
DATA
 62
     7
 10
36.70080886552897
 20
-187.38439789192361
 30
0.0
 40
5.4294704861111107
  1
o
 41
0.8
 11
36.70080886552897
 21
-181.9549274058125
 31
0.0
 73
     3
  0
TEXT
  5
D2
  8
DATA
 62
     7
 10
37.045391823461131
 20
-179.6635843323196
 30
0.0
 40
4.3435763888888879
  1
I
 41
0.8
 11
37.045391823461131
 21
-175.32000794343071
 31
0.0
 73
     3
  0
TEXT
  5
D3
  8
DATA
 62
     7
 10
14.64602078742436
 20
-172.30244656746621
 30
0.0
 40
4.3435763888888879
  1
ULXS4
 41
0.8
 11
14.64602078742436
 21
-167.95887017857731
 31
0.0
 73
     3
  0
POLYLINE
  5
D4
  8
DATA
  6
CONTINUOUS
 62
     7
 66
     1
 10
0.0
 20
0.0
 30
0.0
 70
     1
  0
VERTEX
  5
2BB
  8
DATA
  6
CONTINUOUS
 62
     7
 10
54.318557563701503
 20
-161.317232350712
 30
0.0
  0
VERTEX
  5
2BC
  8
DATA
  6
CONTINUOUS
 62
     7
 10
66.418557563701512
 20
-161.317232350712
 30
0.0
  0
VERTEX
  5
2BD
  8
DATA
  6
CONTINUOUS
 62
     7
 10
66.418557563701512
 20
-169.58723235071199
 30
0.0
  0
VERTEX
  5
2BE
  8
DATA
  6
CONTINUOUS
 62
     7
 10
54.318557563701503
 20
-169.58723235071199
 30
0.0
  0
SEQEND
  5
2BF
  8
DATA
  6
CONTINUOUS
 62
     7
  0
TEXT
  5
DB
  8
DATA
 62
     7
 10
55.318547563701493
 20
-165.1423953978825
 30
0.0
 40
2.1717881944444439
  1
797-810
 41
0.8
 11
55.318547563701493
 21
-162.97060720343799
 31
0.0
 73
     3
  0
TEXT
  5
DC
  8
DATA
 62
     7
 10
55.318547563701493
 20
-167.96461762010469
 30
0.0
 40
2.1717881944444439
  1
MHz-JAB
 41
0.8
 11
55.318547563701493
 21
-165.79282942566019
 31
0.0
 73
     3
  0
CIRCLE
  5
DD
  8
DATA
  6
CONTINUOUS
 62
     7
 10
-125.94680131172851
 20
-190.93682306505161
 30
0.0
 40
0.8499999999999943
  0
CIRCLE
  5
DE
  8
DATA
  6
CONTINUOUS
 62
     7
 10
-125.94680131172851
 20
-187.13682306505149
 30
0.0
 40
0.8499999999999943
  0
CIRCLE
  5
DF
  8
DATA
  6
CONTINUOUS
 62
     7
 10
-125.94680131172851
 20
-183.3368230650515
 30
0.0
 40
0.8499999999999943
  0
CIRCLE
  5
E0
  8
DATA
  6
CONTINUOUS
 62
     7
 10
-125.94680131172851
 20
-179.53682306505161
 30
0.0
 40
0.8499999999999943
  0
CIRCLE
  5
E1
  8
DATA
  6
CONTINUOUS
 62
     7
 10
-125.94680131172851
 20
-175.73682306505151
 30
0.0
 40
0.8499999999999943
  0
CIRCLE
  5
E2
  8
DATA
  6
CONTINUOUS
 62
     7
 10
-135.80000000000001
 20
-175.72784492777399
 30
0.0
 40
0.8499999999999943
  0
TEXT
  5
E3
  8
DATA
 62
     7
 10
-136.9613677330328
 20
-173.7971810127562
 30
0.0
 40
2.1717881944444439
  1
RF
 41
0.8
 11
-136.9613677330328
 21
-171.62539281831181
 31
0.0
 73
     3
  0
TEXT
  5
E4
  8
DATA
 62
     7
 10
-130.76387728733181
 20
-170.89691190106021
 30
0.0
 40
2.1717881944444439
  1
  TX
 41
0.8
 11
-130.76387728733181
 21
-168.7251237066157
 31
0.0
 73
     3
  0
TEXT
  5
E5
  8
DATA
 62
     7
 10
-130.76387728733181
 20
-173.7191341232824
 30
0.0
 40
2.1717881944444439
  1
 AUDIO
 41
0.8
 11
-130.76387728733181
 21
-171.5473459288379
 31
0.0
 73
     3
  0
LINE
  5
E6
  8
DATA
  6
CONTINUOUS
 62
     7
 10
-149.99998999999991
 20
44.0
 30
0.0
 11
69.500010000000017
 21
44.0
 31
0.0
  0
LINE
  5
E7
  8
DATA
  6
CONTINUOUS
 62
     7
 10
-149.99998999999991
 20
-92.420000000000002
 30
0.0
 11
-149.99998999999991
 21
44.0
 31
0.0
  0
LINE
  5
E8
  8
DATA
  6
CONTINUOUS
 62
     7
 10
69.500010000000017
 20
-92.420000000000002
 30
0.0
 11
69.500010000000017
 21
44.0
 31
0.0
  0
LINE
  5
E9
  8
DATA
  6
CONTINUOUS
 62
     7
 10
-140.24999
 20
40.299999999999997
 30
0.0
 11
-140.24999
 21
-91.0
 31
0.0
  0
LINE
  5
EA
  8
DATA
  6
CONTINUOUS
 62
     7
 10
-140.24999
 20
-91.0
 30
0.0
 11
-140.24999
 21
40.300000000000011
 31
0.0
  0
LINE
  5
EB
  8
DATA
  6
CONTINUOUS
 62
     7
 10
59.750009999999961
 20
40.299999999999997
 30
0.0
 11
59.750009999999961
 21
-91.0
 31
0.0
  0
CIRCLE
  5
EC
  8
DATA
  6
CONTINUOUS
 62
     7
 10
-144.74999
 20
26.07000000000005
 30
0.0
 40
1.75
  0
CIRCLE
  5
ED
  8
DATA
  6
CONTINUOUS
 62
     7
 10
-144.74999
 20
-73.92999999999995
 30
0.0
 40
1.75
  0
CIRCLE
  5
EE
  8
DATA
  6
CONTINUOUS
 62
     7
 10
64.250009999999961
 20
26.07000000000005
 30
0.0
 40
1.75
  0
CIRCLE
  5
EF
  8
DATA
  6
CONTINUOUS
 62
     7
 10
64.250009999999961
 20
-73.92999999999995
 30
0.0
 40
1.75
  0
LINE
  5
F0
  8
DATA
  6
CONTINUOUS
 62
     7
 10
-7.9181964361620913
 20
123.6199408497743
 30
0.0
 11
-7.9181964361620913
 21
128.61994084977431
 31
0.0
  0
LINE
  5
F1
  8
DATA
  6
CONTINUOUS
 62
     7
 10
-2.9181964361620909
 20
127.8699408497743
 30
0.0
 11
-2.9181964361620909
 21
124.3699408497743
 31
0.0
  0
LINE
  5
F2
  8
DATA
  6
CONTINUOUS
 62
     7
 10
0.5817935638379055
 20
123.6199408497743
 30
0.0
 11
0.5817935638379055
 21
128.61994084977431
 31
0.0
  0
LINE
  5
F3
  8
DATA
  6
CONTINUOUS
 62
     7
 10
-7.9181964361620913
 20
128.61994084977431
 30
0.0
 11
0.5817935638379055
 21
128.61994084977431
 31
0.0
  0
LINE
  5
F4
  8
DATA
  6
CONTINUOUS
 62
     7
 10
-7.9181964361620913
 20
123.6199408497743
 30
0.0
 11
0.5817935638379055
 21
123.6199408497743
 31
0.0
  0
CIRCLE
  5
F5
  8
DATA
  6
CONTINUOUS
 62
     7
 10
20.036932146761291
 20
118.7209418747772
 30
0.0
 40
1.1900000000000051
  0
CIRCLE
  5
F6
  8
DATA
  6
CONTINUOUS
 62
     7
 10
24.236942146761312
 20
122.9209318747773
 30
0.0
 40
1.1899999999999971
  0
CIRCLE
  5
F7
  8
DATA
  6
CONTINUOUS
 62
     7
 10
28.436932146761318
 20
118.7209218747772
 30
0.0
 40
1.1900000000000071
  0
LINE
  5
F8
  8
DATA
  6
CONTINUOUS
 62
     7
 10
-3.9181964361620909
 20
124.3699408497743
 30
0.0
 11
-3.9181964361620909
 21
127.8699408497743
 31
0.0
  0
LINE
  5
F9
  8
DATA
  6
CONTINUOUS
 62
     7
 10
-4.9181964361620913
 20
124.3699408497743
 30
0.0
 11
-4.9181964361620913
 21
127.8699408497743
 31
0.0
  0
LINE
  5
FA
  8
DATA
  6
CONTINUOUS
 62
     7
 10
-5.9181964361620913
 20
124.3699408497743
 30
0.0
 11
-5.9181964361620913
 21
127.8699408497743
 31
0.0
  0
LINE
  5
FB
  8
DATA
  6
CONTINUOUS
 62
     7
 10
-6.9181964361620913
 20
124.3699408497743
 30
0.0
 11
-6.9181964361620913
 21
127.8699408497743
 31
0.0
  0
TEXT
  5
FC
  8
DATA
 62
     7
 10
-19.333848252487069
 20
135.27455646348281
 30
0.0
 40
2.1717881944444439
  1
HIGH Z
 50
180.0
 41
0.8
 72
     1
 11
-23.619510289524111
 21
133.10276826903831
 31
0.0
 73
     3
  0
TEXT
  5
FD
  8
DATA
 62
     7
 10
35.198062963672179
 20
133.72821362386421
 30
0.0
 40
2.1717881944444439
  1
BALANCED LOW Z
 50
180.0
 41
0.8
 72
     1
 11
23.731021297005508
 21
131.5564254294197
 31
0.0
 73
     3
  0
LINE
  5
FE
  8
DATA
  6
CONTINUOUS
 62
     7
 10
-3.6681964361620909
 20
123.6199408497743
 30
0.0
 11
-3.6681964361620909
 21
118.7209418747772
 31
0.0
  0
TEXT
  5
FF
  8
DATA
 62
     7
 10
2.5928352305045719
 20
122.6903594819187
 30
0.0
 40
2.1546875000000001
  1
MIC
 50
180.0
 41
0.8
 72
     1
 11
0.5817935638379055
 21
120.5356719819187
 31
0.0
 73
     3
  0
TEXT
  5
100
  8
DATA
 62
     7
 10
-5.0452797694954237
 20
122.6903594819187
 30
0.0
 40
2.1546875000000001
  1
LINE
 50
180.0
 41
0.8
 72
     1
 11
-7.9181964361620913
 21
120.5356719819187
 31
0.0
 73
     3
  0
LINE
  5
101
  8
DATA
  6
CONTINUOUS
 62
     7
 10
-2.9181964361620909
 20
124.3699408497743
 30
0.0
 11
-7.9181964361620913
 21
124.3699408497743
 31
0.0
  0
LINE
  5
102
  8
DATA
  6
CONTINUOUS
 62
     7
 10
-2.9181964361620909
 20
127.8699408497743
 30
0.0
 11
-7.9181964361620913
 21
127.8699408497743
 31
0.0
  0
CIRCLE
  5
103
  8
DATA
  6
CONTINUOUS
 62
     7
 10
24.236772146761279
 20
118.7209418747772
 30
0.0
 40
10.9
  0
CIRCLE
  5
104
  8
DATA
  6
CONTINUOUS
 62
     7
 10
49.204991476215888
 20
123.5809210222456
 30
0.0
 40
3.8499899999999911
  0
POLYLINE
  5
105
  8
DATA
  6
CONTINUOUS
 62
     7
 66
     1
 10
0.0
 20
0.0
 30
0.0
 70
     1
  0
VERTEX
  5
2C0
  8
DATA
  6
CONTINUOUS
 62
     7
 10
44.454851476215829
 20
120.8386210222456
 30
0.0
  0
VERTEX
  5
2C1
  8
DATA
  6
CONTINUOUS
 62
     7
 10
49.20483147621588
 20
118.0961010222457
 30
0.0
  0
VERTEX
  5
2C2
  8
DATA
  6
CONTINUOUS
 62
     7
 10
53.95497147621672
 20
120.8383310222456
 30
0.0
  0
VERTEX
  5
2C3
  8
DATA
  6
CONTINUOUS
 62
     7
 10
53.955171476216741
 20
126.3231510222456
 30
0.0
  0
VERTEX
  5
2C4
  8
DATA
  6
CONTINUOUS
 62
     7
 10
49.205161476215849
 20
129.06574102224559
 30
0.0
  0
VERTEX
  5
2C5
  8
DATA
  6
CONTINUOUS
 62
     7
 10
44.45502147621584
 20
126.3235110222456
 30
0.0
  0
SEQEND
  5
2C6
  8
DATA
  6
CONTINUOUS
 62
     7
  0
CIRCLE
  5
10E
  8
DATA
  6
CONTINUOUS
 62
     7
 10
49.204991476215888
 20
123.5809210222456
 30
0.0
 40
5.4447292862092764
  0
CIRCLE
  5
10F
  8
DATA
  6
CONTINUOUS
 62
     7
 10
49.204991476215888
 20
123.5809210222456
 30
0.0
 40
2.6499990719998299
  0
CIRCLE
  5
110
  8
DATA
  6
CONTINUOUS
 62
     7
 10
49.204991476215888
 20
123.5809210222456
 30
0.0
 40
1.0000118624296299
  0
LINE
  5
111
  8
DATA
  6
CONTINUOUS
 62
     7
 10
50.911106662188558
 20
131.84824224010339
 30
0.0
 11
52.911106662189027
 21
131.84824224010339
 31
0.0
  0
LINE
  5
112
  8
DATA
  6
CONTINUOUS
 62
     7
 10
49.126286662188377
 20
131.84824224010339
 30
0.0
 11
46.126286662188377
 21
131.84824224010339
 31
0.0
  0
ARC
  5
113
  8
DATA
  6
CONTINUOUS
 62
     7
 10
49.126286662188377
 20
131.84824224010339
 30
0.0
 40
1.784828398950423
 50
216.33976488686139
 51
149.53652214645771
  0
CIRCLE
  5
114
  8
DATA
  6
CONTINUOUS
 62
     7
 10
49.126286662188377
 20
131.84824224010339
 30
0.0
 40
0.6180214057781415
  0
TEXT
  5
115
  8
DATA
 62
     7
 10
45.243237334840721
 20
132.8562422401034
 30
0.0
 40
2.1546875000000001
  1
+
 50
180.0
 41
0.8
 72
     1
 11
44.668654001507377
 21
130.7015547401034
 31
0.0
 73
     3
  0
TEXT
  5
116
  8
DATA
 62
     7
 10
54.968804491033609
 20
132.80332774459259
 30
0.0
 40
2.1546875000000001
  1
-
 50
180.0
 41
0.8
 72
     1
 11
54.394221157700272
 21
130.6486402445926
 31
0.0
 73
     3
  0
TEXT
  5
117
  8
DATA
 62
     7
 10
53.842496193938487
 20
109.5268503271774
 30
0.0
 40
2.1717881944444439
  1
DC INPUT
 50
180.0
 41
0.8
 72
     1
 11
47.819403601345897
 21
107.355062132733
 31
0.0
 73
     3
  0
TEXT
  5
118
  8
DATA
 62
     7
 10
49.383091101345897
 20
112.34907254939959
 30
0.0
 40
2.1717881944444439
  1
   
 50
180.0
 41
0.8
 72
     1
 11
47.819403601345897
 21
110.17728435495521
 31
0.0
 73
     3
  0
TEXT
  5
119
  8
DATA
 62
     7
 10
56.134370065118333
 20
112.78697472792931
 30
0.0
 40
2.1717881944444439
  1
14-18V
 50
180.0
 41
0.8
 11
56.134370065118333
 21
110.6151865334848
 31
0.0
 73
     3
  0
TEXT
  5
11A
  8
DATA
 62
     7
 10
52.196424022180949
 20
116.2340570190709
 30
0.0
 40
2.1717881944444439
  1
550mA
 50
180.0
 41
0.8
 11
52.196424022180949
 21
114.0622688246264
 31
0.0
 73
     3
  0
LINE
  5
11B
  8
DATA
  6
CONTINUOUS
 62
     7
 10
46.038589809196353
 20
110.946338541586
 30
0.0
 11
40.788589809196353
 21
110.946338541586
 31
0.0
  0
LINE
  5
11C
  8
DATA
  6
CONTINUOUS
 62
     7
 10
46.108251666631489
 20
112.5147167458347
 30
0.0
 11
44.908251666631472
 21
112.5147167458347
 31
0.0
  0
LINE
  5
11D
  8
DATA
  6
CONTINUOUS
 62
     7
 10
44.108251666631489
 20
112.5147167458347
 30
0.0
 11
42.908251666631472
 21
112.5147167458347
 31
0.0
  0
LINE
  5
11E
  8
DATA
  6
CONTINUOUS
 62
     7
 10
42.108251666631489
 20
112.5147167458347
 30
0.0
 11
40.908251666631458
 21
112.5147167458347
 31
0.0
  0
CIRCLE
  5
11F
  8
DATA
  6
CONTINUOUS
 62
     7
 10
24.236772146761279
 20
118.7209418747772
 30
0.0
 40
8.1999999999999869
  0
ARC
  5
120
  8
DATA
  6
CONTINUOUS
 62
     7
 10
24.236772146761279
 20
118.7209418747772
 30
0.0
 40
8.0605771439618117
 50
248.14976323183839
 51
291.85023676816041
  0
LINE
  5
121
  8
DATA
  6
CONTINUOUS
 62
     7
 10
27.236772146761201
 20
111.2394377550323
 30
0.0
 11
27.28866279437181
 21
111.110031057074
 31
0.0
  0
LINE
  5
122
  8
DATA
  6
CONTINUOUS
 62
     7
 10
21.236772146761218
 20
111.2394377550324
 30
0.0
 11
21.170425118014279
 21
111.1158438544163
 31
0.0
  0
CIRCLE
  5
123
  8
DATA
  6
CONTINUOUS
 62
     7
 10
-127.3577894411159
 20
126.2267374670873
 30
0.0
 40
4.75
  0
POLYLINE
  5
124
  8
DATA
  6
CONTINUOUS
 62
     7
 66
     1
 10
0.0
 20
0.0
 30
0.0
 70
     1
  0
VERTEX
  5
2C7
  8
DATA
  6
CONTINUOUS
 62
     7
 10
-134.35804944111601
 20
122.1855674670873
 30
0.0
  0
VERTEX
  5
2C8
  8
DATA
  6
CONTINUOUS
 62
     7
 10
-127.3581594411159
 20
118.14383746708729
 30
0.0
  0
VERTEX
  5
2C9
  8
DATA
  6
CONTINUOUS
 62
     7
 10
-120.35790944111601
 20
122.1849174670873
 30
0.0
  0
VERTEX
  5
2CA
  8
DATA
  6
CONTINUOUS
 62
     7
 10
-120.357479441116
 20
130.26780746708741
 30
0.0
  0
VERTEX
  5
2CB
  8
DATA
  6
CONTINUOUS
 62
     7
 10
-127.3574294411159
 20
134.30963746708741
 30
0.0
  0
VERTEX
  5
2CC
  8
DATA
  6
CONTINUOUS
 62
     7
 10
-134.35768944111601
 20
130.2685474670873
 30
0.0
  0
SEQEND
  5
2CD
  8
DATA
  6
CONTINUOUS
 62
     7
  0
CIRCLE
  5
12D
  8
DATA
  6
CONTINUOUS
 62
     7
 10
-127.3577894411159
 20
126.2267374670873
 30
0.0
 40
8.0829000080169333
  0
CIRCLE
  5
12E
  8
DATA
  6
CONTINUOUS
 62
     7
 10
-127.3577894411159
 20
126.2267374670873
 30
0.0
 40
2.249997550309804
  0
CIRCLE
  5
12F
  8
DATA
  6
CONTINUOUS
 62
     7
 10
-127.3577894411159
 20
126.2267374670873
 30
0.0
 40
1.0
  0
LINE
  5
130
  8
DATA
  6
CONTINUOUS
 62
     7
 10
-128.3577894411159
 20
123.7111774670873
 30
0.0
 11
-128.3577894411159
 21
124.2111774670873
 31
0.0
  0
LINE
  5
131
  8
DATA
  6
CONTINUOUS
 62
     7
 10
-126.3577894411159
 20
123.7111774670873
 30
0.0
 11
-126.3577894411159
 21
124.2111774670873
 31
0.0
  0
LINE
  5
132
  8
DATA
  6
CONTINUOUS
 62
     7
 10
-128.3577894411159
 20
123.7111774670873
 30
0.0
 11
-126.3577894411159
 21
123.7111774670873
 31
0.0
  0
LINE
  5
133
  8
DATA
  6
CONTINUOUS
 62
     7
 10
-128.3577894411159
 20
128.74229746708741
 30
0.0
 11
-128.3577894411159
 21
128.24229746708741
 31
0.0
  0
LINE
  5
134
  8
DATA
  6
CONTINUOUS
 62
     7
 10
-126.3577894411159
 20
128.74229746708741
 30
0.0
 11
-126.3577894411159
 21
128.24229746708741
 31
0.0
  0
LINE
  5
135
  8
DATA
  6
CONTINUOUS
 62
     7
 10
-128.3577894411159
 20
128.74229746708741
 30
0.0
 11
-126.3577894411159
 21
128.74229746708741
 31
0.0
  0
CIRCLE
  5
136
  8
DATA
  6
CONTINUOUS
 62
     7
 10
-23.76237302276045
 20
126.1788228063059
 30
0.0
 40
6.5
  0
CIRCLE
  5
137
  8
DATA
  6
CONTINUOUS
 62
     7
 10
-23.76237302276045
 20
126.1081197475456
 30
0.0
 40
3.1500000000000048
  0
CIRCLE
  5
138
  8
DATA
  6
CONTINUOUS
 62
     7
 10
-23.76237302276045
 20
126.1788228063059
 30
0.0
 40
5.2249999999999934
  0
CIRCLE
  5
139
  8
DATA
  6
CONTINUOUS
 62
     7
 10
-44.309610525213557
 20
126.1417947719446
 30
0.0
 40
4.7500000000000844
  0
POLYLINE
  5
13A
  8
DATA
  6
CONTINUOUS
 62
     7
 66
     1
 10
0.0
 20
0.0
 30
0.0
 70
     1
  0
VERTEX
  5
2CE
  8
DATA
  6
CONTINUOUS
 62
     7
 10
-51.309870525213661
 20
122.1006247719446
 30
0.0
  0
VERTEX
  5
2CF
  8
DATA
  6
CONTINUOUS
 62
     7
 10
-44.309980525213589
 20
118.05889477194459
 30
0.0
  0
VERTEX
  5
2D0
  8
DATA
  6
CONTINUOUS
 62
     7
 10
-37.309730525213368
 20
122.0999747719446
 30
0.0
  0
VERTEX
  5
2D1
  8
DATA
  6
CONTINUOUS
 62
     7
 10
-37.309300525213366
 20
130.18286477194459
 30
0.0
  0
VERTEX
  5
2D2
  8
DATA
  6
CONTINUOUS
 62
     7
 10
-44.309250525213557
 20
134.2246947719446
 30
0.0
  0
VERTEX
  5
2D3
  8
DATA
  6
CONTINUOUS
 62
     7
 10
-51.309510525213668
 20
130.1836047719446
 30
0.0
  0
SEQEND
  5
2D4
  8
DATA
  6
CONTINUOUS
 62
     7
  0
CIRCLE
  5
143
  8
DATA
  6
CONTINUOUS
 62
     7
 10
-44.309610525213557
 20
126.1417947719446
 30
0.0
 40
8.0829000080169333
  0
CIRCLE
  5
144
  8
DATA
  6
CONTINUOUS
 62
     7
 10
-44.309610525213557
 20
126.1417947719446
 30
0.0
 40
2.2499975503098741
  0
CIRCLE
  5
145
  8
DATA
  6
CONTINUOUS
 62
     7
 10
-44.309610525213557
 20
126.1417947719446
 30
0.0
 40
1.0
  0
LINE
  5
146
  8
DATA
  6
CONTINUOUS
 62
     7
 10
-45.309610525213643
 20
123.6262347719446
 30
0.0
 11
-45.309610525213643
 21
124.1262347719446
 31
0.0
  0
LINE
  5
147
  8
DATA
  6
CONTINUOUS
 62
     7
 10
-43.3096105252135
 20
123.6262347719446
 30
0.0
 11
-43.3096105252135
 21
124.1262347719446
 31
0.0
  0
LINE
  5
148
  8
DATA
  6
CONTINUOUS
 62
     7
 10
-45.309610525213643
 20
123.6262347719446
 30
0.0
 11
-43.3096105252135
 21
123.6262347719446
 31
0.0
  0
LINE
  5
149
  8
DATA
  6
CONTINUOUS
 62
     7
 10
-45.309610525213643
 20
128.6573547719446
 30
0.0
 11
-45.309610525213643
 21
128.1573547719446
 31
0.0
  0
LINE
  5
14A
  8
DATA
  6
CONTINUOUS
 62
     7
 10
-43.3096105252135
 20
128.6573547719446
 30
0.0
 11
-43.3096105252135
 21
128.1573547719446
 31
0.0
  0
LINE
  5
14B
  8
DATA
  6
CONTINUOUS
 62
     7
 10
-45.309610525213643
 20
128.6573547719446
 30
0.0
 11
-43.3096105252135
 21
128.6573547719446
 31
0.0
  0
LINE
  5
14C
  8
DATA
  6
CONTINUOUS
 62
     7
 10
69.500010000000017
 20
36.0
 30
0.0
 11
69.500010000000017
 21
44.0
 31
0.0
  0
LINE
  5
14D
  8
DATA
  6
CONTINUOUS
 62
     7
 10
-122.61135817592201
 20
44.699989999999993
 30
0.0
 11
-122.61135817592201
 21
55.999999999999993
 31
0.0
  0
LINE
  5
14E
  8
DATA
  6
CONTINUOUS
 62
     7
 10
-132.11135817592211
 20
44.699989999999993
 30
0.0
 11
-132.11135817592211
 21
55.999999999999993
 31
0.0
  0
LINE
  5
14F
  8
DATA
  6
CONTINUOUS
 62
     7
 10
-132.11135817592211
 20
55.999999999999993
 30
0.0
 11
-122.61135817592201
 21
55.999999999999993
 31
0.0
  0
CIRCLE
  5
150
  8
DATA
  6
CONTINUOUS
 62
     7
 10
-127.36135817592201
 20
51.79999999999999
 30
0.0
 40
1.000005433035241
  0
LINE
  5
151
  8
DATA
  6
CONTINUOUS
 62
     7
 10
-133.36135817592199
 20
44.350000000000009
 30
0.0
 11
-121.36135817592201
 21
44.350000000000009
 31
0.0
  0
LINE
  5
152
  8
DATA
  6
CONTINUOUS
 62
     7
 10
-133.36135817592199
 20
44.350000000000009
 30
0.0
 11
-133.36135817592199
 21
44.0
 31
0.0
  0
LINE
  5
153
  8
DATA
  6
CONTINUOUS
 62
     7
 10
-121.36135817592201
 20
44.350000000000009
 30
0.0
 11
-121.36135817592201
 21
44.0
 31
0.0
  0
LINE
  5
154
  8
DATA
  6
CONTINUOUS
 62
     7
 10
-122.61135817592201
 20
44.699989999999993
 30
0.0
 11
-122.61135817592201
 21
44.350000000000009
 31
0.0
  0
LINE
  5
155
  8
DATA
  6
CONTINUOUS
 62
     7
 10
-132.11135817592211
 20
44.699989999999993
 30
0.0
 11
-132.11135817592211
 21
44.350000000000009
 31
0.0
  0
LINE
  5
156
  8
DATA
  6
CONTINUOUS
 62
     7
 10
-28.961690710751341
 20
50.0
 30
0.0
 11
-18.511690710751349
 21
50.0
 31
0.0
  0
LINE
  5
157
  8
DATA
  6
CONTINUOUS
 62
     7
 10
-30.736690710751361
 20
45.0
 30
0.0
 11
-16.73669071075134
 21
45.0
 31
0.0
  0
LINE
  5
158
  8
DATA
  6
CONTINUOUS
 62
     7
 10
-28.961690710751341
 20
50.0
 30
0.0
 11
-28.961690710751341
 21
45.0
 31
0.0
  0
LINE
  5
159
  8
DATA
  6
CONTINUOUS
 62
     7
 10
-18.511690710751349
 20
50.0
 30
0.0
 11
-18.511690710751349
 21
45.0
 31
0.0
  0
LINE
  5
15A
  8
DATA
  6
CONTINUOUS
 62
     7
 10
-30.736690710751361
 20
45.0
 30
0.0
 11
-30.736690710751361
 21
44.0
 31
0.0
  0
LINE
  5
15B
  8
DATA
  6
CONTINUOUS
 62
     7
 10
-16.73669071075134
 20
45.0
 30
0.0
 11
-16.73669071075134
 21
44.0
 31
0.0
  0
LINE
  5
15C
  8
DATA
  6
CONTINUOUS
 62
     7
 10
-7.9448079575586092
 20
46.063794524330547
 30
0.0
 11
-2.9448079575586079
 21
46.063794524330547
 31
0.0
  0
LINE
  5
15D
  8
DATA
  6
CONTINUOUS
 62
     7
 10
-7.9448079575586092
 20
46.063794524330547
 30
0.0
 11
-7.9448079575586092
 21
44.0
 31
0.0
  0
LINE
  5
15E
  8
DATA
  6
CONTINUOUS
 62
     7
 10
-2.9448079575586079
 20
46.063794524330547
 30
0.0
 11
-2.9448079575586079
 21
44.0
 31
0.0
  0
TEXT
  5
15F
  8
DATA
 62
     7
 10
2.351191705947552
 20
109.0178773287242
 30
0.0
 40
2.1546875000000001
  1
OUTPUTS
 50
180.0
 41
0.8
 72
     1
 11
-3.3946416273857798
 21
106.8631898287242
 31
0.0
 73
     3
  0
TEXT
  5
160
  8
DATA
 62
     7
 10
-21.66832304956344
 20
118.0437936914785
 30
0.0
 40
2.1717881944444439
  1
AUX
 50
180.0
 41
0.8
 72
     1
 11
-23.984897123637509
 21
115.8720054970341
 31
0.0
 73
     3
  0
TEXT
  5
161
  8
DATA
 62
     7
 10
-35.789611008941669
 20
109.57745436564289
 30
0.0
 40
2.1717881944444439
  1
ANTENNA B IN
 50
180.0
 41
0.8
 72
     1
 11
-44.94007860153426
 21
107.4056661711985
 31
0.0
 73
     3
  0
TEXT
  5
162
  8
DATA
 62
     7
 10
-33.053303413961423
 20
113.1353716055318
 30
0.0
 40
2.1717881944444439
  1
12V
 50
180.0
 41
0.8
 72
     1
 11
-35.369877488035492
 21
110.9635834110873
 31
0.0
 73
     3
  0
TEXT
  5
163
  8
DATA
 62
     7
 10
-42.89399600442492
 20
113.0961866638751
 30
0.0
 40
2.1717881944444439
  1
75mA OUT
 50
180.0
 41
0.8
 72
     1
 11
-49.206660356276771
 21
110.9243984694306
 31
0.0
 73
     3
  0
TEXT
  5
164
  8
DATA
 62
     7
 10
-35.611493129691581
 20
116.4271111111111
 30
0.0
 40
2.1717881944444439
  1
OUT CLASS II
 50
180.0
 41
0.8
 72
     1
 11
-44.472388963024898
 21
114.2553229166667
 31
0.0
 73
     3
  0
LINE
  5
165
  8
DATA
  6
CONTINUOUS
 62
     7
 10
-38.183149452976338
 20
111.32930742479959
 30
0.0
 11
-43.433149452976792
 21
111.32930742479959
 31
0.0
  0
LINE
  5
166
  8
DATA
  6
CONTINUOUS
 62
     7
 10
-38.113487595541208
 20
112.8976856290482
 30
0.0
 11
-39.313487595541218
 21
112.8976856290482
 31
0.0
  0
LINE
  5
167
  8
DATA
  6
CONTINUOUS
 62
     7
 10
-40.113487595541223
 20
112.8976856290482
 30
0.0
 11
-41.313487595541361
 21
112.8976856290482
 31
0.0
  0
LINE
  5
168
  8
DATA
  6
CONTINUOUS
 62
     7
 10
-42.11348759554145
 20
112.8976856290482
 30
0.0
 11
-43.313487595541652
 21
112.8976856290482
 31
0.0
  0
LINE
  5
169
  8
DATA
  6
CONTINUOUS
 62
     7
 10
-139.1999899999999
 20
-164.49999
 30
0.0
 11
2.8000100000000279
 21
-164.49999
 31
0.0
  0
LINE
  5
16A
  8
DATA
  6
CONTINUOUS
 62
     7
 10
-139.1999899999999
 20
-193.49999
 30
0.0
 11
2.8000100000000279
 21
-193.49999
 31
0.0
  0
LINE
  5
16B
  8
DATA
  6
CONTINUOUS
 62
     7
 10
-141.1999899999999
 20
-191.49999
 30
0.0
 11
-141.1999899999999
 21
-166.49998999999991
 31
0.0
  0
LINE
  5
16C
  8
DATA
  6
CONTINUOUS
 62
     7
 10
4.8000100000000279
 20
-191.49999
 30
0.0
 11
4.8000100000000279
 21
-166.49998999999991
 31
0.0
  0
ARC
  5
16D
  8
DATA
  6
CONTINUOUS
 62
     7
 10
-139.1999899999999
 20
-191.49999
 30
0.0
 40
2.0
 50
180.0
 51
270.0
  0
ARC
  5
16E
  8
DATA
  6
CONTINUOUS
 62
     7
 10
-139.1999899999999
 20
-166.49998999999991
 30
0.0
 40
2.0
 50
90.0
 51
180.0
  0
ARC
  5
16F
  8
DATA
  6
CONTINUOUS
 62
     7
 10
2.8000100000000279
 20
-166.49998999999991
 30
0.0
 40
2.0
 50
0.0
 51
90.0
  0
ARC
  5
170
  8
DATA
  6
CONTINUOUS
 62
     7
 10
2.8000100000000279
 20
-191.49999
 30
0.0
 40
2.0
 50
270.0
 51
0.0
  0
LINE
  5
171
  8
DATA
  6
CONTINUOUS
 62
     7
 10
-108.79998999999999
 20
-187.10306946306059
 30
0.0
 11
-55.799990000000001
 21
-187.10306946306059
 31
0.0
  0
LINE
  5
172
  8
DATA
  6
CONTINUOUS
 62
     7
 10
-108.79998999999999
 20
-169.7030694630607
 30
0.0
 11
-55.799990000000001
 21
-169.7030694630607
 31
0.0
  0
LINE
  5
173
  8
DATA
  6
CONTINUOUS
 62
     7
 10
-112.29998999999999
 20
-183.60306946306059
 30
0.0
 11
-112.29998999999999
 21
-173.2030694630607
 31
0.0
  0
LINE
  5
174
  8
DATA
  6
CONTINUOUS
 62
     7
 10
-52.299990000000001
 20
-183.60306946306059
 30
0.0
 11
-52.299990000000001
 21
-173.2030694630607
 31
0.0
  0
ARC
  5
175
  8
DATA
  6
CONTINUOUS
 62
     7
 10
-108.79998999999999
 20
-183.60306946306059
 30
0.0
 40
3.5
 50
180.0
 51
270.0
  0
ARC
  5
176
  8
DATA
  6
CONTINUOUS
 62
     7
 10
-108.79998999999999
 20
-173.2030694630607
 30
0.0
 40
3.5
 50
90.0
 51
180.0
  0
ARC
  5
177
  8
DATA
  6
CONTINUOUS
 62
     7
 10
-55.799990000000001
 20
-173.2030694630607
 30
0.0
 40
3.5
 50
0.0
 51
90.0
  0
ARC
  5
178
  8
DATA
  6
CONTINUOUS
 62
     7
 10
-55.799990000000001
 20
-183.60306946306059
 30
0.0
 40
3.5
 50
270.0
 51
0.0
  0
LINE
  5
179
  8
DATA
  6
CONTINUOUS
 62
     7
 10
-4.6999899999999712
 20
-169.54998999999989
 30
0.0
 11
-4.6999899999999712
 21
-188.44999000000001
 31
0.0
  0
LINE
  5
17A
  8
DATA
  6
CONTINUOUS
 62
     7
 10
-16.999989999999961
 20
-169.54998999999989
 30
0.0
 11
-16.999989999999961
 21
-188.44999000000001
 31
0.0
  0
LINE
  5
17B
  8
DATA
  6
CONTINUOUS
 62
     7
 10
-6.6999899999999712
 20
-190.44999000000001
 30
0.0
 11
-14.99998999999997
 21
-190.44999000000001
 31
0.0
  0
LINE
  5
17C
  8
DATA
  6
CONTINUOUS
 62
     7
 10
-14.99998999999997
 20
-167.54998999999989
 30
0.0
 11
-6.6999899999999712
 21
-167.54998999999989
 31
0.0
  0
LINE
  5
17D
  8
DATA
  6
CONTINUOUS
 62
     7
 10
-4.6999899999999712
 20
-182.97998999999999
 30
0.0
 11
-16.999989999999961
 21
-182.97998999999999
 31
0.0
  0
LINE
  5
17E
  8
DATA
  6
CONTINUOUS
 62
     7
 10
-4.6999899999999712
 20
-175.01998999999989
 30
0.0
 11
-16.999989999999961
 21
-175.01998999999989
 31
0.0
  0
LINE
  5
17F
  8
DATA
  6
CONTINUOUS
 62
     7
 10
-4.6999899999999712
 20
-181.68998999999999
 30
0.0
 11
-16.999989999999961
 21
-181.68998999999999
 31
0.0
  0
LINE
  5
180
  8
DATA
  6
CONTINUOUS
 62
     7
 10
-4.6999899999999712
 20
-176.30999
 30
0.0
 11
-16.999989999999961
 21
-176.30999
 31
0.0
  0
LINE
  5
181
  8
DATA
  6
CONTINUOUS
 62
     7
 10
-4.6999899999999712
 20
-184.34498999999991
 30
0.0
 11
-16.999989999999961
 21
-184.34498999999991
 31
0.0
  0
LINE
  5
182
  8
DATA
  6
CONTINUOUS
 62
     7
 10
-4.6999899999999712
 20
-173.65498999999991
 30
0.0
 11
-16.999989999999961
 21
-173.65498999999991
 31
0.0
  0
LINE
  5
183
  8
DATA
  6
CONTINUOUS
 62
     7
 10
-4.6999899999999712
 20
-185.6399899999999
 30
0.0
 11
-16.999989999999961
 21
-185.6399899999999
 31
0.0
  0
LINE
  5
184
  8
DATA
  6
CONTINUOUS
 62
     7
 10
-4.6999899999999712
 20
-172.3599899999999
 30
0.0
 11
-16.999989999999961
 21
-172.3599899999999
 31
0.0
  0
LINE
  5
185
  8
DATA
  6
CONTINUOUS
 62
     7
 10
-4.6999899999999712
 20
-186.99999
 30
0.0
 11
-16.999989999999961
 21
-186.99999
 31
0.0
  0
LINE
  5
186
  8
DATA
  6
CONTINUOUS
 62
     7
 10
-4.6999899999999712
 20
-170.99998999999991
 30
0.0
 11
-16.999989999999961
 21
-170.99998999999991
 31
0.0
  0
LINE
  5
187
  8
DATA
  6
CONTINUOUS
 62
     7
 10
-4.6999899999999712
 20
-188.24999
 30
0.0
 11
-16.999989999999961
 21
-188.24999
 31
0.0
  0
LINE
  5
188
  8
DATA
  6
CONTINUOUS
 62
     7
 10
-4.6999899999999712
 20
-169.74998999999991
 30
0.0
 11
-16.999989999999961
 21
-169.74998999999991
 31
0.0
  0
ARC
  5
189
  8
DATA
  6
CONTINUOUS
 62
     7
 10
-14.99998999999997
 20
-169.54998999999989
 30
0.0
 40
2.0
 50
90.0
 51
180.0
  0
ARC
  5
18A
  8
DATA
  6
CONTINUOUS
 62
     7
 10
-6.6999899999999712
 20
-169.54998999999989
 30
0.0
 40
2.0
 50
0.0
 51
90.0
  0
ARC
  5
18B
  8
DATA
  6
CONTINUOUS
 62
     7
 10
-14.99998999999997
 20
-188.44999000000001
 30
0.0
 40
2.0
 50
180.0
 51
270.0
  0
ARC
  5
18C
  8
DATA
  6
CONTINUOUS
 62
     7
 10
-6.6999899999999712
 20
-188.44999000000001
 30
0.0
 40
2.0
 50
270.0
 51
0.0
  0
LINE
  5
18D
  8
DATA
  6
CONTINUOUS
 62
     7
 10
-35.599989999999977
 20
-169.54998999999989
 30
0.0
 11
-35.599989999999977
 21
-175.7349899999999
 31
0.0
  0
LINE
  5
18E
  8
DATA
  6
CONTINUOUS
 62
     7
 10
-35.599989999999977
 20
-182.2649899999999
 30
0.0
 11
-35.599989999999977
 21
-188.44999000000001
 31
0.0
  0
LINE
  5
18F
  8
DATA
  6
CONTINUOUS
 62
     7
 10
-23.399989999999971
 20
-169.54998999999989
 30
0.0
 11
-23.399989999999971
 21
-175.7349899999999
 31
0.0
  0
LINE
  5
190
  8
DATA
  6
CONTINUOUS
 62
     7
 10
-23.399989999999971
 20
-182.2649899999999
 30
0.0
 11
-23.399989999999971
 21
-188.44999000000001
 31
0.0
  0
LINE
  5
191
  8
DATA
  6
CONTINUOUS
 62
     7
 10
-12.5
 20
-167.54998999999989
 30
0.0
 11
-14.99998999999997
 21
-167.54998999999989
 31
0.0
  0
LINE
  5
192
  8
DATA
  6
CONTINUOUS
 62
     7
 10
-25.399989999999971
 20
-167.54998999999989
 30
0.0
 11
-33.599989999999977
 21
-167.54998999999989
 31
0.0
  0
LINE
  5
193
  8
DATA
  6
CONTINUOUS
 62
     7
 10
-11.9
 20
-190.44999000000001
 30
0.0
 11
-14.99998999999997
 21
-190.44999000000001
 31
0.0
  0
LINE
  5
194
  8
DATA
  6
CONTINUOUS
 62
     7
 10
-25.399989999999971
 20
-190.44999000000001
 30
0.0
 11
-33.599989999999977
 21
-190.44999000000001
 31
0.0
  0
LINE
  5
195
  8
DATA
  6
CONTINUOUS
 62
     7
 10
-35.599989999999977
 20
-175.7349899999999
 30
0.0
 11
-23.399989999999971
 21
-175.7349899999999
 31
0.0
  0
LINE
  5
196
  8
DATA
  6
CONTINUOUS
 62
     7
 10
-23.399989999999971
 20
-182.2649899999999
 30
0.0
 11
-35.599989999999977
 21
-182.2649899999999
 31
0.0
  0
ARC
  5
197
  8
DATA
  6
CONTINUOUS
 62
     7
 10
-33.599989999999977
 20
-169.54998999999989
 30
0.0
 40
2.0
 50
90.0
 51
180.0
  0
ARC
  5
198
  8
DATA
  6
CONTINUOUS
 62
     7
 10
-25.399989999999971
 20
-169.54998999999989
 30
0.0
 40
2.0
 50
0.0
 51
90.0
  0
ARC
  5
199
  8
DATA
  6
CONTINUOUS
 62
     7
 10
-33.599989999999977
 20
-188.44999000000001
 30
0.0
 40
2.0
 50
180.0
 51
270.0
  0
ARC
  5
19A
  8
DATA
  6
CONTINUOUS
 62
     7
 10
-25.399989999999971
 20
-188.44999000000001
 30
0.0
 40
2.0
 50
270.0
 51
0.0
  0
LINE
  5
19B
  8
DATA
  6
CONTINUOUS
 62
     7
 10
-36.209989999999991
 20
-169.3407399999999
 30
0.0
 11
-36.209989999999991
 21
-176.14423999999991
 31
0.0
  0
LINE
  5
19C
  8
DATA
  6
CONTINUOUS
 62
     7
 10
-22.789989999999971
 20
-169.3407399999999
 30
0.0
 11
-22.789989999999971
 21
-176.14423999999991
 31
0.0
  0
LINE
  5
19D
  8
DATA
  6
CONTINUOUS
 62
     7
 10
-24.989989999999981
 20
-167.14073999999999
 30
0.0
 11
-34.009989999999974
 21
-167.14073999999999
 31
0.0
  0
LINE
  5
19E
  8
DATA
  6
CONTINUOUS
 62
     7
 10
-36.209989999999991
 20
-176.14423999999991
 30
0.0
 11
-22.789989999999971
 21
-176.14423999999991
 31
0.0
  0
ARC
  5
19F
  8
DATA
  6
CONTINUOUS
 62
     7
 10
-34.009989999999974
 20
-169.3407399999999
 30
0.0
 40
2.1999999999999882
 50
90.0
 51
180.0
  0
ARC
  5
1A0
  8
DATA
  6
CONTINUOUS
 62
     7
 10
-24.989989999999981
 20
-169.3407399999999
 30
0.0
 40
2.200000000000002
 50
0.0
 51
90.0
  0
LINE
  5
1A1
  8
DATA
  6
CONTINUOUS
 62
     7
 10
-36.209989999999991
 20
-181.85574
 30
0.0
 11
-36.209989999999991
 21
-188.6592399999999
 31
0.0
  0
LINE
  5
1A2
  8
DATA
  6
CONTINUOUS
 62
     7
 10
-22.789989999999971
 20
-181.85574
 30
0.0
 11
-22.789989999999971
 21
-188.6592399999999
 31
0.0
  0
LINE
  5
1A3
  8
DATA
  6
CONTINUOUS
 62
     7
 10
-24.989989999999981
 20
-190.85924
 30
0.0
 11
-34.009989999999974
 21
-190.85924
 31
0.0
  0
LINE
  5
1A4
  8
DATA
  6
CONTINUOUS
 62
     7
 10
-22.789989999999971
 20
-181.85574
 30
0.0
 11
-36.209989999999991
 21
-181.85574
 31
0.0
  0
ARC
  5
1A5
  8
DATA
  6
CONTINUOUS
 62
     7
 10
-34.009989999999974
 20
-188.6592399999999
 30
0.0
 40
2.2000000000000162
 50
180.0
 51
270.0
  0
ARC
  5
1A6
  8
DATA
  6
CONTINUOUS
 62
     7
 10
-24.989989999999981
 20
-188.6592399999999
 30
0.0
 40
2.1999999999999882
 50
270.0
 51
0.0
  0
LINE
  5
1A7
  8
DATA
  6
CONTINUOUS
 62
     7
 10
-4.0849899999999764
 20
-168.60498999999999
 30
0.0
 11
-4.0849899999999764
 21
-189.39498999999989
 31
0.0
  0
LINE
  5
1A8
  8
DATA
  6
CONTINUOUS
 62
     7
 10
-17.61498999999996
 20
-168.60498999999999
 30
0.0
 11
-17.61498999999996
 21
-189.39498999999989
 31
0.0
  0
LINE
  5
1A9
  8
DATA
  6
CONTINUOUS
 62
     7
 10
-6.2849899999999641
 20
-191.59499
 30
0.0
 11
-15.414989999999969
 21
-191.59499
 31
0.0
  0
LINE
  5
1AA
  8
DATA
  6
CONTINUOUS
 62
     7
 10
-15.414989999999969
 20
-166.40499
 30
0.0
 11
-6.2849899999999641
 21
-166.40499
 31
0.0
  0
ARC
  5
1AB
  8
DATA
  6
CONTINUOUS
 62
     7
 10
-15.414989999999969
 20
-168.60498999999999
 30
0.0
 40
2.1999999999999882
 50
90.0
 51
180.0
  0
ARC
  5
1AC
  8
DATA
  6
CONTINUOUS
 62
     7
 10
-6.2849899999999641
 20
-168.60498999999999
 30
0.0
 40
2.1999999999999882
 50
0.0
 51
90.0
  0
ARC
  5
1AD
  8
DATA
  6
CONTINUOUS
 62
     7
 10
-15.414989999999969
 20
-189.39498999999989
 30
0.0
 40
2.1999999999999882
 50
180.0
 51
270.0
  0
ARC
  5
1AE
  8
DATA
  6
CONTINUOUS
 62
     7
 10
-6.2849899999999641
 20
-189.39498999999989
 30
0.0
 40
2.1999999999999882
 50
270.0
 51
0.0
  0
TEXT
  5
1AF
  8
DATA
 62
     7
 10
-44.706064483803182
 20
-172.6243368879307
 30
0.0
 40
2.1717881944444439
  1
MODE
 41
0.8
 11
-44.706064483803182
 21
-170.45254869348619
 31
0.0
 73
     3
  0
TEXT
  5
1B0
  8
DATA
 62
     7
 10
-43.944193534918
 20
-186.48014335301269
 30
0.0
 40
2.1717881944444439
  1
SET
 41
0.8
 11
-43.944193534918
 21
-184.3083551585683
 31
0.0
 73
     3
  0
LINE
  5
1B1
  8
DATA
  6
CONTINUOUS
 62
     7
 10
-2.031799847109482
 20
-173.50999999999999
 30
0.0
 11
-0.2167998471094705
 21
-171.09
 31
0.0
  0
LINE
  5
1B2
  8
DATA
  6
CONTINUOUS
 62
     7
 10
1.598200152890541
 20
-173.50999999999999
 30
0.0
 11
-0.2167998471094705
 21
-171.09
 31
0.0
  0
LINE
  5
1B3
  8
DATA
  6
CONTINUOUS
 62
     7
 10
-2.031799847109482
 20
-183.99253361363239
 30
0.0
 11
-0.2167998471094705
 21
-186.41253361363241
 31
0.0
  0
LINE
  5
1B4
  8
DATA
  6
CONTINUOUS
 62
     7
 10
1.598200152890541
 20
-183.99253361363239
 30
0.0
 11
-0.2167998471094705
 21
-186.41253361363241
 31
0.0
  0
LINE
  5
1B5
  8
DATA
  6
CONTINUOUS
 62
     7
 10
-147.49999
 20
-107.0
 30
0.0
 11
-112.29998999999999
 21
-107.0
 31
0.0
  0
LINE
  5
1B6
  8
DATA
  6
CONTINUOUS
 62
     7
 10
-52.299990000000001
 20
-107.0
 30
0.0
 11
67.000010000000017
 21
-107.0
 31
0.0
  0
LINE
  5
1B7
  8
DATA
  6
CONTINUOUS
 62
     7
 10
-149.99998999999991
 20
-94.0
 30
0.0
 11
69.500010000000017
 21
-94.0
 31
0.0
  0
LINE
  5
1B8
  8
DATA
  6
CONTINUOUS
 62
     7
 10
-149.99998999999991
 20
-95.5
 30
0.0
 11
69.500010000000017
 21
-95.5
 31
0.0
  0
LINE
  5
1B9
  8
DATA
  6
CONTINUOUS
 62
     7
 10
-149.99998999999991
 20
-92.420000000000002
 30
0.0
 11
-149.99998999999991
 21
-94.0
 31
0.0
  0
LINE
  5
1BA
  8
DATA
  6
CONTINUOUS
 62
     7
 10
-149.99998999999991
 20
-95.5
 30
0.0
 11
-149.99998999999991
 21
-104.5
 31
0.0
  0
LINE
  5
1BB
  8
DATA
  6
CONTINUOUS
 62
     7
 10
-140.24999
 20
-91.0
 30
0.0
 11
-140.24999
 21
-92.450000000000003
 31
0.0
  0
LINE
  5
1BC
  8
DATA
  6
CONTINUOUS
 62
     7
 10
69.500010000000017
 20
-92.420000000000002
 30
0.0
 11
69.500010000000017
 21
-94.0
 31
0.0
  0
LINE
  5
1BD
  8
DATA
  6
CONTINUOUS
 62
     7
 10
69.500010000000017
 20
-95.5
 30
0.0
 11
69.500010000000017
 21
-104.5
 31
0.0
  0
LINE
  5
1BE
  8
DATA
  6
CONTINUOUS
 62
     7
 10
59.750009999999961
 20
-91.0
 30
0.0
 11
59.750009999999961
 21
-92.450000000000003
 31
0.0
  0
LINE
  5
1BF
  8
DATA
  6
CONTINUOUS
 62
     7
 10
-149.99998999999991
 20
40.299999999999997
 30
0.0
 11
-140.24999
 21
40.299999999999997
 31
0.0
  0
LINE
  5
1C0
  8
DATA
  6
CONTINUOUS
 62
     7
 10
59.750009999999961
 20
40.299999999999997
 30
0.0
 11
69.500010000000017
 21
40.299999999999997
 31
0.0
  0
LINE
  5
1C1
  8
DATA
  6
CONTINUOUS
 62
     7
 10
69.20001000000002
 20
-95.5
 30
0.0
 11
69.20001000000002
 21
-94.0
 31
0.0
  0
LINE
  5
1C2
  8
DATA
  6
CONTINUOUS
 62
     7
 10
-149.6999899999999
 20
-95.5
 30
0.0
 11
-149.6999899999999
 21
-94.0
 31
0.0
  0
LINE
  5
1C3
  8
DATA
  6
CONTINUOUS
 62
     7
 10
-145.35397310958629
 20
142.0
 30
0.0
 11
64.853973109586448
 21
142.0
 31
0.0
  0
LINE
  5
1C4
  8
DATA
  6
CONTINUOUS
 62
     7
 10
-145.35397310958629
 20
100.0
 30
0.0
 11
64.853973109586448
 21
100.0
 31
0.0
  0
LINE
  5
1C5
  8
DATA
  6
CONTINUOUS
 62
     7
 10
68.850893377463521
 20
103.8430657072735
 30
0.0
 11
69.500000000000043
 21
120.375
 31
0.0
  0
LINE
  5
1C6
  8
DATA
  6
CONTINUOUS
 62
     7
 10
69.500000000000043
 20
121.625
 30
0.0
 11
68.850893377463521
 21
138.1569342927265
 31
0.0
  0
LINE
  5
1C7
  8
DATA
  6
CONTINUOUS
 62
     7
 10
-149.99999999999989
 20
120.375
 30
0.0
 11
-149.35089337746339
 21
103.8430657072735
 31
0.0
  0
LINE
  5
1C8
  8
DATA
  6
CONTINUOUS
 62
     7
 10
-149.99999999999989
 20
121.625
 30
0.0
 11
-149.35089337746339
 21
138.1569342927265
 31
0.0
  0
LINE
  5
1C9
  8
DATA
  6
CONTINUOUS
 62
     7
 10
69.200000000000031
 20
121.625
 30
0.0
 11
69.200000000000031
 21
120.375
 31
0.0
  0
LINE
  5
1CA
  8
DATA
  6
CONTINUOUS
 62
     7
 10
69.200000000000031
 20
120.375
 30
0.0
 11
69.500010000000046
 21
120.375
 31
0.0
  0
LINE
  5
1CB
  8
DATA
  6
CONTINUOUS
 62
     7
 10
69.500000000000043
 20
121.625
 30
0.0
 11
69.200000000000031
 21
121.625
 31
0.0
  0
LINE
  5
1CC
  8
DATA
  6
CONTINUOUS
 62
     7
 10
69.200000000000031
 20
120.375
 30
0.0
 11
58.750000000000028
 21
120.375
 31
0.0
  0
LINE
  5
1CD
  8
DATA
  6
CONTINUOUS
 62
     7
 10
-139.24999999999989
 20
120.375
 30
0.0
 11
-149.99999999999989
 21
120.375
 31
0.0
  0
LINE
  5
1CE
  8
DATA
  6
CONTINUOUS
 62
     7
 10
69.200000000000031
 20
121.625
 30
0.0
 11
58.750000000000028
 21
121.625
 31
0.0
  0
LINE
  5
1CF
  8
DATA
  6
CONTINUOUS
 62
     7
 10
-139.24999999999989
 20
121.625
 30
0.0
 11
-149.99999999999989
 21
121.625
 31
0.0
  0
LINE
  5
1D0
  8
DATA
  6
CONTINUOUS
 62
     7
 10
-149.6999999999999
 20
121.625
 30
0.0
 11
-149.6999999999999
 21
120.375
 31
0.0
  0
LINE
  5
1D1
  8
DATA
  6
CONTINUOUS
 62
     7
 10
56.612823082398457
 20
105.40000000000001
 30
0.0
 11
-137.1125163710995
 21
105.40000000000001
 31
0.0
  0
LINE
  5
1D2
  8
DATA
  6
CONTINUOUS
 62
     7
 10
56.617693905430777
 20
135.5
 30
0.0
 11
-37.8096105252135
 21
135.5
 31
0.0
  0
LINE
  5
1D3
  8
DATA
  6
CONTINUOUS
 62
     7
 10
-50.809610525213607
 20
135.5
 30
0.0
 11
-120.8574294411159
 21
135.5
 31
0.0
  0
LINE
  5
1D4
  8
DATA
  6
CONTINUOUS
 62
     7
 10
-133.85742944111601
 20
135.5
 30
0.0
 11
-137.1176939054306
 21
135.5
 31
0.0
  0
ARC
  5
1D5
  8
DATA
  6
CONTINUOUS
 62
     7
 10
64.853973109586448
 20
104.0
 30
0.0
 40
4.0
 50
270.0
 51
357.75150474826239
  0
ARC
  5
1D6
  8
DATA
  6
CONTINUOUS
 62
     7
 10
64.853973109586477
 20
138.0
 30
0.0
 40
3.9999999999999818
 50
2.2484952517375949
 51
90.000000000000384
  0
ARC
  5
1D7
  8
DATA
  6
CONTINUOUS
 62
     7
 10
-145.35397310958629
 20
138.0
 30
0.0
 40
4.0
 50
90.0
 51
177.75150474826239
  0
ARC
  5
1D8
  8
DATA
  6
CONTINUOUS
 62
     7
 10
-145.35397310958629
 20
104.0
 30
0.0
 40
4.0000000000000098
 50
182.24849525173761
 51
270.0
  0
LINE
  5
1D9
  8
DATA
  6
CONTINUOUS
 62
     7
 10
-3.6681964361620909
 20
118.7209418747772
 30
0.0
 11
13.33677214676119
 21
118.7209418747772
 31
0.0
  0
ARC
  5
1DA
  8
DATA
  6
CONTINUOUS
 62
     7
 10
-44.309610525213557
 20
126.4904761904762
 30
0.0
 40
11.10952380952379
 50
54.191104987503522
 51
125.80889501249639
  0
ARC
  5
1DB
  8
DATA
  6
CONTINUOUS
 62
     7
 10
-127.3574294411159
 20
126.8595487627577
 30
0.0
 40
10.81237243083873
 50
53.046751507510372
 51
126.95324849248961
  0
TEXT
  5
1DC
  8
DATA
 62
     7
 10
-118.98961100894159
 20
109.57745436564289
 30
0.0
 40
2.1717881944444439
  1
ANTENNA A IN
 50
180.0
 41
0.8
 72
     1
 11
-128.14007860153421
 21
107.4056661711985
 31
0.0
 73
     3
  0
TEXT
  5
1DD
  8
DATA
 62
     7
 10
-116.2533034139614
 20
113.1353716055318
 30
0.0
 40
2.1717881944444439
  1
12V
 50
180.0
 41
0.8
 72
     1
 11
-118.5698774880355
 21
110.9635834110873
 31
0.0
 73
     3
  0
TEXT
  5
1DE
  8
DATA
 62
     7
 10
-126.00085047746261
 20
113.0961866638751
 30
0.0
 40
2.1717881944444439
  1
75mA OUT
 50
180.0
 41
0.8
 72
     1
 11
-132.3135148293145
 21
110.9243984694306
 31
0.0
 73
     3
  0
TEXT
  5
1DF
  8
DATA
 62
     7
 10
-118.8114931296916
 20
116.4271111111111
 30
0.0
 40
2.1717881944444439
  1
OUT CLASS II
 50
180.0
 41
0.8
 72
     1
 11
-127.6723889630249
 21
114.2553229166667
 31
0.0
 73
     3
  0
LINE
  5
1E0
  8
DATA
  6
CONTINUOUS
 62
     7
 10
-121.3831494529763
 20
111.32930742479959
 30
0.0
 11
-126.6331494529768
 21
111.32930742479959
 31
0.0
  0
LINE
  5
1E1
  8
DATA
  6
CONTINUOUS
 62
     7
 10
-121.3134875955412
 20
112.8976856290482
 30
0.0
 11
-122.51348759554121
 21
112.8976856290482
 31
0.0
  0
LINE
  5
1E2
  8
DATA
  6
CONTINUOUS
 62
     7
 10
-123.3134875955412
 20
112.8976856290482
 30
0.0
 11
-124.51348759554131
 21
112.8976856290482
 31
0.0
  0
LINE
  5
1E3
  8
DATA
  6
CONTINUOUS
 62
     7
 10
-125.3134875955415
 20
112.8976856290482
 30
0.0
 11
-126.5134875955416
 21
112.8976856290482
 31
0.0
  0
LINE
  5
1E4
  8
DATA
  6
CONTINUOUS
 62
     7
 10
-139.24700996677731
 20
120.375
 30
0.0
 11
-138.7112463756398
 21
106.93626325563289
 31
0.0
  0
LINE
  5
1E5
  8
DATA
  6
CONTINUOUS
 62
     7
 10
-139.24999999999989
 20
121.625
 30
0.0
 11
-138.71620001778831
 21
133.9691245886425
 31
0.0
  0
LINE
  5
1E6
  8
DATA
  6
CONTINUOUS
 62
     7
 10
58.750000000000028
 20
120.375
 30
0.0
 11
58.211540349258499
 21
106.9359445502427
 31
0.0
  0
LINE
  5
1E7
  8
DATA
  6
CONTINUOUS
 62
     7
 10
58.216200017788502
 20
133.9691245886425
 30
0.0
 11
58.750000000000028
 21
121.625
 31
0.0
  0
ARC
  5
1E8
  8
DATA
  6
CONTINUOUS
 62
     7
 10
56.612823082398457
 20
107.0
 30
0.0
 40
1.600000000000001
 50
270.0
 51
357.70556998406789
  0
ARC
  5
1E9
  8
DATA
  6
CONTINUOUS
 62
     7
 10
56.617693905430777
 20
133.90000000000001
 30
0.0
 40
1.5999999999999861
 50
2.476112673708696
 51
90.0
  0
ARC
  5
1EA
  8
DATA
  6
CONTINUOUS
 62
     7
 10
-137.1125163710995
 20
107.0
 30
0.0
 40
1.600000000000009
 50
182.283008108291
 51
270.0
  0
ARC
  5
1EB
  8
DATA
  6
CONTINUOUS
 62
     7
 10
-137.1176939054306
 20
133.90000000000001
 30
0.0
 40
1.5999999999999941
 50
90.0
 51
177.5238873262916
  0
LINE
  5
1EC
  8
DATA
  6
CONTINUOUS
 62
     7
 10
-39.561358175922081
 20
44.699989999999993
 30
0.0
 11
-39.561358175922081
 21
55.999999999999993
 31
0.0
  0
LINE
  5
1ED
  8
DATA
  6
CONTINUOUS
 62
     7
 10
-49.061358175922081
 20
44.699989999999993
 30
0.0
 11
-49.061358175922081
 21
55.999999999999993
 31
0.0
  0
LINE
  5
1EE
  8
DATA
  6
CONTINUOUS
 62
     7
 10
-49.061358175922081
 20
55.999999999999993
 30
0.0
 11
-39.561358175922081
 21
55.999999999999993
 31
0.0
  0
CIRCLE
  5
1EF
  8
DATA
  6
CONTINUOUS
 62
     7
 10
-44.311358175922081
 20
51.79999999999999
 30
0.0
 40
1.000005433035239
  0
LINE
  5
1F0
  8
DATA
  6
CONTINUOUS
 62
     7
 10
-50.311358175922081
 20
44.350000000000009
 30
0.0
 11
-38.311358175922081
 21
44.350000000000009
 31
0.0
  0
LINE
  5
1F1
  8
DATA
  6
CONTINUOUS
 62
     7
 10
-50.311358175922081
 20
44.350000000000009
 30
0.0
 11
-50.311358175922081
 21
44.0
 31
0.0
  0
LINE
  5
1F2
  8
DATA
  6
CONTINUOUS
 62
     7
 10
-38.311358175922081
 20
44.350000000000009
 30
0.0
 11
-38.311358175922081
 21
44.0
 31
0.0
  0
LINE
  5
1F3
  8
DATA
  6
CONTINUOUS
 62
     7
 10
-39.561358175922081
 20
44.699989999999993
 30
0.0
 11
-39.561358175922081
 21
44.350000000000009
 31
0.0
  0
LINE
  5
1F4
  8
DATA
  6
CONTINUOUS
 62
     7
 10
-49.061358175922081
 20
44.699989999999993
 30
0.0
 11
-49.061358175922081
 21
44.350000000000009
 31
0.0
  0
LINE
  5
1F5
  8
DATA
  6
CONTINUOUS
 62
     7
 10
53.008939880674212
 20
48.0
 30
0.0
 11
45.308949880674213
 21
48.0
 31
0.0
  0
LINE
  5
1F6
  8
DATA
  6
CONTINUOUS
 62
     7
 10
-5.6999899999999712
 20
-110.0
 30
0.0
 11
-15.99998999999997
 21
-110.0
 31
0.0
  0
LINE
  5
1F7
  8
DATA
  6
CONTINUOUS
 62
     7
 10
-24.399989999999971
 20
-110.0
 30
0.0
 11
-34.599989999999977
 21
-110.0
 31
0.0
  0
LINE
  5
1F8
  8
DATA
  6
CONTINUOUS
 62
     7
 10
-35.599989999999977
 20
-109.0
 30
0.0
 11
-35.599989999999977
 21
-107.0
 31
0.0
  0
LINE
  5
1F9
  8
DATA
  6
CONTINUOUS
 62
     7
 10
-23.399989999999971
 20
-109.0
 30
0.0
 11
-23.399989999999971
 21
-107.0
 31
0.0
  0
LINE
  5
1FA
  8
DATA
  6
CONTINUOUS
 62
     7
 10
-16.999989999999961
 20
-109.0
 30
0.0
 11
-16.999989999999961
 21
-107.0
 31
0.0
  0
LINE
  5
1FB
  8
DATA
  6
CONTINUOUS
 62
     7
 10
-4.6999899999999712
 20
-109.0
 30
0.0
 11
-4.6999899999999712
 21
-107.0
 31
0.0
  0
LINE
  5
1FC
  8
DATA
  6
CONTINUOUS
 62
     7
 10
33.345767926837738
 20
-107.59999999999999
 30
0.0
 11
43.436330844885887
 21
-107.59999999999999
 31
0.0
  0
LINE
  5
1FD
  8
DATA
  6
CONTINUOUS
 62
     7
 10
33.345767926837738
 20
-107.59999999999999
 30
0.0
 11
33.345767926837738
 21
-107.0
 31
0.0
  0
LINE
  5
1FE
  8
DATA
  6
CONTINUOUS
 62
     7
 10
43.436330844885887
 20
-107.59999999999999
 30
0.0
 11
43.436330844885887
 21
-107.0
 31
0.0
  0
ARC
  5
1FF
  8
DATA
  6
CONTINUOUS
 62
     7
 10
-34.599989999999977
 20
-109.0
 30
0.0
 40
1.0
 50
180.0
 51
270.0
  0
ARC
  5
200
  8
DATA
  6
CONTINUOUS
 62
     7
 10
-24.399989999999971
 20
-109.0
 30
0.0
 40
1.0
 50
270.0
 51
0.0
  0
ARC
  5
201
  8
DATA
  6
CONTINUOUS
 62
     7
 10
-15.99998999999997
 20
-109.0
 30
0.0
 40
1.0
 50
180.0
 51
270.0
  0
ARC
  5
202
  8
DATA
  6
CONTINUOUS
 62
     7
 10
-5.6999899999999712
 20
-109.0
 30
0.0
 40
1.0
 50
270.0
 51
0.0
  0
LINE
  5
203
  8
DATA
  6
CONTINUOUS
 62
     7
 10
-149.99998999999991
 20
-92.450000000000003
 30
0.0
 11
-140.24999
 21
-92.450000000000003
 31
0.0
  0
LINE
  5
204
  8
DATA
  6
CONTINUOUS
 62
     7
 10
69.500010000000017
 20
-92.450000000000003
 30
0.0
 11
59.750009999999961
 21
-92.450000000000003
 31
0.0
  0
LINE
  5
205
  8
DATA
  6
CONTINUOUS
 62
     7
 10
-145.44433181152129
 20
-103.38
 30
0.0
 11
-149.99998999999991
 21
-103.38
 31
0.0
  0
ARC
  5
206
  8
DATA
  6
CONTINUOUS
 62
     7
 10
-147.49999
 20
-104.5
 30
0.0
 40
2.5
 50
180.0
 51
270.0
  0
ARC
  5
207
  8
DATA
  6
CONTINUOUS
 62
     7
 10
67.000010000000017
 20
-104.5
 30
0.0
 40
2.5
 50
270.0
 51
0.0
  0
LINE
  5
208
  8
DATA
  6
CONTINUOUS
 62
     7
 10
-149.99998999999991
 20
-103.38
 30
0.0
 11
69.500010000000017
 21
-103.38
 31
0.0
  0
LINE
  5
209
  8
DATA
  6
CONTINUOUS
 62
     7
 10
187.40000000000001
 20
-160.99999
 30
0.0
 11
320.39999999999998
 21
-160.99999
 31
0.0
  0
LINE
  5
20A
  8
DATA
  6
CONTINUOUS
 62
     7
 10
320.39999999999998
 20
-160.99999
 30
0.0
 11
320.39999999999998
 21
-157.99998999999991
 31
0.0
  0
LINE
  5
20B
  8
DATA
  6
CONTINUOUS
 62
     7
 10
187.40000000000001
 20
-157.99998999999991
 30
0.0
 11
187.40000000000001
 21
-160.99999
 31
0.0
  0
LINE
  5
20C
  8
DATA
  6
CONTINUOUS
 62
     7
 10
185.0
 20
-179.61998999999989
 30
0.0
 11
324.0
 21
-179.61998999999989
 31
0.0
  0
LINE
  5
20D
  8
DATA
  6
CONTINUOUS
 62
     7
 10
185.0
 20
-178.36999
 30
0.0
 11
324.0
 21
-178.36999
 31
0.0
  0
LINE
  5
20E
  8
DATA
  6
CONTINUOUS
 62
     7
 10
323.69999999999999
 20
-179.61998999999989
 30
0.0
 11
323.69999999999999
 21
-178.36999
 31
0.0
  0
LINE
  5
20F
  8
DATA
  6
CONTINUOUS
 62
     7
 10
185.0
 20
-178.36999
 30
0.0
 11
185.90000000000001
 21
-157.99998999999991
 31
0.0
  0
LINE
  5
210
  8
DATA
  6
CONTINUOUS
 62
     7
 10
185.0
 20
-179.61998999999989
 30
0.0
 11
185.90000000000001
 21
-199.99999
 31
0.0
  0
LINE
  5
211
  8
DATA
  6
CONTINUOUS
 62
     7
 10
184.13694311885371
 20
-157.99998999999991
 30
0.0
 11
184.13694311885371
 21
-199.99999
 31
0.0
  0
LINE
  5
212
  8
DATA
  6
CONTINUOUS
 62
     7
 10
322.57814172118748
 20
-199.99999
 30
0.0
 11
185.90000000000001
 21
-199.99999
 31
0.0
  0
LINE
  5
213
  8
DATA
  6
CONTINUOUS
 62
     7
 10
322.57815216900173
 20
-157.99998999999991
 30
0.0
 11
185.90000000000001
 21
-157.99998999999991
 31
0.0
  0
LINE
  5
214
  8
DATA
  6
CONTINUOUS
 62
     7
 10
184.13694311885371
 20
-199.69999000000001
 30
0.0
 11
185.88675171737
 21
-199.69999000000001
 31
0.0
  0
LINE
  5
215
  8
DATA
  6
CONTINUOUS
 62
     7
 10
185.8867452135492
 20
-158.29998999999989
 30
0.0
 11
184.13694311885371
 21
-158.29998999999989
 31
0.0
  0
LINE
  5
216
  8
DATA
  6
CONTINUOUS
 62
     7
 10
184.13694311885371
 20
-157.99998999999991
 30
0.0
 11
177.49185552851199
 21
-158.59381839240771
 31
0.0
  0
LINE
  5
217
  8
DATA
  6
CONTINUOUS
 62
     7
 10
184.13694311885371
 20
-199.99999
 30
0.0
 11
177.49185552851199
 21
-199.4061616075922
 31
0.0
  0
ARC
  5
218
  8
DATA
  6
CONTINUOUS
 62
     7
 10
249.0849916806458
 20
-178.99998999999991
 30
0.0
 40
76.084991680645814
 50
165.90828023276029
 51
194.09171976723971
  0
ARC
  5
219
  8
DATA
  6
CONTINUOUS
 62
     7
 10
177.7143775732942
 20
-161.0838954875164
 30
0.0
 40
2.499999999999853
 50
95.10658768652705
 51
165.9082802327639
  0
ARC
  5
21A
  8
DATA
  6
CONTINUOUS
 62
     7
 10
177.7143775732942
 20
-196.91608451248351
 30
0.0
 40
2.4999999999998761
 50
194.0917197672361
 51
264.89341231347288
  0
LINE
  5
21B
  8
DATA
  6
CONTINUOUS
 62
     7
 10
324.0
 20
-178.36999
 30
0.0
 11
323.57791536976561
 21
-158.9782289706495
 31
0.0
  0
LINE
  5
21C
  8
DATA
  6
CONTINUOUS
 62
     7
 10
324.0
 20
-179.61998999999989
 30
0.0
 11
323.57790515419589
 21
-199.02174035676339
 31
0.0
  0
LINE
  5
21D
  8
DATA
  6
CONTINUOUS
 62
     7
 10
324.64206483619301
 20
-185.4299899999998
 30
0.0
 11
328.05000000000001
 21
-185.4299899999998
 31
0.0
  0
LINE
  5
21E
  8
DATA
  6
CONTINUOUS
 62
     7
 10
324.05000000000001
 20
-186.32998999999981
 30
0.0
 11
324.64206483619301
 21
-186.32998999999981
 31
0.0
  0
LINE
  5
21F
  8
DATA
  6
CONTINUOUS
 62
     7
 10
324.05000000000001
 20
-176.82999000000001
 30
0.0
 11
324.64206483619301
 21
-176.82999000000001
 31
0.0
  0
LINE
  5
220
  8
DATA
  6
CONTINUOUS
 62
     7
 10
324.64206483619301
 20
-177.72999999999999
 30
0.0
 11
328.05000000000001
 21
-177.72999999999999
 31
0.0
  0
LINE
  5
221
  8
DATA
  6
CONTINUOUS
 62
     7
 10
324.64206483619301
 20
-176.82999000000001
 30
0.0
 11
324.64206483619301
 21
-186.32998999999981
 31
0.0
  0
LINE
  5
222
  8
DATA
  6
CONTINUOUS
 62
     7
 10
324.64206483619301
 20
-181.5799899999999
 30
0.0
 11
324.05000000000001
 21
-181.5799899999999
 31
0.0
  0
LINE
  5
223
  8
DATA
  6
CONTINUOUS
 62
     7
 10
328.05000000000001
 20
-185.4299899999998
 30
0.0
 11
328.05000000000001
 21
-177.72999999999999
 31
0.0
  0
LINE
  5
224
  8
DATA
  6
CONTINUOUS
 62
     7
 10
324.05000000000001
 20
-176.82999000000001
 30
0.0
 11
323.96648007730818
 21
-176.82999000000001
 31
0.0
  0
LINE
  5
225
  8
DATA
  6
CONTINUOUS
 62
     7
 10
324.05000000000001
 20
-181.5799899999999
 30
0.0
 11
323.95735921334079
 21
-181.5799899999999
 31
0.0
  0
LINE
  5
226
  8
DATA
  6
CONTINUOUS
 62
     7
 10
324.05000000000001
 20
-186.32998999999981
 30
0.0
 11
323.85402057220278
 21
-186.32998999999981
 31
0.0
  0
LINE
  5
227
  8
DATA
  6
CONTINUOUS
 62
     7
 10
330.0
 20
-189.15000000000001
 30
0.0
 11
335.9991046103695
 21
-189.15000000000001
 31
0.0
  0
LINE
  5
228
  8
DATA
  6
CONTINUOUS
 62
     7
 10
330.0
 20
-179.64999999999989
 30
0.0
 11
335.9991046103695
 21
-179.64999999999989
 31
0.0
  0
LINE
  5
229
  8
DATA
  6
CONTINUOUS
 62
     7
 10
335.9991046103695
 20
-179.64999999999989
 30
0.0
 11
335.9991046103695
 21
-189.15000000000001
 31
0.0
  0
LINE
  5
22A
  8
DATA
  6
CONTINUOUS
 62
     7
 10
330.81365675990003
 20
-178.84999999999991
 30
0.0
 11
332.79911004340443
 21
-178.84999999999991
 31
0.0
  0
LINE
  5
22B
  8
DATA
  6
CONTINUOUS
 62
     7
 10
330.81365675990003
 20
-189.94999999999999
 30
0.0
 11
332.79911004340443
 21
-189.94999999999999
 31
0.0
  0
LINE
  5
22C
  8
DATA
  6
CONTINUOUS
 62
     7
 10
330.81365675990003
 20
-178.84999999999991
 30
0.0
 11
330.81365675990003
 21
-179.64999999999989
 31
0.0
  0
LINE
  5
22D
  8
DATA
  6
CONTINUOUS
 62
     7
 10
332.79911004340443
 20
-178.84999999999991
 30
0.0
 11
332.79911004340443
 21
-179.64999999999989
 31
0.0
  0
LINE
  5
22E
  8
DATA
  6
CONTINUOUS
 62
     7
 10
330.81365675990003
 20
-189.94999999999999
 30
0.0
 11
330.81365675990003
 21
-189.15000000000001
 31
0.0
  0
LINE
  5
22F
  8
DATA
  6
CONTINUOUS
 62
     7
 10
332.79911004340443
 20
-189.94999999999999
 30
0.0
 11
332.79911004340443
 21
-189.15000000000001
 31
0.0
  0
LINE
  5
230
  8
DATA
  6
CONTINUOUS
 62
     7
 10
330.0
 20
-178.77500000000001
 30
0.0
 11
330.0
 21
-189.22499999999999
 31
0.0
  0
LINE
  5
231
  8
DATA
  6
CONTINUOUS
 62
     7
 10
325.0
 20
-177.0
 30
0.0
 11
325.0
 21
-177.72999999999999
 31
0.0
  0
LINE
  5
232
  8
DATA
  6
CONTINUOUS
 62
     7
 10
325.0
 20
-185.4299899999998
 30
0.0
 11
325.0
 21
-191.0
 31
0.0
  0
LINE
  5
233
  8
DATA
  6
CONTINUOUS
 62
     7
 10
330.0
 20
-178.77500000000001
 30
0.0
 11
328.05000000000001
 21
-178.77500000000001
 31
0.0
  0
LINE
  5
234
  8
DATA
  6
CONTINUOUS
 62
     7
 10
330.0
 20
-189.22499999999999
 30
0.0
 11
325.0
 21
-189.22499999999999
 31
0.0
  0
LINE
  5
235
  8
DATA
  6
CONTINUOUS
 62
     7
 10
325.0
 20
-177.0
 30
0.0
 11
324.64206483619301
 21
-177.0
 31
0.0
  0
LINE
  5
236
  8
DATA
  6
CONTINUOUS
 62
     7
 10
325.0
 20
-191.0
 30
0.0
 11
324.0
 21
-191.0
 31
0.0
  0
LINE
  5
237
  8
DATA
  6
CONTINUOUS
 62
     7
 10
324.0
 20
-191.0
 30
0.0
 11
323.75242215378142
 21
-191.0
 31
0.0
  0
ARC
  5
238
  8
DATA
  6
CONTINUOUS
 62
     7
 10
322.57815216900173
 20
-158.99999
 30
0.0
 40
0.9999999999999859
 50
1.24691356392108
 51
90.0
  0
ARC
  5
239
  8
DATA
  6
CONTINUOUS
 62
     7
 10
322.57814172118748
 20
-198.99999
 30
0.0
 40
1.0
 50
270.0
 51
358.75369807503171
  0
ARC
  5
23A
  8
DATA
  6
CONTINUOUS
 62
     7
 10
246.28499168064579
 20
-178.99998999999991
 30
0.0
 40
76.0849916806458
 50
172.67160282962121
 51
173.01701590907001
  0
ARC
  5
23B
  8
DATA
  6
CONTINUOUS
 62
     7
 10
246.28499168064579
 20
-178.99998999999991
 30
0.0
 40
76.0849916806458
 50
173.964446330154
 51
174.9933810477437
  0
ARC
  5
23C
  8
DATA
  6
CONTINUOUS
 62
     7
 10
246.28499168064579
 20
-178.99998999999991
 30
0.0
 40
76.0849916806458
 50
175.97163134249061
 51
177.00149368334451
  0
ARC
  5
23D
  8
DATA
  6
CONTINUOUS
 62
     7
 10
246.28499168064579
 20
-178.99998999999991
 30
0.0
 40
76.0849916806458
 50
177.9738740740508
 51
182.0261259259494
  0
ARC
  5
23E
  8
DATA
  6
CONTINUOUS
 62
     7
 10
246.28499168064579
 20
-178.99998999999991
 30
0.0
 40
76.0849916806458
 50
182.99850631665561
 51
184.02836865750891
  0
ARC
  5
23F
  8
DATA
  6
CONTINUOUS
 62
     7
 10
246.28499168064579
 20
-178.99998999999991
 30
0.0
 40
76.0849916806458
 50
185.0066189522536
 51
186.0355536698448
  0
ARC
  5
240
  8
DATA
  6
CONTINUOUS
 62
     7
 10
246.28499168064579
 20
-178.99998999999991
 30
0.0
 40
76.0849916806458
 50
186.9829840909286
 51
187.32839717037859
  0
LINE
  5
241
  8
DATA
  6
CONTINUOUS
 62
     7
 10
172.80517477612861
 20
-167.54999000000001
 30
0.0
 11
173.86648691590091
 21
-167.54999000000001
 31
0.0
  0
LINE
  5
242
  8
DATA
  6
CONTINUOUS
 62
     7
 10
172.80517477612881
 20
-190.44999000000001
 30
0.0
 11
173.86648691590091
 21
-190.44999000000001
 31
0.0
  0
ARC
  5
243
  8
DATA
  6
CONTINUOUS
 62
     7
 10
172.80517477612861
 20
-169.54998999999989
 30
0.0
 40
1.9999999999998861
 50
90.0
 51
172.67160282962519
  0
ARC
  5
244
  8
DATA
  6
CONTINUOUS
 62
     7
 10
172.80517477612881
 20
-188.44999000000001
 30
0.0
 40
2.0000000000000702
 50
187.32839717037891
 51
270.0
  0
LINE
  5
245
  8
DATA
  6
CONTINUOUS
 62
     7
 10
170.764375561311
 20
-169.74998999999991
 30
0.0
 11
171.46437556131099
 21
-169.74998999999991
 31
0.0
  0
LINE
  5
246
  8
DATA
  6
CONTINUOUS
 62
     7
 10
170.62175120652961
 20
-170.99998999999991
 30
0.0
 11
171.3217512065296
 21
-170.99998999999991
 31
0.0
  0
LINE
  5
247
  8
DATA
  6
CONTINUOUS
 62
     7
 10
170.49029292773869
 20
-172.3599899999999
 30
0.0
 11
171.19029292773871
 21
-172.3599899999999
 31
0.0
  0
LINE
  5
248
  8
DATA
  6
CONTINUOUS
 62
     7
 10
170.30416805360201
 20
-175.01998999999989
 30
0.0
 11
171.004168053602
 21
-175.01998999999989
 31
0.0
  0
LINE
  5
249
  8
DATA
  6
CONTINUOUS
 62
     7
 10
170.2475676116787
 20
-181.68998999999999
 30
0.0
 11
170.94756761167869
 21
-181.68998999999999
 31
0.0
  0
LINE
  5
24A
  8
DATA
  6
CONTINUOUS
 62
     7
 10
170.30416805360201
 20
-182.97998999999999
 30
0.0
 11
171.004168053602
 21
-182.97998999999999
 31
0.0
  0
LINE
  5
24B
  8
DATA
  6
CONTINUOUS
 62
     7
 10
170.49029292773869
 20
-185.6399899999999
 30
0.0
 11
171.19029292773871
 21
-185.6399899999999
 31
0.0
  0
LINE
  5
24C
  8
DATA
  6
CONTINUOUS
 62
     7
 10
170.764375561311
 20
-188.24999
 30
0.0
 11
171.46437556131099
 21
-188.24999
 31
0.0
  0
ARC
  5
24D
  8
DATA
  6
CONTINUOUS
 62
     7
 10
246.98499168064581
 20
-178.99998999999991
 30
0.0
 40
76.084991680645786
 50
173.01701590907049
 51
173.96444633015449
  0
ARC
  5
24E
  8
DATA
  6
CONTINUOUS
 62
     7
 10
246.98499168064581
 20
-178.99998999999991
 30
0.0
 40
76.084991680645786
 50
174.993381047745
 51
175.9716313424907
  0
ARC
  5
24F
  8
DATA
  6
CONTINUOUS
 62
     7
 10
246.98499168064581
 20
-178.99998999999991
 30
0.0
 40
76.084991680645786
 50
177.00149368334479
 51
177.9738740740506
  0
ARC
  5
250
  8
DATA
  6
CONTINUOUS
 62
     7
 10
246.98499168064581
 20
-178.99998999999991
 30
0.0
 40
76.084991680645786
 50
182.0261259259496
 51
182.99850631665569
  0
ARC
  5
251
  8
DATA
  6
CONTINUOUS
 62
     7
 10
246.98499168064581
 20
-178.99998999999991
 30
0.0
 40
76.0849916806458
 50
184.02836865750959
 51
185.00661895225571
  0
ARC
  5
252
  8
DATA
  6
CONTINUOUS
 62
     7
 10
246.98499168064581
 20
-178.99998999999991
 30
0.0
 40
76.0849916806458
 50
186.0355536698448
 51
186.98298409092871
  0
LINE
  5
253
  8
DATA
  6
CONTINUOUS
 62
     7
 10
170.3879763635469
 20
-173.65499000000059
 30
0.0
 11
171.08797636354689
 21
-173.65499000000059
 31
0.0
  0
LINE
  5
254
  8
DATA
  6
CONTINUOUS
 62
     7
 10
170.2475676116787
 20
-176.3099900000002
 30
0.0
 11
170.94756761167869
 21
-176.3099900000002
 31
0.0
  0
LINE
  5
255
  8
DATA
  6
CONTINUOUS
 62
     7
 10
170.3879763635469
 20
-184.34498999999869
 30
0.0
 11
171.0879763635468
 21
-184.34498999999869
 31
0.0
  0
LINE
  5
256
  8
DATA
  6
CONTINUOUS
 62
     7
 10
170.6217512065295
 20
-186.99998999999971
 30
0.0
 11
171.3217512065296
 21
-186.99998999999971
 31
0.0
  0
LINE
  5
257
  8
DATA
  6
CONTINUOUS
 62
     7
 10
-112.29998999999999
 20
-106.7220006024334
 30
0.0
 11
-52.299990000000001
 21
-106.7220006024334
 31
0.0
  0
LINE
  5
258
  8
DATA
  6
CONTINUOUS
 62
     7
 10
-112.29998999999999
 20
-106.7220006024334
 30
0.0
 11
-112.29998999999999
 21
-107.0
 31
0.0
  0
LINE
  5
259
  8
DATA
  6
CONTINUOUS
 62
     7
 10
-52.299990000000001
 20
-106.7220006024334
 30
0.0
 11
-52.299990000000001
 21
-107.0
 31
0.0
  0
TEXT
  5
25A
  8
DATA
 62
     7
 10
259.06515718379683
 20
-306.21471117224962
 30
0.0
 40
6.5153645833333318
  1
シングルチャンネル・ダイバーシティ受信機
 41
0.8
 11
259.06515718379683
 21
-299.69934658891623
 31
0.0
 73
     3
  0
TEXT
  5
25B
  8
DATA
 62
     7
 10
-220.00000999999989
 20
-352.45253000000002
 30
0.0
 40
6.5153645833333318
  1
仕様および外観は予告なく変更されることがありますので、ご了承ください。
 41
0.8
 11
-220.00000999999989
 21
-345.93716541666669
 31
0.0
 73
     3
  0
ENDSEC
  0
EOF
