  0
SECTION
  2
HEADER
  9
$ACADVER
  1
AC1009
  9
$INSBASE
 10
0.0
 20
0.0
 30
0.0
  9
$EXTMIN
 10
9.9963383446405487
 20
2.381287252508741
 30
-0.0015258207003583
  9
$EXTMAX
 10
190.00579878222879
 20
270.00824037474621
 30
0.0000000349246037
  9
$LIMMIN
 10
0.0
 20
0.0
  9
$LIMMAX
 10
0.0
 20
0.0
  9
$ORTHOMODE
 70
     0
  9
$REGENMODE
 70
     1
  9
$FILLMODE
 70
     1
  9
$QTEXTMODE
 70
     0
  9
$MIRRTEXT
 70
     1
  9
$DRAGMODE
 70
     2
  9
$LTSCALE
 40
5.0800000000000001
  9
$OSMODE
 70
   231
  9
$ATTMODE
 70
     1
  9
$TEXTSIZE
 40
0.0
  9
$TRACEWID
 40
1.0
  9
$TEXTSTYLE
  7
STANDARD
  9
$CLAYER
  8
DATA
  9
$CELTYPE
  6
BYLAYER
  9
$CECOLOR
 62
   256
  9
$DIMSCALE
 40
1.0
  9
$DIMASZ
 40
0.18
  9
$DIMEXO
 40
0.0625
  9
$DIMDLI
 40
0.38
  9
$DIMRND
 40
0.0
  9
$DIMDLE
 40
0.0
  9
$DIMEXE
 40
0.18
  9
$DIMTP
 40
0.0
  9
$DIMTM
 40
0.0
  9
$DIMTXT
 40
0.18
  9
$DIMCEN
 40
0.09
  9
$DIMTSZ
 40
0.0
  9
$DIMTOL
 70
     0
  9
$DIMLIM
 70
     0
  9
$DIMTIH
 70
     1
  9
$DIMTOH
 70
     1
  9
$DIMSE1
 70
     0
  9
$DIMSE2
 70
     0
  9
$DIMTAD
 70
     0
  9
$DIMZIN
 70
     0
  9
$DIMBLK
  1

  9
$DIMASO
 70
     1
  9
$DIMSHO
 70
     1
  9
$DIMPOST
  1

  9
$DIMAPOST
  1

  9
$DIMALT
 70
     0
  9
$DIMALTD
 70
     2
  9
$DIMALTF
 40
25.399999999999999
  9
$DIMLFAC
 40
1.0
  9
$DIMTOFL
 70
     0
  9
$DIMTVP
 40
0.0
  9
$DIMTIX
 70
     0
  9
$DIMSOXD
 70
     0
  9
$DIMSAH
 70
     0
  9
$DIMBLK1
  1

  9
$DIMBLK2
  1

  9
$DIMSTYLE
  2
STANDARD
  9
$DIMCLRD
 70
     0
  9
$DIMCLRE
 70
     0
  9
$DIMCLRT
 70
     0
  9
$DIMTFAC
 40
1.0
  9
$DIMGAP
 40
0.09
  9
$LUNITS
 70
     2
  9
$LUPREC
 70
     4
  9
$SKETCHINC
 40
0.1
  9
$FILLETRAD
 40
0.0
  9
$AUNITS
 70
     0
  9
$AUPREC
 70
     0
  9
$MENU
  1
acad
  9
$ELEVATION
 40
0.0
  9
$PELEVATION
 40
0.0
  9
$THICKNESS
 40
0.0
  9
$LIMCHECK
 70
     0
  9
$BLIPMODE
 70
     0
  9
$CHAMFERA
 40
0.0
  9
$CHAMFERB
 40
0.0
  9
$SKPOLY
 70
     0
  9
$TDCREATE
 40
2454798.6225694451
  9
$TDUPDATE
 40
2454798.623445428
  9
$TDINDWG
 40
0.0003137153
  9
$TDUSRTIMER
 40
0.0003133449
  9
$USRTIMER
 70
     1
  9
$ANGBASE
 50
0.0
  9
$ANGDIR
 70
     0
  9
$PDMODE
 70
     1
  9
$PDSIZE
 40
-2.0
  9
$PLINEWID
 40
0.0
  9
$COORDS
 70
     1
  9
$SPLFRAME
 70
     0
  9
$SPLINETYPE
 70
     6
  9
$SPLINESEGS
 70
     8
  9
$ATTDIA
 70
     0
  9
$ATTREQ
 70
     1
  9
$HANDLING
 70
     1
  9
$HANDSEED
  5
1D6
  9
$SURFTAB1
 70
     6
  9
$SURFTAB2
 70
     6
  9
$SURFTYPE
 70
     6
  9
$SURFU
 70
     6
  9
$SURFV
 70
     6
  9
$UCSNAME
  2

  9
$UCSORG
 10
0.0
 20
0.0
 30
0.0
  9
$UCSXDIR
 10
1.0
 20
0.0
 30
0.0
  9
$UCSYDIR
 10
0.0
 20
1.0
 30
0.0
  9
$PUCSNAME
  2

  9
$PUCSORG
 10
0.0
 20
0.0
 30
0.0
  9
$PUCSXDIR
 10
1.0
 20
0.0
 30
0.0
  9
$PUCSYDIR
 10
0.0
 20
1.0
 30
0.0
  9
$USERI1
 70
     0
  9
$USERI2
 70
     0
  9
$USERI3
 70
     0
  9
$USERI4
 70
     0
  9
$USERI5
 70
     0
  9
$USERR1
 40
0.0
  9
$USERR2
 40
0.0
  9
$USERR3
 40
0.0
  9
$USERR4
 40
0.0
  9
$USERR5
 40
0.0
  9
$WORLDVIEW
 70
     1
  9
$SHADEDGE
 70
     3
  9
$SHADEDIF
 70
    70
  9
$TILEMODE
 70
     1
  9
$MAXACTVP
 70
    64
  9
$PLIMCHECK
 70
     0
  9
$PEXTMIN
 10
1.0000000000000000E+020
 20
1.0000000000000000E+020
 30
1.0000000000000000E+020
  9
$PEXTMAX
 10
-1.0000000000000000E+020
 20
-1.0000000000000000E+020
 30
-1.0000000000000000E+020
  9
$PLIMMIN
 10
0.0
 20
0.0
  9
$PLIMMAX
 10
12.0
 20
9.0
  9
$UNITMODE
 70
     0
  9
$VISRETAIN
 70
     0
  9
$PLINEGEN
 70
     1
  9
$PSLTSCALE
 70
     0
  0
ENDSEC
  0
SECTION
  2
TABLES
  0
TABLE
  2
VPORT
 70
     1
  0
VPORT
  2
*ACTIVE
 70
     0
 10
0.0
 20
0.0
 11
1.0
 21
1.0
 12
100.0010685634346
 22
136.19476381362739
 13
0.0
 23
0.0
 14
1.0
 24
1.0
 15
0.0
 25
0.0
 16
0.0
 26
0.0
 36
1.0
 17
0.0
 27
0.0
 37
0.0
 40
269.84179687221462
 41
1.665745856353591
 42
50.0
 43
0.0
 44
0.0
 50
0.0
 51
0.0
 71
     0
 72
  2000
 73
     1
 74
     1
 75
     0
 76
     0
 77
     0
 78
     0
  0
ENDTAB
  0
TABLE
  2
LTYPE
 70
    11
  0
LTYPE
  2
CONTINUOUS
 70
     0
  3
Solid line
 72
    65
 73
     0
 40
0.0
  0
ENDTAB
  0
TABLE
  2
LAYER
 70
     6
  0
LAYER
  2
0
 70
     0
 62
     7
  6
CONTINUOUS
  0
LAYER
  2
DATA
 70
     0
 62
     7
  6
CONTINUOUS
  0
LAYER
  2
HIBINO-BASE
 70
     0
 62
     7
  6
CONTINUOUS
  0
LAYER
  2
PATTERN_FILL
 70
     0
 62
     7
  6
CONTINUOUS
  0
LAYER
  2
SPEC
 70
     0
 62
     7
  6
CONTINUOUS
  0
LAYER
  2
DIMNSIONS
 70
     0
 62
     7
  6
CONTINUOUS
  0
ENDTAB
  0
TABLE
  2
STYLE
 70
     3
  0
STYLE
  2
STANDARD
 70
     0
 40
0.0
 41
1.0
 50
0.0
 71
     0
 42
0.0
  3
txt
  4
BIGFONT.SHX
  0
ENDTAB
  0
TABLE
  2
VIEW
 70
     0
  0
ENDTAB
  0
TABLE
  2
UCS
 70
     0
  0
ENDTAB
  0
TABLE
  2
APPID
 70
     3
  0
APPID
  2
ACAD
 70
     0
  0
APPID
  2
ACADANNOTATIVE
 70
     0
  0
APPID
  2
ACAD_MLEADERVER
 70
     0
  0
ENDTAB
  0
TABLE
  2
DIMSTYLE
 70
     2
  0
DIMSTYLE
  2
STANDARD
 70
     0
  3

  4

  5

  6

  7

 40
1.0
 41
0.18
 42
0.0625
 43
0.38
 44
0.18
 45
0.0
 46
0.0
 47
0.0
 48
0.0
140
0.18
141
0.09
142
0.0
143
25.399999999999999
144
1.0
145
0.0
146
1.0
147
0.09
 71
     0
 72
     0
 73
     1
 74
     1
 75
     0
 76
     0
 77
     0
 78
     0
170
     0
171
     2
172
     0
173
     0
174
     0
175
     0
176
     0
177
     0
178
     0
  0
ENDTAB
  0
ENDSEC
  0
SECTION
  2
BLOCKS
  0
BLOCK
  8
0
  2
$MODEL_SPACE
 70
     0
 10
0.0
 20
0.0
 30
0.0
  3
$MODEL_SPACE
  1

  0
ENDBLK
  5
18D
  8
0
  0
BLOCK
 67
     1
  8
0
  2
$PAPER_SPACE
 70
     0
 10
0.0
 20
0.0
 30
0.0
  3
$PAPER_SPACE
  1

  0
ENDBLK
  5
189
 67
     1
  8
0
  0
ENDSEC
  0
SECTION
  2
ENTITIES
  0
LINE
  5
2D
  8
HIBINO-BASE
  6
CONTINUOUS
 62
     7
 10
10.0
 20
270.0
 30
0.0
 11
190.0
 21
270.0
 31
0.0
  0
LINE
  5
2E
  8
HIBINO-BASE
  6
CONTINUOUS
 62
     7
 10
190.0
 20
10.0
 30
0.0
 11
10.0
 21
10.0
 31
0.0
  0
LINE
  5
2F
  8
HIBINO-BASE
  6
CONTINUOUS
 62
     7
 10
10.0
 20
10.0
 30
0.0
 11
10.0
 21
270.0
 31
0.0
  0
TEXT
  5
30
  8
HIBINO-BASE
 62
     7
 10
17.18399999999999
 20
3.591322200000036
 30
0.0
 40
3.6000441796875
  1
Hibino Corporation
 41
0.7
 11
17.18399999999999
 21
7.191366379687536
 31
0.0
 73
     3
  0
LINE
  5
31
  8
HIBINO-BASE
  6
CONTINUOUS
 62
     7
 10
190.0
 20
270.0
 30
0.0
 11
190.0
 21
10.0
 31
0.0
  0
LINE
  5
32
  8
HIBINO-BASE
  6
CONTINUOUS
 62
     7
 10
100.0
 20
32.500000000000007
 30
0.0
 11
190.0
 21
32.500000000000007
 31
0.0
  0
LINE
  5
33
  8
HIBINO-BASE
  6
CONTINUOUS
 62
     7
 10
100.0
 20
10.0
 30
0.0
 11
100.0
 21
32.500000000000007
 31
0.0
  0
TEXT
  5
34
  8
HIBINO-BASE
 62
     7
 10
100.90000000000001
 20
29.991306666666681
 30
0.0
 40
1.6288411458333329
  1
NOTE
 41
0.7
 11
100.90000000000001
 21
31.620147812500011
 31
0.0
 73
     3
  0
LINE
  5
35
  8
HIBINO-BASE
  6
CONTINUOUS
 62
     7
 10
135.0
 20
10.0
 30
0.0
 11
135.0
 21
32.500000000000007
 31
0.0
  0
TEXT
  5
36
  8
HIBINO-BASE
 62
     7
 10
135.89999999999989
 20
29.991306666666681
 30
0.0
 40
1.6288411458333329
  1
TITLE
 41
0.7
 11
135.89999999999989
 21
31.620147812500011
 31
0.0
 73
     3
  0
TEXT
  5
37
  8
HIBINO-BASE
 62
     7
 10
150.06838999999991
 20
3.591322200000036
 30
0.0
 40
3.6000441796875
  1
ヒビノ株式会社
 41
0.7
 11
150.06838999999991
 21
7.191366379687536
 31
0.0
 73
     3
  0
LINE
  5
38
  8
HIBINO-BASE
  6
CONTINUOUS
 62
     7
 10
100.0
 20
20.000000000000011
 30
0.0
 11
190.0
 21
20.000000000000011
 31
0.0
  0
TEXT
  5
39
  8
HIBINO-BASE
 62
     7
 10
148.39999999999989
 20
17.54762666666667
 30
0.0
 40
1.6288411458333329
  1
DRAWN
 41
0.7
 11
148.39999999999989
 21
19.176467812500011
 31
0.0
 73
     3
  0
TEXT
  5
3A
  8
HIBINO-BASE
 62
     7
 10
123.39999999999991
 20
17.54762666666667
 30
0.0
 40
1.6288411458333329
  1
DATE
 41
0.7
 11
123.39999999999991
 21
19.176467812500011
 31
0.0
 73
     3
  0
TEXT
  5
3B
  8
HIBINO-BASE
 62
     7
 10
113.40000000000001
 20
17.54762666666667
 30
0.0
 40
1.6288411458333329
  1
SCALE
 41
0.7
 11
113.40000000000001
 21
19.176467812500011
 31
0.0
 73
     3
  0
TEXT
  5
3C
  8
HIBINO-BASE
 62
     7
 10
135.89999999999989
 20
17.54762666666667
 30
0.0
 40
1.6288411458333329
  1
DESIGN
 41
0.7
 11
135.89999999999989
 21
19.176467812500011
 31
0.0
 73
     3
  0
TEXT
  5
3D
  8
HIBINO-BASE
 62
     7
 10
173.39999999999989
 20
17.54762666666667
 30
0.0
 40
1.6288411458333329
  1
DRAWING NO.
 41
0.7
 11
173.39999999999989
 21
19.176467812500011
 31
0.0
 73
     3
  0
TEXT
  5
3E
  8
HIBINO-BASE
 62
     7
 10
160.89999999999989
 20
17.54762666666667
 30
0.0
 40
1.6288411458333329
  1
CHECK
 41
0.7
 11
160.89999999999989
 21
19.176467812500011
 31
0.0
 73
     3
  0
LINE
  5
3F
  8
HIBINO-BASE
  6
CONTINUOUS
 62
     7
 10
114.375
 20
11.25
 30
0.0
 11
118.125
 21
15.000000000000011
 31
0.0
  0
TEXT
  5
40
  8
HIBINO-BASE
 62
     7
 10
114.3388892058678
 20
13.891056666666669
 30
0.0
 40
1.6288411458333329
  1
1
 41
0.7
 11
114.3388892058678
 21
15.5198978125
 31
0.0
 73
     3
  0
LINE
  5
41
  8
HIBINO-BASE
  6
CONTINUOUS
 62
     7
 10
112.5
 20
10.0
 30
0.0
 11
112.5
 21
20.000000000000011
 31
0.0
  0
LINE
  5
42
  8
HIBINO-BASE
  6
CONTINUOUS
 62
     7
 10
122.5
 20
10.0
 30
0.0
 11
122.5
 21
20.000000000000011
 31
0.0
  0
LINE
  5
43
  8
HIBINO-BASE
  6
CONTINUOUS
 62
     7
 10
147.49999999999989
 20
20.000000000000011
 30
0.0
 11
147.49999999999989
 21
10.0
 31
0.0
  0
LINE
  5
44
  8
HIBINO-BASE
  6
CONTINUOUS
 62
     7
 10
172.5
 20
20.000000000000011
 30
0.0
 11
172.5
 21
10.0
 31
0.0
  0
LINE
  5
45
  8
HIBINO-BASE
  6
CONTINUOUS
 62
     7
 10
159.99999999999989
 20
10.0
 30
0.0
 11
159.99999999999989
 21
20.000000000000011
 31
0.0
  0
TEXT
  5
46
  8
HIBINO-BASE
 62
     7
 10
123.4635264570145
 20
12.86364666666667
 30
0.0
 40
1.6288411458333329
  1
'08.11.
 41
0.7
 11
123.4635264570145
 21
14.4924878125
 31
0.0
 73
     3
  0
TEXT
  5
47
  8
HIBINO-BASE
 62
     7
 10
117.2858584705935
 20
11.21302593139249
 30
0.0
 40
1.6288411458333329
  1
1
 41
0.7
 11
117.2858584705935
 21
12.84186707722583
 31
0.0
 73
     3
  0
TEXT
  5
48
  8
HIBINO-BASE
 62
     7
 10
149.00581001103461
 20
12.86364666666667
 30
0.0
 40
1.6288411458333329
  1
N.Sasaki
 41
0.7
 11
149.00581001103461
 21
14.4924878125
 31
0.0
 73
     3
  0
TEXT
  5
49
  8
HIBINO-BASE
 62
     7
 10
103.8833333333333
 20
11.97600000000001
 30
0.0
 40
3.2576822916666659
  1
A4
 41
0.7
 11
103.8833333333333
 21
15.23368229166668
 31
0.0
 73
     3
  0
TEXT
  5
4A
  8
HIBINO-BASE
 62
     7
 10
100.9583333333333
 20
17.380545000000009
 30
0.0
 40
1.6288411458333329
  1
PAPER SIZE
 41
0.7
 11
100.9583333333333
 21
19.009386145833339
 31
0.0
 73
     3
  0
CIRCLE
  5
4B
  8
PATTERN_FILL
  6
CONTINUOUS
 62
     7
 10
39.910214650760089
 20
120.81999999999999
 30
0.0
 40
0.1499999999999986
  0
CIRCLE
  5
4C
  8
PATTERN_FILL
  6
CONTINUOUS
 62
     7
 10
39.910214650760089
 20
121.81999999999999
 30
0.0
 40
0.1499999999999986
  0
CIRCLE
  5
4D
  8
PATTERN_FILL
  6
CONTINUOUS
 62
     7
 10
39.910214650760089
 20
122.81999999999999
 30
0.0
 40
0.1499999999999986
  0
CIRCLE
  5
4E
  8
PATTERN_FILL
  6
CONTINUOUS
 62
     7
 10
39.910214650760089
 20
123.81999999999999
 30
0.0
 40
0.1499999999999986
  0
CIRCLE
  5
4F
  8
PATTERN_FILL
  6
CONTINUOUS
 62
     7
 10
39.910214650760089
 20
124.81999999999999
 30
0.0
 40
0.1499999999999986
  0
CIRCLE
  5
50
  8
PATTERN_FILL
  6
CONTINUOUS
 62
     7
 10
40.451632154556997
 20
121.315984452405
 30
0.0
 40
0.1499999999999986
  0
CIRCLE
  5
51
  8
PATTERN_FILL
  6
CONTINUOUS
 62
     7
 10
40.451632154556997
 20
122.315984452405
 30
0.0
 40
0.1499999999999986
  0
CIRCLE
  5
52
  8
PATTERN_FILL
  6
CONTINUOUS
 62
     7
 10
40.451632154556997
 20
123.315984452405
 30
0.0
 40
0.1499999999999986
  0
CIRCLE
  5
53
  8
PATTERN_FILL
  6
CONTINUOUS
 62
     7
 10
40.451632154556997
 20
124.315984452405
 30
0.0
 40
0.1499999999999986
  0
LINE
  5
54
  8
PATTERN_FILL
  6
CONTINUOUS
 62
     7
 10
24.531434407698271
 20
121.4750627080473
 30
0.0
 11
23.575062708148788
 21
122.4314344075967
 31
0.0
  0
LINE
  5
55
  8
PATTERN_FILL
  6
CONTINUOUS
 62
     7
 10
25.286072141183961
 20
121.42753175574811
 30
0.0
 11
23.52753175584775
 21
123.1860721410843
 31
0.0
  0
LINE
  5
56
  8
PATTERN_FILL
  6
CONTINUOUS
 62
     7
 10
25.793588341149931
 20
121.6271223369687
 30
0.0
 11
23.72712233706871
 21
123.6935883410499
 31
0.0
  0
LINE
  5
57
  8
PATTERN_FILL
  6
CONTINUOUS
 62
     7
 10
26.168434595339601
 20
121.9593828639656
 30
0.0
 11
24.05938286406559
 21
124.06843459523959
 31
0.0
  0
LINE
  5
58
  8
PATTERN_FILL
  6
CONTINUOUS
 62
     7
 10
26.41955411484777
 20
122.4153701256439
 30
0.0
 11
24.51537012574396
 21
124.3195541147477
 31
0.0
  0
LINE
  5
59
  8
PATTERN_FILL
  6
CONTINUOUS
 62
     7
 10
25.116015641686641
 20
121.4044932727717
 30
0.0
 11
26.495506727127768
 21
122.78398435821281
 31
0.0
  0
LINE
  5
5A
  8
PATTERN_FILL
  6
CONTINUOUS
 62
     7
 10
24.492776654433492
 20
121.488361066705
 30
0.0
 11
26.411638933194919
 21
123.40722334546651
 31
0.0
  0
LINE
  5
5B
  8
PATTERN_FILL
  6
CONTINUOUS
 62
     7
 10
24.042592232359311
 20
121.74528342581741
 30
0.0
 11
26.154716574082549
 21
123.85740776754071
 31
0.0
  0
LINE
  5
5C
  8
PATTERN_FILL
  6
CONTINUOUS
 62
     7
 10
23.715525126042671
 20
122.1253231006873
 30
0.0
 11
25.774676899212619
 21
124.1844748738573
 31
0.0
  0
LINE
  5
5D
  8
PATTERN_FILL
  6
CONTINUOUS
 62
     7
 10
23.52276358457361
 20
122.6396683404048
 30
0.0
 11
25.260331659495161
 21
124.37723641532639
 31
0.0
  0
LINE
  5
5E
  8
PATTERN_FILL
  6
CONTINUOUS
 62
     7
 10
23.591289741582681
 20
123.4153012786004
 30
0.0
 11
24.484698721299509
 21
124.3087102583173
 31
0.0
  0
LINE
  5
5F
  8
PATTERN_FILL
  6
CONTINUOUS
 62
     7
 10
26.492531356479759
 20
123.0494996651985
 30
0.0
 11
25.149499665298539
 21
124.39253135637971
 31
0.0
  0
LINE
  5
60
  8
SPEC
  6
CONTINUOUS
 62
     7
 10
17.5
 20
260.0
 30
0.0
 11
165.0
 21
260.0
 31
0.0
  0
LINE
  5
61
  8
SPEC
  6
CONTINUOUS
 62
     7
 10
17.5
 20
256.25
 30
0.0
 11
165.0
 21
256.25
 31
0.0
  0
LINE
  5
62
  8
SPEC
  6
CONTINUOUS
 62
     7
 10
17.5
 20
241.25
 30
0.0
 11
165.0
 21
241.25
 31
0.0
  0
LINE
  5
63
  8
SPEC
  6
CONTINUOUS
 62
     7
 10
17.5
 20
245.0
 30
0.0
 11
165.0
 21
245.0
 31
0.0
  0
LINE
  5
64
  8
SPEC
  6
CONTINUOUS
 62
     7
 10
17.5
 20
248.75
 30
0.0
 11
165.0
 21
248.75
 31
0.0
  0
LINE
  5
65
  8
SPEC
  6
CONTINUOUS
 62
     7
 10
17.5
 20
237.5
 30
0.0
 11
165.0
 21
237.5
 31
0.0
  0
LINE
  5
66
  8
SPEC
  6
CONTINUOUS
 62
     7
 10
17.5
 20
230.0
 30
0.0
 11
165.0
 21
230.0
 31
0.0
  0
LINE
  5
67
  8
SPEC
  6
CONTINUOUS
 62
     7
 10
17.5
 20
233.75
 30
0.0
 11
165.0
 21
233.75
 31
0.0
  0
LINE
  5
68
  8
SPEC
  6
CONTINUOUS
 62
     7
 10
17.5
 20
226.25
 30
0.0
 11
165.0
 21
226.25
 31
0.0
  0
LINE
  5
69
  8
SPEC
  6
CONTINUOUS
 62
     7
 10
17.5
 20
252.5
 30
0.0
 11
165.0
 21
252.5
 31
0.0
  0
TEXT
  5
6A
  8
SPEC
 62
     7
 10
51.286637329475461
 20
257.12972521611709
 30
0.0
 40
1.900314670138888
  1
エレクトレットコンデンサ型 
 41
0.7
 11
51.286637329475461
 21
259.03003988625591
 31
0.0
 73
     3
  0
LINE
  5
6B
  8
SPEC
  6
CONTINUOUS
 62
     7
 10
17.5
 20
260.0
 30
0.0
 11
17.5
 21
215.0
 31
0.0
  0
TEXT
  5
6C
  8
SPEC
 62
     7
 10
18.75
 20
261.39326999999997
 30
0.0
 40
2.4432617187500001
  1
仕様
 41
0.7
 11
18.75
 21
263.83653171875
 31
0.0
 73
     3
  0
LINE
  5
6D
  8
SPEC
  6
CONTINUOUS
 62
     7
 10
50.0
 20
260.0
 30
0.0
 11
50.0
 21
215.0
 31
0.0
  0
LINE
  5
6E
  8
SPEC
  6
CONTINUOUS
 62
     7
 10
165.0
 20
260.0
 30
0.0
 11
165.0
 21
215.0
 31
0.0
  0
TEXT
  5
6F
  8
SPEC
 62
     7
 10
18.862390862820881
 20
242.12126352922581
 30
0.0
 40
1.900314670138888
  1
外装色
 41
0.7
 11
18.862390862820881
 21
244.02157819936471
 31
0.0
 73
     3
  0
TEXT
  5
70
  8
SPEC
 62
     7
 10
18.843825764680879
 20
257.24213385731781
 30
0.0
 40
1.900314670138888
  1
形式
 41
0.7
 11
18.843825764680879
 21
259.14244852745668
 31
0.0
 73
     3
  0
TEXT
  5
71
  8
SPEC
 62
     7
 10
18.897516679829831
 20
234.71442986874629
 30
0.0
 40
1.900314670138888
  1
電源
 41
0.7
 11
18.897516679829831
 21
236.61474453888519
 31
0.0
 73
     3
  0
TEXT
  5
72
  8
SPEC
 62
     7
 10
18.89021658274963
 20
245.89922065749269
 30
0.0
 40
1.900314670138888
  1
最大音圧レベル
 41
0.7
 11
18.89021658274963
 21
247.79953532763159
 31
0.0
 73
     3
  0
TEXT
  5
73
  8
SPEC
 62
     7
 10
18.820717987096891
 20
238.37126352922581
 30
0.0
 40
1.900314670138888
  1
出力コネクタ 
 41
0.7
 11
18.820717987096891
 21
240.27157819936471
 31
0.0
 73
     3
  0
TEXT
  5
74
  8
SPEC
 62
     7
 10
18.88095596096089
 20
253.3993083666177
 30
0.0
 40
1.900314670138888
  1
周波数特性
 41
0.7
 11
18.88095596096089
 21
255.2996230367566
 31
0.0
 73
     3
  0
TEXT
  5
75
  8
SPEC
 62
     7
 10
18.843825764680879
 20
249.72356875917779
 30
0.0
 40
1.900314670138888
  1
指向特性
 41
0.7
 11
18.843825764680879
 21
251.62388342931661
 31
0.0
 73
     3
  0
TEXT
  5
76
  8
SPEC
 62
     7
 10
51.369719088200092
 20
242.14782666708831
 30
0.0
 40
1.900314670138888
  1
黒:WL51B,白:WL51W
 41
0.7
 11
51.369719088200092
 21
244.04814133722721
 31
0.0
 73
     3
  0
TEXT
  5
77
  8
SPEC
 62
     7
 10
50.599162043383323
 20
234.78494259550649
 30
0.0
 40
1.900314670138888
  1
トランスミッタ-より供給
 41
0.7
 11
50.599162043383323
 21
236.6852572656453
 31
0.0
 73
     3
  0
TEXT
  5
78
  8
SPEC
 62
     7
 10
51.314179560977287
 20
245.8705444722832
 30
0.0
 40
1.900314670138888
  1
138dB SPL
 41
0.7
 11
51.314179560977287
 21
247.7708591424221
 31
0.0
 73
     3
  0
TEXT
  5
79
  8
SPEC
 62
     7
 10
50.986614179384297
 20
238.3768246993998
 30
0.0
 40
1.900314670138888
  1
ミニTA4F
 41
0.7
 11
50.986614179384297
 21
240.2771393695387
 31
0.0
 73
     3
  0
TEXT
  5
7A
  8
SPEC
 62
     7
 10
51.39680625548268
 20
249.5792311250305
 30
0.0
 40
1.900314670138888
  1
単一指向性(カーディオイド)
 41
0.7
 11
51.39680625548268
 21
251.4795457951694
 31
0.0
 73
     3
  0
TEXT
  5
7B
  8
SPEC
 62
     7
 10
51.39680625548268
 20
253.28791777777781
 30
0.0
 40
1.900314670138888
  1
20Hz～20kHz
 41
0.7
 11
51.39680625548268
 21
255.1882324479167
 31
0.0
 73
     3
  0
TEXT
  5
7C
  8
SPEC
 62
     7
 10
18.923896597469309
 20
223.50319314202829
 30
0.0
 40
1.900314670138888
  1
付属品
 41
0.7
 11
18.923896597469309
 21
225.40350781216719
 31
0.0
 73
     3
  0
TEXT
  5
7D
  8
SPEC
 62
     7
 10
18.80528206711632
 20
230.97793619334121
 30
0.0
 40
1.900314670138888
  1
寸法
 41
0.7
 11
18.80528206711632
 21
232.8782508634801
 31
0.0
 73
     3
  0
TEXT
  5
7E
  8
SPEC
 62
     7
 10
18.825641296959581
 20
227.3127303852323
 30
0.0
 40
1.900314670138888
  1
重量
 41
0.7
 11
18.825641296959581
 21
229.2130450553712
 31
0.0
 73
     3
  0
TEXT
  5
7F
  8
SPEC
 62
     7
 10
51.279180862641681
 20
223.33464277942741
 30
0.0
 40
1.900314670138888
  1
ウインドスクリーン×2,ハイブーストEQキャップ×2,マイルドブーストEQキャップ×2,
 41
0.7
 11
51.279180862641681
 21
225.23495744956631
 31
0.0
 73
     3
  0
TEXT
  5
80
  8
SPEC
 62
     7
 10
51.433980880234081
 20
227.3299929112265
 30
0.0
 40
1.900314670138888
  1
約21g(ケーブル&コネクタ 含)
 41
0.7
 11
51.433980880234081
 21
229.23030758136539
 31
0.0
 73
     3
  0
TEXT
  5
81
  8
SPEC
 62
     7
 10
51.136480637907368
 20
230.94929058895809
 30
0.0
 40
1.900314670138888
  1
Φ6mm(マイク径)×1.5m(ケーブル長)
 41
0.7
 11
51.136480637907368
 21
232.84960525909699
 31
0.0
 73
     3
  0
TEXT
  5
82
  8
SPEC
 62
     7
 10
51.456252043759221
 20
219.79292353662919
 30
0.0
 40
1.900314670138888
  1
スイベルクリップ,デュアルタ イクリップ,マグネットマウント,ピンマウント,
 41
0.7
 11
51.456252043759221
 21
221.69323820676809
 31
0.0
 73
     3
  0
TEXT
  5
83
  8
SPEC
 62
     7
 10
51.420841768196432
 20
215.96552501884631
 30
0.0
 40
1.900314670138888
  1
マイクポーチ,布製マイクポーチ
 41
0.7
 11
51.420841768196432
 21
217.8658396889852
 31
0.0
 73
     3
  0
LINE
  5
84
  8
SPEC
  6
CONTINUOUS
 62
     7
 10
17.5
 20
215.0
 30
0.0
 11
165.0
 21
215.0
 31
0.0
  0
TEXT
  5
85
  8
DIMNSIONS
 62
     7
 10
79.999999999999986
 20
22.269490000000012
 30
0.0
 40
2.4432617187500001
  1
(単位：mm)
 41
0.7
 11
79.999999999999986
 21
24.71275171875001
 31
0.0
 73
     3
  0
LINE
  5
86
  8
DIMNSIONS
  6
CONTINUOUS
 62
     7
 10
22.0
 20
120.8999999999
 30
0.0
 11
22.0
 21
108.0
 31
0.0
  0
LINE
  5
87
  8
DIMNSIONS
  6
CONTINUOUS
 62
     7
 10
27.99999999999989
 20
120.8999999999
 30
0.0
 11
27.99999999999989
 21
108.0
 31
0.0
  0
LINE
  5
88
  8
DIMNSIONS
  6
CONTINUOUS
 62
     7
 10
22.0
 20
110.0
 30
0.0
 11
27.99999999999989
 21
110.0
 31
0.0
  0
LINE
  5
89
  8
DIMNSIONS
  6
CONTINUOUS
 62
     7
 10
22.0
 20
110.0
 30
0.0
 11
24.500622558593751
 21
110.6700397951502
 31
0.0
  0
LINE
  5
8A
  8
DIMNSIONS
  6
CONTINUOUS
 62
     7
 10
22.0
 20
110.0
 30
0.0
 11
24.500622558593751
 21
109.3299602048497
 31
0.0
  0
LINE
  5
8B
  8
DIMNSIONS
  6
CONTINUOUS
 62
     7
 10
27.99999999999989
 20
110.0
 30
0.0
 11
25.499377441406139
 21
109.3299602048497
 31
0.0
  0
LINE
  5
8C
  8
DIMNSIONS
  6
CONTINUOUS
 62
     7
 10
27.99999999999989
 20
110.0
 30
0.0
 11
25.499377441406139
 21
110.6700397951502
 31
0.0
  0
TEXT
  5
8D
  8
DIMNSIONS
 62
     7
 10
24.1180555555555
 20
110.9938888888889
 30
0.0
 40
2.7147352430555549
  1
6
 41
0.7
 11
24.1180555555555
 21
113.7086241319444
 31
0.0
 73
     3
  0
LINE
  5
8E
  8
DIMNSIONS
  6
CONTINUOUS
 62
     7
 10
34.999999999999993
 20
117.9999999999
 30
0.0
 11
34.999999999999993
 21
108.0
 31
0.0
  0
LINE
  5
8F
  8
DIMNSIONS
  6
CONTINUOUS
 62
     7
 10
48.999999999999993
 20
119.2999999999
 30
0.0
 11
48.999999999999993
 21
108.0
 31
0.0
  0
LINE
  5
90
  8
DIMNSIONS
  6
CONTINUOUS
 62
     7
 10
34.999999999999993
 20
110.0
 30
0.0
 11
48.999999999999993
 21
110.0
 31
0.0
  0
LINE
  5
91
  8
DIMNSIONS
  6
CONTINUOUS
 62
     7
 10
34.999999999999993
 20
110.0
 30
0.0
 11
37.500622558593733
 21
110.6700397951502
 31
0.0
  0
LINE
  5
92
  8
DIMNSIONS
  6
CONTINUOUS
 62
     7
 10
34.999999999999993
 20
110.0
 30
0.0
 11
37.500622558593733
 21
109.3299602048497
 31
0.0
  0
LINE
  5
93
  8
DIMNSIONS
  6
CONTINUOUS
 62
     7
 10
48.999999999999993
 20
110.0
 30
0.0
 11
46.499377441406239
 21
109.3299602048497
 31
0.0
  0
LINE
  5
94
  8
DIMNSIONS
  6
CONTINUOUS
 62
     7
 10
48.999999999999993
 20
110.0
 30
0.0
 11
46.499377441406239
 21
110.6700397951502
 31
0.0
  0
TEXT
  5
95
  8
DIMNSIONS
 62
     7
 10
40.2361111111111
 20
110.9938888888889
 30
0.0
 40
2.7147352430555549
  1
14
 41
0.7
 11
40.2361111111111
 21
113.7086241319444
 31
0.0
 73
     3
  0
LINE
  5
96
  8
DIMNSIONS
  6
CONTINUOUS
 62
     7
 10
34.999999999999993
 20
117.9999999999
 30
0.0
 11
34.999999999999993
 21
98.0
 31
0.0
  0
LINE
  5
97
  8
DIMNSIONS
  6
CONTINUOUS
 62
     7
 10
154.10016000000721
 20
115.6500549998685
 30
0.0
 11
154.10016000000721
 21
98.0
 31
0.0
  0
LINE
  5
98
  8
DIMNSIONS
  6
CONTINUOUS
 62
     7
 10
34.999999999999993
 20
100.0
 30
0.0
 11
154.10016000000721
 21
100.0
 31
0.0
  0
LINE
  5
99
  8
DIMNSIONS
  6
CONTINUOUS
 62
     7
 10
34.999999999999993
 20
100.0
 30
0.0
 11
37.500622558593733
 21
100.6700397951502
 31
0.0
  0
LINE
  5
9A
  8
DIMNSIONS
  6
CONTINUOUS
 62
     7
 10
34.999999999999993
 20
100.0
 30
0.0
 11
37.500622558593733
 21
99.329960204849755
 31
0.0
  0
LINE
  5
9B
  8
DIMNSIONS
  6
CONTINUOUS
 62
     7
 10
154.10016000000721
 20
100.0
 30
0.0
 11
151.59953744141339
 21
99.329960204849755
 31
0.0
  0
LINE
  5
9C
  8
DIMNSIONS
  6
CONTINUOUS
 62
     7
 10
154.10016000000721
 20
100.0
 30
0.0
 11
151.59953744141339
 21
100.6700397951502
 31
0.0
  0
TEXT
  5
9D
  8
DIMNSIONS
 62
     7
 10
91.022302222225804
 20
100.9938888888889
 30
0.0
 40
2.7147352430555549
  1
1500
 41
0.7
 11
91.022302222225804
 21
103.7086241319444
 31
0.0
 73
     3
  0
TEXT
  5
9E
  8
DATA
 62
     7
 10
150.0
 20
21.220657472908758
 30
0.0
 40
2.4432617187500001
  1
WL51B&WL51W
 41
0.7
 11
150.0
 21
23.66391919165876
 31
0.0
 73
     3
  0
TEXT
  5
9F
  8
DATA
 62
     7
 10
150.0
 20
28.380890000000011
 30
0.0
 40
2.4432617187500001
  1
SHURE
 41
0.7
 11
150.0
 21
30.824151718750009
 31
0.0
 73
     3
  0
TEXT
  5
A0
  8
DATA
 62
     7
 10
147.49999999999989
 20
24.99370413957541
 30
0.0
 40
1.6288411458333329
  1
ラベリアマイクロホン
 41
0.7
 11
147.49999999999989
 21
26.622545285408751
 31
0.0
 73
     3
  0
TEXT
  5
A1
  8
DATA
 62
     7
 10
20.0
 20
14.238
 30
0.0
 40
1.6288411458333329
  1
仕様および外観は予告なく変更されることがありますので、ご了承ください。
 41
0.7
 11
20.0
 21
15.86684114583333
 31
0.0
 73
     3
  0
LINE
  5
A2
  8
DATA
  6
CONTINUOUS
 62
     7
 10
134.50027000000691
 20
127.3999449998683
 30
0.0
 11
147.50019000000711
 21
128.14994499986841
 31
0.0
  0
LINE
  5
A3
  8
DATA
  6
CONTINUOUS
 62
     7
 10
134.50027000000691
 20
118.4000549998685
 30
0.0
 11
147.50019000000711
 21
117.6500549998685
 31
0.0
  0
LINE
  5
A4
  8
DATA
  6
CONTINUOUS
 62
     7
 10
134.50027000000691
 20
127.3999449998683
 30
0.0
 11
134.50027000000691
 21
118.4000549998685
 31
0.0
  0
LINE
  5
A5
  8
DATA
  6
CONTINUOUS
 62
     7
 10
147.50019000000711
 20
128.14994499986841
 30
0.0
 11
154.0002400000071
 21
128.14994499986841
 31
0.0
  0
LINE
  5
A6
  8
DATA
  6
CONTINUOUS
 62
     7
 10
147.50019000000711
 20
117.6500549998685
 30
0.0
 11
154.0002400000071
 21
117.6500549998685
 31
0.0
  0
LINE
  5
A7
  8
DATA
  6
CONTINUOUS
 62
     7
 10
154.0002400000071
 20
128.14994499986841
 30
0.0
 11
154.0002400000071
 21
117.6500549998685
 31
0.0
  0
LINE
  5
A8
  8
DATA
  6
CONTINUOUS
 62
     7
 10
154.0002400000071
 20
128.14994499986841
 30
0.0
 11
161.5000200000072
 21
128.14994499986841
 31
0.0
  0
LINE
  5
A9
  8
DATA
  6
CONTINUOUS
 62
     7
 10
161.5000200000072
 20
117.6500549998685
 30
0.0
 11
154.0002400000071
 21
117.6500549998685
 31
0.0
  0
LINE
  5
AA
  8
DATA
  6
CONTINUOUS
 62
     7
 10
161.5000200000072
 20
128.14994499986841
 30
0.0
 11
161.5000200000072
 21
117.6500549998685
 31
0.0
  0
LINE
  5
AB
  8
DATA
  6
CONTINUOUS
 62
     7
 10
161.5000200000072
 20
118.9000549998684
 30
0.0
 11
170.00000000000711
 21
118.9000549998684
 31
0.0
  0
LINE
  5
AC
  8
DATA
  6
CONTINUOUS
 62
     7
 10
170.00000000000711
 20
118.9000549998684
 30
0.0
 11
170.00000000000711
 21
126.8999449998683
 31
0.0
  0
LINE
  5
AD
  8
DATA
  6
CONTINUOUS
 62
     7
 10
154.10016000000721
 20
128.14994499986841
 30
0.0
 11
154.10016000000721
 21
117.6500549998685
 31
0.0
  0
LINE
  5
AE
  8
DATA
  6
CONTINUOUS
 62
     7
 10
169.50000000000719
 20
127.9400649998683
 30
0.0
 11
169.50000000000719
 21
126.8999449998683
 31
0.0
  0
LINE
  5
AF
  8
DATA
  6
CONTINUOUS
 62
     7
 10
169.3001200000073
 20
126.8999449998683
 30
0.0
 11
169.3001200000073
 21
127.7001349998683
 31
0.0
  0
POLYLINE
  5
B0
  8
DATA
  6
CONTINUOUS
 62
     7
 66
     1
 10
0.0
 20
0.0
 30
0.0
 70
   129
  0
VERTEX
  5
1BB
  8
DATA
  6
CONTINUOUS
 62
     7
 10
164.97503000000711
 20
127.11103499986829
 30
0.0
  0
VERTEX
  5
1BC
  8
DATA
  6
CONTINUOUS
 62
     7
 10
164.976392746801
 20
127.1106174685181
 30
0.0
  0
VERTEX
  5
1BD
  8
DATA
  6
CONTINUOUS
 62
     7
 10
164.9763927468012
 20
127.1106174685181
 30
0.0
 42
0.0515215183436723
  0
VERTEX
  5
1BE
  8
DATA
  6
CONTINUOUS
 62
     7
 10
165.0001300000072
 20
127.1059449998683
 30
0.0
  0
SEQEND
  5
1BF
  8
DATA
  6
CONTINUOUS
 62
     7
  0
LINE
  5
B6
  8
DATA
  6
CONTINUOUS
 62
     7
 10
169.3001200000073
 20
127.7001349998683
 30
0.0
 11
165.0241100000072
 21
126.9039749998683
 31
0.0
  0
POLYLINE
  5
B7
  8
DATA
  6
CONTINUOUS
 62
     7
 66
     1
 10
0.0
 20
0.0
 30
0.0
 70
   129
  0
VERTEX
  5
1C0
  8
DATA
  6
CONTINUOUS
 62
     7
 10
164.97503000000711
 20
127.11103499986829
 30
0.0
  0
VERTEX
  5
1C1
  8
DATA
  6
CONTINUOUS
 62
     7
 10
164.976392746801
 20
127.1106174685181
 30
0.0
  0
VERTEX
  5
1C2
  8
DATA
  6
CONTINUOUS
 62
     7
 10
164.9763927468012
 20
127.1106174685181
 30
0.0
 42
0.0515215183436723
  0
VERTEX
  5
1C3
  8
DATA
  6
CONTINUOUS
 62
     7
 10
165.0001300000072
 20
127.1059449998683
 30
0.0
  0
SEQEND
  5
1C4
  8
DATA
  6
CONTINUOUS
 62
     7
  0
LINE
  5
BD
  8
DATA
  6
CONTINUOUS
 62
     7
 10
162.24812000000711
 20
127.4770449998683
 30
0.0
 11
162.10102000000711
 21
127.6170449998684
 31
0.0
  0
LINE
  5
BE
  8
DATA
  6
CONTINUOUS
 62
     7
 10
162.4987300000071
 20
127.9098449998683
 30
0.0
 11
162.10102000000711
 21
127.6170449998684
 31
0.0
  0
LINE
  5
BF
  8
DATA
  6
CONTINUOUS
 62
     7
 10
162.53631000000721
 20
127.6883349998683
 30
0.0
 11
162.24812000000711
 21
127.4770449998683
 31
0.0
  0
LINE
  5
C0
  8
DATA
  6
CONTINUOUS
 62
     7
 10
162.53631000000721
 20
127.6883349998683
 30
0.0
 11
164.9761100000072
 21
126.9069749998683
 31
0.0
  0
LINE
  5
C1
  8
DATA
  6
CONTINUOUS
 62
     7
 10
164.97503000000711
 20
127.11103499986829
 30
0.0
 11
162.4987300000071
 21
127.9098449998683
 31
0.0
  0
LINE
  5
C2
  8
DATA
  6
CONTINUOUS
 62
     7
 10
165.0241100000072
 20
127.1080449998683
 30
0.0
 11
169.50000000000719
 21
127.9400649998683
 31
0.0
  0
POLYLINE
  5
C3
  8
DATA
  6
CONTINUOUS
 62
     7
 66
     1
 10
0.0
 20
0.0
 30
0.0
 70
   129
  0
VERTEX
  5
1C5
  8
DATA
  6
CONTINUOUS
 62
     7
 10
164.97503000000711
 20
127.11103499986829
 30
0.0
  0
VERTEX
  5
1C6
  8
DATA
  6
CONTINUOUS
 62
     7
 10
164.976392746801
 20
127.1106174685181
 30
0.0
  0
VERTEX
  5
1C7
  8
DATA
  6
CONTINUOUS
 62
     7
 10
164.9763927468012
 20
127.1106174685181
 30
0.0
 42
0.0515215183436723
  0
VERTEX
  5
1C8
  8
DATA
  6
CONTINUOUS
 62
     7
 10
165.0001300000072
 20
127.1059449998683
 30
0.0
  0
SEQEND
  5
1C9
  8
DATA
  6
CONTINUOUS
 62
     7
  0
LINE
  5
C9
  8
DATA
  6
CONTINUOUS
 62
     7
 10
162.0000400000072
 20
125.3999449998683
 30
0.0
 11
164.50009000000711
 21
125.3999449998683
 31
0.0
  0
LINE
  5
CA
  8
DATA
  6
CONTINUOUS
 62
     7
 10
162.0000400000072
 20
125.3999449998683
 30
0.0
 11
162.0000400000072
 21
126.8999449998683
 31
0.0
  0
LINE
  5
CB
  8
DATA
  6
CONTINUOUS
 62
     7
 10
164.50009000000711
 20
125.3999449998683
 30
0.0
 11
164.50009000000711
 21
126.8999449998683
 31
0.0
  0
LINE
  5
CC
  8
DATA
  6
CONTINUOUS
 62
     7
 10
162.0000400000072
 20
126.8999449998683
 30
0.0
 11
161.5000200000072
 21
126.8999449998683
 31
0.0
  0
LINE
  5
CD
  8
DATA
  6
CONTINUOUS
 62
     7
 10
164.50009000000711
 20
126.8999449998683
 30
0.0
 11
170.00000000000711
 21
126.8999449998683
 31
0.0
  0
LINE
  5
CE
  8
DATA
  6
CONTINUOUS
 62
     7
 10
164.4850200000071
 20
126.8909549998684
 30
0.0
 11
162.8321300000072
 21
126.8909549998684
 31
0.0
  0
LINE
  5
CF
  8
DATA
  6
CONTINUOUS
 62
     7
 10
162.8321300000072
 20
126.8909549998684
 30
0.0
 11
162.8321300000072
 21
127.2429549998683
 31
0.0
  0
LINE
  5
D0
  8
DATA
  6
CONTINUOUS
 62
     7
 10
162.8321300000072
 20
127.2429549998683
 30
0.0
 11
164.50009000000711
 21
126.8999449998683
 31
0.0
  0
LINE
  5
D1
  8
DATA
  6
CONTINUOUS
 62
     7
 10
147.50019000000711
 20
123.3499449998684
 30
0.0
 11
141.500310000007
 21
122.8999649998684
 31
0.0
  0
LINE
  5
D2
  8
DATA
  6
CONTINUOUS
 62
     7
 10
147.50019000000711
 20
122.4500449998684
 30
0.0
 11
141.500310000007
 21
122.8999649998684
 31
0.0
  0
LINE
  5
D3
  8
DATA
  6
CONTINUOUS
 62
     7
 10
147.50019000000711
 20
122.4500449998684
 30
0.0
 11
147.50019000000711
 21
123.3499449998684
 31
0.0
  0
LINE
  5
D4
  8
DATA
  6
CONTINUOUS
 62
     7
 10
147.50019000000711
 20
127.3499449998683
 30
0.0
 11
141.500310000007
 21
126.8999449998683
 31
0.0
  0
LINE
  5
D5
  8
DATA
  6
CONTINUOUS
 62
     7
 10
147.50019000000711
 20
126.4500449998683
 30
0.0
 11
141.500310000007
 21
126.8999449998683
 31
0.0
  0
LINE
  5
D6
  8
DATA
  6
CONTINUOUS
 62
     7
 10
147.50019000000711
 20
127.3499449998683
 30
0.0
 11
147.50019000000711
 21
126.4500449998683
 31
0.0
  0
LINE
  5
D7
  8
DATA
  6
CONTINUOUS
 62
     7
 10
147.50019000000711
 20
125.3499449998683
 30
0.0
 11
141.500310000007
 21
124.8999449998683
 31
0.0
  0
LINE
  5
D8
  8
DATA
  6
CONTINUOUS
 62
     7
 10
147.50019000000711
 20
124.4500449998684
 30
0.0
 11
141.500310000007
 21
124.8999449998683
 31
0.0
  0
LINE
  5
D9
  8
DATA
  6
CONTINUOUS
 62
     7
 10
147.50019000000711
 20
125.3499449998683
 30
0.0
 11
147.50019000000711
 21
124.4500449998684
 31
0.0
  0
LINE
  5
DA
  8
DATA
  6
CONTINUOUS
 62
     7
 10
147.50019000000711
 20
121.3499449998684
 30
0.0
 11
141.500310000007
 21
120.9000549998684
 31
0.0
  0
LINE
  5
DB
  8
DATA
  6
CONTINUOUS
 62
     7
 10
147.50019000000711
 20
120.4500449998684
 30
0.0
 11
141.500310000007
 21
120.9000549998684
 31
0.0
  0
LINE
  5
DC
  8
DATA
  6
CONTINUOUS
 62
     7
 10
147.50019000000711
 20
121.3499449998684
 30
0.0
 11
147.50019000000711
 21
120.4500449998684
 31
0.0
  0
LINE
  5
DD
  8
DATA
  6
CONTINUOUS
 62
     7
 10
147.50019000000711
 20
119.3499449998684
 30
0.0
 11
141.500310000007
 21
118.9000549998684
 31
0.0
  0
LINE
  5
DE
  8
DATA
  6
CONTINUOUS
 62
     7
 10
147.50019000000711
 20
118.4500649998684
 30
0.0
 11
141.500310000007
 21
118.9000549998684
 31
0.0
  0
LINE
  5
DF
  8
DATA
  6
CONTINUOUS
 62
     7
 10
147.50019000000711
 20
119.3499449998684
 30
0.0
 11
147.50019000000711
 21
118.4500649998684
 31
0.0
  0
CIRCLE
  5
E0
  8
DATA
  6
CONTINUOUS
 62
     7
 10
180.01226484427019
 20
123.29629499986829
 30
0.0
 40
0.5999000000000409
  0
CIRCLE
  5
E1
  8
DATA
  6
CONTINUOUS
 62
     7
 10
178.01226484427019
 20
123.83682209684611
 30
0.0
 40
0.6000200000000701
  0
CIRCLE
  5
E2
  8
DATA
  6
CONTINUOUS
 62
     7
 10
182.01226484427019
 20
123.83682209684611
 30
0.0
 40
0.5999300000000698
  0
CIRCLE
  5
E3
  8
DATA
  6
CONTINUOUS
 62
     7
 10
180.01226484427019
 20
121.29629499986829
 30
0.0
 40
0.5999000000000409
  0
LINE
  5
E4
  8
DATA
  6
CONTINUOUS
 62
     7
 10
179.01226484427019
 20
127.4261849998683
 30
0.0
 11
179.01226484427019
 21
126.6503049998684
 31
0.0
  0
LINE
  5
E5
  8
DATA
  6
CONTINUOUS
 62
     7
 10
181.01226484427019
 20
127.4261849998683
 30
0.0
 11
181.01226484427019
 21
126.6503049998684
 31
0.0
  0
LINE
  5
E6
  8
DATA
  6
CONTINUOUS
 62
     7
 10
177.84625484427019
 20
126.04629499986829
 30
0.0
 11
182.1771448442702
 21
126.04629499986829
 31
0.0
  0
ARC
  5
E7
  8
DATA
  6
CONTINUOUS
 62
     7
 10
180.01226484427019
 20
123.29629499986829
 30
0.0
 40
3.49991186747613
 50
106.6019797549916
 51
73.398020245008325
  0
ARC
  5
E8
  8
DATA
  6
CONTINUOUS
 62
     7
 10
180.01226484427019
 20
123.29629499986829
 30
0.0
 40
4.2492342147850692
 50
103.61146039991699
 51
76.401326097578874
  0
LINE
  5
E9
  8
DATA
  6
CONTINUOUS
 62
     7
 10
178.34126484427031
 20
126.37128499986839
 30
0.0
 11
181.6821648442702
 21
126.37128499986839
 31
0.0
  0
LINE
  5
EA
  8
DATA
  6
CONTINUOUS
 62
     7
 10
179.1121648442703
 20
128.04629499986831
 30
0.0
 11
180.9121348442703
 21
128.04629499986831
 31
0.0
  0
LINE
  5
EB
  8
DATA
  6
CONTINUOUS
 62
     7
 10
180.9121348442703
 20
128.04629499986831
 30
0.0
 11
180.9121348442703
 21
126.48518499986839
 31
0.0
  0
LINE
  5
EC
  8
DATA
  6
CONTINUOUS
 62
     7
 10
180.9121348442703
 20
126.48518499986839
 30
0.0
 11
179.1121648442703
 21
126.48518499986839
 31
0.0
  0
LINE
  5
ED
  8
DATA
  6
CONTINUOUS
 62
     7
 10
179.1121648442703
 20
126.48518499986839
 30
0.0
 11
179.1121648442703
 21
128.04629499986831
 31
0.0
  0
CIRCLE
  5
EE
  8
DATA
  6
CONTINUOUS
 62
     7
 10
180.01226484427019
 20
123.29629499986829
 30
0.0
 40
5.2499100000000212
  0
LINE
  5
EF
  8
DATA
  6
CONTINUOUS
 62
     7
 10
178.51226484427019
 20
128.32718499986831
 30
0.0
 11
178.51226484427019
 21
129.11730499986831
 31
0.0
  0
LINE
  5
F0
  8
DATA
  6
CONTINUOUS
 62
     7
 10
181.51226484427019
 20
129.11730499986831
 30
0.0
 11
181.51226484427019
 21
128.32718499986831
 31
0.0
  0
ARC
  5
F1
  8
DATA
  6
CONTINUOUS
 62
     7
 10
180.01226484427019
 20
128.3703049998683
 30
0.0
 40
1.675711490680905
 50
26.47330461095763
 51
153.5266953890424
  0
CIRCLE
  5
F2
  8
DATA
  6
CONTINUOUS
 62
     7
 10
180.01226484427019
 20
123.29629499986829
 30
0.0
 40
5.2499100000000212
  0
ARC
  5
F3
  8
DATA
  6
CONTINUOUS
 62
     7
 10
89.301411144471587
 20
125.2790386771934
 30
0.0
 40
4.4194173824158787
 50
315.00000000000051
 51
44.99999999999995
  0
ARC
  5
F4
  8
DATA
  6
CONTINUOUS
 62
     7
 10
95.551411144471444
 20
119.0290386771935
 30
0.0
 40
4.4194173824158787
 50
135.00000000000051
 51
225.00027502018131
  0
ARC
  5
F5
  8
DATA
  6
CONTINUOUS
 62
     7
 10
86.644257767523385
 20
125.2790386771934
 30
0.0
 40
4.4194173824158911
 50
315.00000000000068
 51
44.999999999999893
  0
ARC
  5
F6
  8
DATA
  6
CONTINUOUS
 62
     7
 10
92.894267767523417
 20
119.0290386771935
 30
0.0
 40
4.4194244534893441
 50
135.000091673101
 51
225.00009167310009
  0
ARC
  5
F7
  8
DATA
  6
CONTINUOUS
 62
     7
 10
157.9681100000071
 20
127.9740049998683
 30
0.0
 40
1.6756891300298029
 50
26.473303386677301
 51
153.52700145607321
  0
LINE
  5
F8
  8
DATA
  6
CONTINUOUS
 62
     7
 10
156.46810000000701
 20
128.72099499986831
 30
0.0
 11
156.46810000000701
 21
128.14994499986841
 31
0.0
  0
LINE
  5
F9
  8
DATA
  6
CONTINUOUS
 62
     7
 10
159.46809000000709
 20
128.72099499986831
 30
0.0
 11
159.46809000000709
 21
128.14994499986841
 31
0.0
  0
CIRCLE
  5
FA
  8
DATA
  6
CONTINUOUS
 62
     7
 10
25.0
 20
122.8999999999
 30
0.0
 40
3.0
  0
LINE
  5
FB
  8
DATA
  6
CONTINUOUS
 62
     7
 10
34.999999999999993
 20
119.9999999999
 30
0.0
 11
34.999999999999993
 21
125.7999999999
 31
0.0
  0
LINE
  5
FC
  8
DATA
  6
CONTINUOUS
 62
     7
 10
43.299999999999997
 20
119.9999999999
 30
0.0
 11
42.29999999999999
 21
119.9999999999
 31
0.0
  0
LINE
  5
FD
  8
DATA
  6
CONTINUOUS
 62
     7
 10
41.599999999999987
 20
119.9999999999
 30
0.0
 11
40.699999999999989
 21
119.9999999999
 31
0.0
  0
LINE
  5
FE
  8
DATA
  6
CONTINUOUS
 62
     7
 10
39.699999999999989
 20
119.9999999999
 30
0.0
 11
34.999999999999993
 21
119.9999999999
 31
0.0
  0
LINE
  5
FF
  8
DATA
  6
CONTINUOUS
 62
     7
 10
48.999999999999993
 20
124.4999999999
 30
0.0
 11
48.999999999999993
 21
121.2999999999
 31
0.0
  0
LINE
  5
100
  8
DATA
  6
CONTINUOUS
 62
     7
 10
34.999999999999993
 20
125.7999999999
 30
0.0
 11
39.699999999999989
 21
125.7999999999
 31
0.0
  0
LINE
  5
101
  8
DATA
  6
CONTINUOUS
 62
     7
 10
40.699999999999989
 20
125.7999999999
 30
0.0
 11
41.599999999999987
 21
125.7999999999
 31
0.0
  0
LINE
  5
102
  8
DATA
  6
CONTINUOUS
 62
     7
 10
42.29999999999999
 20
125.7999999999
 30
0.0
 11
43.299999999999997
 21
125.7999999999
 31
0.0
  0
CIRCLE
  5
103
  8
DATA
  6
CONTINUOUS
 62
     7
 10
25.0
 20
122.8999999999
 30
0.0
 40
1.5
  0
CIRCLE
  5
104
  8
DATA
  6
CONTINUOUS
 62
     7
 10
25.0
 20
122.8999999999
 30
0.0
 40
2.9000000000000048
  0
LINE
  5
105
  8
DATA
  6
CONTINUOUS
 62
     7
 10
39.699999999999989
 20
119.9999999999
 30
0.0
 11
39.699999999999989
 21
125.7999999999
 31
0.0
  0
LINE
  5
106
  8
DATA
  6
CONTINUOUS
 62
     7
 10
40.699999999999989
 20
119.9999999999
 30
0.0
 11
40.699999999999989
 21
125.7999999999
 31
0.0
  0
LINE
  5
107
  8
DATA
  6
CONTINUOUS
 62
     7
 10
40.699999999999989
 20
120.5499999998684
 30
0.0
 11
39.699999999999989
 21
120.5499999998684
 31
0.0
  0
LINE
  5
108
  8
DATA
  6
CONTINUOUS
 62
     7
 10
39.699999999999989
 20
125.24999999986839
 30
0.0
 11
40.699999999999989
 21
125.24999999986839
 31
0.0
  0
LINE
  5
109
  8
DATA
  6
CONTINUOUS
 62
     7
 10
41.599999999999987
 20
119.8999999999
 30
0.0
 11
41.599999999999987
 21
125.8999999999
 31
0.0
  0
LINE
  5
10A
  8
DATA
  6
CONTINUOUS
 62
     7
 10
42.29999999999999
 20
119.8999999999
 30
0.0
 11
42.29999999999999
 21
125.8999999999
 31
0.0
  0
LINE
  5
10B
  8
DATA
  6
CONTINUOUS
 62
     7
 10
41.599999999999987
 20
125.8999999999
 30
0.0
 11
42.29999999999999
 21
125.8999999999
 31
0.0
  0
LINE
  5
10C
  8
DATA
  6
CONTINUOUS
 62
     7
 10
41.599999999999987
 20
119.8999999999
 30
0.0
 11
42.29999999999999
 21
119.8999999999
 31
0.0
  0
LINE
  5
10D
  8
DATA
  6
CONTINUOUS
 62
     7
 10
48.999999999999993
 20
124.4999999999
 30
0.0
 11
43.29999999999999
 21
125.7999999999
 31
0.0
  0
LINE
  5
10E
  8
DATA
  6
CONTINUOUS
 62
     7
 10
48.999999999999993
 20
121.2999999999
 30
0.0
 11
43.29999999999999
 21
119.9999999999
 31
0.0
  0
LINE
  5
10F
  8
DATA
  6
CONTINUOUS
 62
     7
 10
48.999999999999993
 20
123.8999999998684
 30
0.0
 11
90.900000000000006
 21
123.8999999998684
 31
0.0
  0
LINE
  5
110
  8
DATA
  6
CONTINUOUS
 62
     7
 10
48.999999999999993
 20
121.8999999998684
 30
0.0
 11
89.534372890625534
 21
121.8999999998684
 31
0.0
  0
LINE
  5
111
  8
DATA
  6
CONTINUOUS
 62
     7
 10
117.50027000000679
 20
124.8999999998684
 30
0.0
 11
117.50027000000679
 21
120.8999999998684
 31
0.0
  0
LINE
  5
112
  8
DATA
  6
CONTINUOUS
 62
     7
 10
134.50027000000691
 20
125.3999999998684
 30
0.0
 11
117.50027000000679
 21
124.8999999998684
 31
0.0
  0
LINE
  5
113
  8
DATA
  6
CONTINUOUS
 62
     7
 10
134.50027000000691
 20
120.3999999998684
 30
0.0
 11
117.50027000000679
 21
120.8999999998684
 31
0.0
  0
LINE
  5
114
  8
DATA
  6
CONTINUOUS
 62
     7
 10
93.500161235444054
 20
123.8999999998684
 30
0.0
 11
117.50027000000679
 21
123.8999999998684
 31
0.0
  0
LINE
  5
115
  8
DATA
  6
CONTINUOUS
 62
     7
 10
92.191525568487563
 20
121.8999999998684
 30
0.0
 11
117.50027000000679
 21
121.8999999998684
 31
0.0
  0
ENDSEC
  0
EOF
