  0
SECTION
  2
HEADER
  9
$ACADVER
  1
AC1009
  9
$INSBASE
 10
0.0
 20
0.0
 30
0.0
  9
$EXTMIN
 10
-80.012748558621865
 20
-131.2306395013035
 30
-0.0015258207003583
  9
$EXTMAX
 10
282.7306077200144
 20
403.53214576640943
 30
0.0000000349246037
  9
$LIMMIN
 10
0.0
 20
0.0
  9
$LIMMAX
 10
0.0
 20
0.0
  9
$ORTHOMODE
 70
     0
  9
$REGENMODE
 70
     1
  9
$FILLMODE
 70
     1
  9
$QTEXTMODE
 70
     0
  9
$MIRRTEXT
 70
     1
  9
$DRAGMODE
 70
     2
  9
$LTSCALE
 40
2.0
  9
$OSMODE
 70
    37
  9
$ATTMODE
 70
     1
  9
$TEXTSIZE
 40
0.0
  9
$TRACEWID
 40
0.05
  9
$TEXTSTYLE
  7
STANDARD
  9
$CLAYER
  8
0
  9
$CELTYPE
  6
CONTINUOUS
  9
$CECOLOR
 62
   256
  9
$DIMSCALE
 40
1.0
  9
$DIMASZ
 40
0.18
  9
$DIMEXO
 40
0.0625
  9
$DIMDLI
 40
0.38
  9
$DIMRND
 40
0.0
  9
$DIMDLE
 40
0.0
  9
$DIMEXE
 40
0.18
  9
$DIMTP
 40
0.0
  9
$DIMTM
 40
0.0
  9
$DIMTXT
 40
0.18
  9
$DIMCEN
 40
0.09
  9
$DIMTSZ
 40
0.0
  9
$DIMTOL
 70
     0
  9
$DIMLIM
 70
     0
  9
$DIMTIH
 70
     1
  9
$DIMTOH
 70
     1
  9
$DIMSE1
 70
     0
  9
$DIMSE2
 70
     0
  9
$DIMTAD
 70
     0
  9
$DIMZIN
 70
     0
  9
$DIMBLK
  1

  9
$DIMASO
 70
     1
  9
$DIMSHO
 70
     1
  9
$DIMPOST
  1

  9
$DIMAPOST
  1

  9
$DIMALT
 70
     0
  9
$DIMALTD
 70
     2
  9
$DIMALTF
 40
25.399999999999999
  9
$DIMLFAC
 40
1.0
  9
$DIMTOFL
 70
     0
  9
$DIMTVP
 40
0.0
  9
$DIMTIX
 70
     0
  9
$DIMSOXD
 70
     0
  9
$DIMSAH
 70
     0
  9
$DIMBLK1
  1

  9
$DIMBLK2
  1

  9
$DIMSTYLE
  2
STANDARD
  9
$DIMCLRD
 70
     0
  9
$DIMCLRE
 70
     0
  9
$DIMCLRT
 70
     0
  9
$DIMTFAC
 40
1.0
  9
$DIMGAP
 40
0.09
  9
$LUNITS
 70
     2
  9
$LUPREC
 70
     4
  9
$SKETCHINC
 40
0.1
  9
$FILLETRAD
 40
0.0
  9
$AUNITS
 70
     0
  9
$AUPREC
 70
     0
  9
$MENU
  1
acad
  9
$ELEVATION
 40
0.0
  9
$PELEVATION
 40
0.0
  9
$THICKNESS
 40
0.0
  9
$LIMCHECK
 70
     0
  9
$BLIPMODE
 70
     0
  9
$CHAMFERA
 40
0.0
  9
$CHAMFERB
 40
0.0
  9
$SKPOLY
 70
     0
  9
$TDCREATE
 40
2452044.4086226849
  9
$TDUPDATE
 40
2452044.4104122678
  9
$TDINDWG
 40
0.0001239583
  9
$TDUSRTIMER
 40
0.0001239583
  9
$USRTIMER
 70
     1
  9
$ANGBASE
 50
0.0
  9
$ANGDIR
 70
     0
  9
$PDMODE
 70
     0
  9
$PDSIZE
 40
0.0
  9
$PLINEWID
 40
0.0
  9
$COORDS
 70
     2
  9
$SPLFRAME
 70
     0
  9
$SPLINETYPE
 70
     6
  9
$SPLINESEGS
 70
     8
  9
$ATTDIA
 70
     0
  9
$ATTREQ
 70
     1
  9
$HANDLING
 70
-16383
  9
$HANDSEED
  5
19A
  9
$SURFTAB1
 70
     6
  9
$SURFTAB2
 70
     6
  9
$SURFTYPE
 70
     6
  9
$SURFU
 70
     6
  9
$SURFV
 70
     6
  9
$UCSNAME
  2

  9
$UCSORG
 10
0.0
 20
0.0
 30
0.0
  9
$UCSXDIR
 10
1.0
 20
0.0
 30
0.0
  9
$UCSYDIR
 10
0.0
 20
1.0
 30
0.0
  9
$PUCSNAME
  2

  9
$PUCSORG
 10
0.0
 20
0.0
 30
0.0
  9
$PUCSXDIR
 10
1.0
 20
0.0
 30
0.0
  9
$PUCSYDIR
 10
0.0
 20
1.0
 30
0.0
  9
$USERI1
 70
     0
  9
$USERI2
 70
     0
  9
$USERI3
 70
     0
  9
$USERI4
 70
     0
  9
$USERI5
 70
     0
  9
$USERR1
 40
0.0
  9
$USERR2
 40
0.0
  9
$USERR3
 40
0.0
  9
$USERR4
 40
0.0
  9
$USERR5
 40
0.0
  9
$WORLDVIEW
 70
     1
  9
$SHADEDGE
 70
     3
  9
$SHADEDIF
 70
    70
  9
$TILEMODE
 70
     1
  9
$MAXACTVP
 70
    16
  9
$PLIMCHECK
 70
     0
  9
$PEXTMIN
 10
1.0000000000000000E+020
 20
1.0000000000000000E+020
 30
1.0000000000000000E+020
  9
$PEXTMAX
 10
-1.0000000000000000E+020
 20
-1.0000000000000000E+020
 30
-1.0000000000000000E+020
  9
$PLIMMIN
 10
0.0
 20
0.0
  9
$PLIMMAX
 10
12.0
 20
9.0
  9
$UNITMODE
 70
     0
  9
$VISRETAIN
 70
     0
  9
$PLINEGEN
 70
     1
  9
$PSLTSCALE
 70
     0
  0
ENDSEC
  0
SECTION
  2
TABLES
  0
TABLE
  2
VPORT
 70
     2
  0
VPORT
  2
*ACTIVE
 70
     0
 10
0.0
 20
0.0
 11
1.0
 21
1.0
 12
101.3589295806962
 22
136.15075313255289
 13
0.0
 23
0.0
 14
1.0
 24
1.0
 15
0.0
 25
0.0
 16
0.0
 26
0.0
 36
1.0
 17
0.0
 27
0.0
 37
0.0
 40
540.68266849945894
 41
1.8040665434380769
 42
50.0
 43
0.0
 44
0.0
 50
0.0
 51
0.0
 71
     0
 72
   100
 73
     1
 74
     1
 75
     0
 76
     0
 77
     0
 78
     0
  0
ENDTAB
  0
TABLE
  2
LTYPE
 70
    11
  0
LTYPE
  2
CONTINUOUS
 70
     0
  3
Solid line
 72
    65
 73
     0
 40
0.0
  0
LTYPE
  2
VECTORWORKS_DASH_01
 70
     0
  3
(unavailable)
 72
    65
 73
     2
 40
2.116537475585937
 49
1.058074951171875
 49
-1.058462524414062
  0
LTYPE
  2
VECTORWORKS_DASH_02
 70
     0
  3
(unavailable)
 72
    65
 73
     2
 40
3.5276916503906239
 49
2.469229125976562
 49
-1.058462524414062
  0
LTYPE
  2
VECTORWORKS_DASH_03
 70
     0
  3
(unavailable)
 72
    65
 73
     2
 40
6.3499999999999988
 49
5.2915374755859359
 49
-1.058462524414062
  0
LTYPE
  2
VECTORWORKS_DASH_04
 70
     0
  3
(unavailable)
 72
    65
 73
     2
 40
7.7607666015624988
 49
6.7026916503906238
 49
-1.058074951171875
  0
LTYPE
  2
VECTORWORKS_DASH_05
 70
     0
  3
(unavailable)
 72
    65
 73
     2
 40
1.058074951171875
 49
0.352691650390625
 49
-0.70538330078125
  0
LTYPE
  2
VECTORWORKS_DASH_06
 70
     0
  3
(unavailable)
 72
    65
 73
     4
 40
5.2915374755859359
 49
3.1749999999999989
 49
-1.058074951171875
 49
0.352691650390625
 49
-0.7057708740234375
  0
LTYPE
  2
VECTORWORKS_DASH_07
 70
     0
  3
(unavailable)
 72
    65
 73
     6
 40
9.5249999999999986
 49
3.1749999999999989
 49
-1.058074951171875
 49
3.1749999999999989
 49
-1.058462524414062
 49
0.352691650390625
 49
-0.7057708740234375
  0
LTYPE
  2
VECTORWORKS_DASH_08
 70
     0
  3
(unavailable)
 72
    65
 73
     6
 40
6.3499999999999988
 49
3.1749999999999989
 49
-1.058074951171875
 49
0.352691650390625
 49
-0.7057708740234375
 49
0.352691650390625
 49
-0.7057708740234375
  0
LTYPE
  2
VECTORWORKS_DASH_09
 70
     0
  3
(unavailable)
 72
    65
 73
     4
 40
25.399999999999999
 49
19.04999999999999
 49
-1.411154174804687
 49
3.5276916503906239
 49
-1.411154174804687
  0
LTYPE
  2
VECTORWORKS_DASH_10
 70
     0
  3
(unavailable)
 72
    65
 73
     6
 40
30.162499999999991
 49
19.04999999999999
 49
-1.411154174804687
 49
3.5276916503906239
 49
-1.411154174804687
 49
3.1749999999999989
 49
-1.587499999999999
  0
ENDTAB
  0
TABLE
  2
LAYER
 70
     6
  0
LAYER
  2
0
 70
     0
 62
     7
  6
CONTINUOUS
  0
LAYER
  2
HIBINO-BASE
 70
     0
 62
     7
  6
CONTINUOUS
  0
LAYER
  2
PATTERN_FILL
 70
     0
 62
     7
  6
CONTINUOUS
  0
LAYER
  2
SPEC
 70
     0
 62
     7
  6
CONTINUOUS
  0
LAYER
  2
DIMNSIONS
 70
     0
 62
     7
  6
CONTINUOUS
  0
LAYER
  2
DATA
 70
     0
 62
     7
  6
CONTINUOUS
  0
ENDTAB
  0
TABLE
  2
STYLE
 70
     1
  0
STYLE
  2
STANDARD
 70
     0
 40
0.0
 41
1.0
 50
0.0
 71
     0
 42
0.0
  3
txt
  4
BIGFONT.SHX
  0
ENDTAB
  0
TABLE
  2
VIEW
 70
     0
  0
ENDTAB
  0
TABLE
  2
UCS
 70
     0
  0
ENDTAB
  0
TABLE
  2
APPID
 70
     1
  0
APPID
  2
ACAD
 70
     0
  0
ENDTAB
  0
TABLE
  2
DIMSTYLE
 70
     1
  0
DIMSTYLE
  2
STANDARD
 70
     0
  3

  4

  5

  6

  7

 40
1.0
 41
0.18
 42
0.0625
 43
0.38
 44
0.18
 45
0.0
 46
0.0
 47
0.0
 48
0.0
140
0.18
141
0.09
142
0.0
143
25.399999999999999
144
1.0
145
0.0
146
1.0
147
0.09
 71
     0
 72
     0
 73
     1
 74
     1
 75
     0
 76
     0
 77
     0
 78
     0
170
     0
171
     2
172
     0
173
     0
174
     0
175
     0
176
     0
177
     0
178
     0
  0
ENDTAB
  0
ENDSEC
  0
SECTION
  2
BLOCKS
  0
BLOCK
  8
0
  2
$MODEL_SPACE
 70
     0
 10
0.0
 20
0.0
 30
0.0
  3
$MODEL_SPACE
  1

  0
ENDBLK
  5
17B
  8
0
  0
BLOCK
 67
     1
  8
0
  2
$PAPER_SPACE
 70
     0
 10
0.0
 20
0.0
 30
0.0
  3
$PAPER_SPACE
  1

  0
ENDBLK
  5
179
 67
     1
  8
0
  0
BLOCK
  8
DIMNSIONS
  2
*G0
 70
     1
 10
0.0
 20
0.0
 30
0.0
  3
*G0
  1

  0
TEXT
  5
32
  8
DIMNSIONS
 62
     7
 10
134.08888999999991
 20
-72.277749999999997
 30
0.0
 40
5.6444499999999991
  1
23
 50
90.0
 11
128.4444399999999
 21
-72.277749999999997
 31
0.0
 73
     3
  0
ENDBLK
  5
33
  8
DIMNSIONS
  0
BLOCK
  8
DIMNSIONS
  2
*G1
 70
     1
 10
0.0
 20
0.0
 30
0.0
  3
*G1
  1

  0
TEXT
  5
35
  8
DIMNSIONS
 62
     7
 10
159.08888999999991
 20
-75.805530000000005
 30
0.0
 40
5.6444499999999991
  1
42.5
 50
90.0
 11
153.4444399999999
 21
-75.805530000000005
 31
0.0
 73
     3
  0
ENDBLK
  5
36
  8
DIMNSIONS
  0
BLOCK
  8
DIMNSIONS
  2
*G2
 70
     1
 10
0.0
 20
0.0
 30
0.0
  3
*G2
  1

  0
TEXT
  5
38
  8
DIMNSIONS
 62
     7
 10
-50.371670000000002
 20
13.411110000000001
 30
0.0
 40
5.6444499999999991
  1
160
 11
-50.371670000000002
 21
19.055559999999989
 31
0.0
 73
     3
  0
ENDBLK
  5
39
  8
DIMNSIONS
  0
BLOCK
  8
DIMNSIONS
  2
*G3
 70
     1
 10
0.0
 20
0.0
 30
0.0
  3
*G3
  1

  0
TEXT
  5
3B
  8
DIMNSIONS
 62
     7
 10
-30.77167
 20
-11.588889999999999
 30
0.0
 40
5.6444499999999991
  1
121
 11
-30.77167
 21
-5.9444400000000002
 31
0.0
 73
     3
  0
ENDBLK
  5
3C
  8
DIMNSIONS
  0
BLOCK
  8
DIMNSIONS
  2
*G4
 70
     1
 10
0.0
 20
0.0
 30
0.0
  3
*G4
  1

  0
TEXT
  5
3E
  8
DIMNSIONS
 62
     7
 10
-109.00779
 20
-11.58889999999999
 30
0.0
 40
5.6444499999999991
  1
39
 11
-109.00779
 21
-5.9444499999999989
 31
0.0
 73
     3
  0
ENDBLK
  5
3F
  8
DIMNSIONS
  0
ENDSEC
  0
SECTION
  2
ENTITIES
  0
LINE
  5
40
  8
HIBINO-BASE
  6
CONTINUOUS
 62
     7
 10
-80.0
 20
403.53181999999993
 30
0.0
 11
280.0
 21
403.53181999999993
 31
0.0
  0
LINE
  5
41
  8
HIBINO-BASE
  6
CONTINUOUS
 62
     7
 10
280.0
 20
-116.46818
 30
0.0
 11
-80.0
 21
-116.46818
 31
0.0
  0
LINE
  5
42
  8
HIBINO-BASE
  6
CONTINUOUS
 62
     7
 10
-80.0
 20
-116.46818
 30
0.0
 11
-80.0
 21
403.53181999999993
 31
0.0
  0
TEXT
  5
43
  8
HIBINO-BASE
 62
     7
 10
-65.632000000000005
 20
-128.72415000000001
 30
0.0
 40
7.4851700000000001
  1
Hibino Corporation
 11
-65.632000000000005
 21
-121.23898
 31
0.0
 73
     3
  0
LINE
  5
44
  8
HIBINO-BASE
  6
CONTINUOUS
 62
     7
 10
280.0
 20
403.53181999999993
 30
0.0
 11
280.0
 21
-116.46818
 31
0.0
  0
LINE
  5
45
  8
HIBINO-BASE
  6
CONTINUOUS
 62
     7
 10
100.0
 20
-71.46817999999999
 30
0.0
 11
280.0
 21
-71.46817999999999
 31
0.0
  0
LINE
  5
46
  8
HIBINO-BASE
  6
CONTINUOUS
 62
     7
 10
100.0
 20
-116.46818
 30
0.0
 11
100.0
 21
-71.46817999999999
 31
0.0
  0
TEXT
  5
47
  8
HIBINO-BASE
 62
     7
 10
101.8
 20
-76.587490000000003
 30
0.0
 40
3.742589999999999
  1
NOTE
 11
101.8
 21
-72.844899999999996
 31
0.0
 73
     3
  0
LINE
  5
48
  8
HIBINO-BASE
  6
CONTINUOUS
 62
     7
 10
170.0
 20
-116.46818
 30
0.0
 11
170.0
 21
-71.46817999999999
 31
0.0
  0
TEXT
  5
49
  8
HIBINO-BASE
 62
     7
 10
171.80000000000001
 20
-76.587490000000003
 30
0.0
 40
3.742589999999999
  1
TITLE
 11
171.80000000000001
 21
-72.844899999999996
 31
0.0
 73
     3
  0
TEXT
  5
4A
  8
HIBINO-BASE
 62
     7
 10
200.1367799999999
 20
-128.72415000000001
 30
0.0
 40
7.4851700000000001
  1
ヒビノ株式会社
 11
200.1367799999999
 21
-121.23898
 31
0.0
 73
     3
  0
LINE
  5
4B
  8
HIBINO-BASE
  6
CONTINUOUS
 62
     7
 10
100.0
 20
-96.46817999999999
 30
0.0
 11
280.0
 21
-96.46817999999999
 31
0.0
  0
TEXT
  5
4C
  8
HIBINO-BASE
 62
     7
 10
196.80000000000001
 20
-101.47485
 30
0.0
 40
3.742589999999999
  1
DRAWN
 11
196.80000000000001
 21
-97.732260000000011
 31
0.0
 73
     3
  0
TEXT
  5
4D
  8
HIBINO-BASE
 62
     7
 10
146.80000000000001
 20
-101.47485
 30
0.0
 40
3.742589999999999
  1
DATE
 11
146.80000000000001
 21
-97.732260000000011
 31
0.0
 73
     3
  0
TEXT
  5
4E
  8
HIBINO-BASE
 62
     7
 10
102.2
 20
-101.45309
 30
0.0
 40
3.3866700000000001
  1
図面サイズ
 11
102.2
 21
-98.066419999999994
 31
0.0
 73
     3
  0
TEXT
  5
4F
  8
HIBINO-BASE
 62
     7
 10
126.8
 20
-101.47485
 30
0.0
 40
3.742589999999999
  1
SCALE
 11
126.8
 21
-97.732260000000011
 31
0.0
 73
     3
  0
TEXT
  5
50
  8
HIBINO-BASE
 62
     7
 10
171.80000000000001
 20
-101.47485
 30
0.0
 40
3.742589999999999
  1
DESIGN
 11
171.80000000000001
 21
-97.732260000000011
 31
0.0
 73
     3
  0
TEXT
  5
51
  8
HIBINO-BASE
 62
     7
 10
246.7999999999999
 20
-101.47485
 30
0.0
 40
3.742589999999999
  1
DRAWING NO.
 11
246.7999999999999
 21
-97.732260000000011
 31
0.0
 73
     3
  0
TEXT
  5
52
  8
HIBINO-BASE
 62
     7
 10
221.7999999999999
 20
-101.47485
 30
0.0
 40
3.742589999999999
  1
CHECK
 11
221.7999999999999
 21
-97.732260000000011
 31
0.0
 73
     3
  0
LINE
  5
53
  8
HIBINO-BASE
  6
CONTINUOUS
 62
     7
 10
128.75
 20
-113.9681799999999
 30
0.0
 11
136.25
 21
-106.46818
 31
0.0
  0
TEXT
  5
54
  8
HIBINO-BASE
 62
     7
 10
127.5
 20
-109.56095000000001
 30
0.0
 40
4.5155500000000002
  1
1
 11
127.5
 21
-105.0453999999999
 31
0.0
 73
     3
  0
LINE
  5
55
  8
HIBINO-BASE
  6
CONTINUOUS
 62
     7
 10
125.0
 20
-116.46818
 30
0.0
 11
125.0
 21
-96.46817999999999
 31
0.0
  0
LINE
  5
56
  8
HIBINO-BASE
  6
CONTINUOUS
 62
     7
 10
145.0
 20
-116.46818
 30
0.0
 11
145.0
 21
-96.46817999999999
 31
0.0
  0
LINE
  5
57
  8
HIBINO-BASE
  6
CONTINUOUS
 62
     7
 10
195.0
 20
-96.46817999999999
 30
0.0
 11
195.0
 21
-116.46818
 31
0.0
  0
LINE
  5
58
  8
HIBINO-BASE
  6
CONTINUOUS
 62
     7
 10
245.0
 20
-96.46817999999999
 30
0.0
 11
245.0
 21
-116.46818
 31
0.0
  0
LINE
  5
59
  8
HIBINO-BASE
  6
CONTINUOUS
 62
     7
 10
220.0
 20
-116.46818
 30
0.0
 11
220.0
 21
-96.46817999999999
 31
0.0
  0
TEXT
  5
5A
  8
HIBINO-BASE
 62
     7
 10
107.82178
 20
-110.96326999999999
 30
0.0
 40
6.7733299999999987
  1
A4
 11
107.82178
 21
-104.18994000000001
 31
0.0
 73
     3
  0
TEXT
  5
5B
  8
HIBINO-BASE
 62
     7
 10
146.71307999999991
 20
-110.84281
 30
0.0
 40
3.742589999999999
  1
'00.11.
 11
146.71307999999991
 21
-107.10021999999999
 31
0.0
 73
     3
  0
TEXT
  5
5C
  8
HIBINO-BASE
 62
     7
 10
135.0
 20
-113.31094999999991
 30
0.0
 40
4.5155500000000002
  1
2
 11
135.0
 21
-108.7954
 31
0.0
 73
     3
  0
LINE
  5
5D
  8
PATTERN_FILL
  6
CONTINUOUS
 62
     7
 10
-2.0799999999999979
 20
67.430030000000002
 30
0.0
 11
-23.42999
 21
88.740290000000002
 31
0.0
  0
LINE
  5
5E
  8
PATTERN_FILL
  6
CONTINUOUS
 62
     7
 10
-2.0799999999999979
 20
63.609999999999999
 30
0.0
 11
-25.079999999999998
 21
86.771150000000006
 31
0.0
  0
LINE
  5
5F
  8
PATTERN_FILL
  6
CONTINUOUS
 62
     7
 10
-25.079999999999998
 20
78.430350000000004
 30
0.0
 11
-13.350099999999991
 21
90.160099999999986
 31
0.0
  0
LINE
  5
60
  8
PATTERN_FILL
  6
CONTINUOUS
 62
     7
 10
-25.079999999999998
 20
82.250349999999997
 30
0.0
 11
-17.17011999999999
 21
90.160120000000006
 31
0.0
  0
LINE
  5
61
  8
PATTERN_FILL
  6
CONTINUOUS
 62
     7
 10
-25.079999999999998
 20
86.070349999999991
 30
0.0
 11
-22.028159999999989
 21
89.122119999999995
 31
0.0
  0
LINE
  5
62
  8
PATTERN_FILL
  6
CONTINUOUS
 62
     7
 10
-2.0799999999999979
 20
59.789999999999999
 30
0.0
 11
-24.840530000000001
 21
82.709999999999994
 31
0.0
  0
LINE
  5
63
  8
PATTERN_FILL
  6
CONTINUOUS
 62
     7
 10
-2.0799999999999979
 20
55.969999999999999
 30
0.0
 11
-24.840530000000001
 21
78.730530000000002
 31
0.0
  0
LINE
  5
64
  8
PATTERN_FILL
  6
CONTINUOUS
 62
     7
 10
-9.5799999999999983
 20
52.009999999999998
 30
0.0
 11
-25.0
 21
67.430000000000007
 31
0.0
  0
LINE
  5
65
  8
PATTERN_FILL
  6
CONTINUOUS
 62
     7
 10
-13.609830000000001
 20
52.219830000000002
 30
0.0
 11
-25.0
 21
63.609999999999999
 31
0.0
  0
LINE
  5
66
  8
PATTERN_FILL
  6
CONTINUOUS
 62
     7
 10
-25.079999999999998
 20
59.330350000000003
 30
0.0
 11
-2.0799999999999979
 21
82.33005
 31
0.0
  0
LINE
  5
67
  8
PATTERN_FILL
  6
CONTINUOUS
 62
     7
 10
-25.06914999999999
 20
55.520849999999989
 30
0.0
 11
-2.0799999999999979
 21
78.509999999999991
 31
0.0
  0
LINE
  5
68
  8
PATTERN_FILL
  6
CONTINUOUS
 62
     7
 10
-23.040769999999991
 20
53.729230000000001
 30
0.0
 11
-2.0799999999999979
 21
74.689999999999998
 31
0.0
  0
LINE
  5
69
  8
PATTERN_FILL
  6
CONTINUOUS
 62
     7
 10
-20.0
 20
52.950000000000003
 30
0.0
 11
-2.0799999999999979
 21
70.870000000000005
 31
0.0
  0
LINE
  5
6A
  8
PATTERN_FILL
  6
CONTINUOUS
 62
     7
 10
-16.68
 20
52.450000000000003
 30
0.0
 11
-2.0799999999999979
 21
67.049999999999997
 31
0.0
  0
LINE
  5
6B
  8
PATTERN_FILL
  6
CONTINUOUS
 62
     7
 10
-25.079999999999998
 20
63.150350000000003
 30
0.0
 11
-2.0799999999999979
 21
86.150049999999993
 31
0.0
  0
LINE
  5
6C
  8
PATTERN_FILL
  6
CONTINUOUS
 62
     7
 10
-25.079999999999998
 20
66.970349999999996
 30
0.0
 11
-2.0799999999999979
 21
89.970049999999986
 31
0.0
  0
LINE
  5
6D
  8
PATTERN_FILL
  6
CONTINUOUS
 62
     7
 10
-25.079999999999998
 20
70.790350000000004
 30
0.0
 11
-5.3200999999999956
 21
90.549999999999983
 31
0.0
  0
LINE
  5
6E
  8
PATTERN_FILL
  6
CONTINUOUS
 62
     7
 10
-25.079999999999998
 20
74.610349999999997
 30
0.0
 11
-8.9833799999999968
 21
90.706770000000006
 31
0.0
  0
LINE
  5
6F
  8
PATTERN_FILL
  6
CONTINUOUS
 62
     7
 10
-2.0799999999999979
 20
86.530000000000001
 30
0.0
 11
-6.2167900000000031
 21
90.666700000000006
 31
0.0
  0
LINE
  5
70
  8
PATTERN_FILL
  6
CONTINUOUS
 62
     7
 10
-2.0799999999999979
 20
82.709999999999994
 30
0.0
 11
-10.036699999999991
 21
90.666700000000006
 31
0.0
  0
LINE
  5
71
  8
PATTERN_FILL
  6
CONTINUOUS
 62
     7
 10
-2.0799999999999979
 20
78.890000000000001
 30
0.0
 11
-13.75043999999999
 21
90.560439999999986
 31
0.0
  0
LINE
  5
72
  8
PATTERN_FILL
  6
CONTINUOUS
 62
     7
 10
-2.0799999999999979
 20
75.069999999999993
 30
0.0
 11
-17.079999999999998
 21
90.069999999999993
 31
0.0
  0
LINE
  5
73
  8
PATTERN_FILL
  6
CONTINUOUS
 62
     7
 10
-2.0799999999999979
 20
71.25
 30
0.0
 11
-20.280000000000001
 21
89.450000000000003
 31
0.0
  0
LINE
  5
74
  8
PATTERN_FILL
  6
CONTINUOUS
 62
     7
 10
-2.0799999999999979
 20
52.149999999999999
 30
0.0
 11
-25.0
 21
75.069999999999993
 31
0.0
  0
LINE
  5
75
  8
PATTERN_FILL
  6
CONTINUOUS
 62
     7
 10
-5.7800000000000011
 20
52.030000000000001
 30
0.0
 11
-25.0
 21
71.25
 31
0.0
  0
LINE
  5
76
  8
PATTERN_FILL
  6
CONTINUOUS
 62
     7
 10
-17.95999999999999
 20
52.75
 30
0.0
 11
-25.0
 21
59.789999999999999
 31
0.0
  0
LINE
  5
77
  8
PATTERN_FILL
  6
CONTINUOUS
 62
     7
 10
-22.54232
 20
53.512259999999998
 30
0.0
 11
-25.0
 21
55.969999999999999
 31
0.0
  0
LINE
  5
78
  8
PATTERN_FILL
  6
CONTINUOUS
 62
     7
 10
-13.539999999999999
 20
51.799140000000001
 30
0.0
 11
-2.0799999999999979
 21
63.237819999999999
 31
0.0
  0
LINE
  5
79
  8
PATTERN_FILL
  6
CONTINUOUS
 62
     7
 10
-9.4893299999999954
 20
51.919330000000002
 30
0.0
 11
-2.0799999999999979
 21
59.380569999999999
 31
0.0
  0
LINE
  5
7A
  8
PATTERN_FILL
  6
CONTINUOUS
 62
     7
 10
-5.6826599999999976
 20
51.932659999999998
 30
0.0
 11
-2.0799999999999979
 21
55.560559999999988
 31
0.0
  0
LINE
  5
7B
  8
PATTERN_FILL
  6
CONTINUOUS
 62
     7
 10
14.119999999999999
 20
66.510000000000005
 30
0.0
 11
2.1200000000000041
 21
78.509999999999991
 31
0.0
  0
LINE
  5
7C
  8
PATTERN_FILL
  6
CONTINUOUS
 62
     7
 10
14.119999999999999
 20
62.689999999999998
 30
0.0
 11
2.1200000000000041
 21
74.689999999999998
 31
0.0
  0
LINE
  5
7D
  8
PATTERN_FILL
  6
CONTINUOUS
 62
     7
 10
2.1200000000000041
 20
86.530000000000001
 30
0.0
 11
6.0914300000000017
 21
90.501379999999997
 31
0.0
  0
LINE
  5
7E
  8
PATTERN_FILL
  6
CONTINUOUS
 62
     7
 10
2.1200000000000041
 20
82.709999999999994
 30
0.0
 11
9.9131600000000049
 21
90.503159999999994
 31
0.0
  0
LINE
  5
7F
  8
PATTERN_FILL
  6
CONTINUOUS
 62
     7
 10
2.1200000000000041
 20
78.890000000000001
 30
0.0
 11
13.79044
 21
90.560439999999986
 31
0.0
  0
LINE
  5
80
  8
PATTERN_FILL
  6
CONTINUOUS
 62
     7
 10
2.1200000000000041
 20
75.069999999999993
 30
0.0
 11
14.119999999999999
 21
87.069999999999979
 31
0.0
  0
LINE
  5
81
  8
PATTERN_FILL
  6
CONTINUOUS
 62
     7
 10
2.1200000000000041
 20
71.25
 30
0.0
 11
14.119999999999999
 21
83.250000000000014
 31
0.0
  0
LINE
  5
82
  8
PATTERN_FILL
  6
CONTINUOUS
 62
     7
 10
14.119999999999999
 20
74.15034
 30
0.0
 11
2.1200000000000041
 21
86.150090000000006
 31
0.0
  0
LINE
  5
83
  8
PATTERN_FILL
  6
CONTINUOUS
 62
     7
 10
14.119999999999999
 20
77.970339999999993
 30
0.0
 11
2.1200000000000041
 21
89.970089999999999
 31
0.0
  0
LINE
  5
84
  8
PATTERN_FILL
  6
CONTINUOUS
 62
     7
 10
14.119999999999999
 20
70.330340000000007
 30
0.0
 11
2.1200000000000041
 21
82.330089999999998
 31
0.0
  0
LINE
  5
85
  8
PATTERN_FILL
  6
CONTINUOUS
 62
     7
 10
14.119999999999999
 20
58.869999999999997
 30
0.0
 11
2.1200000000000041
 21
70.870000000000005
 31
0.0
  0
LINE
  5
86
  8
PATTERN_FILL
  6
CONTINUOUS
 62
     7
 10
13.420429999999991
 20
51.958440000000003
 30
0.0
 11
2.1200000000000041
 21
63.237839999999998
 31
0.0
  0
LINE
  5
87
  8
PATTERN_FILL
  6
CONTINUOUS
 62
     7
 10
2.1200000000000041
 20
67.430000000000007
 30
0.0
 11
14.119999999999999
 21
79.407669999999996
 31
0.0
  0
LINE
  5
88
  8
PATTERN_FILL
  6
CONTINUOUS
 62
     7
 10
2.1200000000000041
 20
63.609999999999999
 30
0.0
 11
14.119999999999999
 21
75.69408
 31
0.0
  0
LINE
  5
89
  8
PATTERN_FILL
  6
CONTINUOUS
 62
     7
 10
2.1200000000000041
 20
59.789990000000003
 30
0.0
 11
14.119999999999999
 21
71.874080000000006
 31
0.0
  0
LINE
  5
8A
  8
PATTERN_FILL
  6
CONTINUOUS
 62
     7
 10
2.1200000000000041
 20
55.969999999999999
 30
0.0
 11
14.119999999999999
 21
67.969999999999999
 31
0.0
  0
LINE
  5
8B
  8
PATTERN_FILL
  6
CONTINUOUS
 62
     7
 10
2.1200000000000041
 20
52.146730000000012
 30
0.0
 11
14.130269999999991
 21
64.156999999999996
 31
0.0
  0
LINE
  5
8C
  8
PATTERN_FILL
  6
CONTINUOUS
 62
     7
 10
5.8199999999999932
 20
52.030000000000001
 30
0.0
 11
14.119999999999999
 21
60.329999999999998
 31
0.0
  0
LINE
  5
8D
  8
PATTERN_FILL
  6
CONTINUOUS
 62
     7
 10
9.6200000000000045
 20
52.009999999999998
 30
0.0
 11
14.119999999999999
 21
56.509999999999998
 31
0.0
  0
LINE
  5
8E
  8
PATTERN_FILL
  6
CONTINUOUS
 62
     7
 10
14.119999999999999
 20
81.790339999999986
 30
0.0
 11
5.4090900000000062
 21
90.501069999999999
 31
0.0
  0
LINE
  5
8F
  8
PATTERN_FILL
  6
CONTINUOUS
 62
     7
 10
14.119999999999999
 20
85.610340000000008
 30
0.0
 11
9.2273899999999998
 21
90.502839999999992
 31
0.0
  0
LINE
  5
90
  8
PATTERN_FILL
  6
CONTINUOUS
 62
     7
 10
14.119999999999999
 20
89.430340000000001
 30
0.0
 11
13.045699999999989
 21
90.504620000000017
 31
0.0
  0
LINE
  5
91
  8
PATTERN_FILL
  6
CONTINUOUS
 62
     7
 10
14.119999999999999
 20
55.04999999999999
 30
0.0
 11
2.1200000000000041
 21
67.049999999999997
 31
0.0
  0
LINE
  5
92
  8
PATTERN_FILL
  6
CONTINUOUS
 62
     7
 10
9.4492199999999968
 20
52.0
 30
0.0
 11
2.1200000000000041
 21
59.380569999999999
 31
0.0
  0
LINE
  5
93
  8
PATTERN_FILL
  6
CONTINUOUS
 62
     7
 10
5.6557999999999993
 20
52.0
 30
0.0
 11
2.1200000000000041
 21
55.560569999999998
 31
0.0
  0
LINE
  5
94
  8
SPEC
  6
CONTINUOUS
 62
     7
 10
-65.0
 20
383.53181999999998
 30
0.0
 11
230.0
 21
383.53181999999998
 31
0.0
  0
LINE
  5
95
  8
SPEC
  6
CONTINUOUS
 62
     7
 10
-65.0
 20
376.03181999999998
 30
0.0
 11
230.0
 21
376.03181999999998
 31
0.0
  0
LINE
  5
96
  8
SPEC
  6
CONTINUOUS
 62
     7
 10
-65.0
 20
346.03181999999998
 30
0.0
 11
230.0
 21
346.03181999999998
 31
0.0
  0
LINE
  5
97
  8
SPEC
  6
CONTINUOUS
 62
     7
 10
-65.0
 20
353.53181999999998
 30
0.0
 11
230.0
 21
353.53181999999998
 31
0.0
  0
LINE
  5
98
  8
SPEC
  6
CONTINUOUS
 62
     7
 10
-65.0
 20
361.03181999999998
 30
0.0
 11
230.0
 21
361.03181999999998
 31
0.0
  0
LINE
  5
99
  8
SPEC
  6
CONTINUOUS
 62
     7
 10
-65.0
 20
338.53181999999998
 30
0.0
 11
230.0
 21
338.53181999999998
 31
0.0
  0
LINE
  5
9A
  8
SPEC
  6
CONTINUOUS
 62
     7
 10
-65.0
 20
323.53181999999998
 30
0.0
 11
230.0
 21
323.53181999999998
 31
0.0
  0
LINE
  5
9B
  8
SPEC
  6
CONTINUOUS
 62
     7
 10
-65.0
 20
331.03181999999998
 30
0.0
 11
230.0
 21
331.03181999999998
 31
0.0
  0
LINE
  5
9C
  8
SPEC
  6
CONTINUOUS
 62
     7
 10
-65.0
 20
316.03181999999998
 30
0.0
 11
230.0
 21
316.03181999999998
 31
0.0
  0
LINE
  5
9D
  8
SPEC
  6
CONTINUOUS
 62
     7
 10
-65.0
 20
368.53181999999998
 30
0.0
 11
230.0
 21
368.53181999999998
 31
0.0
  0
TEXT
  5
9E
  8
SPEC
 62
     7
 10
1.799999999999996
 20
377.904
 30
0.0
 40
3.9510999999999989
  1
ダイナミック型
 11
1.7999999999999969
 21
381.85509999999988
 31
0.0
 73
     3
  0
LINE
  5
9F
  8
SPEC
  6
CONTINUOUS
 62
     7
 10
-65.0
 20
383.53181999999998
 30
0.0
 11
-65.0
 21
316.03181999999998
 31
0.0
  0
TEXT
  5
A0
  8
SPEC
 62
     7
 10
-62.5
 20
386.69936000000001
 30
0.0
 40
5.0800000000000001
  1
仕様
 11
-62.5
 21
391.77935999999988
 31
0.0
 73
     3
  0
LINE
  5
A1
  8
SPEC
  6
CONTINUOUS
 62
     7
 10
0.0
 20
383.53181999999998
 30
0.0
 11
0.0
 21
316.03181999999998
 31
0.0
  0
LINE
  5
A2
  8
SPEC
  6
CONTINUOUS
 62
     7
 10
230.0
 20
383.53181999999998
 30
0.0
 11
230.0
 21
316.03181999999998
 31
0.0
  0
TEXT
  5
A3
  8
SPEC
 62
     7
 10
1.799999999999996
 20
317.904
 30
0.0
 40
3.9510999999999989
  1
約275g
 11
1.7999999999999969
 21
321.85509999999999
 31
0.0
 73
     3
  0
TEXT
  5
A4
  8
SPEC
 62
     7
 10
-63.199999999999989
 20
347.90399999999988
 30
0.0
 40
3.9510999999999989
  1
インピーダンス
 11
-63.199999999999989
 21
351.85509999999988
 31
0.0
 73
     3
  0
TEXT
  5
A5
  8
SPEC
 62
     7
 10
-63.199999999999989
 20
377.904
 30
0.0
 40
3.9510999999999989
  1
形式
 11
-63.199999999999989
 21
381.85509999999988
 31
0.0
 73
     3
  0
TEXT
  5
A6
  8
SPEC
 62
     7
 10
-63.199999999999989
 20
332.90399999999988
 30
0.0
 40
3.9510999999999989
  1
出力コネクター
 11
-63.199999999999989
 21
336.85509999999999
 31
0.0
 73
     3
  0
TEXT
  5
A7
  8
SPEC
 62
     7
 10
-63.199999999999989
 20
325.40399999999988
 30
0.0
 40
3.9510999999999989
  1
寸法
 11
-63.199999999999989
 21
329.35509999999988
 31
0.0
 73
     3
  0
TEXT
  5
A8
  8
SPEC
 62
     7
 10
-63.199999999999989
 20
355.404
 30
0.0
 40
3.9510999999999989
  1
出力レベル(@1kHz)
 11
-63.199999999999989
 21
359.35509999999999
 31
0.0
 73
     3
  0
TEXT
  5
A9
  8
SPEC
 62
     7
 10
-63.199999999999989
 20
340.404
 30
0.0
 40
3.9510999999999989
  1
外装
 11
-63.199999999999989
 21
344.35509999999988
 31
0.0
 73
     3
  0
TEXT
  5
AA
  8
SPEC
 62
     7
 10
-63.199999999999989
 20
370.40399999999988
 30
0.0
 40
3.9510999999999989
  1
周波数特性
 11
-63.199999999999989
 21
374.35509999999999
 31
0.0
 73
     3
  0
TEXT
  5
AB
  8
SPEC
 62
     7
 10
-63.199999999999989
 20
362.90399999999988
 30
0.0
 40
3.9510999999999989
  1
指向特性
 11
-63.199999999999989
 21
366.85509999999988
 31
0.0
 73
     3
  0
TEXT
  5
AC
  8
SPEC
 62
     7
 10
-63.199999999999989
 20
317.904
 30
0.0
 40
3.9510999999999989
  1
重量
 11
-63.199999999999989
 21
321.85509999999999
 31
0.0
 73
     3
  0
TEXT
  5
AD
  8
SPEC
 62
     7
 10
1.799999999999996
 20
347.90399999999988
 30
0.0
 40
3.9510999999999989
  1
150Ω(290Ω実効)
 11
1.7999999999999969
 21
351.85509999999988
 31
0.0
 73
     3
  0
TEXT
  5
AE
  8
SPEC
 62
     7
 10
1.799999999999996
 20
332.90399999999988
 30
0.0
 40
3.9510999999999989
  1
XLR3ピン オス
 11
1.7999999999999969
 21
336.85509999999999
 31
0.0
 73
     3
  0
TEXT
  5
AF
  8
SPEC
 62
     7
 10
1.799999999999996
 20
325.40399999999988
 30
0.0
 40
3.9510999999999989
  1
φ42.5×160mm
 11
1.7999999999999969
 21
329.35509999999988
 31
0.0
 73
     3
  0
TEXT
  5
B0
  8
SPEC
 62
     7
 10
1.799999999999996
 20
355.404
 30
0.0
 40
3.9510999999999989
  1
-51dBV/Pa* (2.8mV)　　*1Pa=94dB SPL
 11
1.7999999999999969
 21
359.35509999999999
 31
0.0
 73
     3
  0
TEXT
  5
B1
  8
SPEC
 62
     7
 10
1.799999999999996
 20
340.404
 30
0.0
 40
3.9510999999999989
  1
ダイキャストメタル、シルバーブルーエナメル塗装つや消し仕上げ、球状スチールメッシュグリル
 11
1.7999999999999969
 21
344.35509999999988
 31
0.0
 73
     3
  0
TEXT
  5
B2
  8
SPEC
 62
     7
 10
1.799999999999996
 20
362.90399999999988
 30
0.0
 40
3.9510999999999989
  1
スーパーカーディオイド
 11
1.7999999999999969
 21
366.85509999999988
 31
0.0
 73
     3
  0
TEXT
  5
B3
  8
SPEC
 62
     7
 10
1.799999999999996
 20
370.40399999999988
 30
0.0
 40
3.9510999999999989
  1
50Hz～16kH
 11
1.7999999999999969
 21
374.35509999999999
 31
0.0
 73
     3
  0
TEXT
  5
B4
  8
DIMNSIONS
 62
     7
 10
60.0
 20
-91.548199999999994
 30
0.0
 40
5.0800000000000001
  1
(単位：mm)
 11
60.0
 21
-86.468199999999996
 31
0.0
 73
     3
  0
LINE
  5
B5
  8
DIMNSIONS
  6
CONTINUOUS
 62
     7
 10
200.25004000000001
 20
82.75003000000001
 30
0.0
 11
241.5
 21
82.75003000000001
 31
0.0
  0
LINE
  5
B6
  8
DIMNSIONS
  6
CONTINUOUS
 62
     7
 10
200.25004000000001
 20
59.750030000000002
 30
0.0
 11
241.5
 21
59.750030000000002
 31
0.0
  0
LINE
  5
B8
  8
DIMNSIONS
 62
     7
 10
237.5
 20
82.75003000000001
 30
0.0
 11
239.20147
 21
76.400030000000001
 31
0.0
  0
LINE
  5
B9
  8
DIMNSIONS
 62
     7
 10
237.5
 20
82.75003000000001
 30
0.0
 11
235.79851999999991
 21
76.400030000000001
 31
0.0
  0
LINE
  5
BA
  8
DIMNSIONS
 62
     7
 10
237.5
 20
59.750030000000002
 30
0.0
 11
235.79851999999991
 21
66.100020000000001
 31
0.0
  0
LINE
  5
BB
  8
DIMNSIONS
 62
     7
 10
237.5
 20
59.750030000000002
 30
0.0
 11
239.20147
 21
66.100020000000001
 31
0.0
  0
LINE
  5
B7
  8
DIMNSIONS
  6
CONTINUOUS
 62
     7
 10
237.5
 20
82.75003000000001
 30
0.0
 11
237.5
 21
59.750030000000002
 31
0.0
  0
INSERT
  5
BC
  8
DIMNSIONS
  2
*G0
 10
100.0
 20
140.0
 30
0.0
  0
LINE
  5
BD
  8
DIMNSIONS
  6
CONTINUOUS
 62
     7
 10
200.25004000000001
 20
92.50003000000001
 30
0.0
 11
266.5
 21
92.50003000000001
 31
0.0
  0
LINE
  5
BE
  8
DIMNSIONS
  6
CONTINUOUS
 62
     7
 10
200.25004000000001
 20
50.000029999999988
 30
0.0
 11
266.5
 21
50.000029999999988
 31
0.0
  0
LINE
  5
C0
  8
DIMNSIONS
 62
     7
 10
262.5
 20
92.50003000000001
 30
0.0
 11
264.20146999999992
 21
86.150029999999987
 31
0.0
  0
LINE
  5
C1
  8
DIMNSIONS
 62
     7
 10
262.5
 20
92.50003000000001
 30
0.0
 11
260.79851999999988
 21
86.150029999999987
 31
0.0
  0
LINE
  5
C2
  8
DIMNSIONS
 62
     7
 10
262.5
 20
50.000029999999988
 30
0.0
 11
260.79851999999988
 21
56.350020000000001
 31
0.0
  0
LINE
  5
C3
  8
DIMNSIONS
 62
     7
 10
262.5
 20
50.000029999999988
 30
0.0
 11
264.20146999999992
 21
56.350020000000001
 31
0.0
  0
LINE
  5
BF
  8
DIMNSIONS
  6
CONTINUOUS
 62
     7
 10
262.5
 20
92.50003000000001
 30
0.0
 11
262.5
 21
50.000029999999988
 31
0.0
  0
INSERT
  5
C4
  8
DIMNSIONS
  2
*G1
 10
100.0
 20
140.0
 30
0.0
  0
LINE
  5
C5
  8
DIMNSIONS
  6
CONTINUOUS
 62
     7
 10
-25.079999999999998
 20
90.771150000000006
 30
0.0
 11
-25.079999999999998
 21
154.0
 31
0.0
  0
LINE
  5
C6
  8
DIMNSIONS
  6
CONTINUOUS
 62
     7
 10
134.91999999999999
 20
86.75
 30
0.0
 11
134.91999999999999
 21
154.0
 31
0.0
  0
LINE
  5
C8
  8
DIMNSIONS
 62
     7
 10
-25.079999999999998
 20
150.0
 30
0.0
 11
-18.730009999999989
 21
151.70147
 31
0.0
  0
LINE
  5
C9
  8
DIMNSIONS
 62
     7
 10
-25.079999999999998
 20
150.0
 30
0.0
 11
-18.730009999999989
 21
148.29851999999991
 31
0.0
  0
LINE
  5
CA
  8
DIMNSIONS
 62
     7
 10
134.91999999999999
 20
150.0
 30
0.0
 11
128.56999999999999
 21
148.29851999999991
 31
0.0
  0
LINE
  5
CB
  8
DIMNSIONS
 62
     7
 10
134.91999999999999
 20
150.0
 30
0.0
 11
128.56999999999999
 21
151.70147
 31
0.0
  0
LINE
  5
C7
  8
DIMNSIONS
  6
CONTINUOUS
 62
     7
 10
-25.079999999999998
 20
150.0
 30
0.0
 11
134.91999999999999
 21
150.0
 31
0.0
  0
INSERT
  5
CC
  8
DIMNSIONS
  2
*G2
 10
100.0
 20
140.0
 30
0.0
  0
LINE
  5
CD
  8
DIMNSIONS
  6
CONTINUOUS
 62
     7
 10
14.119999999999999
 20
95.0
 30
0.0
 11
14.119999999999999
 21
129.0
 31
0.0
  0
LINE
  5
CE
  8
DIMNSIONS
  6
CONTINUOUS
 62
     7
 10
134.91999999999999
 20
86.75
 30
0.0
 11
134.91999999999999
 21
129.0
 31
0.0
  0
LINE
  5
D0
  8
DIMNSIONS
 62
     7
 10
14.119999999999999
 20
125.0
 30
0.0
 11
20.469989999999989
 21
126.70147
 31
0.0
  0
LINE
  5
D1
  8
DIMNSIONS
 62
     7
 10
14.119999999999999
 20
125.0
 30
0.0
 11
20.469989999999989
 21
123.2985199999999
 31
0.0
  0
LINE
  5
D2
  8
DIMNSIONS
 62
     7
 10
134.91999999999999
 20
125.0
 30
0.0
 11
128.56999999999999
 21
123.2985199999999
 31
0.0
  0
LINE
  5
D3
  8
DIMNSIONS
 62
     7
 10
134.91999999999999
 20
125.0
 30
0.0
 11
128.56999999999999
 21
126.70147
 31
0.0
  0
LINE
  5
CF
  8
DIMNSIONS
  6
CONTINUOUS
 62
     7
 10
14.119999999999999
 20
125.0
 30
0.0
 11
134.91999999999999
 21
125.0
 31
0.0
  0
INSERT
  5
D4
  8
DIMNSIONS
  2
*G3
 10
100.0
 20
140.0
 30
0.0
  0
LINE
  5
D5
  8
DIMNSIONS
  6
CONTINUOUS
 62
     7
 10
14.119999999999999
 20
95.0
 30
0.0
 11
14.119999999999999
 21
129.0
 31
0.0
  0
LINE
  5
D6
  8
DIMNSIONS
  6
CONTINUOUS
 62
     7
 10
-25.079999999999998
 20
90.771150000000006
 30
0.0
 11
-25.079999999999998
 21
129.0
 31
0.0
  0
LINE
  5
D8
  8
DIMNSIONS
 62
     7
 10
14.119999999999999
 20
125.0
 30
0.0
 11
7.769999999999996
 21
123.2985199999999
 31
0.0
  0
LINE
  5
D9
  8
DIMNSIONS
 62
     7
 10
14.119999999999999
 20
125.0
 30
0.0
 11
7.769999999999996
 21
126.70147
 31
0.0
  0
LINE
  5
DA
  8
DIMNSIONS
 62
     7
 10
-25.079999999999998
 20
125.0
 30
0.0
 11
-18.730009999999989
 21
126.70147
 31
0.0
  0
LINE
  5
DB
  8
DIMNSIONS
 62
     7
 10
-25.079999999999998
 20
125.0
 30
0.0
 11
-18.730009999999989
 21
123.2985199999999
 31
0.0
  0
LINE
  5
D7
  8
DIMNSIONS
  6
CONTINUOUS
 62
     7
 10
14.119999999999999
 20
125.0
 30
0.0
 11
-25.079999999999998
 21
125.0
 31
0.0
  0
INSERT
  5
DC
  8
DIMNSIONS
  2
*G4
 10
100.0
 20
140.0
 30
0.0
  0
CIRCLE
  5
DD
  8
DATA
  6
CONTINUOUS
 62
     7
 10
196.25
 20
71.249989999999997
 30
0.0
 40
11.5
  0
CIRCLE
  5
DE
  8
DATA
  6
CONTINUOUS
 62
     7
 10
196.25
 20
75.44999
 30
0.0
 40
1.2500100000000001
  0
CIRCLE
  5
DF
  8
DATA
  6
CONTINUOUS
 62
     7
 10
200.4499999999999
 20
71.249989999999997
 30
0.0
 40
1.249989999999999
  0
CIRCLE
  5
E0
  8
DATA
  6
CONTINUOUS
 62
     7
 10
196.25
 20
71.249989999999997
 30
0.0
 40
17.250009999999989
  0
CIRCLE
  5
E1
  8
DATA
  6
CONTINUOUS
 62
     7
 10
196.24999
 20
67.049999999999997
 30
0.0
 40
1.25
  0
CIRCLE
  5
E2
  8
DATA
  6
CONTINUOUS
 62
     7
 10
196.25
 20
71.249989999999997
 30
0.0
 40
18.5
  0
CIRCLE
  5
E3
  8
DATA
  6
CONTINUOUS
 62
     7
 10
196.25
 20
71.249989999999997
 30
0.0
 40
19.75
  0
CIRCLE
  5
E4
  8
DATA
  6
CONTINUOUS
 62
     7
 10
196.25
 20
71.249989999999997
 30
0.0
 40
21.25
  0
LINE
  5
E5
  8
DATA
  6
CONTINUOUS
 62
     7
 10
191.75412
 20
77.867189999999994
 30
0.0
 11
191.04701999999989
 21
78.574289999999991
 31
0.0
  0
LINE
  5
E6
  8
DATA
  6
CONTINUOUS
 62
     7
 10
189.6328
 20
75.745869999999996
 30
0.0
 11
188.92570000000001
 21
76.452969999999993
 31
0.0
  0
LINE
  5
E7
  8
DATA
  6
CONTINUOUS
 62
     7
 10
188.92570000000001
 20
76.452969999999993
 30
0.0
 11
191.04701999999989
 21
78.574289999999991
 31
0.0
  0
ARC
  5
E8
  8
DATA
  6
CONTINUOUS
 62
     7
 10
196.24999
 20
71.25
 30
0.0
 40
8.0
 50
145.806916784078
 51
124.1930832159219
  0
TEXT
  5
E9
  8
DATA
 62
     7
 10
195.0
 20
-93.825399999999973
 30
0.0
 40
5.0800000000000001
  1
Beta 57A
 11
195.0
 21
-88.745399999999989
 31
0.0
 73
     3
  0
TEXT
  5
EA
  8
DATA
 62
     7
 10
195.0
 20
-79.325399999999988
 30
0.0
 40
5.0800000000000001
  1
SHURE
 11
195.0
 21
-74.245399999999989
 31
0.0
 73
     3
  0
TEXT
  5
EB
  8
DATA
 62
     7
 10
195.0
 20
-86.406310000000005
 30
0.0
 40
3.3866700000000001
  1
ダイナミック型・単一指向性マイクロホン
 11
195.0
 21
-83.01964000000001
 31
0.0
 73
     3
  0
LINE
  5
EC
  8
DATA
  6
CONTINUOUS
 62
     7
 10
-25.079999999999998
 20
55.728849999999987
 30
0.0
 11
-25.079999999999998
 21
86.771150000000006
 31
0.0
  0
LINE
  5
ED
  8
DATA
  6
CONTINUOUS
 62
     7
 10
134.91999999999999
 20
59.75
 30
0.0
 11
134.91999999999999
 21
82.75
 31
0.0
  0
LINE
  5
EE
  8
DATA
  6
CONTINUOUS
 62
     7
 10
98.920000000000016
 20
83.75
 30
0.0
 11
134.91999999999999
 21
82.75
 31
0.0
  0
LINE
  5
EF
  8
DATA
  6
CONTINUOUS
 62
     7
 10
98.920000000000016
 20
58.75
 30
0.0
 11
134.91999999999999
 21
59.75
 31
0.0
  0
LINE
  5
F0
  8
DATA
  6
CONTINUOUS
 62
     7
 10
19.920000000000002
 20
54.0
 30
0.0
 11
19.920000000000002
 21
88.499999999999986
 31
0.0
  0
LINE
  5
F1
  8
DATA
  6
CONTINUOUS
 62
     7
 10
19.920000000000002
 20
88.499999999999986
 30
0.0
 11
98.920000000000016
 21
83.75
 31
0.0
  0
LINE
  5
F2
  8
DATA
  6
CONTINUOUS
 62
     7
 10
19.920000000000002
 20
54.0
 30
0.0
 11
98.920000000000016
 21
58.75
 31
0.0
  0
LINE
  5
F3
  8
DATA
  6
CONTINUOUS
 62
     7
 10
14.119999999999999
 20
51.5
 30
0.0
 11
14.119999999999999
 21
91.0
 31
0.0
  0
LINE
  5
F4
  8
DATA
  6
CONTINUOUS
 62
     7
 10
14.92
 20
91.0
 30
0.0
 11
19.920000000000002
 21
88.499999999999986
 31
0.0
  0
LINE
  5
F5
  8
DATA
  6
CONTINUOUS
 62
     7
 10
14.92
 20
51.5
 30
0.0
 11
19.920000000000002
 21
54.0
 31
0.0
  0
LINE
  5
F6
  8
DATA
  6
CONTINUOUS
 62
     7
 10
2.1200000000000041
 20
50.599999999999987
 30
0.0
 11
2.1200000000000041
 21
91.900000000000006
 31
0.0
  0
LINE
  5
F7
  8
DATA
  6
CONTINUOUS
 62
     7
 10
-2.0799999999999979
 20
50.599999999999987
 30
0.0
 11
-2.0799999999999979
 21
91.900000000000006
 31
0.0
  0
LINE
  5
F8
  8
DATA
  6
CONTINUOUS
 62
     7
 10
1.1200000000000041
 20
50.599999999999987
 30
0.0
 11
1.1200000000000041
 21
91.900000000000006
 31
0.0
  0
LINE
  5
F9
  8
DATA
  6
CONTINUOUS
 62
     7
 10
-1.0799999999999981
 20
50.599999999999987
 30
0.0
 11
-1.0799999999999981
 21
91.900000000000006
 31
0.0
  0
LINE
  5
FA
  8
DATA
  6
CONTINUOUS
 62
     7
 10
-2.0799999999999979
 20
91.900000000000006
 30
0.0
 11
-1.0799999999999981
 21
91.900000000000006
 31
0.0
  0
LINE
  5
FB
  8
DATA
  6
CONTINUOUS
 62
     7
 10
0.9200000000000017
 20
91.900000000000006
 30
0.0
 11
2.1200000000000041
 21
91.900000000000006
 31
0.0
  0
LINE
  5
FC
  8
DATA
  6
CONTINUOUS
 62
     7
 10
-2.0799999999999979
 20
50.599999999999987
 30
0.0
 11
-1.0799999999999981
 21
50.599999999999987
 31
0.0
  0
LINE
  5
FD
  8
DATA
  6
CONTINUOUS
 62
     7
 10
1.1200000000000041
 20
50.599999999999987
 30
0.0
 11
2.1200000000000041
 21
50.599999999999987
 31
0.0
  0
LINE
  5
FE
  8
DATA
  6
CONTINUOUS
 62
     7
 10
-1.0799999999999981
 20
91.900000000000006
 30
0.0
 11
0.019999999999996
 21
92.5
 31
0.0
  0
LINE
  5
FF
  8
DATA
  6
CONTINUOUS
 62
     7
 10
0.019999999999996
 20
92.5
 30
0.0
 11
1.1200000000000041
 21
91.900000000000006
 31
0.0
  0
LINE
  5
100
  8
DATA
  6
CONTINUOUS
 62
     7
 10
-1.0799999999999981
 20
50.599999999999987
 30
0.0
 11
-0.0407699999999949
 21
50.0
 31
0.0
  0
LINE
  5
101
  8
DATA
  6
CONTINUOUS
 62
     7
 10
0.019999999999996
 20
50.0
 30
0.0
 11
1.1200000000000041
 21
50.599999999999987
 31
0.0
  0
LINE
  5
102
  8
DATA
  6
CONTINUOUS
 62
     7
 10
3.1200000000000041
 20
90.5
 30
0.0
 11
13.689999999999991
 21
90.504919999999998
 31
0.0
  0
LINE
  5
103
  8
DATA
  6
CONTINUOUS
 62
     7
 10
3.1200000000000041
 20
52.0
 30
0.0
 11
13.71999999999999
 21
52.0
 31
0.0
  0
ARC
  5
104
  8
DATA
  6
CONTINUOUS
 62
     7
 10
3.1200000000000041
 20
91.5
 30
0.0
 40
1.0
 50
180.0
 51
270.0
  0
ARC
  5
105
  8
DATA
  6
CONTINUOUS
 62
     7
 10
3.1200000000000041
 20
51.0
 30
0.0
 40
1.0
 50
90.0
 51
180.0
  0
ARC
  5
106
  8
DATA
  6
CONTINUOUS
 62
     7
 10
13.619999999999999
 20
91.0
 30
0.0
 40
0.5
 50
270.0
 51
0.0
  0
ARC
  5
107
  8
DATA
  6
CONTINUOUS
 62
     7
 10
13.619999999999999
 20
51.5
 30
0.0
 40
0.5
 50
0.0
 51
90.0
  0
ARC
  5
108
  8
DATA
  6
CONTINUOUS
 62
     7
 10
-3.0799999999999979
 20
91.500650000000007
 30
0.0
 40
1.0
 50
270.0
 51
0.0
  0
ARC
  5
109
  8
DATA
  6
CONTINUOUS
 62
     7
 10
-3.0799999999999979
 20
51.0
 30
0.0
 40
1.0
 50
0.0
 51
90.0
  0
LINE
  5
10A
  8
DATA
  6
CONTINUOUS
 62
     7
 10
42.419999999999987
 20
55.352849999999997
 30
0.0
 11
42.419999999999987
 21
87.147150000000011
 31
0.0
  0
LINE
  5
10B
  8
DATA
  6
CONTINUOUS
 62
     7
 10
14.119999999999999
 20
91.0
 30
0.0
 11
14.92
 21
91.0
 31
0.0
  0
LINE
  5
10C
  8
DATA
  6
CONTINUOUS
 62
     7
 10
14.119999999999999
 20
51.5
 30
0.0
 11
14.92
 21
51.5
 31
0.0
  0
LINE
  5
10D
  8
DATA
  6
CONTINUOUS
 62
     7
 10
17.920000000000002
 20
53.0
 30
0.0
 11
17.920000000000002
 21
89.500000000000014
 31
0.0
  0
LINE
  5
10E
  8
DATA
  6
CONTINUOUS
 62
     7
 10
17.420000000000002
 20
52.75
 30
0.0
 11
17.420000000000002
 21
89.749999999999986
 31
0.0
  0
POLYLINE
  5
10F
  8
DATA
  6
CONTINUOUS
 62
     7
 66
     1
 10
0.0
 20
0.0
 30
0.0
 70
   128
  0
VERTEX
  5
180
  8
DATA
  6
CONTINUOUS
 62
     7
 10
-3.0799999999999979
 20
90.490610000000004
 30
0.0
  0
VERTEX
  5
181
  8
DATA
  6
CONTINUOUS
 62
     7
 10
-5.8705599999999967
 20
90.653909999999996
 30
0.0
  0
VERTEX
  5
182
  8
DATA
  6
CONTINUOUS
 62
     7
 10
-8.5905900000000042
 20
90.70805
 30
0.0
  0
VERTEX
  5
183
  8
DATA
  6
CONTINUOUS
 62
     7
 10
-11.24011
 20
90.653009999999995
 30
0.0
  0
VERTEX
  5
184
  8
DATA
  6
CONTINUOUS
 62
     7
 10
-13.81910999999999
 20
90.488809999999987
 30
0.0
  0
VERTEX
  5
185
  8
DATA
  6
CONTINUOUS
 62
     7
 10
-16.32761
 20
90.215429999999984
 30
0.0
  0
VERTEX
  5
186
  8
DATA
  6
CONTINUOUS
 62
     7
 10
-18.76558
 20
89.832889999999992
 30
0.0
  0
VERTEX
  5
187
  8
DATA
  6
CONTINUOUS
 62
     7
 10
-21.13304999999999
 20
89.341170000000005
 30
0.0
  0
VERTEX
  5
188
  8
DATA
  6
CONTINUOUS
 62
     7
 10
-23.42999
 20
88.740290000000002
 30
0.0
  0
VERTEX
  5
189
  8
DATA
  6
CONTINUOUS
 62
     7
 10
-23.42999
 20
88.740290000000002
 30
0.0
  0
SEQEND
  5
18A
  8
DATA
  6
CONTINUOUS
 62
     7
  0
ARC
  5
11B
  8
DATA
  6
CONTINUOUS
 62
     7
 10
-21.599
 20
85.530169999999998
 30
0.0
 40
3.6955900000000002
 50
119.6995943567197
 51
160.378797850822
  0
ARC
  5
11C
  8
DATA
  6
CONTINUOUS
 62
     7
 10
-3.0799999999999979
 20
50.999350000000007
 30
0.0
 40
1.0
 50
0.0
 51
90.0
  0
POLYLINE
  5
11D
  8
DATA
  6
CONTINUOUS
 62
     7
 66
     1
 10
0.0
 20
0.0
 30
0.0
 70
   128
  0
VERTEX
  5
18B
  8
DATA
  6
CONTINUOUS
 62
     7
 10
-3.0799999999999979
 20
52.009389999999989
 30
0.0
  0
VERTEX
  5
18C
  8
DATA
  6
CONTINUOUS
 62
     7
 10
-5.8705599999999967
 20
51.846080000000001
 30
0.0
  0
VERTEX
  5
18D
  8
DATA
  6
CONTINUOUS
 62
     7
 10
-8.5905900000000042
 20
51.791949999999993
 30
0.0
  0
VERTEX
  5
18E
  8
DATA
  6
CONTINUOUS
 62
     7
 10
-11.24011
 20
51.846980000000002
 30
0.0
  0
VERTEX
  5
18F
  8
DATA
  6
CONTINUOUS
 62
     7
 10
-13.81910999999999
 20
52.011189999999999
 30
0.0
  0
VERTEX
  5
190
  8
DATA
  6
CONTINUOUS
 62
     7
 10
-16.32761
 20
52.284559999999999
 30
0.0
  0
VERTEX
  5
191
  8
DATA
  6
CONTINUOUS
 62
     7
 10
-18.76558
 20
52.667109999999987
 30
0.0
  0
VERTEX
  5
192
  8
DATA
  6
CONTINUOUS
 62
     7
 10
-21.13304999999999
 20
53.158820000000013
 30
0.0
  0
VERTEX
  5
193
  8
DATA
  6
CONTINUOUS
 62
     7
 10
-23.42999
 20
53.759709999999991
 30
0.0
  0
VERTEX
  5
194
  8
DATA
  6
CONTINUOUS
 62
     7
 10
-23.42999
 20
53.759709999999991
 30
0.0
  0
SEQEND
  5
195
  8
DATA
  6
CONTINUOUS
 62
     7
  0
ARC
  5
129
  8
DATA
  6
CONTINUOUS
 62
     7
 10
-23.079999999999991
 20
55.728849999999987
 30
0.0
 40
2.0
 50
180.0
 51
259.9216396582604
  0
LINE
  5
12A
  8
DATA
  6
CONTINUOUS
 62
     7
 10
36.920000000000002
 20
63.75
 30
0.0
 11
25.420000000000002
 21
63.75
 31
0.0
  0
LINE
  5
12B
  8
DATA
  6
CONTINUOUS
 62
     7
 10
36.920000000000002
 20
78.75
 30
0.0
 11
36.920000000000002
 21
63.75
 31
0.0
  0
LINE
  5
12C
  8
DATA
  6
CONTINUOUS
 62
     7
 10
25.420000000000002
 20
78.75
 30
0.0
 11
36.920000000000002
 21
78.75
 31
0.0
  0
LINE
  5
12D
  8
DATA
  6
CONTINUOUS
 62
     7
 10
25.420000000000002
 20
63.75
 30
0.0
 11
25.420000000000002
 21
78.75
 31
0.0
  0
LINE
  5
12E
  8
DATA
  6
CONTINUOUS
 62
     7
 10
30.920000000000002
 20
64.25
 30
0.0
 11
30.920000000000002
 21
78.25
 31
0.0
  0
LINE
  5
12F
  8
DATA
  6
CONTINUOUS
 62
     7
 10
34.420000000000002
 20
64.25
 30
0.0
 11
34.420000000000002
 21
78.25
 31
0.0
  0
TEXT
  5
130
  8
DATA
 62
     7
 10
29.439979999999998
 20
63.397793333333333
 30
0.0
 40
3.38666
  1
SHURE
 50
90.0
 72
     1
 11
26.053319999999999
 21
71.299999999999983
 31
0.0
 73
     3
  0
TEXT
  5
131
  8
DATA
 62
     7
 10
33.669999999999987
 20
63.299999999999997
 30
0.0
 40
2.399999999999999
  1
BETA57A
 50
90.0
 72
     1
 11
31.269999999999989
 21
71.299999999999983
 31
0.0
 73
     3
  0
LINE
  5
132
  8
DATA
  6
CONTINUOUS
 62
     7
 10
30.920000000000002
 20
64.25
 30
0.0
 11
25.920000000000002
 21
64.25
 31
0.0
  0
LINE
  5
133
  8
DATA
  6
CONTINUOUS
 62
     7
 10
36.420000000000002
 20
64.25
 30
0.0
 11
34.269999999999989
 21
64.25
 31
0.0
  0
LINE
  5
134
  8
DATA
  6
CONTINUOUS
 62
     7
 10
25.920000000000002
 20
64.25
 30
0.0
 11
25.920000000000002
 21
78.25
 31
0.0
  0
LINE
  5
135
  8
DATA
  6
CONTINUOUS
 62
     7
 10
34.420000000000002
 20
78.25
 30
0.0
 11
36.420000000000002
 21
78.25
 31
0.0
  0
LINE
  5
136
  8
DATA
  6
CONTINUOUS
 62
     7
 10
25.920000000000002
 20
78.25
 30
0.0
 11
30.920000000000002
 21
78.25
 31
0.0
  0
LINE
  5
137
  8
DATA
  6
CONTINUOUS
 62
     7
 10
36.420000000000002
 20
78.25
 30
0.0
 11
36.420000000000002
 21
64.25
 31
0.0
  0
CIRCLE
  5
138
  8
DATA
  6
CONTINUOUS
 62
     7
 10
117.92
 20
71.25
 30
0.0
 40
2.0
  0
CIRCLE
  5
139
  8
DATA
  6
CONTINUOUS
 62
     7
 10
125.92
 20
71.25
 30
0.0
 40
1.5
  0
LINE
  5
13A
  8
DATA
  6
CONTINUOUS
 62
     7
 10
133.41999999999999
 20
69.736750000000001
 30
0.0
 11
133.41999999999999
 21
72.763249999999985
 31
0.0
  0
LINE
  5
13B
  8
DATA
  6
CONTINUOUS
 62
     7
 10
131.41999999999999
 20
69.736750000000001
 30
0.0
 11
131.41999999999999
 21
72.763249999999985
 31
0.0
  0
LINE
  5
13C
  8
DATA
  6
CONTINUOUS
 62
     7
 10
115.92
 20
71.25
 30
0.0
 11
119.92
 21
71.25
 31
0.0
  0
ARC
  5
13D
  8
DATA
  6
CONTINUOUS
 62
     7
 10
132.41999999999999
 20
72.763249999999985
 30
0.0
 40
1.0
 50
0.0
 51
180.0
  0
ARC
  5
13E
  8
DATA
  6
CONTINUOUS
 62
     7
 10
132.41999999999999
 20
69.736750000000001
 30
0.0
 40
1.0
 50
180.0
 51
0.0
  0
ENDSEC
  0
EOF
