  0
SECTION
  2
HEADER
  9
$ACADVER
  1
AC1009
  9
$INSBASE
 10
0.0
 20
0.0
 30
0.0
  9
$EXTMIN
 10
-80.012748558621865
 20
-131.2306395013035
 30
-0.0015258207003583
  9
$EXTMAX
 10
282.7306077200144
 20
403.53214576640943
 30
0.0000000349246037
  9
$LIMMIN
 10
0.0
 20
0.0
  9
$LIMMAX
 10
0.0
 20
0.0
  9
$ORTHOMODE
 70
     0
  9
$REGENMODE
 70
     1
  9
$FILLMODE
 70
     1
  9
$QTEXTMODE
 70
     0
  9
$MIRRTEXT
 70
     1
  9
$DRAGMODE
 70
     2
  9
$LTSCALE
 40
2.0
  9
$OSMODE
 70
    37
  9
$ATTMODE
 70
     1
  9
$TEXTSIZE
 40
0.0
  9
$TRACEWID
 40
0.05
  9
$TEXTSTYLE
  7
STANDARD
  9
$CLAYER
  8
0
  9
$CELTYPE
  6
CONTINUOUS
  9
$CECOLOR
 62
   256
  9
$DIMSCALE
 40
1.0
  9
$DIMASZ
 40
0.18
  9
$DIMEXO
 40
0.0625
  9
$DIMDLI
 40
0.38
  9
$DIMRND
 40
0.0
  9
$DIMDLE
 40
0.0
  9
$DIMEXE
 40
0.18
  9
$DIMTP
 40
0.0
  9
$DIMTM
 40
0.0
  9
$DIMTXT
 40
0.18
  9
$DIMCEN
 40
0.09
  9
$DIMTSZ
 40
0.0
  9
$DIMTOL
 70
     0
  9
$DIMLIM
 70
     0
  9
$DIMTIH
 70
     1
  9
$DIMTOH
 70
     1
  9
$DIMSE1
 70
     0
  9
$DIMSE2
 70
     0
  9
$DIMTAD
 70
     0
  9
$DIMZIN
 70
     0
  9
$DIMBLK
  1

  9
$DIMASO
 70
     1
  9
$DIMSHO
 70
     1
  9
$DIMPOST
  1

  9
$DIMAPOST
  1

  9
$DIMALT
 70
     0
  9
$DIMALTD
 70
     2
  9
$DIMALTF
 40
25.399999999999999
  9
$DIMLFAC
 40
1.0
  9
$DIMTOFL
 70
     0
  9
$DIMTVP
 40
0.0
  9
$DIMTIX
 70
     0
  9
$DIMSOXD
 70
     0
  9
$DIMSAH
 70
     0
  9
$DIMBLK1
  1

  9
$DIMBLK2
  1

  9
$DIMSTYLE
  2
STANDARD
  9
$DIMCLRD
 70
     0
  9
$DIMCLRE
 70
     0
  9
$DIMCLRT
 70
     0
  9
$DIMTFAC
 40
1.0
  9
$DIMGAP
 40
0.09
  9
$LUNITS
 70
     2
  9
$LUPREC
 70
     4
  9
$SKETCHINC
 40
0.1
  9
$FILLETRAD
 40
0.0
  9
$AUNITS
 70
     0
  9
$AUPREC
 70
     0
  9
$MENU
  1
acad
  9
$ELEVATION
 40
0.0
  9
$PELEVATION
 40
0.0
  9
$THICKNESS
 40
0.0
  9
$LIMCHECK
 70
     0
  9
$BLIPMODE
 70
     0
  9
$CHAMFERA
 40
0.0
  9
$CHAMFERB
 40
0.0
  9
$SKPOLY
 70
     0
  9
$TDCREATE
 40
2451873.6907638889
  9
$TDUPDATE
 40
2451873.6911584488
  9
$TDINDWG
 40
0.0002395833
  9
$TDUSRTIMER
 40
0.0002395833
  9
$USRTIMER
 70
     1
  9
$ANGBASE
 50
0.0
  9
$ANGDIR
 70
     0
  9
$PDMODE
 70
     0
  9
$PDSIZE
 40
0.0
  9
$PLINEWID
 40
0.0
  9
$COORDS
 70
     1
  9
$SPLFRAME
 70
     0
  9
$SPLINETYPE
 70
     6
  9
$SPLINESEGS
 70
     8
  9
$ATTDIA
 70
     0
  9
$ATTREQ
 70
     1
  9
$HANDLING
 70
-16383
  9
$HANDSEED
  5
1A4
  9
$SURFTAB1
 70
     6
  9
$SURFTAB2
 70
     6
  9
$SURFTYPE
 70
     6
  9
$SURFU
 70
     6
  9
$SURFV
 70
     6
  9
$UCSNAME
  2

  9
$UCSORG
 10
0.0
 20
0.0
 30
0.0
  9
$UCSXDIR
 10
1.0
 20
0.0
 30
0.0
  9
$UCSYDIR
 10
0.0
 20
1.0
 30
0.0
  9
$PUCSNAME
  2

  9
$PUCSORG
 10
0.0
 20
0.0
 30
0.0
  9
$PUCSXDIR
 10
1.0
 20
0.0
 30
0.0
  9
$PUCSYDIR
 10
0.0
 20
1.0
 30
0.0
  9
$USERI1
 70
     0
  9
$USERI2
 70
     0
  9
$USERI3
 70
     0
  9
$USERI4
 70
     0
  9
$USERI5
 70
     0
  9
$USERR1
 40
0.0
  9
$USERR2
 40
0.0
  9
$USERR3
 40
0.0
  9
$USERR4
 40
0.0
  9
$USERR5
 40
0.0
  9
$WORLDVIEW
 70
     1
  9
$SHADEDGE
 70
     3
  9
$SHADEDIF
 70
    70
  9
$TILEMODE
 70
     1
  9
$MAXACTVP
 70
    16
  9
$PLIMCHECK
 70
     0
  9
$PEXTMIN
 10
1.0000000000000000E+020
 20
1.0000000000000000E+020
 30
1.0000000000000000E+020
  9
$PEXTMAX
 10
-1.0000000000000000E+020
 20
-1.0000000000000000E+020
 30
-1.0000000000000000E+020
  9
$PLIMMIN
 10
0.0
 20
0.0
  9
$PLIMMAX
 10
12.0
 20
9.0
  9
$UNITMODE
 70
     0
  9
$VISRETAIN
 70
     0
  9
$PLINEGEN
 70
     1
  9
$PSLTSCALE
 70
     0
  0
ENDSEC
  0
SECTION
  2
TABLES
  0
TABLE
  2
VPORT
 70
     2
  0
VPORT
  2
*ACTIVE
 70
     0
 10
0.0
 20
0.0
 11
1.0
 21
1.0
 12
101.3589295806962
 22
136.15075313255289
 13
0.0
 23
0.0
 14
1.0
 24
1.0
 15
0.0
 25
0.0
 16
0.0
 26
0.0
 36
1.0
 17
0.0
 27
0.0
 37
0.0
 40
540.74893584906795
 41
1.743925233644859
 42
50.0
 43
0.0
 44
0.0
 50
0.0
 51
0.0
 71
     0
 72
   100
 73
     1
 74
     1
 75
     0
 76
     0
 77
     0
 78
     0
  0
ENDTAB
  0
TABLE
  2
LTYPE
 70
    11
  0
LTYPE
  2
CONTINUOUS
 70
     0
  3
Solid line
 72
    65
 73
     0
 40
0.0
  0
LTYPE
  2
VECTORWORKS_DASH_01
 70
     0
  3
(unavailable)
 72
    65
 73
     2
 40
2.116537475585937
 49
1.058074951171875
 49
-1.058462524414062
  0
LTYPE
  2
VECTORWORKS_DASH_02
 70
     0
  3
(unavailable)
 72
    65
 73
     2
 40
3.5276916503906239
 49
2.469229125976562
 49
-1.058462524414062
  0
LTYPE
  2
VECTORWORKS_DASH_03
 70
     0
  3
(unavailable)
 72
    65
 73
     2
 40
6.3499999999999988
 49
5.2915374755859359
 49
-1.058462524414062
  0
LTYPE
  2
VECTORWORKS_DASH_04
 70
     0
  3
(unavailable)
 72
    65
 73
     2
 40
7.7607666015624988
 49
6.7026916503906238
 49
-1.058074951171875
  0
LTYPE
  2
VECTORWORKS_DASH_05
 70
     0
  3
(unavailable)
 72
    65
 73
     2
 40
1.058074951171875
 49
0.352691650390625
 49
-0.70538330078125
  0
LTYPE
  2
VECTORWORKS_DASH_06
 70
     0
  3
(unavailable)
 72
    65
 73
     4
 40
5.2915374755859359
 49
3.1749999999999989
 49
-1.058074951171875
 49
0.352691650390625
 49
-0.7057708740234375
  0
LTYPE
  2
VECTORWORKS_DASH_07
 70
     0
  3
(unavailable)
 72
    65
 73
     6
 40
9.5249999999999986
 49
3.1749999999999989
 49
-1.058074951171875
 49
3.1749999999999989
 49
-1.058462524414062
 49
0.352691650390625
 49
-0.7057708740234375
  0
LTYPE
  2
VECTORWORKS_DASH_08
 70
     0
  3
(unavailable)
 72
    65
 73
     6
 40
6.3499999999999988
 49
3.1749999999999989
 49
-1.058074951171875
 49
0.352691650390625
 49
-0.7057708740234375
 49
0.352691650390625
 49
-0.7057708740234375
  0
LTYPE
  2
VECTORWORKS_DASH_09
 70
     0
  3
(unavailable)
 72
    65
 73
     4
 40
25.399999999999999
 49
19.04999999999999
 49
-1.411154174804687
 49
3.5276916503906239
 49
-1.411154174804687
  0
LTYPE
  2
VECTORWORKS_DASH_10
 70
     0
  3
(unavailable)
 72
    65
 73
     6
 40
30.162499999999991
 49
19.04999999999999
 49
-1.411154174804687
 49
3.5276916503906239
 49
-1.411154174804687
 49
3.1749999999999989
 49
-1.587499999999999
  0
ENDTAB
  0
TABLE
  2
LAYER
 70
     6
  0
LAYER
  2
0
 70
     0
 62
     7
  6
CONTINUOUS
  0
LAYER
  2
HIBINO-BASE
 70
     0
 62
     7
  6
CONTINUOUS
  0
LAYER
  2
PATTERN_FILL
 70
     0
 62
     7
  6
CONTINUOUS
  0
LAYER
  2
SPEC
 70
     0
 62
     7
  6
CONTINUOUS
  0
LAYER
  2
DIMNSIONS
 70
     0
 62
     7
  6
CONTINUOUS
  0
LAYER
  2
DATA
 70
     0
 62
     7
  6
CONTINUOUS
  0
ENDTAB
  0
TABLE
  2
STYLE
 70
     1
  0
STYLE
  2
STANDARD
 70
     0
 40
0.0
 41
1.0
 50
0.0
 71
     0
 42
0.0
  3
txt
  4
BIGFONT.SHX
  0
ENDTAB
  0
TABLE
  2
VIEW
 70
     0
  0
ENDTAB
  0
TABLE
  2
UCS
 70
     0
  0
ENDTAB
  0
TABLE
  2
APPID
 70
     1
  0
APPID
  2
ACAD
 70
     0
  0
ENDTAB
  0
TABLE
  2
DIMSTYLE
 70
     1
  0
DIMSTYLE
  2
STANDARD
 70
     0
  3

  4

  5

  6

  7

 40
1.0
 41
0.18
 42
0.0625
 43
0.38
 44
0.18
 45
0.0
 46
0.0
 47
0.0
 48
0.0
140
0.18
141
0.09
142
0.0
143
25.399999999999999
144
1.0
145
0.0
146
1.0
147
0.09
 71
     0
 72
     0
 73
     1
 74
     1
 75
     0
 76
     0
 77
     0
 78
     0
170
     0
171
     2
172
     0
173
     0
174
     0
175
     0
176
     0
177
     0
178
     0
  0
ENDTAB
  0
ENDSEC
  0
SECTION
  2
BLOCKS
  0
BLOCK
  8
0
  2
$MODEL_SPACE
 70
     0
 10
0.0
 20
0.0
 30
0.0
  3
$MODEL_SPACE
  1

  0
ENDBLK
  5
185
  8
0
  0
BLOCK
 67
     1
  8
0
  2
$PAPER_SPACE
 70
     0
 10
0.0
 20
0.0
 30
0.0
  3
$PAPER_SPACE
  1

  0
ENDBLK
  5
183
 67
     1
  8
0
  0
BLOCK
  8
DIMNSIONS
  2
*G0
 70
     1
 10
0.0
 20
0.0
 30
0.0
  3
*G0
  1

  0
TEXT
  5
33
  8
DIMNSIONS
 62
     7
 10
121.58889000000001
 20
-67.027780000000007
 30
0.0
 40
5.6444499999999991
  1
23
 50
90.0
 11
115.9444399999999
 21
-67.027780000000007
 31
0.0
 73
     3
  0
ENDBLK
  5
34
  8
DIMNSIONS
  0
BLOCK
  8
DIMNSIONS
  2
*G1
 70
     1
 10
0.0
 20
0.0
 30
0.0
  3
*G1
  1

  0
TEXT
  5
36
  8
DIMNSIONS
 62
     7
 10
140.33888999999991
 20
-70.55556
 30
0.0
 40
5.6444499999999991
  1
38.5
 50
90.0
 11
134.6944399999999
 21
-70.55556
 31
0.0
 73
     3
  0
ENDBLK
  5
37
  8
DIMNSIONS
  0
BLOCK
  8
DIMNSIONS
  2
*G2
 70
     1
 10
0.0
 20
0.0
 30
0.0
  3
*G2
  1

  0
TEXT
  5
39
  8
DIMNSIONS
 62
     7
 10
159.08888999999991
 20
-67.027780000000007
 30
0.0
 40
5.6444499999999991
  1
53
 50
90.0
 11
153.4444399999999
 21
-67.027780000000007
 31
0.0
 73
     3
  0
ENDBLK
  5
3A
  8
DIMNSIONS
  0
BLOCK
  8
DIMNSIONS
  2
*G3
 70
     1
 10
0.0
 20
0.0
 30
0.0
  3
*G3
  1

  0
TEXT
  5
3C
  8
DIMNSIONS
 62
     7
 10
-106.27858000000001
 20
-11.588889999999999
 30
0.0
 40
5.6444499999999991
  1
44
 11
-106.27858000000001
 21
-5.9444400000000002
 31
0.0
 73
     3
  0
ENDBLK
  5
3D
  8
DIMNSIONS
  0
BLOCK
  8
DIMNSIONS
  2
*G4
 70
     1
 10
0.0
 20
0.0
 30
0.0
  3
*G4
  1

  0
TEXT
  5
3F
  8
DIMNSIONS
 62
     7
 10
-25.943529999999988
 20
-11.588889999999999
 30
0.0
 40
5.6444499999999991
  1
120
 11
-25.943529999999988
 21
-5.9444400000000002
 31
0.0
 73
     3
  0
ENDBLK
  5
40
  8
DIMNSIONS
  0
BLOCK
  8
DIMNSIONS
  2
*G5
 70
     1
 10
0.0
 20
0.0
 30
0.0
  3
*G5
  1

  0
TEXT
  5
42
  8
DIMNSIONS
 62
     7
 10
-48.191200000000002
 20
13.411110000000001
 30
0.0
 40
5.6444499999999991
  1
164
 11
-48.191200000000002
 21
19.055559999999989
 31
0.0
 73
     3
  0
ENDBLK
  5
43
  8
DIMNSIONS
  0
ENDSEC
  0
SECTION
  2
ENTITIES
  0
LINE
  5
44
  8
HIBINO-BASE
  6
CONTINUOUS
 62
     7
 10
-80.0
 20
403.53181999999993
 30
0.0
 11
280.0
 21
403.53181999999993
 31
0.0
  0
LINE
  5
45
  8
HIBINO-BASE
  6
CONTINUOUS
 62
     7
 10
280.0
 20
-116.46818
 30
0.0
 11
-80.0
 21
-116.46818
 31
0.0
  0
LINE
  5
46
  8
HIBINO-BASE
  6
CONTINUOUS
 62
     7
 10
-80.0
 20
-116.46818
 30
0.0
 11
-80.0
 21
403.53181999999993
 31
0.0
  0
TEXT
  5
47
  8
HIBINO-BASE
 62
     7
 10
-65.632000000000005
 20
-128.72415000000001
 30
0.0
 40
7.4851700000000001
  1
Hibino Corporation
 11
-65.632000000000005
 21
-121.23898
 31
0.0
 73
     3
  0
LINE
  5
48
  8
HIBINO-BASE
  6
CONTINUOUS
 62
     7
 10
280.0
 20
403.53181999999993
 30
0.0
 11
280.0
 21
-116.46818
 31
0.0
  0
LINE
  5
49
  8
HIBINO-BASE
  6
CONTINUOUS
 62
     7
 10
100.0
 20
-71.46817999999999
 30
0.0
 11
280.0
 21
-71.46817999999999
 31
0.0
  0
LINE
  5
4A
  8
HIBINO-BASE
  6
CONTINUOUS
 62
     7
 10
100.0
 20
-116.46818
 30
0.0
 11
100.0
 21
-71.46817999999999
 31
0.0
  0
TEXT
  5
4B
  8
HIBINO-BASE
 62
     7
 10
101.8
 20
-76.587490000000003
 30
0.0
 40
3.742589999999999
  1
NOTE
 11
101.8
 21
-72.844899999999996
 31
0.0
 73
     3
  0
LINE
  5
4C
  8
HIBINO-BASE
  6
CONTINUOUS
 62
     7
 10
170.0
 20
-116.46818
 30
0.0
 11
170.0
 21
-71.46817999999999
 31
0.0
  0
TEXT
  5
4D
  8
HIBINO-BASE
 62
     7
 10
171.80000000000001
 20
-76.587490000000003
 30
0.0
 40
3.742589999999999
  1
TITLE
 11
171.80000000000001
 21
-72.844899999999996
 31
0.0
 73
     3
  0
TEXT
  5
4E
  8
HIBINO-BASE
 62
     7
 10
200.1367799999999
 20
-128.72415000000001
 30
0.0
 40
7.4851700000000001
  1
ヒビノ株式会社
 11
200.1367799999999
 21
-121.23898
 31
0.0
 73
     3
  0
LINE
  5
4F
  8
HIBINO-BASE
  6
CONTINUOUS
 62
     7
 10
100.0
 20
-96.46817999999999
 30
0.0
 11
280.0
 21
-96.46817999999999
 31
0.0
  0
TEXT
  5
50
  8
HIBINO-BASE
 62
     7
 10
196.80000000000001
 20
-101.47485
 30
0.0
 40
3.742589999999999
  1
DRAWN
 11
196.80000000000001
 21
-97.732260000000011
 31
0.0
 73
     3
  0
TEXT
  5
51
  8
HIBINO-BASE
 62
     7
 10
146.80000000000001
 20
-101.47485
 30
0.0
 40
3.742589999999999
  1
DATE
 11
146.80000000000001
 21
-97.732260000000011
 31
0.0
 73
     3
  0
TEXT
  5
52
  8
HIBINO-BASE
 62
     7
 10
102.2
 20
-101.45309
 30
0.0
 40
3.3866700000000001
  1
図面サイズ
 11
102.2
 21
-98.066419999999994
 31
0.0
 73
     3
  0
TEXT
  5
53
  8
HIBINO-BASE
 62
     7
 10
126.8
 20
-101.47485
 30
0.0
 40
3.742589999999999
  1
SCALE
 11
126.8
 21
-97.732260000000011
 31
0.0
 73
     3
  0
TEXT
  5
54
  8
HIBINO-BASE
 62
     7
 10
171.80000000000001
 20
-101.47485
 30
0.0
 40
3.742589999999999
  1
DESIGN
 11
171.80000000000001
 21
-97.732260000000011
 31
0.0
 73
     3
  0
TEXT
  5
55
  8
HIBINO-BASE
 62
     7
 10
246.7999999999999
 20
-101.47485
 30
0.0
 40
3.742589999999999
  1
DRAWING NO.
 11
246.7999999999999
 21
-97.732260000000011
 31
0.0
 73
     3
  0
TEXT
  5
56
  8
HIBINO-BASE
 62
     7
 10
221.7999999999999
 20
-101.47485
 30
0.0
 40
3.742589999999999
  1
CHECK
 11
221.7999999999999
 21
-97.732260000000011
 31
0.0
 73
     3
  0
LINE
  5
57
  8
HIBINO-BASE
  6
CONTINUOUS
 62
     7
 10
128.75
 20
-113.9681799999999
 30
0.0
 11
136.25
 21
-106.46818
 31
0.0
  0
TEXT
  5
58
  8
HIBINO-BASE
 62
     7
 10
127.5
 20
-109.56095000000001
 30
0.0
 40
4.5155500000000002
  1
1
 11
127.5
 21
-105.0453999999999
 31
0.0
 73
     3
  0
LINE
  5
59
  8
HIBINO-BASE
  6
CONTINUOUS
 62
     7
 10
125.0
 20
-116.46818
 30
0.0
 11
125.0
 21
-96.46817999999999
 31
0.0
  0
LINE
  5
5A
  8
HIBINO-BASE
  6
CONTINUOUS
 62
     7
 10
145.0
 20
-116.46818
 30
0.0
 11
145.0
 21
-96.46817999999999
 31
0.0
  0
LINE
  5
5B
  8
HIBINO-BASE
  6
CONTINUOUS
 62
     7
 10
195.0
 20
-96.46817999999999
 30
0.0
 11
195.0
 21
-116.46818
 31
0.0
  0
LINE
  5
5C
  8
HIBINO-BASE
  6
CONTINUOUS
 62
     7
 10
245.0
 20
-96.46817999999999
 30
0.0
 11
245.0
 21
-116.46818
 31
0.0
  0
LINE
  5
5D
  8
HIBINO-BASE
  6
CONTINUOUS
 62
     7
 10
220.0
 20
-116.46818
 30
0.0
 11
220.0
 21
-96.46817999999999
 31
0.0
  0
TEXT
  5
5E
  8
HIBINO-BASE
 62
     7
 10
107.82178
 20
-110.96326999999999
 30
0.0
 40
6.7733299999999987
  1
A4
 11
107.82178
 21
-104.18994000000001
 31
0.0
 73
     3
  0
TEXT
  5
5F
  8
HIBINO-BASE
 62
     7
 10
145.71307999999991
 20
-110.84281
 30
0.0
 40
3.742589999999999
  1
'00.11.09.
 11
145.71307999999991
 21
-107.10021999999999
 31
0.0
 73
     3
  0
TEXT
  5
60
  8
HIBINO-BASE
 62
     7
 10
135.0
 20
-113.31094999999991
 30
0.0
 40
4.5155500000000002
  1
2
 11
135.0
 21
-108.7954
 31
0.0
 73
     3
  0
ARC
  5
61
  8
PATTERN_FILL
  6
CONTINUOUS
 62
     7
 10
5.6500199999999969
 20
76.776880000000006
 30
0.0
 40
27.630949999999991
 50
126.9067622623368
 51
239.9999862198824
  0
ARC
  5
62
  8
PATTERN_FILL
  6
CONTINUOUS
 62
     7
 10
2.0794099999999949
 20
50.0
 30
0.0
 40
45.92611999999999
 50
92.808143455345785
 51
120.850347227383
  0
ARC
  5
63
  8
PATTERN_FILL
  6
CONTINUOUS
 62
     7
 10
2.0794099999999949
 20
50.0
 30
0.0
 40
49.921700000000001
 50
92.583229116014365
 51
108.335075305872
  0
ARC
  5
64
  8
PATTERN_FILL
  6
CONTINUOUS
 62
     7
 10
4.3294099999999949
 20
76.776880000000006
 30
0.0
 40
5.857689999999999
 50
140.19442890773479
 51
220.95731379394371
  0
ARC
  5
65
  8
PATTERN_FILL
  6
CONTINUOUS
 62
     7
 10
5.6500199999999969
 20
76.776880000000006
 30
0.0
 40
11.355259999999999
 50
120.8365949512001
 51
240.0000160793343
  0
ARC
  5
66
  8
PATTERN_FILL
  6
CONTINUOUS
 62
     7
 10
5.6500199999999969
 20
76.776880000000006
 30
0.0
 40
16.922059999999991
 50
110.1186806260648
 51
249.9003970514643
  0
ARC
  5
67
  8
PATTERN_FILL
  6
CONTINUOUS
 62
     7
 10
5.6500199999999969
 20
76.776880000000006
 30
0.0
 40
21.708850000000002
 50
105.55251908741251
 51
254.4417563481617
  0
ARC
  5
68
  8
PATTERN_FILL
  6
CONTINUOUS
 62
     7
 10
5.6500199999999969
 20
76.776880000000006
 30
0.0
 40
24.557559999999999
 50
103.71067116491901
 51
256.31589095175008
  0
ARC
  5
69
  8
PATTERN_FILL
  6
CONTINUOUS
 62
     7
 10
2.0794099999999949
 20
50.0
 30
0.0
 40
26.123950000000001
 50
94.94088375884786
 51
151.66641747103529
  0
ARC
  5
6A
  8
PATTERN_FILL
  6
CONTINUOUS
 62
     7
 10
2.0794099999999949
 20
50.0
 30
0.0
 40
37.871909999999993
 50
93.405993388679676
 51
135.32022670059709
  0
ARC
  5
6B
  8
PATTERN_FILL
  6
CONTINUOUS
 62
     7
 10
2.0794099999999949
 20
50.0
 30
0.0
 40
41.931379999999997
 50
93.07591709530621
 51
128.60807828948461
  0
ARC
  5
6C
  8
PATTERN_FILL
  6
CONTINUOUS
 62
     7
 10
2.0794099999999949
 20
50.0
 30
0.0
 40
5.1341200000000002
 50
116.9699094064235
 51
160.88400069044189
  0
ARC
  5
6D
  8
PATTERN_FILL
  6
CONTINUOUS
 62
     7
 10
2.0794099999999949
 20
50.0
 30
0.0
 40
8.1547900000000002
 50
106.0971192308227
 51
163.79630421082081
  0
ARC
  5
6E
  8
PATTERN_FILL
  6
CONTINUOUS
 62
     7
 10
2.0794099999999949
 20
50.0
 30
0.0
 40
14.206189999999999
 50
99.112973995484793
 51
162.08048397959109
  0
ARC
  5
6F
  8
PATTERN_FILL
  6
CONTINUOUS
 62
     7
 10
2.0794099999999949
 20
50.0
 30
0.0
 40
19.926349999999989
 50
96.678165601586841
 51
157.71049559918339
  0
ARC
  5
70
  8
PATTERN_FILL
  6
CONTINUOUS
 62
     7
 10
2.0794099999999949
 20
50.0
 30
0.0
 40
33.893529999999991
 50
93.806341788646392
 51
141.38357321662829
  0
ARC
  5
71
  8
PATTERN_FILL
  6
CONTINUOUS
 62
     7
 10
2.0794099999999949
 20
50.0
 30
0.0
 40
30.00141
 50
94.301019775437695
 51
145.8753195600903
  0
ARC
  5
72
  8
PATTERN_FILL
  6
CONTINUOUS
 62
     7
 10
2.0794099999999949
 20
50.0
 30
0.0
 40
49.921700000000001
 50
71.66492469412799
 51
87.416770883985635
  0
ARC
  5
73
  8
PATTERN_FILL
  6
CONTINUOUS
 62
     7
 10
-0.1705900000000042
 20
76.776880000000006
 30
0.0
 40
5.8576800000000002
 50
319.0426862060562
 51
39.805571092265147
  0
ARC
  5
74
  8
PATTERN_FILL
  6
CONTINUOUS
 62
     7
 10
-1.4912000000000061
 20
76.776880000000006
 30
0.0
 40
11.355270000000001
 50
299.99998392066561
 51
59.163405048799859
  0
ARC
  5
75
  8
PATTERN_FILL
  6
CONTINUOUS
 62
     7
 10
-1.4912000000000061
 20
76.776880000000006
 30
0.0
 40
16.922059999999991
 50
290.09960294853551
 51
69.881319373935099
  0
ARC
  5
76
  8
PATTERN_FILL
  6
CONTINUOUS
 62
     7
 10
2.0794099999999949
 20
50.0
 30
0.0
 40
5.1341200000000002
 50
19.115999309558099
 51
63.030090593576482
  0
ARC
  5
77
  8
PATTERN_FILL
  6
CONTINUOUS
 62
     7
 10
2.0794099999999949
 20
50.0
 30
0.0
 40
8.1547900000000002
 50
16.203695789179118
 51
73.902880769177258
  0
ARC
  5
78
  8
PATTERN_FILL
  6
CONTINUOUS
 62
     7
 10
2.0794099999999949
 20
50.0
 30
0.0
 40
14.206189999999999
 50
17.919516020408839
 51
80.887026004515207
  0
ARC
  5
79
  8
PATTERN_FILL
  6
CONTINUOUS
 62
     7
 10
4.3294099999999949
 20
76.5
 30
0.0
 40
24.800000000000001
 50
270.0
 51
307.16569298859991
  0
ARC
  5
7A
  8
PATTERN_FILL
  6
CONTINUOUS
 62
     7
 10
4.3294099999999949
 20
76.5
 30
0.0
 40
24.829419999999988
 50
52.834306674828959
 51
90.0
  0
ARC
  5
7B
  8
PATTERN_FILL
  6
CONTINUOUS
 62
     7
 10
2.0794099999999949
 20
50.0
 30
0.0
 40
45.92611999999999
 50
67.938399982876689
 51
87.191856544654215
  0
ARC
  5
7C
  8
PATTERN_FILL
  6
CONTINUOUS
 62
     7
 10
-1.4912000000000061
 20
76.776880000000006
 30
0.0
 40
27.630949999999991
 50
41.103350604291244
 51
53.093237737663131
  0
ARC
  5
7D
  8
PATTERN_FILL
  6
CONTINUOUS
 62
     7
 10
-1.4912000000000061
 20
76.776880000000006
 30
0.0
 40
24.557569999999998
 50
32.023721269388538
 51
76.289334365023393
  0
ARC
  5
7E
  8
PATTERN_FILL
  6
CONTINUOUS
 62
     7
 10
-1.4912000000000061
 20
76.776880000000006
 30
0.0
 40
24.557559999999999
 50
283.68410904824981
 51
327.97631829236389
  0
ARC
  5
7F
  8
PATTERN_FILL
  6
CONTINUOUS
 62
     7
 10
2.0794099999999949
 20
50.0
 30
0.0
 40
41.931370000000001
 50
65.708038038181186
 51
86.924082171486219
  0
ARC
  5
80
  8
PATTERN_FILL
  6
CONTINUOUS
 62
     7
 10
2.0794099999999949
 20
50.0
 30
0.0
 40
37.871899999999989
 50
62.903993338588528
 51
86.594005712504043
  0
ARC
  5
81
  8
PATTERN_FILL
  6
CONTINUOUS
 62
     7
 10
-1.4912000000000061
 20
76.776880000000006
 30
0.0
 40
21.708850000000002
 50
16.446615417183029
 51
74.447480912587466
  0
ARC
  5
82
  8
PATTERN_FILL
  6
CONTINUOUS
 62
     7
 10
-1.4912000000000061
 20
76.776880000000006
 30
0.0
 40
21.708850000000002
 50
285.55824365183821
 51
343.55338458281688
  0
ARC
  5
83
  8
PATTERN_FILL
  6
CONTINUOUS
 62
     7
 10
2.0794099999999949
 20
50.0
 30
0.0
 40
33.893540000000002
 50
59.406310109271118
 51
86.193658211353622
  0
ARC
  5
84
  8
PATTERN_FILL
  6
CONTINUOUS
 62
     7
 10
2.0794099999999949
 20
50.0
 30
0.0
 40
30.00141
 50
54.902265068175701
 51
85.69898022456232
  0
ARC
  5
85
  8
PATTERN_FILL
  6
CONTINUOUS
 62
     7
 10
2.0794099999999949
 20
50.0
 30
0.0
 40
26.123950000000001
 50
48.676212735630479
 51
85.059116241152125
  0
ARC
  5
86
  8
PATTERN_FILL
  6
CONTINUOUS
 62
     7
 10
-1.4912000000000061
 20
76.776880000000006
 30
0.0
 40
27.630949999999991
 50
300.00001378011751
 51
318.89664939570872
  0
ARC
  5
87
  8
PATTERN_FILL
  6
CONTINUOUS
 62
     7
 10
2.0794099999999949
 20
50.0
 30
0.0
 40
19.926359999999999
 50
30.03869158129206
 51
83.321837742252811
  0
LINE
  5
88
  8
PATTERN_FILL
  6
CONTINUOUS
 62
     7
 10
182.5
 20
100.76931999999989
 30
0.0
 11
182.5
 21
94.791049999999998
 31
0.0
  0
LINE
  5
89
  8
PATTERN_FILL
  6
CONTINUOUS
 62
     7
 10
186.5
 20
99.412880000000001
 30
0.0
 11
186.5
 21
92.948779999999999
 31
0.0
  0
LINE
  5
8A
  8
PATTERN_FILL
  6
CONTINUOUS
 62
     7
 10
190.5
 20
97.212320000000005
 30
0.0
 11
190.5
 21
89.712209999999985
 31
0.0
  0
LINE
  5
8B
  8
PATTERN_FILL
  6
CONTINUOUS
 62
     7
 10
170.5
 20
100.76931999999989
 30
0.0
 11
170.5
 21
94.791049999999998
 31
0.0
  0
LINE
  5
8C
  8
PATTERN_FILL
  6
CONTINUOUS
 62
     7
 10
166.5
 20
99.412880000000001
 30
0.0
 11
166.5
 21
92.948779999999999
 31
0.0
  0
LINE
  5
8D
  8
PATTERN_FILL
  6
CONTINUOUS
 62
     7
 10
162.5
 20
97.212320000000005
 30
0.0
 11
162.5
 21
89.712209999999985
 31
0.0
  0
LINE
  5
8E
  8
PATTERN_FILL
  6
CONTINUOUS
 62
     7
 10
172.5
 20
101.17793
 30
0.0
 11
177.98531999999989
 21
95.692610000000002
 31
0.0
  0
LINE
  5
8F
  8
PATTERN_FILL
  6
CONTINUOUS
 62
     7
 10
168.5
 20
100.18544
 30
0.0
 11
173.21738999999999
 21
95.468050000000005
 31
0.0
  0
LINE
  5
90
  8
PATTERN_FILL
  6
CONTINUOUS
 62
     7
 10
164.5
 20
98.43171000000001
 30
0.0
 11
168.5
 21
94.43171000000001
 31
0.0
  0
LINE
  5
91
  8
PATTERN_FILL
  6
CONTINUOUS
 62
     7
 10
160.49999999999989
 20
95.709370000000007
 30
0.0
 11
164.5
 21
91.709370000000007
 31
0.0
  0
LINE
  5
92
  8
PATTERN_FILL
  6
CONTINUOUS
 62
     7
 10
178.5
 20
101.5
 30
0.0
 11
178.5
 21
95.750000000000014
 31
0.0
  0
LINE
  5
93
  8
PATTERN_FILL
  6
CONTINUOUS
 62
     7
 10
174.5
 20
101.5
 30
0.0
 11
174.5
 21
95.750000000000014
 31
0.0
  0
LINE
  5
94
  8
PATTERN_FILL
  6
CONTINUOUS
 62
     7
 10
176.5
 20
101.5
 30
0.0
 11
183.61193
 21
94.388069999999999
 31
0.0
  0
LINE
  5
95
  8
PATTERN_FILL
  6
CONTINUOUS
 62
     7
 10
184.49999999999989
 20
100.18544
 30
0.0
 11
200.18544
 21
84.500000000000014
 31
0.0
  0
LINE
  5
96
  8
PATTERN_FILL
  6
CONTINUOUS
 62
     7
 10
194.5
 20
93.849350000000001
 30
0.0
 11
194.5
 21
83.323669999999993
 31
0.0
  0
LINE
  5
97
  8
PATTERN_FILL
  6
CONTINUOUS
 62
     7
 10
198.5
 20
88.374340000000004
 30
0.0
 11
198.37501
 21
64.396950000000004
 31
0.0
  0
LINE
  5
98
  8
PATTERN_FILL
  6
CONTINUOUS
 62
     7
 10
194.48815999999999
 20
69.645179999999996
 30
0.0
 11
194.48815999999999
 21
59.138370000000002
 31
0.0
  0
LINE
  5
99
  8
PATTERN_FILL
  6
CONTINUOUS
 62
     7
 10
180.49999999999989
 20
101.17793
 30
0.0
 11
201.17791999999989
 21
80.500009999999989
 31
0.0
  0
LINE
  5
9A
  8
PATTERN_FILL
  6
CONTINUOUS
 62
     7
 10
194.5
 20
83.323669999999993
 30
0.0
 11
201.49938
 21
76.324289999999991
 31
0.0
  0
LINE
  5
9B
  8
PATTERN_FILL
  6
CONTINUOUS
 62
     7
 10
200.49999999999989
 20
69.5
 30
0.0
 11
195.63162
 21
74.368380000000002
 31
0.0
  0
LINE
  5
9C
  8
PATTERN_FILL
  6
CONTINUOUS
 62
     7
 10
198.37501
 20
64.396950000000004
 30
0.0
 11
194.09064000000001
 21
68.681319999999999
 31
0.0
  0
LINE
  5
9D
  8
PATTERN_FILL
  6
CONTINUOUS
 62
     7
 10
194.48815999999999
 20
59.138370000000002
 30
0.0
 11
190.49423999999991
 21
63.13228999999999
 31
0.0
  0
LINE
  5
9E
  8
PATTERN_FILL
  6
CONTINUOUS
 62
     7
 10
174.5
 20
57.25
 30
0.0
 11
174.50549000000001
 21
51.5
 31
0.0
  0
LINE
  5
9F
  8
PATTERN_FILL
  6
CONTINUOUS
 62
     7
 10
170.49907999999999
 20
58.20924999999999
 30
0.0
 11
170.50479000000001
 21
52.229489999999991
 31
0.0
  0
LINE
  5
A0
  8
PATTERN_FILL
  6
CONTINUOUS
 62
     7
 10
166.50549000000001
 20
60.047880000000013
 30
0.0
 11
166.50549000000001
 21
53.58473
 31
0.0
  0
LINE
  5
A1
  8
PATTERN_FILL
  6
CONTINUOUS
 62
     7
 10
178.5
 20
57.25
 30
0.0
 11
178.50549000000001
 21
51.5
 31
0.0
  0
LINE
  5
A2
  8
PATTERN_FILL
  6
CONTINUOUS
 62
     7
 10
182.49907999999991
 20
58.208650000000013
 30
0.0
 11
182.50479000000001
 21
52.231859999999998
 31
0.0
  0
LINE
  5
A3
  8
PATTERN_FILL
  6
CONTINUOUS
 62
     7
 10
186.49733000000001
 20
60.049589999999988
 30
0.0
 11
186.49733000000001
 21
53.58596
 31
0.0
  0
LINE
  5
A4
  8
PATTERN_FILL
  6
CONTINUOUS
 62
     7
 10
190.49423999999991
 20
63.28168999999999
 30
0.0
 11
190.49423999999991
 21
55.783789999999989
 31
0.0
  0
LINE
  5
A5
  8
PATTERN_FILL
  6
CONTINUOUS
 62
     7
 10
190.49423999999991
 20
55.783789999999989
 30
0.0
 11
186.49733000000001
 21
59.780699999999989
 31
0.0
  0
LINE
  5
A6
  8
PATTERN_FILL
  6
CONTINUOUS
 62
     7
 10
186.49733000000001
 20
53.58596
 30
0.0
 11
182.02375000000001
 21
58.059539999999991
 31
0.0
  0
LINE
  5
A7
  8
PATTERN_FILL
  6
CONTINUOUS
 62
     7
 10
182.50479000000001
 20
52.231859999999998
 30
0.0
 11
177.46257
 21
57.274079999999998
 31
0.0
  0
LINE
  5
A8
  8
PATTERN_FILL
  6
CONTINUOUS
 62
     7
 10
178.50549000000001
 20
51.5
 30
0.0
 11
172.4997599999999
 21
57.50573
 31
0.0
  0
LINE
  5
A9
  8
PATTERN_FILL
  6
CONTINUOUS
 62
     7
 10
174.5054099999999
 20
51.579689999999999
 30
0.0
 11
166.50549000000001
 21
59.579610000000002
 31
0.0
  0
LINE
  5
AA
  8
PATTERN_FILL
  6
CONTINUOUS
 62
     7
 10
162.50549000000001
 20
63.281970000000001
 30
0.0
 11
162.50549000000001
 21
55.783979999999993
 31
0.0
  0
LINE
  5
AB
  8
PATTERN_FILL
  6
CONTINUOUS
 62
     7
 10
158.50549000000001
 20
69.661860000000004
 30
0.0
 11
158.50549000000001
 21
59.144949999999987
 31
0.0
  0
LINE
  5
AC
  8
PATTERN_FILL
  6
CONTINUOUS
 62
     7
 10
170.50479000000001
 20
52.229489999999991
 30
0.0
 11
152.22949999999989
 21
70.504779999999997
 31
0.0
  0
LINE
  5
AD
  8
PATTERN_FILL
  6
CONTINUOUS
 62
     7
 10
166.50549000000001
 20
53.58473
 30
0.0
 11
154.49999999999989
 21
65.590220000000002
 31
0.0
  0
LINE
  5
AE
  8
PATTERN_FILL
  6
CONTINUOUS
 62
     7
 10
160.49182999999999
 20
65.808840000000004
 30
0.0
 11
151.56213
 21
74.73854
 31
0.0
  0
LINE
  5
AF
  8
PATTERN_FILL
  6
CONTINUOUS
 62
     7
 10
157.5
 20
73.407669999999996
 30
0.0
 11
151.6523
 21
79.255369999999999
 31
0.0
  0
LINE
  5
B0
  8
PATTERN_FILL
  6
CONTINUOUS
 62
     7
 10
158.49999999999989
 20
93.849350000000001
 30
0.0
 11
158.49999999999989
 21
83.323669999999993
 31
0.0
  0
LINE
  5
B1
  8
PATTERN_FILL
  6
CONTINUOUS
 62
     7
 10
154.49999999999989
 20
88.374340000000004
 30
0.0
 11
154.49999999999989
 21
64.625659999999996
 31
0.0
  0
LINE
  5
B2
  8
PATTERN_FILL
  6
CONTINUOUS
 62
     7
 10
156.49999999999989
 20
91.5
 30
0.0
 11
160.49999999999989
 21
87.5
 31
0.0
  0
LINE
  5
B3
  8
PATTERN_FILL
  6
CONTINUOUS
 62
     7
 10
154.49999999999989
 20
88.374340000000004
 30
0.0
 11
158.80194
 21
84.072399999999988
 31
0.0
  0
LINE
  5
B4
  8
PATTERN_FILL
  6
CONTINUOUS
 62
     7
 10
152.5
 20
83.499999999999986
 30
0.0
 11
157.36837999999989
 21
78.631619999999984
 31
0.0
  0
LINE
  5
B5
  8
SPEC
  6
CONTINUOUS
 62
     7
 10
-65.0
 20
383.53181999999998
 30
0.0
 11
230.0
 21
383.53181999999998
 31
0.0
  0
LINE
  5
B6
  8
SPEC
  6
CONTINUOUS
 62
     7
 10
-65.0
 20
376.03181999999998
 30
0.0
 11
230.0
 21
376.03181999999998
 31
0.0
  0
LINE
  5
B7
  8
SPEC
  6
CONTINUOUS
 62
     7
 10
-65.0
 20
346.03181999999998
 30
0.0
 11
230.0
 21
346.03181999999998
 31
0.0
  0
LINE
  5
B8
  8
SPEC
  6
CONTINUOUS
 62
     7
 10
-65.0
 20
353.53181999999998
 30
0.0
 11
230.0
 21
353.53181999999998
 31
0.0
  0
LINE
  5
B9
  8
SPEC
  6
CONTINUOUS
 62
     7
 10
-65.0
 20
361.03181999999998
 30
0.0
 11
230.0
 21
361.03181999999998
 31
0.0
  0
LINE
  5
BA
  8
SPEC
  6
CONTINUOUS
 62
     7
 10
-65.0
 20
368.53181999999998
 30
0.0
 11
230.0
 21
368.53181999999998
 31
0.0
  0
TEXT
  5
BB
  8
SPEC
 62
     7
 10
1.799999999999996
 20
377.904
 30
0.0
 40
3.9510999999999989
  1
ダイナミック型
 11
1.7999999999999969
 21
381.85509999999988
 31
0.0
 73
     3
  0
LINE
  5
BC
  8
SPEC
  6
CONTINUOUS
 62
     7
 10
-65.0
 20
383.53181999999998
 30
0.0
 11
-65.0
 21
316.03181999999998
 31
0.0
  0
TEXT
  5
BD
  8
SPEC
 62
     7
 10
-62.5
 20
386.69936000000001
 30
0.0
 40
5.0800000000000001
  1
仕様
 11
-62.5
 21
391.77935999999988
 31
0.0
 73
     3
  0
LINE
  5
BE
  8
SPEC
  6
CONTINUOUS
 62
     7
 10
0.0
 20
383.53181999999998
 30
0.0
 11
0.0
 21
316.03181999999998
 31
0.0
  0
LINE
  5
BF
  8
SPEC
  6
CONTINUOUS
 62
     7
 10
230.0
 20
383.53181999999998
 30
0.0
 11
230.0
 21
316.03181999999998
 31
0.0
  0
TEXT
  5
C0
  8
SPEC
 62
     7
 10
-63.199999999999989
 20
347.90399999999988
 30
0.0
 40
3.9510999999999989
  1
インピーダンス
 11
-63.199999999999989
 21
351.85509999999988
 31
0.0
 73
     3
  0
TEXT
  5
C1
  8
SPEC
 62
     7
 10
-63.199999999999989
 20
377.904
 30
0.0
 40
3.9510999999999989
  1
形式
 11
-63.199999999999989
 21
381.85509999999988
 31
0.0
 73
     3
  0
TEXT
  5
C2
  8
SPEC
 62
     7
 10
-63.199999999999989
 20
355.404
 30
0.0
 40
3.9510999999999989
  1
出力レベル(@1kHz)
 11
-63.199999999999989
 21
359.35509999999999
 31
0.0
 73
     3
  0
TEXT
  5
C3
  8
SPEC
 62
     7
 10
-63.199999999999989
 20
340.404
 30
0.0
 40
3.9510999999999989
  1
外装
 11
-63.199999999999989
 21
344.35509999999988
 31
0.0
 73
     3
  0
TEXT
  5
C4
  8
SPEC
 62
     7
 10
-63.199999999999989
 20
370.40399999999988
 30
0.0
 40
3.9510999999999989
  1
周波数特性
 11
-63.199999999999989
 21
374.35509999999999
 31
0.0
 73
     3
  0
TEXT
  5
C5
  8
SPEC
 62
     7
 10
-63.199999999999989
 20
362.90399999999988
 30
0.0
 40
3.9510999999999989
  1
指向特性
 11
-63.199999999999989
 21
366.85509999999988
 31
0.0
 73
     3
  0
TEXT
  5
C6
  8
SPEC
 62
     7
 10
1.799999999999996
 20
347.90399999999988
 30
0.0
 40
3.9510999999999989
  1
150Ω(290Ω実効)
 11
1.7999999999999969
 21
351.85509999999988
 31
0.0
 73
     3
  0
TEXT
  5
C7
  8
SPEC
 62
     7
 10
1.799999999999996
 20
355.32101
 30
0.0
 40
4.0340899999999991
  1
-51.5dBV/Pa* (2.7mV)　　*1Pa=94dB SPL
 11
1.7999999999999969
 21
359.35509999999999
 31
0.0
 73
     3
  0
TEXT
  5
C8
  8
SPEC
 62
     7
 10
1.799999999999996
 20
340.404
 30
0.0
 40
3.9510999999999989
  1
ダイキャストメタル、シルバーブルーエナメル塗装つや消し仕上げ、球状スチールメッシュグリル
 11
1.7999999999999969
 21
344.35509999999988
 31
0.0
 73
     3
  0
TEXT
  5
C9
  8
SPEC
 62
     7
 10
1.799999999999996
 20
362.90399999999988
 30
0.0
 40
3.9510999999999989
  1
スーパーカーディオイド
 11
1.7999999999999969
 21
366.85509999999988
 31
0.0
 73
     3
  0
TEXT
  5
CA
  8
SPEC
 62
     7
 10
1.799999999999996
 20
370.40399999999988
 30
0.0
 40
3.9510999999999989
  1
50Hz～16,000Hz
 11
1.7999999999999969
 21
374.35509999999999
 31
0.0
 73
     3
  0
LINE
  5
CB
  8
SPEC
  6
CONTINUOUS
 62
     7
 10
-65.0
 20
331.03181999999998
 30
0.0
 11
230.0
 21
331.03181999999998
 31
0.0
  0
LINE
  5
CC
  8
SPEC
  6
CONTINUOUS
 62
     7
 10
-65.0
 20
316.03181999999998
 30
0.0
 11
230.0
 21
316.03181999999998
 31
0.0
  0
LINE
  5
CD
  8
SPEC
  6
CONTINUOUS
 62
     7
 10
-65.0
 20
323.53181999999998
 30
0.0
 11
230.0
 21
323.53181999999998
 31
0.0
  0
TEXT
  5
CE
  8
SPEC
 62
     7
 10
-63.199999999999989
 20
317.80399999999992
 30
0.0
 40
3.9510999999999989
  1
重量
 11
-63.199999999999989
 21
321.75509999999991
 31
0.0
 73
     3
  0
TEXT
  5
CF
  8
SPEC
 62
     7
 10
1.799999999999996
 20
325.40399999999988
 30
0.0
 40
3.9510999999999989
  1
φ53×164mm
 11
1.7999999999999969
 21
329.35509999999988
 31
0.0
 73
     3
  0
TEXT
  5
D0
  8
SPEC
 62
     7
 10
1.799999999999996
 20
317.80399999999992
 30
0.0
 40
3.9510999999999989
  1
約278g
 11
1.7999999999999969
 21
321.75509999999991
 31
0.0
 73
     3
  0
TEXT
  5
D1
  8
SPEC
 62
     7
 10
-63.199999999999989
 20
325.61959999999999
 30
0.0
 40
3.9510999999999989
  1
寸法
 11
-63.199999999999989
 21
329.57069999999999
 31
0.0
 73
     3
  0
LINE
  5
D2
  8
SPEC
  6
CONTINUOUS
 62
     7
 10
-65.0
 20
338.53181999999998
 30
0.0
 11
230.0
 21
338.53181999999998
 31
0.0
  0
TEXT
  5
D3
  8
SPEC
 62
     7
 10
1.799999999999996
 20
332.90399999999988
 30
0.0
 40
3.9510999999999989
  1
XLR3ピン オス
 11
1.7999999999999969
 21
336.85509999999999
 31
0.0
 73
     3
  0
TEXT
  5
D4
  8
SPEC
 62
     7
 10
-63.199999999999989
 20
333.11959999999988
 30
0.0
 40
3.9510999999999989
  1
出力コネクター
 11
-63.199999999999989
 21
337.07069999999987
 31
0.0
 73
     3
  0
TEXT
  5
D5
  8
DIMNSIONS
 62
     7
 10
60.0
 20
-91.548199999999994
 30
0.0
 40
5.0800000000000001
  1
(単位：mm)
 11
60.0
 21
-86.468199999999996
 31
0.0
 73
     3
  0
LINE
  5
D6
  8
DIMNSIONS
  6
CONTINUOUS
 62
     7
 10
180.49999999999989
 20
88.0
 30
0.0
 11
229.0
 21
88.0
 31
0.0
  0
LINE
  5
D7
  8
DIMNSIONS
  6
CONTINUOUS
 62
     7
 10
180.49999999999989
 20
65.0
 30
0.0
 11
229.0
 21
65.0
 31
0.0
  0
LINE
  5
D9
  8
DIMNSIONS
 62
     7
 10
225.0
 20
88.0
 30
0.0
 11
226.70147
 21
81.650000000000006
 31
0.0
  0
LINE
  5
DA
  8
DIMNSIONS
 62
     7
 10
225.0
 20
88.0
 30
0.0
 11
223.29851999999991
 21
81.650000000000006
 31
0.0
  0
LINE
  5
DB
  8
DIMNSIONS
 62
     7
 10
225.0
 20
65.0
 30
0.0
 11
223.29851999999991
 21
71.349990000000005
 31
0.0
  0
LINE
  5
DC
  8
DIMNSIONS
 62
     7
 10
225.0
 20
65.0
 30
0.0
 11
226.70147
 21
71.349990000000005
 31
0.0
  0
LINE
  5
D8
  8
DIMNSIONS
  6
CONTINUOUS
 62
     7
 10
225.0
 20
88.0
 30
0.0
 11
225.0
 21
65.0
 31
0.0
  0
INSERT
  5
DD
  8
DIMNSIONS
  2
*G0
 10
100.0
 20
140.0
 30
0.0
  0
LINE
  5
DE
  8
DIMNSIONS
  6
CONTINUOUS
 62
     7
 10
180.49999999999989
 20
95.750000000000014
 30
0.0
 11
247.75
 21
95.750000000000014
 31
0.0
  0
LINE
  5
DF
  8
DIMNSIONS
  6
CONTINUOUS
 62
     7
 10
180.49999999999989
 20
57.25
 30
0.0
 11
247.75
 21
57.25
 31
0.0
  0
LINE
  5
E1
  8
DIMNSIONS
 62
     7
 10
243.75
 20
95.750000000000014
 30
0.0
 11
245.45147
 21
89.400000000000006
 31
0.0
  0
LINE
  5
E2
  8
DIMNSIONS
 62
     7
 10
243.75
 20
95.750000000000014
 30
0.0
 11
242.04851999999991
 21
89.400000000000006
 31
0.0
  0
LINE
  5
E3
  8
DIMNSIONS
 62
     7
 10
243.75
 20
57.25
 30
0.0
 11
242.04851999999991
 21
63.599990000000012
 31
0.0
  0
LINE
  5
E4
  8
DIMNSIONS
 62
     7
 10
243.75
 20
57.25
 30
0.0
 11
245.45147
 21
63.599990000000012
 31
0.0
  0
LINE
  5
E0
  8
DIMNSIONS
  6
CONTINUOUS
 62
     7
 10
243.75
 20
95.750000000000014
 30
0.0
 11
243.75
 21
57.25
 31
0.0
  0
INSERT
  5
E5
  8
DIMNSIONS
  2
*G1
 10
100.0
 20
140.0
 30
0.0
  0
LINE
  5
E6
  8
DIMNSIONS
  6
CONTINUOUS
 62
     7
 10
180.49999999999989
 20
103.0
 30
0.0
 11
266.5
 21
103.0
 31
0.0
  0
LINE
  5
E7
  8
DIMNSIONS
  6
CONTINUOUS
 62
     7
 10
180.49999999999989
 20
50.0
 30
0.0
 11
266.5
 21
50.0
 31
0.0
  0
LINE
  5
E9
  8
DIMNSIONS
 62
     7
 10
262.5
 20
103.0
 30
0.0
 11
264.20146999999992
 21
96.650000000000006
 31
0.0
  0
LINE
  5
EA
  8
DIMNSIONS
 62
     7
 10
262.5
 20
103.0
 30
0.0
 11
260.79851999999988
 21
96.650000000000006
 31
0.0
  0
LINE
  5
EB
  8
DIMNSIONS
 62
     7
 10
262.5
 20
50.0
 30
0.0
 11
260.79851999999988
 21
56.349989999999998
 31
0.0
  0
LINE
  5
EC
  8
DIMNSIONS
 62
     7
 10
262.5
 20
50.0
 30
0.0
 11
264.20146999999992
 21
56.349989999999998
 31
0.0
  0
LINE
  5
E8
  8
DIMNSIONS
  6
CONTINUOUS
 62
     7
 10
262.5
 20
103.0
 30
0.0
 11
262.5
 21
50.0
 31
0.0
  0
INSERT
  5
ED
  8
DIMNSIONS
  2
*G2
 10
100.0
 20
140.0
 30
0.0
  0
LINE
  5
EE
  8
DIMNSIONS
  6
CONTINUOUS
 62
     7
 10
-24.99846999999999
 20
80.776880000000006
 30
0.0
 11
-24.99846999999999
 21
129.0
 31
0.0
  0
LINE
  5
EF
  8
DIMNSIONS
  6
CONTINUOUS
 62
     7
 10
19.496880000000001
 20
100.7900599999999
 30
0.0
 11
19.496880000000001
 21
129.0
 31
0.0
  0
LINE
  5
F1
  8
DIMNSIONS
 62
     7
 10
-24.99846999999999
 20
125.0
 30
0.0
 11
-18.648479999999999
 21
126.70147
 31
0.0
  0
LINE
  5
F2
  8
DIMNSIONS
 62
     7
 10
-24.99846999999999
 20
125.0
 30
0.0
 11
-18.648479999999999
 21
123.2985199999999
 31
0.0
  0
LINE
  5
F3
  8
DIMNSIONS
 62
     7
 10
19.496880000000001
 20
125.0
 30
0.0
 11
13.146879999999991
 21
123.2985199999999
 31
0.0
  0
LINE
  5
F4
  8
DIMNSIONS
 62
     7
 10
19.496880000000001
 20
125.0
 30
0.0
 11
13.146879999999991
 21
126.70147
 31
0.0
  0
LINE
  5
F0
  8
DIMNSIONS
  6
CONTINUOUS
 62
     7
 10
-24.99846999999999
 20
125.0
 30
0.0
 11
19.496880000000001
 21
125.0
 31
0.0
  0
INSERT
  5
F5
  8
DIMNSIONS
  2
*G3
 10
100.0
 20
140.0
 30
0.0
  0
LINE
  5
F6
  8
DIMNSIONS
  6
CONTINUOUS
 62
     7
 10
19.496880000000001
 20
103.96505999999989
 30
0.0
 11
19.496880000000001
 21
129.0
 31
0.0
  0
LINE
  5
F7
  8
DIMNSIONS
  6
CONTINUOUS
 62
     7
 10
139.19941
 20
92.0
 30
0.0
 11
139.19941
 21
129.0
 31
0.0
  0
LINE
  5
F9
  8
DIMNSIONS
 62
     7
 10
19.496880000000001
 20
125.0
 30
0.0
 11
25.846869999999988
 21
126.70147
 31
0.0
  0
LINE
  5
FA
  8
DIMNSIONS
 62
     7
 10
19.496880000000001
 20
125.0
 30
0.0
 11
25.846869999999988
 21
123.2985199999999
 31
0.0
  0
LINE
  5
FB
  8
DIMNSIONS
 62
     7
 10
139.19941
 20
125.0
 30
0.0
 11
132.84941000000001
 21
123.2985199999999
 31
0.0
  0
LINE
  5
FC
  8
DIMNSIONS
 62
     7
 10
139.19941
 20
125.0
 30
0.0
 11
132.84941000000001
 21
126.70147
 31
0.0
  0
LINE
  5
F8
  8
DIMNSIONS
  6
CONTINUOUS
 62
     7
 10
19.496880000000001
 20
125.0
 30
0.0
 11
139.19941
 21
125.0
 31
0.0
  0
INSERT
  5
FD
  8
DIMNSIONS
  2
*G4
 10
100.0
 20
140.0
 30
0.0
  0
LINE
  5
FE
  8
DIMNSIONS
  6
CONTINUOUS
 62
     7
 10
-24.99846999999999
 20
80.776880000000006
 30
0.0
 11
-24.99846999999999
 21
154.0
 31
0.0
  0
LINE
  5
FF
  8
DIMNSIONS
  6
CONTINUOUS
 62
     7
 10
139.19941
 20
92.0
 30
0.0
 11
139.19941
 21
154.0
 31
0.0
  0
LINE
  5
101
  8
DIMNSIONS
 62
     7
 10
-24.99846999999999
 20
150.0
 30
0.0
 11
-18.648479999999999
 21
151.70147
 31
0.0
  0
LINE
  5
102
  8
DIMNSIONS
 62
     7
 10
-24.99846999999999
 20
150.0
 30
0.0
 11
-18.648479999999999
 21
148.29851999999991
 31
0.0
  0
LINE
  5
103
  8
DIMNSIONS
 62
     7
 10
139.19941
 20
150.0
 30
0.0
 11
132.84941000000001
 21
148.29851999999991
 31
0.0
  0
LINE
  5
104
  8
DIMNSIONS
 62
     7
 10
139.19941
 20
150.0
 30
0.0
 11
132.84941000000001
 21
151.70147
 31
0.0
  0
LINE
  5
100
  8
DIMNSIONS
  6
CONTINUOUS
 62
     7
 10
-24.99846999999999
 20
150.0
 30
0.0
 11
139.19941
 21
150.0
 31
0.0
  0
INSERT
  5
105
  8
DIMNSIONS
  2
*G5
 10
100.0
 20
140.0
 30
0.0
  0
TEXT
  5
106
  8
DATA
 62
     7
 10
194.1999999999999
 20
-79.325399999999988
 30
0.0
 40
5.0800000000000001
  1
SHURE
 11
194.1999999999999
 21
-74.245399999999989
 31
0.0
 73
     3
  0
TEXT
  5
107
  8
DATA
 62
     7
 10
194.1999999999999
 20
-85.206309999999988
 30
0.0
 40
3.3866700000000001
  1
ダイナミック型・単一指向性マイクロホン
 11
194.1999999999999
 21
-81.819639999999978
 31
0.0
 73
     3
  0
TEXT
  5
108
  8
DATA
 62
     7
 10
194.1999999999999
 20
-93.31483999999999
 30
0.0
 40
5.0800000000000001
  1
Beta 58A
 11
194.1999999999999
 21
-88.234839999999977
 31
0.0
 73
     3
  0
LINE
  5
109
  8
DATA
  6
CONTINUOUS
 62
     7
 10
139.19941
 20
88.0
 30
0.0
 11
139.19941
 21
65.0
 31
0.0
  0
LINE
  5
10A
  8
DATA
  6
CONTINUOUS
 62
     7
 10
46.329410000000003
 20
92.5
 30
0.0
 11
46.329410000000003
 21
60.5
 31
0.0
  0
LINE
  5
10B
  8
DATA
  6
CONTINUOUS
 62
     7
 10
46.329410000000003
 20
92.0
 30
0.0
 11
139.32941
 21
88.0
 31
0.0
  0
LINE
  5
10C
  8
DATA
  6
CONTINUOUS
 62
     7
 10
46.329410000000003
 20
61.0
 30
0.0
 11
139.32941
 21
65.0
 31
0.0
  0
LINE
  5
10D
  8
DATA
  6
CONTINUOUS
 62
     7
 10
24.329409999999989
 20
59.553759999999997
 30
0.0
 11
24.329409999999989
 21
94.0
 31
0.0
  0
LINE
  5
10E
  8
DATA
  6
CONTINUOUS
 62
     7
 10
24.329409999999989
 20
94.0
 30
0.0
 11
46.329410000000003
 21
92.5
 31
0.0
  0
LINE
  5
10F
  8
DATA
  6
CONTINUOUS
 62
     7
 10
24.329409999999989
 20
59.553759999999997
 30
0.0
 11
46.329410000000003
 21
60.5
 31
0.0
  0
LINE
  5
110
  8
DATA
  6
CONTINUOUS
 62
     7
 10
24.329409999999989
 20
59.553759999999997
 30
0.0
 11
19.329409999999989
 21
56.5
 31
0.0
  0
LINE
  5
111
  8
DATA
  6
CONTINUOUS
 62
     7
 10
24.329409999999989
 20
94.0
 30
0.0
 11
19.496880000000001
 21
96.790060000000011
 31
0.0
  0
LINE
  5
112
  8
DATA
  6
CONTINUOUS
 62
     7
 10
19.329409999999989
 20
96.5
 30
0.0
 11
19.329409999999989
 21
56.5
 31
0.0
  0
LINE
  5
113
  8
DATA
  6
CONTINUOUS
 62
     7
 10
4.3294099999999949
 20
102.0
 30
0.0
 11
4.3294099999999949
 21
51.0
 31
0.0
  0
LINE
  5
114
  8
DATA
  6
CONTINUOUS
 62
     7
 10
-0.1705900000000042
 20
102.0
 30
0.0
 11
-0.1705900000000042
 21
51.0
 31
0.0
  0
ARC
  5
115
  8
DATA
  6
CONTINUOUS
 62
     7
 10
-0.1705900000000042
 20
76.5
 30
0.0
 40
24.829419999999988
 50
90.0
 51
270.0
  0
ARC
  5
116
  8
DATA
  6
CONTINUOUS
 62
     7
 10
4.3294099999999949
 20
76.5
 30
0.0
 40
24.800000000000001
 50
270.0
 51
307.16569298859991
  0
LINE
  5
117
  8
DATA
  6
CONTINUOUS
 62
     7
 10
2.0794099999999949
 20
50.0
 30
0.0
 11
2.0794099999999949
 21
103.0
 31
0.0
  0
LINE
  5
118
  8
DATA
  6
CONTINUOUS
 62
     7
 10
0.3294099999999958
 20
102.0
 30
0.0
 11
0.3294099999999958
 21
51.0
 31
0.0
  0
LINE
  5
119
  8
DATA
  6
CONTINUOUS
 62
     7
 10
3.8294099999999949
 20
102.0
 30
0.0
 11
3.8294099999999949
 21
51.0
 31
0.0
  0
POLYLINE
  5
11A
  8
DATA
  6
CONTINUOUS
 62
     7
 66
     1
 10
0.0
 20
0.0
 30
0.0
 70
   128
  0
VERTEX
  5
18A
  8
DATA
  6
CONTINUOUS
 62
     7
 10
0.3294099999999958
 20
102.0
 30
0.0
  0
VERTEX
  5
18B
  8
DATA
  6
CONTINUOUS
 62
     7
 10
0.7669099999999958
 20
102.43659
 30
0.0
  0
VERTEX
  5
18C
  8
DATA
  6
CONTINUOUS
 62
     7
 10
1.2044099999999951
 20
102.74844999999991
 30
0.0
  0
VERTEX
  5
18D
  8
DATA
  6
CONTINUOUS
 62
     7
 10
1.6419099999999951
 20
102.93556
 30
0.0
  0
VERTEX
  5
18E
  8
DATA
  6
CONTINUOUS
 62
     7
 10
2.0794099999999949
 20
102.9979399999999
 30
0.0
  0
VERTEX
  5
18F
  8
DATA
  6
CONTINUOUS
 62
     7
 10
2.5169099999999949
 20
102.93556
 30
0.0
  0
VERTEX
  5
190
  8
DATA
  6
CONTINUOUS
 62
     7
 10
2.9544099999999949
 20
102.74844999999991
 30
0.0
  0
VERTEX
  5
191
  8
DATA
  6
CONTINUOUS
 62
     7
 10
3.3919099999999949
 20
102.43659
 30
0.0
  0
VERTEX
  5
192
  8
DATA
  6
CONTINUOUS
 62
     7
 10
3.8294099999999949
 20
102.0
 30
0.0
  0
VERTEX
  5
193
  8
DATA
  6
CONTINUOUS
 62
     7
 10
3.8294099999999949
 20
102.0
 30
0.0
  0
SEQEND
  5
194
  8
DATA
  6
CONTINUOUS
 62
     7
  0
POLYLINE
  5
126
  8
DATA
  6
CONTINUOUS
 62
     7
 66
     1
 10
0.0
 20
0.0
 30
0.0
 70
   128
  0
VERTEX
  5
195
  8
DATA
  6
CONTINUOUS
 62
     7
 10
0.3294099999999958
 20
51.0
 30
0.0
  0
VERTEX
  5
196
  8
DATA
  6
CONTINUOUS
 62
     7
 10
0.7669099999999958
 20
50.563389999999998
 30
0.0
  0
VERTEX
  5
197
  8
DATA
  6
CONTINUOUS
 62
     7
 10
1.2044099999999951
 20
50.251539999999999
 30
0.0
  0
VERTEX
  5
198
  8
DATA
  6
CONTINUOUS
 62
     7
 10
1.6419099999999951
 20
50.064430000000002
 30
0.0
  0
VERTEX
  5
199
  8
DATA
  6
CONTINUOUS
 62
     7
 10
2.0794099999999949
 20
50.00206
 30
0.0
  0
VERTEX
  5
19A
  8
DATA
  6
CONTINUOUS
 62
     7
 10
2.5169099999999949
 20
50.064430000000002
 30
0.0
  0
VERTEX
  5
19B
  8
DATA
  6
CONTINUOUS
 62
     7
 10
2.9544099999999949
 20
50.251539999999999
 30
0.0
  0
VERTEX
  5
19C
  8
DATA
  6
CONTINUOUS
 62
     7
 10
3.3919099999999949
 20
50.563389999999998
 30
0.0
  0
VERTEX
  5
19D
  8
DATA
  6
CONTINUOUS
 62
     7
 10
3.8294099999999949
 20
51.0
 30
0.0
  0
VERTEX
  5
19E
  8
DATA
  6
CONTINUOUS
 62
     7
 10
3.8294099999999949
 20
51.0
 30
0.0
  0
SEQEND
  5
19F
  8
DATA
  6
CONTINUOUS
 62
     7
  0
LINE
  5
132
  8
DATA
  6
CONTINUOUS
 62
     7
 10
-0.1705900000000042
 20
51.0
 30
0.0
 11
0.3294099999999958
 21
51.0
 31
0.0
  0
LINE
  5
133
  8
DATA
  6
CONTINUOUS
 62
     7
 10
4.3294099999999949
 20
51.0
 30
0.0
 11
3.8294099999999949
 21
51.0
 31
0.0
  0
LINE
  5
134
  8
DATA
  6
CONTINUOUS
 62
     7
 10
4.3294099999999949
 20
102.0
 30
0.0
 11
3.8293699999999968
 21
102.0
 31
0.0
  0
LINE
  5
135
  8
DATA
  6
CONTINUOUS
 62
     7
 10
-0.1705900000000042
 20
102.0
 30
0.0
 11
0.3294300000000021
 21
102.0
 31
0.0
  0
LINE
  5
136
  8
DATA
  6
CONTINUOUS
 62
     7
 10
40.829410000000003
 20
69.0
 30
0.0
 11
40.829410000000003
 21
84.0
 31
0.0
  0
LINE
  5
137
  8
DATA
  6
CONTINUOUS
 62
     7
 10
29.829409999999989
 20
69.0
 30
0.0
 11
29.829409999999989
 21
84.0
 31
0.0
  0
LINE
  5
138
  8
DATA
  6
CONTINUOUS
 62
     7
 10
40.829410000000003
 20
69.0
 30
0.0
 11
29.829409999999989
 21
69.0
 31
0.0
  0
LINE
  5
139
  8
DATA
  6
CONTINUOUS
 62
     7
 10
40.829410000000003
 20
84.0
 30
0.0
 11
29.829409999999989
 21
84.0
 31
0.0
  0
TEXT
  5
13A
  8
DATA
 62
     7
 10
35.914449395252312
 20
70.430307386037882
 30
0.0
 40
2.399999999999999
  1
SHURE
 50
96.000000009809014
 72
     1
 11
35.329089999999987
 21
75.999629999999996
 31
0.0
  0
TEXT
  5
13B
  8
DATA
 62
     7
 10
39.02345355137782
 20
69.550471111617426
 30
0.0
 40
2.399999999999999
  1
BETA58
 50
96.000000009809014
 72
     1
 11
38.312660000000001
 21
76.313220000000001
 31
0.0
  0
LINE
  5
13C
  8
DATA
  6
CONTINUOUS
 62
     7
 10
30.829409999999989
 20
84.0
 30
0.0
 11
32.829409999999989
 21
69.0
 31
0.0
  0
LINE
  5
13D
  8
DATA
  6
CONTINUOUS
 62
     7
 10
37.829410000000003
 20
84.0
 30
0.0
 11
39.829410000000003
 21
69.0
 31
0.0
  0
ARC
  5
13E
  8
DATA
  6
CONTINUOUS
 62
     7
 10
4.3294099999999949
 20
76.5
 30
0.0
 40
24.829419999999988
 50
52.834306674828959
 51
90.0
  0
CIRCLE
  5
13F
  8
DATA
  6
CONTINUOUS
 62
     7
 10
176.5
 20
76.5
 30
0.0
 40
11.5
  0
CIRCLE
  5
140
  8
DATA
  6
CONTINUOUS
 62
     7
 10
176.5
 20
76.5
 30
0.0
 40
8.0
  0
CIRCLE
  5
141
  8
DATA
  6
CONTINUOUS
 62
     7
 10
176.5
 20
80.700000000000003
 30
0.0
 40
1.25
  0
CIRCLE
  5
142
  8
DATA
  6
CONTINUOUS
 62
     7
 10
172.30000000000001
 20
76.5
 30
0.0
 40
1.25
  0
CIRCLE
  5
143
  8
DATA
  6
CONTINUOUS
 62
     7
 10
176.5
 20
76.5
 30
0.0
 40
19.25
  0
CIRCLE
  5
144
  8
DATA
  6
CONTINUOUS
 62
     7
 10
176.5
 20
76.5
 30
0.0
 40
25.0
  0
CIRCLE
  5
145
  8
DATA
  6
CONTINUOUS
 62
     7
 10
176.5
 20
76.5
 30
0.0
 40
26.0
  0
CIRCLE
  5
146
  8
DATA
  6
CONTINUOUS
 62
     7
 10
176.5
 20
76.5
 30
0.0
 40
26.5
  0
CIRCLE
  5
147
  8
DATA
  6
CONTINUOUS
 62
     7
 10
176.5
 20
72.299999999999997
 30
0.0
 40
1.25
  0
ENDSEC
  0
EOF
