  0
SECTION
  2
HEADER
  9
$ACADVER
  1
AC1009
  9
$INSBASE
 10
0.0
 20
0.0
 30
0.0
  9
$EXTMIN
 10
29.989015033921529
 20
7.1438620221135798
 30
-0.0015258207003583
  9
$EXTMAX
 10
570.01739634668616
 20
810.02475112515378
 30
0.0000000349246037
  9
$LIMMIN
 10
0.0
 20
0.0
  9
$LIMMAX
 10
0.0
 20
0.0
  9
$ORTHOMODE
 70
     0
  9
$REGENMODE
 70
     1
  9
$FILLMODE
 70
     1
  9
$QTEXTMODE
 70
     0
  9
$MIRRTEXT
 70
     1
  9
$DRAGMODE
 70
     2
  9
$LTSCALE
 40
15.24
  9
$OSMODE
 70
   231
  9
$ATTMODE
 70
     1
  9
$TEXTSIZE
 40
0.0
  9
$TRACEWID
 40
1.0
  9
$TEXTSTYLE
  7
STANDARD
  9
$CLAYER
  8
DATA
  9
$CELTYPE
  6
BYLAYER
  9
$CECOLOR
 62
   256
  9
$DIMSCALE
 40
1.0
  9
$DIMASZ
 40
0.18
  9
$DIMEXO
 40
0.0625
  9
$DIMDLI
 40
0.38
  9
$DIMRND
 40
0.0
  9
$DIMDLE
 40
0.0
  9
$DIMEXE
 40
0.18
  9
$DIMTP
 40
0.0
  9
$DIMTM
 40
0.0
  9
$DIMTXT
 40
0.18
  9
$DIMCEN
 40
0.09
  9
$DIMTSZ
 40
0.0
  9
$DIMTOL
 70
     0
  9
$DIMLIM
 70
     0
  9
$DIMTIH
 70
     1
  9
$DIMTOH
 70
     1
  9
$DIMSE1
 70
     0
  9
$DIMSE2
 70
     0
  9
$DIMTAD
 70
     0
  9
$DIMZIN
 70
     0
  9
$DIMBLK
  1

  9
$DIMASO
 70
     1
  9
$DIMSHO
 70
     1
  9
$DIMPOST
  1

  9
$DIMAPOST
  1

  9
$DIMALT
 70
     0
  9
$DIMALTD
 70
     2
  9
$DIMALTF
 40
25.399999999999999
  9
$DIMLFAC
 40
1.0
  9
$DIMTOFL
 70
     0
  9
$DIMTVP
 40
0.0
  9
$DIMTIX
 70
     0
  9
$DIMSOXD
 70
     0
  9
$DIMSAH
 70
     0
  9
$DIMBLK1
  1

  9
$DIMBLK2
  1

  9
$DIMSTYLE
  2
STANDARD
  9
$DIMCLRD
 70
     0
  9
$DIMCLRE
 70
     0
  9
$DIMCLRT
 70
     0
  9
$DIMTFAC
 40
1.0
  9
$DIMGAP
 40
0.09
  9
$LUNITS
 70
     2
  9
$LUPREC
 70
     4
  9
$SKETCHINC
 40
0.1
  9
$FILLETRAD
 40
0.0
  9
$AUNITS
 70
     0
  9
$AUPREC
 70
     0
  9
$MENU
  1
acad
  9
$ELEVATION
 40
0.0
  9
$PELEVATION
 40
0.0
  9
$THICKNESS
 40
0.0
  9
$LIMCHECK
 70
     0
  9
$BLIPMODE
 70
     0
  9
$CHAMFERA
 40
0.0
  9
$CHAMFERB
 40
0.0
  9
$SKPOLY
 70
     0
  9
$TDCREATE
 40
2454146.3992013889
  9
$TDUPDATE
 40
2454146.4076035651
  9
$TDINDWG
 40
0.000259456
  9
$TDUSRTIMER
 40
0.0002592824
  9
$USRTIMER
 70
     1
  9
$ANGBASE
 50
0.0
  9
$ANGDIR
 70
     0
  9
$PDMODE
 70
     1
  9
$PDSIZE
 40
-2.0
  9
$PLINEWID
 40
0.0
  9
$COORDS
 70
     1
  9
$SPLFRAME
 70
     0
  9
$SPLINETYPE
 70
     6
  9
$SPLINESEGS
 70
     8
  9
$ATTDIA
 70
     0
  9
$ATTREQ
 70
     1
  9
$HANDLING
 70
     1
  9
$HANDSEED
  5
182
  9
$SURFTAB1
 70
     6
  9
$SURFTAB2
 70
     6
  9
$SURFTYPE
 70
     6
  9
$SURFU
 70
     6
  9
$SURFV
 70
     6
  9
$UCSNAME
  2

  9
$UCSORG
 10
0.0
 20
0.0
 30
0.0
  9
$UCSXDIR
 10
1.0
 20
0.0
 30
0.0
  9
$UCSYDIR
 10
0.0
 20
1.0
 30
0.0
  9
$PUCSNAME
  2

  9
$PUCSORG
 10
0.0
 20
0.0
 30
0.0
  9
$PUCSXDIR
 10
1.0
 20
0.0
 30
0.0
  9
$PUCSYDIR
 10
0.0
 20
1.0
 30
0.0
  9
$USERI1
 70
     0
  9
$USERI2
 70
     0
  9
$USERI3
 70
     0
  9
$USERI4
 70
     0
  9
$USERI5
 70
     0
  9
$USERR1
 40
0.0
  9
$USERR2
 40
0.0
  9
$USERR3
 40
0.0
  9
$USERR4
 40
0.0
  9
$USERR5
 40
0.0
  9
$WORLDVIEW
 70
     1
  9
$SHADEDGE
 70
     3
  9
$SHADEDIF
 70
    70
  9
$TILEMODE
 70
     1
  9
$MAXACTVP
 70
    64
  9
$PLIMCHECK
 70
     0
  9
$PEXTMIN
 10
1.0000000000000000E+020
 20
1.0000000000000000E+020
 30
1.0000000000000000E+020
  9
$PEXTMAX
 10
-1.0000000000000000E+020
 20
-1.0000000000000000E+020
 30
-1.0000000000000000E+020
  9
$PLIMMIN
 10
0.0
 20
0.0
  9
$PLIMMAX
 10
12.0
 20
9.0
  9
$UNITMODE
 70
     0
  9
$VISRETAIN
 70
     0
  9
$PLINEGEN
 70
     1
  9
$PSLTSCALE
 70
     0
  0
ENDSEC
  0
SECTION
  2
TABLES
  0
TABLE
  2
VPORT
 70
     1
  0
VPORT
  2
*ACTIVE
 70
     0
 10
0.0
 20
0.0
 11
1.0
 21
1.0
 12
300.00320569030379
 22
408.58430657363368
 13
0.0
 23
0.0
 14
1.0
 24
1.0
 15
0.0
 25
0.0
 16
0.0
 26
0.0
 36
1.0
 17
0.0
 27
0.0
 37
0.0
 40
809.54380104580434
 41
1.6703601108033239
 42
50.0
 43
0.0
 44
0.0
 50
0.0
 51
0.0
 71
     0
 72
  2000
 73
     1
 74
     1
 75
     0
 76
     0
 77
     0
 78
     0
  0
ENDTAB
  0
TABLE
  2
LTYPE
 70
    11
  0
LTYPE
  2
CONTINUOUS
 70
     0
  3
Solid line
 72
    65
 73
     0
 40
0.0
  0
LTYPE
  2
STYLE_01
 70
     0
  3

 72
    65
 73
     2
 40
0.4166412353515625
 49
0.208282470703125
 49
-0.2083587646484375
  0
ENDTAB
  0
TABLE
  2
LAYER
 70
     5
  0
LAYER
  2
0
 70
     0
 62
     7
  6
CONTINUOUS
  0
LAYER
  2
DATA
 70
     0
 62
     7
  6
CONTINUOUS
  0
LAYER
  2
HIBINO-BASE
 70
     0
 62
     7
  6
CONTINUOUS
  0
LAYER
  2
SPEC
 70
     0
 62
     7
  6
CONTINUOUS
  0
LAYER
  2
DIMNSIONS
 70
     0
 62
     7
  6
CONTINUOUS
  0
ENDTAB
  0
TABLE
  2
STYLE
 70
     2
  0
STYLE
  2
STANDARD
 70
     0
 40
0.0
 41
1.0
 50
0.0
 71
     0
 42
0.0
  3
txt
  4
BIGFONT.SHX
  0
ENDTAB
  0
TABLE
  2
VIEW
 70
     0
  0
ENDTAB
  0
TABLE
  2
UCS
 70
     0
  0
ENDTAB
  0
TABLE
  2
APPID
 70
     1
  0
APPID
  2
ACAD
 70
     0
  0
ENDTAB
  0
TABLE
  2
DIMSTYLE
 70
     1
  0
DIMSTYLE
  2
STANDARD
 70
     0
  3

  4

  5

  6

  7

 40
1.0
 41
0.18
 42
0.0625
 43
0.38
 44
0.18
 45
0.0
 46
0.0
 47
0.0
 48
0.0
140
0.18
141
0.09
142
0.0
143
25.399999999999999
144
1.0
145
0.0
146
1.0
147
0.09
 71
     0
 72
     0
 73
     1
 74
     1
 75
     0
 76
     0
 77
     0
 78
     0
170
     0
171
     2
172
     0
173
     0
174
     0
175
     0
176
     0
177
     0
178
     0
  0
ENDTAB
  0
ENDSEC
  0
SECTION
  2
BLOCKS
  0
BLOCK
  8
0
  2
$MODEL_SPACE
 70
     0
 10
0.0
 20
0.0
 30
0.0
  3
$MODEL_SPACE
  1

  0
ENDBLK
  5
155
  8
0
  0
BLOCK
 67
     1
  8
0
  2
$PAPER_SPACE
 70
     0
 10
0.0
 20
0.0
 30
0.0
  3
$PAPER_SPACE
  1

  0
ENDBLK
  5
151
 67
     1
  8
0
  0
ENDSEC
  0
SECTION
  2
ENTITIES
  0
LINE
  5
2C
  8
HIBINO-BASE
  6
CONTINUOUS
 62
     7
 10
30.0
 20
810.0000299999997
 30
0.0
 11
570.0
 21
810.0000299999997
 31
0.0
  0
LINE
  5
2D
  8
HIBINO-BASE
  6
CONTINUOUS
 62
     7
 10
570.0
 20
29.99999999999995
 30
0.0
 11
30.0
 21
29.99999999999995
 31
0.0
  0
LINE
  5
2E
  8
HIBINO-BASE
  6
CONTINUOUS
 62
     7
 10
30.0
 20
29.99999999999995
 30
0.0
 11
30.0
 21
810.0000299999997
 31
0.0
  0
TEXT
  5
2F
  8
HIBINO-BASE
 62
     7
 10
51.552000000000021
 20
10.7739665999999
 30
0.0
 40
10.800132539062499
  1
Hibino Corporation
 41
0.7
 11
51.552000000000021
 21
21.574099139062401
 31
0.0
 73
     3
  0
LINE
  5
30
  8
HIBINO-BASE
  6
CONTINUOUS
 62
     7
 10
570.0
 20
810.0000299999997
 30
0.0
 11
570.0
 21
29.99999999999995
 31
0.0
  0
LINE
  5
31
  8
HIBINO-BASE
  6
CONTINUOUS
 62
     7
 10
300.0
 20
97.499999999999872
 30
0.0
 11
570.0
 21
97.499999999999872
 31
0.0
  0
LINE
  5
32
  8
HIBINO-BASE
  6
CONTINUOUS
 62
     7
 10
300.0
 20
29.99999999999995
 30
0.0
 11
300.0
 21
97.499999999999872
 31
0.0
  0
TEXT
  5
33
  8
HIBINO-BASE
 62
     7
 10
302.69999999999999
 20
89.399990399999922
 30
0.0
 40
5.4000778125000002
  1
NOTE
 41
0.7
 11
302.69999999999999
 21
94.800068212499909
 31
0.0
 73
     3
  0
LINE
  5
34
  8
HIBINO-BASE
  6
CONTINUOUS
 62
     7
 10
405.0
 20
29.99999999999995
 30
0.0
 11
405.0
 21
97.499999999999872
 31
0.0
  0
TEXT
  5
35
  8
HIBINO-BASE
 62
     7
 10
407.69999999999987
 20
89.399990399999922
 30
0.0
 40
5.4000778125000002
  1
TITLE
 41
0.7
 11
407.69999999999987
 21
94.800068212499909
 31
0.0
 73
     3
  0
TEXT
  5
36
  8
HIBINO-BASE
 62
     7
 10
450.2051699999999
 20
10.7739665999999
 30
0.0
 40
10.800132539062499
  1
ヒビノ株式会社
 41
0.7
 11
450.2051699999999
 21
21.574099139062401
 31
0.0
 73
     3
  0
LINE
  5
37
  8
HIBINO-BASE
  6
CONTINUOUS
 62
     7
 10
300.0
 20
59.999999999999929
 30
0.0
 11
570.0
 21
59.999999999999929
 31
0.0
  0
TEXT
  5
38
  8
HIBINO-BASE
 62
     7
 10
445.19999999999987
 20
52.068950399999892
 30
0.0
 40
5.4000778125000002
  1
DRAWN
 41
0.7
 11
445.19999999999987
 21
57.469028212499893
 31
0.0
 73
     3
  0
TEXT
  5
39
  8
HIBINO-BASE
 62
     7
 10
370.19999999999999
 20
52.068950399999892
 30
0.0
 40
5.4000778125000002
  1
DATE
 41
0.7
 11
370.19999999999999
 21
57.469028212499893
 31
0.0
 73
     3
  0
TEXT
  5
3A
  8
HIBINO-BASE
 62
     7
 10
303.30000000000001
 20
52.14163139999993
 30
0.0
 40
4.8865311328124994
  1
図面サイズ
 41
0.7
 11
303.30000000000001
 21
57.028162532812424
 31
0.0
 73
     3
  0
TEXT
  5
3B
  8
HIBINO-BASE
 62
     7
 10
340.19999999999999
 20
52.068950399999892
 30
0.0
 40
5.4000778125000002
  1
SCALE
 41
0.7
 11
340.19999999999999
 21
57.469028212499893
 31
0.0
 73
     3
  0
TEXT
  5
3C
  8
HIBINO-BASE
 62
     7
 10
407.69999999999987
 20
52.068950399999892
 30
0.0
 40
5.4000778125000002
  1
DESIGN
 41
0.7
 11
407.69999999999987
 21
57.469028212499893
 31
0.0
 73
     3
  0
TEXT
  5
3D
  8
HIBINO-BASE
 62
     7
 10
520.20000000000005
 20
52.068950399999892
 30
0.0
 40
5.4000778125000002
  1
DRAWING NO.
 41
0.7
 11
520.20000000000005
 21
57.469028212499893
 31
0.0
 73
     3
  0
TEXT
  5
3E
  8
HIBINO-BASE
 62
     7
 10
482.69999999999987
 20
52.068950399999892
 30
0.0
 40
5.4000778125000002
  1
CHECK
 41
0.7
 11
482.69999999999987
 21
57.469028212499893
 31
0.0
 73
     3
  0
LINE
  5
3F
  8
HIBINO-BASE
  6
CONTINUOUS
 62
     7
 10
343.125
 20
33.74999999999995
 30
0.0
 11
354.375
 21
44.999999999999929
 31
0.0
  0
TEXT
  5
40
  8
HIBINO-BASE
 62
     7
 10
341.25
 20
39.852842399999901
 30
0.0
 40
6.515359453124999
  1
1
 41
0.7
 11
341.25
 21
46.368201853124887
 31
0.0
 73
     3
  0
LINE
  5
41
  8
HIBINO-BASE
  6
CONTINUOUS
 62
     7
 10
337.5
 20
29.99999999999995
 30
0.0
 11
337.5
 21
59.999999999999929
 31
0.0
  0
LINE
  5
42
  8
HIBINO-BASE
  6
CONTINUOUS
 62
     7
 10
367.5
 20
29.99999999999995
 30
0.0
 11
367.5
 21
59.999999999999929
 31
0.0
  0
LINE
  5
43
  8
HIBINO-BASE
  6
CONTINUOUS
 62
     7
 10
442.49999999999989
 20
59.999999999999929
 30
0.0
 11
442.49999999999989
 21
29.99999999999995
 31
0.0
  0
LINE
  5
44
  8
HIBINO-BASE
  6
CONTINUOUS
 62
     7
 10
517.49999999999989
 20
59.999999999999929
 30
0.0
 11
517.49999999999989
 21
29.99999999999995
 31
0.0
  0
LINE
  5
45
  8
HIBINO-BASE
  6
CONTINUOUS
 62
     7
 10
480.0
 20
29.99999999999995
 30
0.0
 11
480.0
 21
59.999999999999929
 31
0.0
  0
TEXT
  5
46
  8
HIBINO-BASE
 62
     7
 10
311.73266999999998
 20
37.495368599999942
 30
0.0
 40
9.7730391796875011
  1
A4
 41
0.7
 11
311.73266999999998
 21
47.268407779687429
 31
0.0
 73
     3
  0
TEXT
  5
47
  8
HIBINO-BASE
 62
     7
 10
375.21962000000002
 20
38.01701039999994
 30
0.0
 40
5.4000778125000002
  1
'07.02.
 41
0.7
 11
375.21962000000002
 21
43.417088212499927
 31
0.0
 73
     3
  0
TEXT
  5
48
  8
HIBINO-BASE
 62
     7
 10
352.5
 20
34.227842399999901
 30
0.0
 40
6.515359453124999
  1
3
 41
0.7
 11
352.5
 21
40.743201853124887
 31
0.0
 73
     3
  0
TEXT
  5
49
  8
HIBINO-BASE
 62
     7
 10
447.01743003310389
 20
38.590939999999918
 30
0.0
 40
4.8865234374999993
  1
N.Sasaki
 41
0.7
 11
447.01743003310389
 21
43.477463437499907
 31
0.0
 73
     3
  0
TEXT
  5
4A
  8
HIBINO-BASE
 62
     7
 10
487.30000000000001
 20
38.590939999999918
 30
0.0
 40
4.8865234374999993
  1
Y.Koga
 41
0.7
 11
487.30000000000001
 21
43.477463437499907
 31
0.0
 73
     3
  0
LINE
  5
4B
  8
SPEC
  6
CONTINUOUS
 62
     7
 10
52.500000000000021
 20
780.0000299999997
 30
0.0
 11
495.0
 21
780.0000299999997
 31
0.0
  0
LINE
  5
4C
  8
SPEC
  6
CONTINUOUS
 62
     7
 10
52.500000000000021
 20
768.75002999999981
 30
0.0
 11
495.0
 21
768.75002999999981
 31
0.0
  0
LINE
  5
4D
  8
SPEC
  6
CONTINUOUS
 62
     7
 10
52.500000000000021
 20
746.25002999999981
 30
0.0
 11
495.0
 21
746.25002999999981
 31
0.0
  0
LINE
  5
4E
  8
SPEC
  6
CONTINUOUS
 62
     7
 10
52.500000000000021
 20
757.50002999999981
 30
0.0
 11
495.0
 21
757.50002999999981
 31
0.0
  0
LINE
  5
4F
  8
SPEC
  6
CONTINUOUS
 62
     7
 10
52.500000000000021
 20
780.0000299999997
 30
0.0
 11
52.500000000000021
 21
746.25002999999981
 31
0.0
  0
TEXT
  5
50
  8
SPEC
 62
     7
 10
56.250000000000021
 20
784.17983999999979
 30
0.0
 40
7.3297851562499989
  1
仕様
 41
0.7
 11
56.250000000000021
 21
791.50962515624974
 31
0.0
 73
     3
  0
LINE
  5
51
  8
SPEC
  6
CONTINUOUS
 62
     7
 10
150.0
 20
780.0000299999997
 30
0.0
 11
150.0
 21
746.25002999999981
 31
0.0
  0
LINE
  5
52
  8
SPEC
  6
CONTINUOUS
 62
     7
 10
495.0
 20
780.0000299999997
 30
0.0
 11
495.0
 21
746.25002999999981
 31
0.0
  0
TEXT
  5
53
  8
SPEC
 62
     7
 10
152.69999999999999
 20
759.86379479999982
 30
0.0
 40
5.700933749999999
  1
Φ19×150mm
 41
0.7
 11
152.69999999999999
 21
765.5647285499997
 31
0.0
 73
     3
  0
TEXT
  5
54
  8
SPEC
 62
     7
 10
55.200000000000017
 20
759.86379479999982
 30
0.0
 40
5.700933749999999
  1
寸法
 41
0.7
 11
55.200000000000017
 21
765.5647285499997
 31
0.0
 73
     3
  0
TEXT
  5
55
  8
SPEC
 62
     7
 10
152.69999999999999
 20
748.61379479999982
 30
0.0
 40
5.700933749999999
  1
約122g
 41
0.7
 11
152.69999999999999
 21
754.31472854999981
 31
0.0
 73
     3
  0
TEXT
  5
56
  8
SPEC
 62
     7
 10
55.200000000000017
 20
748.61379479999982
 30
0.0
 40
5.700933749999999
  1
重量
 41
0.7
 11
55.200000000000017
 21
754.31472854999981
 31
0.0
 73
     3
  0
TEXT
  5
57
  8
SPEC
 62
     7
 10
152.69999999999999
 20
771.11379479999982
 30
0.0
 40
5.700933749999999
  1
シルバー(ボディ本体)
 41
0.7
 11
152.69999999999999
 21
776.81472854999981
 31
0.0
 73
     3
  0
TEXT
  5
58
  8
SPEC
 62
     7
 10
55.200000000000017
 20
771.11379479999982
 30
0.0
 40
5.700933749999999
  1
外装
 41
0.7
 11
55.200000000000017
 21
776.81472854999981
 31
0.0
 73
     3
  0
TEXT
  5
59
  8
DIMNSIONS
 62
     7
 10
240.0
 20
66.8084699999999
 30
0.0
 40
7.3297851562499989
  1
(単位：mm)
 41
0.7
 11
240.0
 21
74.138255156249883
 31
0.0
 73
     3
  0
LINE
  5
5A
  8
DIMNSIONS
  6
CONTINUOUS
 62
     7
 10
239.3877096765616
 20
166.85381720573059
 30
0.0
 11
249.5
 21
150.0
 31
0.0
  0
LINE
  5
5B
  8
DIMNSIONS
  6
CONTINUOUS
 62
     7
 10
239.3877096765616
 20
166.85381720573059
 30
0.0
 11
246.48112348924411
 21
160.00378711176171
 31
0.0
  0
LINE
  5
5C
  8
DIMNSIONS
  6
CONTINUOUS
 62
     7
 10
239.3877096765616
 20
166.85381720573059
 30
0.0
 11
242.10577119091559
 21
157.3748102213244
 31
0.0
  0
LINE
  5
5D
  8
DIMNSIONS
  6
CONTINUOUS
 62
     7
 10
249.5
 20
150.0
 30
0.0
 11
288.66666667057819
 21
150.0
 31
0.0
  0
TEXT
  5
5E
  8
DIMNSIONS
 62
     7
 10
267.50000000391151
 20
154.48166665549081
 30
0.0
 40
8.1442057291666661
  1
φ19
 41
0.7
 11
267.50000000391151
 21
162.62587238465741
 31
0.0
 73
     3
  0
LINE
  5
5F
  8
DIMNSIONS
  6
CONTINUOUS
 62
     7
 10
219.00000002235171
 20
200.0
 30
0.0
 11
169.00000002235171
 21
200.0
 31
0.0
  0
LINE
  5
60
  8
DIMNSIONS
  6
CONTINUOUS
 62
     7
 10
219.00000002235171
 20
349.9965484924852
 30
0.0
 11
169.00000002235171
 21
349.9965484924852
 31
0.0
  0
LINE
  5
61
  8
DIMNSIONS
  6
CONTINUOUS
 62
     7
 10
175.0
 20
200.0
 30
0.0
 11
175.0
 21
349.9965484924852
 31
0.0
  0
LINE
  5
62
  8
DIMNSIONS
  6
CONTINUOUS
 62
     7
 10
175.0
 20
200.0
 30
0.0
 11
172.44778394209351
 21
209.52500000000001
 31
0.0
  0
LINE
  5
63
  8
DIMNSIONS
  6
CONTINUOUS
 62
     7
 10
175.0
 20
200.0
 30
0.0
 11
177.55221605790649
 21
209.52500000000001
 31
0.0
  0
LINE
  5
64
  8
DIMNSIONS
  6
CONTINUOUS
 62
     7
 10
175.0
 20
349.9965484924852
 30
0.0
 11
177.55221605790649
 21
340.47154849248523
 31
0.0
  0
LINE
  5
65
  8
DIMNSIONS
  6
CONTINUOUS
 62
     7
 10
175.0
 20
349.9965484924852
 30
0.0
 11
172.44778394209351
 21
340.47154849248523
 31
0.0
  0
TEXT
  5
66
  8
DIMNSIONS
 62
     7
 10
170.51833334450919
 20
267.0607742462426
 30
0.0
 40
8.1442057291666661
  1
150
 50
90.0
 41
0.7
 11
162.3741276153425
 21
267.0607742462426
 31
0.0
 73
     3
  0
TEXT
  5
67
  8
DATA
 62
     7
 10
441.30000000000001
 20
85.14266999999991
 30
0.0
 40
7.3297851562499989
  1
SHURE
 41
0.7
 11
441.30000000000001
 21
92.472455156249907
 31
0.0
 73
     3
  0
TEXT
  5
68
  8
DATA
 62
     7
 10
441.30000000000001
 20
75.601643333333243
 30
0.0
 40
5.7009440104166647
  1
フレキシブル・グースネック
 41
0.7
 11
441.30000000000001
 21
81.302587343749906
 31
0.0
 73
     3
  0
TEXT
  5
69
  8
DATA
 62
     7
 10
441.30000000000001
 20
64.158509999999936
 30
0.0
 40
7.3297851562499989
  1
G6A
 41
0.7
 11
441.30000000000001
 21
71.488295156249933
 31
0.0
 73
     3
  0
LINE
  5
6A
  8
DATA
  6
CONTINUOUS
 62
     7
 10
325.0
 20
200.0
 30
0.0
 11
325.0
 21
240.0
 31
0.0
  0
LINE
  5
6B
  8
DATA
  6
CONTINUOUS
 62
     7
 10
344.0
 20
200.0
 30
0.0
 11
325.0
 21
200.0
 31
0.0
  0
LINE
  5
6C
  8
DATA
  6
CONTINUOUS
 62
     7
 10
344.0
 20
240.0
 30
0.0
 11
344.0
 21
200.0
 31
0.0
  0
LINE
  5
6D
  8
DATA
  6
CONTINUOUS
 62
     7
 10
325.0
 20
240.0
 30
0.0
 11
344.0
 21
240.0
 31
0.0
  0
LINE
  5
6E
  8
DATA
  6
CONTINUOUS
 62
     7
 10
325.85000000000002
 20
255.0
 30
0.0
 11
343.14999999999998
 21
255.0
 31
0.0
  0
LINE
  5
6F
  8
DATA
  6
CONTINUOUS
 62
     7
 10
325.60000000000002
 20
240.0
 30
0.0
 11
325.85000000000002
 21
255.0
 31
0.0
  0
LINE
  5
70
  8
DATA
  6
CONTINUOUS
 62
     7
 10
343.39999999999998
 20
240.0
 30
0.0
 11
343.14999999999998
 21
255.0
 31
0.0
  0
LINE
  5
71
  8
DATA
  6
CONTINUOUS
 62
     7
 10
327.0
 20
255.0
 30
0.0
 11
327.0
 21
320.9965484924852
 31
0.0
  0
LINE
  5
72
  8
DATA
  6
CONTINUOUS
 62
     7
 10
342.0
 20
255.0
 30
0.0
 11
342.0
 21
321.04597678156568
 31
0.0
  0
CIRCLE
  5
73
  8
DATA
  6
CONTINUOUS
 62
     7
 10
234.5
 20
175.0
 30
0.0
 40
9.5
  0
CIRCLE
  5
74
  8
DATA
  6
CONTINUOUS
 62
     7
 10
234.5
 20
175.0
 30
0.0
 40
7.5
  0
LINE
  5
75
  8
DATA
  6
CONTINUOUS
 62
     7
 10
327.0
 20
262.58295391468209
 30
0.0
 11
342.0
 21
266.04597678156563
 31
0.0
  0
LINE
  5
76
  8
DATA
  6
CONTINUOUS
 62
     7
 10
327.0
 20
265.58295391468209
 30
0.0
 11
342.0
 21
269.04597678156563
 31
0.0
  0
LINE
  5
77
  8
DATA
  6
CONTINUOUS
 62
     7
 10
327.0
 20
267.58295391468209
 30
0.0
 11
342.0
 21
271.04597678156563
 31
0.0
  0
LINE
  5
78
  8
DATA
  6
CONTINUOUS
 62
     7
 10
327.0
 20
270.58295391468209
 30
0.0
 11
342.0
 21
274.04597678156563
 31
0.0
  0
LINE
  5
79
  8
DATA
  6
CONTINUOUS
 62
     7
 10
327.0
 20
272.58295391468209
 30
0.0
 11
342.0
 21
276.04597678156563
 31
0.0
  0
LINE
  5
7A
  8
DATA
  6
CONTINUOUS
 62
     7
 10
327.0
 20
275.58295391468209
 30
0.0
 11
342.0
 21
279.04597678156563
 31
0.0
  0
LINE
  5
7B
  8
DATA
  6
CONTINUOUS
 62
     7
 10
327.0
 20
277.58295391468209
 30
0.0
 11
342.0
 21
281.04597678156563
 31
0.0
  0
LINE
  5
7C
  8
DATA
  6
CONTINUOUS
 62
     7
 10
327.0
 20
280.58295391468209
 30
0.0
 11
342.0
 21
284.04597678156563
 31
0.0
  0
LINE
  5
7D
  8
DATA
  6
CONTINUOUS
 62
     7
 10
327.0
 20
282.58295391468198
 30
0.0
 11
342.0
 21
286.04597678156563
 31
0.0
  0
LINE
  5
7E
  8
DATA
  6
CONTINUOUS
 62
     7
 10
327.0
 20
285.58295391468209
 30
0.0
 11
342.0
 21
289.04597678156563
 31
0.0
  0
LINE
  5
7F
  8
DATA
  6
CONTINUOUS
 62
     7
 10
327.0
 20
287.58295391468198
 30
0.0
 11
342.0
 21
291.04597678156563
 31
0.0
  0
LINE
  5
80
  8
DATA
  6
CONTINUOUS
 62
     7
 10
327.0
 20
290.58295391468209
 30
0.0
 11
342.0
 21
294.04597678156563
 31
0.0
  0
LINE
  5
81
  8
DATA
  6
CONTINUOUS
 62
     7
 10
327.0
 20
292.58295391468209
 30
0.0
 11
342.0
 21
296.04597678156563
 31
0.0
  0
LINE
  5
82
  8
DATA
  6
CONTINUOUS
 62
     7
 10
327.0
 20
295.58295391468209
 30
0.0
 11
342.0
 21
299.04597678156563
 31
0.0
  0
LINE
  5
83
  8
DATA
  6
CONTINUOUS
 62
     7
 10
327.0
 20
297.58295391468209
 30
0.0
 11
342.0
 21
301.04597678156563
 31
0.0
  0
LINE
  5
84
  8
DATA
  6
CONTINUOUS
 62
     7
 10
327.0
 20
300.58295391468209
 30
0.0
 11
342.0
 21
304.04597678156563
 31
0.0
  0
LINE
  5
85
  8
DATA
  6
CONTINUOUS
 62
     7
 10
327.0
 20
302.58295391468209
 30
0.0
 11
342.0
 21
306.04597678156563
 31
0.0
  0
LINE
  5
86
  8
DATA
  6
CONTINUOUS
 62
     7
 10
327.0
 20
305.58295391468209
 30
0.0
 11
342.0
 21
309.04597678156563
 31
0.0
  0
LINE
  5
87
  8
DATA
  6
CONTINUOUS
 62
     7
 10
327.0
 20
307.58295391468209
 30
0.0
 11
342.0
 21
311.04597678156563
 31
0.0
  0
LINE
  5
88
  8
DATA
  6
CONTINUOUS
 62
     7
 10
327.0
 20
310.58295391468209
 30
0.0
 11
342.0
 21
314.04597678156563
 31
0.0
  0
LINE
  5
89
  8
DATA
  6
CONTINUOUS
 62
     7
 10
327.0
 20
312.58295391468209
 30
0.0
 11
342.0
 21
316.04597678156563
 31
0.0
  0
LINE
  5
8A
  8
DATA
  6
CONTINUOUS
 62
     7
 10
327.0
 20
315.58295391468209
 30
0.0
 11
342.0
 21
319.04597678156563
 31
0.0
  0
LINE
  5
8B
  8
DATA
  6
CONTINUOUS
 62
     7
 10
327.0
 20
317.58295391468209
 30
0.0
 11
342.0
 21
321.04597678156568
 31
0.0
  0
LINE
  5
8C
  8
DATA
  6
CONTINUOUS
 62
     7
 10
327.0
 20
320.58295391468209
 30
0.0
 11
328.79147493548862
 21
320.9965484924852
 31
0.0
  0
LINE
  5
8D
  8
DATA
  6
CONTINUOUS
 62
     7
 10
327.0
 20
260.55015752561758
 30
0.0
 11
342.0
 21
264.01904188581489
 31
0.0
  0
LINE
  5
8E
  8
DATA
  6
CONTINUOUS
 62
     7
 10
327.0
 20
257.55015752561758
 30
0.0
 11
342.0
 21
261.01904188581489
 31
0.0
  0
LINE
  5
8F
  8
DATA
  6
CONTINUOUS
 62
     7
 10
327.0
 20
255.55015752561761
 30
0.0
 11
342.0
 21
259.01904188581489
 31
0.0
  0
LINE
  5
90
  8
DATA
  6
CONTINUOUS
 62
     7
 10
337.59350306899393
 20
255.0
 30
0.0
 11
342.0
 21
256.01904188581489
 31
0.0
  0
LINE
  5
91
  8
DATA
  6
CONTINUOUS
 62
     7
 10
225.0
 20
200.0
 30
0.0
 11
225.0
 21
240.0
 31
0.0
  0
LINE
  5
92
  8
DATA
  6
CONTINUOUS
 62
     7
 10
244.0
 20
200.0
 30
0.0
 11
225.0
 21
200.0
 31
0.0
  0
LINE
  5
93
  8
DATA
  6
CONTINUOUS
 62
     7
 10
244.0
 20
240.0
 30
0.0
 11
244.0
 21
200.0
 31
0.0
  0
LINE
  5
94
  8
DATA
  6
CONTINUOUS
 62
     7
 10
225.0
 20
240.0
 30
0.0
 11
244.0
 21
240.0
 31
0.0
  0
LINE
  5
95
  8
DATA
  6
CONTINUOUS
 62
     7
 10
225.84999999999999
 20
255.0
 30
0.0
 11
243.15000000000001
 21
255.0
 31
0.0
  0
LINE
  5
96
  8
DATA
  6
CONTINUOUS
 62
     7
 10
225.59999999999999
 20
240.0
 30
0.0
 11
225.84999999999999
 21
255.0
 31
0.0
  0
LINE
  5
97
  8
DATA
  6
CONTINUOUS
 62
     7
 10
243.40000000000001
 20
240.0
 30
0.0
 11
243.15000000000001
 21
255.0
 31
0.0
  0
LINE
  5
98
  8
DATA
  6
CONTINUOUS
 62
     7
 10
227.0
 20
255.0
 30
0.0
 11
227.0
 21
320.9965484924852
 31
0.0
  0
LINE
  5
99
  8
DATA
  6
CONTINUOUS
 62
     7
 10
242.0
 20
255.0
 30
0.0
 11
242.0
 21
321.04597678156568
 31
0.0
  0
LINE
  5
9A
  8
DATA
  6
CONTINUOUS
 62
     7
 10
241.7566916771957
 20
350.0
 30
0.0
 11
241.7566916771957
 21
350.04597678156563
 31
0.0
  0
LINE
  5
9B
  8
DATA
  6
CONTINUOUS
 62
     7
 10
227.0
 20
262.58295391468209
 30
0.0
 11
242.0
 21
266.04597678156563
 31
0.0
  0
LINE
  5
9C
  8
DATA
  6
CONTINUOUS
 62
     7
 10
227.0
 20
265.58295391468209
 30
0.0
 11
242.0
 21
269.04597678156563
 31
0.0
  0
LINE
  5
9D
  8
DATA
  6
CONTINUOUS
 62
     7
 10
227.0
 20
267.58295391468209
 30
0.0
 11
242.0
 21
271.04597678156563
 31
0.0
  0
LINE
  5
9E
  8
DATA
  6
CONTINUOUS
 62
     7
 10
227.0
 20
270.58295391468209
 30
0.0
 11
242.0
 21
274.04597678156563
 31
0.0
  0
LINE
  5
9F
  8
DATA
  6
CONTINUOUS
 62
     7
 10
227.0
 20
272.58295391468209
 30
0.0
 11
242.0
 21
276.04597678156563
 31
0.0
  0
LINE
  5
A0
  8
DATA
  6
CONTINUOUS
 62
     7
 10
227.0
 20
275.58295391468209
 30
0.0
 11
242.0
 21
279.04597678156563
 31
0.0
  0
LINE
  5
A1
  8
DATA
  6
CONTINUOUS
 62
     7
 10
227.0
 20
277.58295391468209
 30
0.0
 11
242.0
 21
281.04597678156563
 31
0.0
  0
LINE
  5
A2
  8
DATA
  6
CONTINUOUS
 62
     7
 10
227.0
 20
280.58295391468209
 30
0.0
 11
242.0
 21
284.04597678156563
 31
0.0
  0
LINE
  5
A3
  8
DATA
  6
CONTINUOUS
 62
     7
 10
227.0
 20
282.58295391468198
 30
0.0
 11
242.0
 21
286.04597678156563
 31
0.0
  0
LINE
  5
A4
  8
DATA
  6
CONTINUOUS
 62
     7
 10
227.0
 20
285.58295391468209
 30
0.0
 11
242.0
 21
289.04597678156563
 31
0.0
  0
LINE
  5
A5
  8
DATA
  6
CONTINUOUS
 62
     7
 10
227.0
 20
287.58295391468198
 30
0.0
 11
242.0
 21
291.04597678156563
 31
0.0
  0
LINE
  5
A6
  8
DATA
  6
CONTINUOUS
 62
     7
 10
227.0
 20
290.58295391468209
 30
0.0
 11
242.0
 21
294.04597678156563
 31
0.0
  0
LINE
  5
A7
  8
DATA
  6
CONTINUOUS
 62
     7
 10
227.0
 20
292.58295391468209
 30
0.0
 11
242.0
 21
296.04597678156563
 31
0.0
  0
LINE
  5
A8
  8
DATA
  6
CONTINUOUS
 62
     7
 10
227.0
 20
295.58295391468209
 30
0.0
 11
242.0
 21
299.04597678156563
 31
0.0
  0
LINE
  5
A9
  8
DATA
  6
CONTINUOUS
 62
     7
 10
227.0
 20
297.58295391468209
 30
0.0
 11
242.0
 21
301.04597678156563
 31
0.0
  0
LINE
  5
AA
  8
DATA
  6
CONTINUOUS
 62
     7
 10
227.0
 20
300.58295391468209
 30
0.0
 11
242.0
 21
304.04597678156563
 31
0.0
  0
LINE
  5
AB
  8
DATA
  6
CONTINUOUS
 62
     7
 10
227.0
 20
302.58295391468209
 30
0.0
 11
242.0
 21
306.04597678156563
 31
0.0
  0
LINE
  5
AC
  8
DATA
  6
CONTINUOUS
 62
     7
 10
227.0
 20
305.58295391468209
 30
0.0
 11
242.0
 21
309.04597678156563
 31
0.0
  0
LINE
  5
AD
  8
DATA
  6
CONTINUOUS
 62
     7
 10
227.0
 20
307.58295391468209
 30
0.0
 11
242.0
 21
311.04597678156563
 31
0.0
  0
LINE
  5
AE
  8
DATA
  6
CONTINUOUS
 62
     7
 10
227.0
 20
310.58295391468209
 30
0.0
 11
242.0
 21
314.04597678156563
 31
0.0
  0
LINE
  5
AF
  8
DATA
  6
CONTINUOUS
 62
     7
 10
227.0
 20
312.58295391468209
 30
0.0
 11
242.0
 21
316.04597678156563
 31
0.0
  0
LINE
  5
B0
  8
DATA
  6
CONTINUOUS
 62
     7
 10
227.0
 20
315.58295391468209
 30
0.0
 11
242.0
 21
319.04597678156563
 31
0.0
  0
LINE
  5
B1
  8
DATA
  6
CONTINUOUS
 62
     7
 10
227.0
 20
317.58295391468209
 30
0.0
 11
242.0
 21
321.04597678156568
 31
0.0
  0
LINE
  5
B2
  8
DATA
  6
CONTINUOUS
 62
     7
 10
227.0
 20
320.58295391468209
 30
0.0
 11
228.79147493548859
 21
320.9965484924852
 31
0.0
  0
LINE
  5
B3
  8
DATA
  6
CONTINUOUS
 62
     7
 10
241.5575443570672
 20
350.0
 30
0.0
 11
241.7566916771957
 21
350.04597678156563
 31
0.0
  0
LINE
  5
B4
  8
DATA
  6
CONTINUOUS
 62
     7
 10
227.0
 20
260.55015752561758
 30
0.0
 11
242.0
 21
264.01904188581489
 31
0.0
  0
LINE
  5
B5
  8
DATA
  6
CONTINUOUS
 62
     7
 10
227.0
 20
257.55015752561758
 30
0.0
 11
242.0
 21
261.01904188581489
 31
0.0
  0
LINE
  5
B6
  8
DATA
  6
CONTINUOUS
 62
     7
 10
227.0
 20
255.55015752561761
 30
0.0
 11
242.0
 21
259.01904188581489
 31
0.0
  0
LINE
  5
B7
  8
DATA
  6
CONTINUOUS
 62
     7
 10
237.5935030689939
 20
255.0
 30
0.0
 11
242.0
 21
256.01904188581489
 31
0.0
  0
TEXT
  5
B8
  8
DATA
 62
     7
 10
126.4305941578716
 20
166.22278930656469
 30
0.0
 40
8.1442057291666661
  1
5/8インチネジ
 41
0.7
 11
126.4305941578716
 21
174.36699503573141
 31
0.0
 73
     3
  0
LINE
  5
B9
  8
DATA
  6
CONTINUOUS
 62
     7
 10
229.75
 20
200.0
 30
0.0
 11
199.5
 21
163.5
 31
0.0
  0
LINE
  5
BA
  8
DATA
  6
CONTINUOUS
 62
     7
 10
229.75
 20
200.0
 30
0.0
 11
225.7391676774179
 21
190.99152310951689
 31
0.0
  0
LINE
  5
BB
  8
DATA
  6
CONTINUOUS
 62
     7
 10
229.75
 20
200.0
 30
0.0
 11
221.77227887308271
 21
194.20384632472761
 31
0.0
  0
TEXT
  5
BC
  8
DATA
 62
     7
 10
250.29084425885051
 20
250.29375546275861
 30
0.0
 40
8.1442057291666661
  1
サイドベント
 41
0.7
 11
250.29084425885051
 21
258.43796119192518
 31
0.0
 73
     3
  0
TEXT
  5
BD
  8
DATA
 62
     7
 10
250.29084425885051
 20
239.7104221294253
 30
0.0
 40
8.1442057291666661
  1
(横穴)
 41
0.7
 11
250.29084425885051
 21
247.85462785859201
 31
0.0
 73
     3
  0
LINE
  5
BE
  8
DATA
  6
CONTINUOUS
 62
     7
 10
234.4228893528738
 20
222.8045778705748
 30
0.0
 11
250.02288935287379
 21
237.4379112039081
 31
0.0
  0
LINE
  5
BF
  8
DATA
  6
CONTINUOUS
 62
     7
 10
234.4228893528738
 20
222.8045778705748
 30
0.0
 11
239.64842619477901
 21
231.16718491145181
 31
0.0
  0
LINE
  5
C0
  8
DATA
  6
CONTINUOUS
 62
     7
 10
234.4228893528738
 20
222.8045778705748
 30
0.0
 11
243.12964052681369
 21
227.43403958888831
 31
0.0
  0
LINE
  5
C1
  8
DATA
  6
CONTINUOUS
 62
     7
 10
250.02288935287379
 20
237.4379112039081
 30
0.0
 11
311.40000000000009
 21
237.4379112039081
 31
0.0
  0
LINE
  5
C2
  8
DATA
  6
CONTINUOUS
 62
     7
 10
199.5
 20
163.5
 30
0.0
 11
123.5
 21
163.5
 31
0.0
  0
CIRCLE
  5
C3
  8
DATA
  6
CONTINUOUS
 62
     7
 10
234.4228893528738
 20
222.8045778705748
 30
0.0
 40
5.0
  0
LINE
  5
C4
  8
DATA
  6
CONTINUOUS
 62
     7
 10
226.5209998620424
 20
349.9965484924852
 30
0.0
 11
242.5209998620424
 21
349.9965484924852
 31
0.0
  0
LINE
  5
C5
  8
DATA
  6
CONTINUOUS
 62
     7
 10
226.5209998620424
 20
339.9965484924852
 30
0.0
 11
242.5209998620424
 21
339.9965484924852
 31
0.0
  0
LINE
  5
C6
  8
DATA
  6
CONTINUOUS
 62
     7
 10
226.5209998620424
 20
349.9965484924852
 30
0.0
 11
226.5209998620424
 21
339.9965484924852
 31
0.0
  0
LINE
  5
C7
  8
DATA
  6
CONTINUOUS
 62
     7
 10
242.5209998620424
 20
349.9965484924852
 30
0.0
 11
242.5209998620424
 21
339.9965484924852
 31
0.0
  0
LINE
  5
C8
  8
DATA
  6
CONTINUOUS
 62
     7
 10
226.5209998620424
 20
339.9965484924852
 30
0.0
 11
225.5209998620424
 21
336.9965484924852
 31
0.0
  0
LINE
  5
C9
  8
DATA
  6
CONTINUOUS
 62
     7
 10
242.5209998620424
 20
339.9965484924852
 30
0.0
 11
243.5209998620424
 21
336.9965484924852
 31
0.0
  0
LINE
  5
CA
  8
DATA
  6
CONTINUOUS
 62
     7
 10
243.0209998620424
 20
320.9965484924852
 30
0.0
 11
226.0209998620424
 21
320.9965484924852
 31
0.0
  0
LINE
  5
CB
  8
DATA
  6
CONTINUOUS
 62
     7
 10
225.5209998620424
 20
336.9965484924852
 30
0.0
 11
243.5209998620424
 21
336.9965484924852
 31
0.0
  0
LINE
  5
CC
  8
DATA
  6
CONTINUOUS
 62
     7
 10
226.5209998620424
 20
349.56081494048988
 30
0.0
 11
231.1638159850271
 21
349.9965484924852
 31
0.0
  0
LINE
  5
CD
  8
DATA
  6
CONTINUOUS
 62
     7
 10
226.5209998620424
 20
348.56081494048988
 30
0.0
 11
241.8189883988203
 21
349.9965484924852
 31
0.0
  0
LINE
  5
CE
  8
DATA
  6
CONTINUOUS
 62
     7
 10
226.5209998620424
 20
347.56081494048988
 30
0.0
 11
242.5209998620424
 21
349.06243306346721
 31
0.0
  0
LINE
  5
CF
  8
DATA
  6
CONTINUOUS
 62
     7
 10
226.5209998620424
 20
346.56081494048988
 30
0.0
 11
242.5209998620424
 21
348.06243306346721
 31
0.0
  0
LINE
  5
D0
  8
DATA
  6
CONTINUOUS
 62
     7
 10
226.5209998620424
 20
345.56081494048988
 30
0.0
 11
242.5209998620424
 21
347.06243306346721
 31
0.0
  0
LINE
  5
D1
  8
DATA
  6
CONTINUOUS
 62
     7
 10
226.5209998620424
 20
344.56081494048988
 30
0.0
 11
242.5209998620424
 21
346.06243306346721
 31
0.0
  0
LINE
  5
D2
  8
DATA
  6
CONTINUOUS
 62
     7
 10
226.5209998620424
 20
343.56081494048988
 30
0.0
 11
242.5209998620424
 21
345.0624330634671
 31
0.0
  0
LINE
  5
D3
  8
DATA
  6
CONTINUOUS
 62
     7
 10
226.5209998620424
 20
342.56081494048988
 30
0.0
 11
242.5209998620424
 21
344.06243306346721
 31
0.0
  0
LINE
  5
D4
  8
DATA
  6
CONTINUOUS
 62
     7
 10
226.5209998620424
 20
341.56081494048988
 30
0.0
 11
242.5209998620424
 21
343.0624330634671
 31
0.0
  0
LINE
  5
D5
  8
DATA
  6
CONTINUOUS
 62
     7
 10
226.5209998620424
 20
340.56081494048988
 30
0.0
 11
242.5209998620424
 21
342.06243306346721
 31
0.0
  0
LINE
  5
D6
  8
DATA
  6
CONTINUOUS
 62
     7
 10
231.1638159850271
 20
339.9965484924852
 30
0.0
 11
242.5209998620424
 21
341.0624330634671
 31
0.0
  0
LINE
  5
D7
  8
DATA
  6
CONTINUOUS
 62
     7
 10
226.0209998620424
 20
331.9965484924852
 30
0.0
 11
243.0209998620424
 21
331.9965484924852
 31
0.0
  0
LINE
  5
D8
  8
DATA
  6
CONTINUOUS
 62
     7
 10
226.0209998620424
 20
320.9965484924852
 30
0.0
 11
226.0209998620424
 21
331.9965484924852
 31
0.0
  0
LINE
  5
D9
  8
DATA
  6
CONTINUOUS
 62
     7
 10
243.0209998620424
 20
320.9965484924852
 30
0.0
 11
243.0209998620424
 21
331.9965484924852
 31
0.0
  0
LINE
  5
DA
  8
DATA
  6
CONTINUOUS
 62
     7
 10
226.0209998620424
 20
331.9965484924852
 30
0.0
 11
225.5209998620424
 21
336.9965484924852
 31
0.0
  0
LINE
  5
DB
  8
DATA
  6
CONTINUOUS
 62
     7
 10
243.0209998620424
 20
331.9965484924852
 30
0.0
 11
243.5209998620424
 21
336.9965484924852
 31
0.0
  0
LINE
  5
DC
  8
DATA
  6
CONTINUOUS
 62
     7
 10
341.75669167719582
 20
350.0
 30
0.0
 11
341.75669167719582
 21
350.04597678156563
 31
0.0
  0
LINE
  5
DD
  8
DATA
  6
CONTINUOUS
 62
     7
 10
341.55754435706717
 20
350.0
 30
0.0
 11
341.75669167719582
 21
350.04597678156563
 31
0.0
  0
LINE
  5
DE
  8
DATA
  6
CONTINUOUS
 62
     7
 10
326.5209998620424
 20
349.9965484924852
 30
0.0
 11
342.5209998620424
 21
349.9965484924852
 31
0.0
  0
LINE
  5
DF
  8
DATA
  6
CONTINUOUS
 62
     7
 10
326.5209998620424
 20
339.9965484924852
 30
0.0
 11
342.5209998620424
 21
339.9965484924852
 31
0.0
  0
LINE
  5
E0
  8
DATA
  6
CONTINUOUS
 62
     7
 10
326.5209998620424
 20
349.9965484924852
 30
0.0
 11
326.5209998620424
 21
339.9965484924852
 31
0.0
  0
LINE
  5
E1
  8
DATA
  6
CONTINUOUS
 62
     7
 10
342.5209998620424
 20
349.9965484924852
 30
0.0
 11
342.5209998620424
 21
339.9965484924852
 31
0.0
  0
LINE
  5
E2
  8
DATA
  6
CONTINUOUS
 62
     7
 10
326.5209998620424
 20
339.9965484924852
 30
0.0
 11
325.5209998620424
 21
336.9965484924852
 31
0.0
  0
LINE
  5
E3
  8
DATA
  6
CONTINUOUS
 62
     7
 10
342.5209998620424
 20
339.9965484924852
 30
0.0
 11
343.5209998620424
 21
336.9965484924852
 31
0.0
  0
LINE
  5
E4
  8
DATA
  6
CONTINUOUS
 62
     7
 10
343.0209998620424
 20
320.9965484924852
 30
0.0
 11
326.0209998620424
 21
320.9965484924852
 31
0.0
  0
LINE
  5
E5
  8
DATA
  6
CONTINUOUS
 62
     7
 10
325.5209998620424
 20
336.9965484924852
 30
0.0
 11
343.5209998620424
 21
336.9965484924852
 31
0.0
  0
LINE
  5
E6
  8
DATA
  6
CONTINUOUS
 62
     7
 10
326.5209998620424
 20
349.56081494048988
 30
0.0
 11
331.1638159850271
 21
349.9965484924852
 31
0.0
  0
LINE
  5
E7
  8
DATA
  6
CONTINUOUS
 62
     7
 10
326.5209998620424
 20
348.56081494048988
 30
0.0
 11
341.8189883988203
 21
349.9965484924852
 31
0.0
  0
LINE
  5
E8
  8
DATA
  6
CONTINUOUS
 62
     7
 10
326.5209998620424
 20
347.56081494048988
 30
0.0
 11
342.5209998620424
 21
349.06243306346721
 31
0.0
  0
LINE
  5
E9
  8
DATA
  6
CONTINUOUS
 62
     7
 10
326.5209998620424
 20
346.56081494048988
 30
0.0
 11
342.5209998620424
 21
348.06243306346721
 31
0.0
  0
LINE
  5
EA
  8
DATA
  6
CONTINUOUS
 62
     7
 10
326.5209998620424
 20
345.56081494048988
 30
0.0
 11
342.5209998620424
 21
347.06243306346721
 31
0.0
  0
LINE
  5
EB
  8
DATA
  6
CONTINUOUS
 62
     7
 10
326.5209998620424
 20
344.56081494048988
 30
0.0
 11
342.5209998620424
 21
346.06243306346721
 31
0.0
  0
LINE
  5
EC
  8
DATA
  6
CONTINUOUS
 62
     7
 10
326.5209998620424
 20
343.56081494048988
 30
0.0
 11
342.5209998620424
 21
345.0624330634671
 31
0.0
  0
LINE
  5
ED
  8
DATA
  6
CONTINUOUS
 62
     7
 10
326.5209998620424
 20
342.56081494048988
 30
0.0
 11
342.5209998620424
 21
344.06243306346721
 31
0.0
  0
LINE
  5
EE
  8
DATA
  6
CONTINUOUS
 62
     7
 10
326.5209998620424
 20
341.56081494048988
 30
0.0
 11
342.5209998620424
 21
343.0624330634671
 31
0.0
  0
LINE
  5
EF
  8
DATA
  6
CONTINUOUS
 62
     7
 10
326.5209998620424
 20
340.56081494048988
 30
0.0
 11
342.5209998620424
 21
342.06243306346721
 31
0.0
  0
LINE
  5
F0
  8
DATA
  6
CONTINUOUS
 62
     7
 10
331.1638159850271
 20
339.9965484924852
 30
0.0
 11
342.5209998620424
 21
341.0624330634671
 31
0.0
  0
LINE
  5
F1
  8
DATA
  6
CONTINUOUS
 62
     7
 10
326.0209998620424
 20
331.9965484924852
 30
0.0
 11
343.0209998620424
 21
331.9965484924852
 31
0.0
  0
LINE
  5
F2
  8
DATA
  6
CONTINUOUS
 62
     7
 10
326.0209998620424
 20
320.9965484924852
 30
0.0
 11
326.0209998620424
 21
331.9965484924852
 31
0.0
  0
LINE
  5
F3
  8
DATA
  6
CONTINUOUS
 62
     7
 10
343.0209998620424
 20
320.9965484924852
 30
0.0
 11
343.0209998620424
 21
331.9965484924852
 31
0.0
  0
LINE
  5
F4
  8
DATA
  6
CONTINUOUS
 62
     7
 10
326.0209998620424
 20
331.9965484924852
 30
0.0
 11
325.5209998620424
 21
336.9965484924852
 31
0.0
  0
LINE
  5
F5
  8
DATA
  6
CONTINUOUS
 62
     7
 10
343.0209998620424
 20
331.9965484924852
 30
0.0
 11
343.5209998620424
 21
336.9965484924852
 31
0.0
  0
ARC
  5
F6
  8
DATA
  6
STYLE_01
 62
     7
 10
421.2906976744186
 20
242.76744186046511
 30
0.0
 40
97.738939099691251
 50
131.91374666501301
 51
164.7353158587685
  0
ARC
  5
F7
  8
DATA
  6
STYLE_01
 62
     7
 10
436.20924806082797
 20
236.0813239478459
 30
0.0
 40
97.738939099691251
 50
131.91374666501301
 51
164.7353158587685
  0
LINE
  5
F8
  8
DATA
  6
CONTINUOUS
 62
     7
 10
393.4095834921082
 20
331.79386085660519
 30
0.0
 11
393.44209398613037
 21
331.82637135062743
 31
0.0
  0
LINE
  5
F9
  8
DATA
  6
CONTINUOUS
 62
     7
 10
393.26876507159022
 20
331.93467927712328
 30
0.0
 11
393.44209398613037
 21
331.82637135062743
 31
0.0
  0
LINE
  5
FA
  8
DATA
  6
CONTINUOUS
 62
     7
 10
382.6338819091759
 20
342.56468127079961
 30
0.0
 11
393.94759040816058
 21
331.25097277181487
 31
0.0
  0
LINE
  5
FB
  8
DATA
  6
CONTINUOUS
 62
     7
 10
375.56281409731042
 20
335.49361345893408
 30
0.0
 11
386.87652259629522
 21
324.17990495994928
 31
0.0
  0
LINE
  5
FC
  8
DATA
  6
CONTINUOUS
 62
     7
 10
382.6338819091759
 20
342.56468127079961
 30
0.0
 11
375.56281409731042
 21
335.49361345893408
 31
0.0
  0
LINE
  5
FD
  8
DATA
  6
CONTINUOUS
 62
     7
 10
393.94759040816058
 20
331.25097277181487
 30
0.0
 11
386.87652259629522
 21
324.17990495994928
 31
0.0
  0
LINE
  5
FE
  8
DATA
  6
CONTINUOUS
 62
     7
 10
375.56281409731042
 20
335.49361345893408
 30
0.0
 11
372.73438697256421
 21
334.07939989656097
 31
0.0
  0
LINE
  5
FF
  8
DATA
  6
CONTINUOUS
 62
     7
 10
386.87652259629522
 20
324.17990495994928
 30
0.0
 11
385.46230903392211
 21
321.35147783520318
 31
0.0
  0
LINE
  5
100
  8
DATA
  6
CONTINUOUS
 62
     7
 10
373.79504714434398
 20
310.39132272681172
 30
0.0
 11
361.7742318641728
 21
322.41213800698301
 31
0.0
  0
LINE
  5
101
  8
DATA
  6
CONTINUOUS
 62
     7
 10
372.73438697256421
 20
334.07939989656097
 30
0.0
 11
385.46230903392211
 21
321.35147783520318
 31
0.0
  0
LINE
  5
102
  8
DATA
  6
CONTINUOUS
 62
     7
 10
382.32577175976951
 20
342.25657112139322
 30
0.0
 11
385.91684867354058
 21
339.28171450643492
 31
0.0
  0
LINE
  5
103
  8
DATA
  6
CONTINUOUS
 62
     7
 10
381.6186649785829
 20
341.54946434020661
 30
0.0
 11
393.45119334204571
 21
331.7473698379298
 31
0.0
  0
LINE
  5
104
  8
DATA
  6
CONTINUOUS
 62
     7
 10
380.9115581973964
 20
340.84235755902012
 30
0.0
 11
393.28707105389122
 21
330.59045341754518
 31
0.0
  0
LINE
  5
105
  8
DATA
  6
CONTINUOUS
 62
     7
 10
380.20445141620979
 20
340.13525077783362
 30
0.0
 11
392.57996427270439
 21
329.88334663635868
 31
0.0
  0
LINE
  5
106
  8
DATA
  6
CONTINUOUS
 62
     7
 10
379.49734463502341
 20
339.42814399664701
 30
0.0
 11
391.872857491518
 21
329.17623985517218
 31
0.0
  0
LINE
  5
107
  8
DATA
  6
CONTINUOUS
 62
     7
 10
378.7902378538368
 20
338.72103721546051
 30
0.0
 11
391.16575071033128
 21
328.46913307398557
 31
0.0
  0
LINE
  5
108
  8
DATA
  6
CONTINUOUS
 62
     7
 10
378.08313107265019
 20
338.01393043427379
 30
0.0
 11
390.4586439291449
 21
327.76202629279908
 31
0.0
  0
LINE
  5
109
  8
DATA
  6
CONTINUOUS
 62
     7
 10
377.37602429146369
 20
337.30682365308729
 30
0.0
 11
389.75153714795829
 21
327.05491951161252
 31
0.0
  0
LINE
  5
10A
  8
DATA
  6
CONTINUOUS
 62
     7
 10
376.66891751027708
 20
336.59971687190091
 30
0.0
 11
389.04443036677168
 21
326.34781273042603
 31
0.0
  0
LINE
  5
10B
  8
DATA
  6
CONTINUOUS
 62
     7
 10
375.96181072909047
 20
335.8926100907143
 30
0.0
 11
388.33732358558518
 21
325.64070594923942
 31
0.0
  0
LINE
  5
10C
  8
DATA
  6
CONTINUOUS
 62
     7
 10
378.84578086167511
 20
332.21064669456928
 30
0.0
 11
387.63021680439857
 21
324.93359916805292
 31
0.0
  0
LINE
  5
10D
  8
DATA
  6
CONTINUOUS
 62
     7
 10
369.55240645722478
 20
330.19031260003499
 30
0.0
 11
381.57322173739612
 21
318.16949731986369
 31
0.0
  0
LINE
  5
10E
  8
DATA
  6
CONTINUOUS
 62
     7
 10
361.7742318641728
 20
322.41213800698301
 30
0.0
 11
369.55240645722478
 21
330.19031260003499
 31
0.0
  0
LINE
  5
10F
  8
DATA
  6
CONTINUOUS
 62
     7
 10
373.79504714434398
 20
310.39132272681172
 30
0.0
 11
381.57322173739612
 21
318.16949731986369
 31
0.0
  0
LINE
  5
110
  8
DATA
  6
CONTINUOUS
 62
     7
 10
369.55240645722478
 20
330.19031260003499
 30
0.0
 11
372.73438697256421
 21
334.07939989656097
 31
0.0
  0
LINE
  5
111
  8
DATA
  6
CONTINUOUS
 62
     7
 10
381.57322173739612
 20
318.16949731986369
 30
0.0
 11
385.46230903392211
 21
321.35147783520318
 31
0.0
  0
LINE
  5
112
  8
DATA
  6
STYLE_01
 62
     7
 10
354.58020484176802
 20
314.2000000000001
 30
0.0
 11
362.56918755945333
 21
321.66086921998868
 31
0.0
  0
LINE
  5
113
  8
DATA
  6
CONTINUOUS
 62
     7
 10
370.41041481886231
 20
308.5304431793241
 30
0.0
 11
372.1586306907418
 21
310.27865905120348
 31
0.0
  0
TEXT
  5
114
  8
DATA
 62
     7
 10
268.54307207683598
 20
377.2411954649308
 30
0.0
 40
8.1442057291666661
  1
5/8インチネジ
 41
0.7
 11
268.54307207683598
 21
385.38540119409743
 31
0.0
 73
     3
  0
LINE
  5
115
  8
DATA
  6
CONTINUOUS
 62
     7
 10
242.5209998620424
 20
346.5
 30
0.0
 11
265.0
 21
375.0
 31
0.0
  0
LINE
  5
116
  8
DATA
  6
CONTINUOUS
 62
     7
 10
242.5209998620424
 20
346.5
 30
0.0
 11
246.53183218462439
 21
355.50847689048311
 31
0.0
  0
LINE
  5
117
  8
DATA
  6
CONTINUOUS
 62
     7
 10
242.5209998620424
 20
346.5
 30
0.0
 11
250.49872098895969
 21
352.29615367527231
 31
0.0
  0
LINE
  5
118
  8
DATA
  6
CONTINUOUS
 62
     7
 10
265.0
 20
375.0
 30
0.0
 11
345.0
 21
375.0
 31
0.0
  0
CIRCLE
  5
119
  8
DATA
  6
CONTINUOUS
 62
     7
 10
234.5209998620424
 20
375.0
 30
0.0
 40
8.5
  0
CIRCLE
  5
11A
  8
DATA
  6
CONTINUOUS
 62
     7
 10
234.5209998620424
 20
375.0
 30
0.0
 40
8.0
  0
CIRCLE
  5
11B
  8
DATA
  6
CONTINUOUS
 62
     7
 10
234.5209998620424
 20
375.0
 30
0.0
 40
5.0
  0
ENDSEC
  0
EOF
