  0
SECTION
  2
HEADER
  9
$ACADVER
  1
AC1009
  9
$INSBASE
 10
0.0
 20
0.0
 30
0.0
  9
$EXTMIN
 10
29.989015033921529
 20
7.1438620221135798
 30
-0.0015258207003583
  9
$EXTMAX
 10
570.01739634668616
 20
810.02475112515378
 30
0.0000000349246037
  9
$LIMMIN
 10
0.0
 20
0.0
  9
$LIMMAX
 10
0.0
 20
0.0
  9
$ORTHOMODE
 70
     0
  9
$REGENMODE
 70
     1
  9
$FILLMODE
 70
     1
  9
$QTEXTMODE
 70
     0
  9
$MIRRTEXT
 70
     1
  9
$DRAGMODE
 70
     2
  9
$LTSCALE
 40
15.24
  9
$OSMODE
 70
   231
  9
$ATTMODE
 70
     1
  9
$TEXTSIZE
 40
0.0
  9
$TRACEWID
 40
1.0
  9
$TEXTSTYLE
  7
STANDARD
  9
$CLAYER
  8
DATA
  9
$CELTYPE
  6
BYLAYER
  9
$CECOLOR
 62
   256
  9
$DIMSCALE
 40
1.0
  9
$DIMASZ
 40
0.18
  9
$DIMEXO
 40
0.0625
  9
$DIMDLI
 40
0.38
  9
$DIMRND
 40
0.0
  9
$DIMDLE
 40
0.0
  9
$DIMEXE
 40
0.18
  9
$DIMTP
 40
0.0
  9
$DIMTM
 40
0.0
  9
$DIMTXT
 40
0.18
  9
$DIMCEN
 40
0.09
  9
$DIMTSZ
 40
0.0
  9
$DIMTOL
 70
     0
  9
$DIMLIM
 70
     0
  9
$DIMTIH
 70
     1
  9
$DIMTOH
 70
     1
  9
$DIMSE1
 70
     0
  9
$DIMSE2
 70
     0
  9
$DIMTAD
 70
     0
  9
$DIMZIN
 70
     0
  9
$DIMBLK
  1

  9
$DIMASO
 70
     1
  9
$DIMSHO
 70
     1
  9
$DIMPOST
  1

  9
$DIMAPOST
  1

  9
$DIMALT
 70
     0
  9
$DIMALTD
 70
     2
  9
$DIMALTF
 40
25.399999999999999
  9
$DIMLFAC
 40
1.0
  9
$DIMTOFL
 70
     0
  9
$DIMTVP
 40
0.0
  9
$DIMTIX
 70
     0
  9
$DIMSOXD
 70
     0
  9
$DIMSAH
 70
     0
  9
$DIMBLK1
  1

  9
$DIMBLK2
  1

  9
$DIMSTYLE
  2
STANDARD
  9
$DIMCLRD
 70
     0
  9
$DIMCLRE
 70
     0
  9
$DIMCLRT
 70
     0
  9
$DIMTFAC
 40
1.0
  9
$DIMGAP
 40
0.09
  9
$LUNITS
 70
     2
  9
$LUPREC
 70
     4
  9
$SKETCHINC
 40
0.1
  9
$FILLETRAD
 40
0.0
  9
$AUNITS
 70
     0
  9
$AUPREC
 70
     0
  9
$MENU
  1
acad
  9
$ELEVATION
 40
0.0
  9
$PELEVATION
 40
0.0
  9
$THICKNESS
 40
0.0
  9
$LIMCHECK
 70
     0
  9
$BLIPMODE
 70
     0
  9
$CHAMFERA
 40
0.0
  9
$CHAMFERB
 40
0.0
  9
$SKPOLY
 70
     0
  9
$TDCREATE
 40
2454146.4017939819
  9
$TDUPDATE
 40
2454146.408538206
  9
$TDINDWG
 40
0.0002884028
  9
$TDUSRTIMER
 40
0.0002884028
  9
$USRTIMER
 70
     1
  9
$ANGBASE
 50
0.0
  9
$ANGDIR
 70
     0
  9
$PDMODE
 70
     1
  9
$PDSIZE
 40
-2.0
  9
$PLINEWID
 40
0.0
  9
$COORDS
 70
     1
  9
$SPLFRAME
 70
     0
  9
$SPLINETYPE
 70
     6
  9
$SPLINESEGS
 70
     8
  9
$ATTDIA
 70
     0
  9
$ATTREQ
 70
     1
  9
$HANDLING
 70
     1
  9
$HANDSEED
  5
24E
  9
$SURFTAB1
 70
     6
  9
$SURFTAB2
 70
     6
  9
$SURFTYPE
 70
     6
  9
$SURFU
 70
     6
  9
$SURFV
 70
     6
  9
$UCSNAME
  2

  9
$UCSORG
 10
0.0
 20
0.0
 30
0.0
  9
$UCSXDIR
 10
1.0
 20
0.0
 30
0.0
  9
$UCSYDIR
 10
0.0
 20
1.0
 30
0.0
  9
$PUCSNAME
  2

  9
$PUCSORG
 10
0.0
 20
0.0
 30
0.0
  9
$PUCSXDIR
 10
1.0
 20
0.0
 30
0.0
  9
$PUCSYDIR
 10
0.0
 20
1.0
 30
0.0
  9
$USERI1
 70
     0
  9
$USERI2
 70
     0
  9
$USERI3
 70
     0
  9
$USERI4
 70
     0
  9
$USERI5
 70
     0
  9
$USERR1
 40
0.0
  9
$USERR2
 40
0.0
  9
$USERR3
 40
0.0
  9
$USERR4
 40
0.0
  9
$USERR5
 40
0.0
  9
$WORLDVIEW
 70
     1
  9
$SHADEDGE
 70
     3
  9
$SHADEDIF
 70
    70
  9
$TILEMODE
 70
     1
  9
$MAXACTVP
 70
    64
  9
$PLIMCHECK
 70
     0
  9
$PEXTMIN
 10
1.0000000000000000E+020
 20
1.0000000000000000E+020
 30
1.0000000000000000E+020
  9
$PEXTMAX
 10
-1.0000000000000000E+020
 20
-1.0000000000000000E+020
 30
-1.0000000000000000E+020
  9
$PLIMMIN
 10
0.0
 20
0.0
  9
$PLIMMAX
 10
12.0
 20
9.0
  9
$UNITMODE
 70
     0
  9
$VISRETAIN
 70
     0
  9
$PLINEGEN
 70
     1
  9
$PSLTSCALE
 70
     0
  0
ENDSEC
  0
SECTION
  2
TABLES
  0
TABLE
  2
VPORT
 70
     1
  0
VPORT
  2
*ACTIVE
 70
     0
 10
0.0
 20
0.0
 11
1.0
 21
1.0
 12
285.00869817334308
 22
405.01237556257701
 13
0.0
 23
0.0
 14
1.0
 24
1.0
 15
0.0
 25
0.0
 16
0.0
 26
0.0
 36
1.0
 17
0.0
 27
0.0
 37
0.0
 40
816.74694822992706
 41
1.6703601108033239
 42
50.0
 43
0.0
 44
0.0
 50
0.0
 51
0.0
 71
     0
 72
  2000
 73
     1
 74
     1
 75
     0
 76
     0
 77
     0
 78
     0
  0
ENDTAB
  0
TABLE
  2
LTYPE
 70
    11
  0
LTYPE
  2
CONTINUOUS
 70
     0
  3
Solid line
 72
    65
 73
     0
 40
0.0
  0
LTYPE
  2
STYLE_01
 70
     0
  3

 72
    65
 73
     2
 40
0.4166412353515625
 49
0.208282470703125
 49
-0.2083587646484375
  0
ENDTAB
  0
TABLE
  2
LAYER
 70
     5
  0
LAYER
  2
0
 70
     0
 62
     7
  6
CONTINUOUS
  0
LAYER
  2
DATA
 70
     0
 62
     7
  6
CONTINUOUS
  0
LAYER
  2
HIBINO-BASE
 70
     0
 62
     7
  6
CONTINUOUS
  0
LAYER
  2
SPEC
 70
     0
 62
     7
  6
CONTINUOUS
  0
LAYER
  2
DIMNSIONS
 70
     0
 62
     7
  6
CONTINUOUS
  0
ENDTAB
  0
TABLE
  2
STYLE
 70
     2
  0
STYLE
  2
STANDARD
 70
     0
 40
0.0
 41
1.0
 50
0.0
 71
     0
 42
0.0
  3
txt
  4
BIGFONT.SHX
  0
ENDTAB
  0
TABLE
  2
VIEW
 70
     0
  0
ENDTAB
  0
TABLE
  2
UCS
 70
     0
  0
ENDTAB
  0
TABLE
  2
APPID
 70
     1
  0
APPID
  2
ACAD
 70
     0
  0
ENDTAB
  0
TABLE
  2
DIMSTYLE
 70
     1
  0
DIMSTYLE
  2
STANDARD
 70
     0
  3

  4

  5

  6

  7

 40
1.0
 41
0.18
 42
0.0625
 43
0.38
 44
0.18
 45
0.0
 46
0.0
 47
0.0
 48
0.0
140
0.18
141
0.09
142
0.0
143
25.399999999999999
144
1.0
145
0.0
146
1.0
147
0.09
 71
     0
 72
     0
 73
     1
 74
     1
 75
     0
 76
     0
 77
     0
 78
     0
170
     0
171
     2
172
     0
173
     0
174
     0
175
     0
176
     0
177
     0
178
     0
  0
ENDTAB
  0
ENDSEC
  0
SECTION
  2
BLOCKS
  0
BLOCK
  8
0
  2
$MODEL_SPACE
 70
     0
 10
0.0
 20
0.0
 30
0.0
  3
$MODEL_SPACE
  1

  0
ENDBLK
  5
216
  8
0
  0
BLOCK
 67
     1
  8
0
  2
$PAPER_SPACE
 70
     0
 10
0.0
 20
0.0
 30
0.0
  3
$PAPER_SPACE
  1

  0
ENDBLK
  5
212
 67
     1
  8
0
  0
BLOCK
  8
DATA
  2
____-2
 70
     0
 10
0.0
 20
0.0
 30
0.0
  3
____-2
  1

  0
LINE
  5
2E
  8
0
  6
CONTINUOUS
 62
     7
 10
14.500000000000171
 20
7.9999999999999876
 30
0.0
 11
14.500000000000171
 21
-7.9999999999999876
 31
0.0
  0
LINE
  5
2F
  8
0
  6
CONTINUOUS
 62
     7
 10
4.5000000000001696
 20
7.9999999999999876
 30
0.0
 11
4.5000000000001696
 21
-7.9999999999999876
 31
0.0
  0
LINE
  5
30
  8
0
  6
CONTINUOUS
 62
     7
 10
14.500000000000171
 20
7.9999999999999876
 30
0.0
 11
4.5000000000001696
 21
7.9999999999999876
 31
0.0
  0
LINE
  5
31
  8
0
  6
CONTINUOUS
 62
     7
 10
14.500000000000171
 20
-7.9999999999999876
 30
0.0
 11
4.5000000000001696
 21
-7.9999999999999876
 31
0.0
  0
LINE
  5
32
  8
0
  6
CONTINUOUS
 62
     7
 10
4.5000000000001696
 20
7.9999999999999876
 30
0.0
 11
1.5000000000001701
 21
8.9999999999999893
 31
0.0
  0
LINE
  5
33
  8
0
  6
CONTINUOUS
 62
     7
 10
4.5000000000001696
 20
-7.9999999999999876
 30
0.0
 11
1.5000000000001701
 21
-8.9999999999999893
 31
0.0
  0
POLYLINE
  5
34
  8
0
  6
CONTINUOUS
 62
     7
 66
     1
 10
0.0
 20
0.0
 30
0.0
 70
     1
  0
VERTEX
  5
234
  8
0
  6
CONTINUOUS
 62
     7
 10
-14.500000000000149
 20
8.4999999999999893
 30
0.0
  0
VERTEX
  5
235
  8
0
  6
CONTINUOUS
 62
     7
 10
-5.4999999999998286
 20
8.4999999999999893
 30
0.0
  0
VERTEX
  5
236
  8
0
  6
CONTINUOUS
 62
     7
 10
-5.4999999999998286
 20
-8.4999999999999893
 30
0.0
  0
VERTEX
  5
237
  8
0
  6
CONTINUOUS
 62
     7
 10
-14.500000000000149
 20
-8.4999999999999893
 30
0.0
  0
SEQEND
  5
238
  8
0
  6
CONTINUOUS
 62
     7
  0
LINE
  5
3B
  8
0
  6
CONTINUOUS
 62
     7
 10
-5.4999999999998286
 20
8.4999999999999893
 30
0.0
 11
1.5000000000001701
 21
8.9999999999999893
 31
0.0
  0
LINE
  5
3C
  8
0
  6
CONTINUOUS
 62
     7
 10
-5.4999999999998286
 20
-8.4999999999999893
 30
0.0
 11
1.5000000000001701
 21
-8.9999999999999893
 31
0.0
  0
LINE
  5
3D
  8
0
  6
CONTINUOUS
 62
     7
 10
1.5000000000001701
 20
8.9999999999999893
 30
0.0
 11
1.5000000000001701
 21
-8.9999999999999893
 31
0.0
  0
LINE
  5
3E
  8
0
  6
CONTINUOUS
 62
     7
 10
14.06426644800484
 20
7.9999999999999876
 30
0.0
 11
14.500000000000171
 21
3.3571838770152982
 31
0.0
  0
LINE
  5
3F
  8
0
  6
CONTINUOUS
 62
     7
 10
13.064266448004849
 20
7.9999999999999876
 30
0.0
 11
14.500000000000171
 21
-7.2979885367779387
 31
0.0
  0
LINE
  5
40
  8
0
  6
CONTINUOUS
 62
     7
 10
12.064266448004849
 20
7.9999999999999876
 30
0.0
 11
13.565884570982179
 21
-7.9999999999999876
 31
0.0
  0
LINE
  5
41
  8
0
  6
CONTINUOUS
 62
     7
 10
11.06426644800484
 20
7.9999999999999876
 30
0.0
 11
12.56588457098217
 21
-7.9999999999999876
 31
0.0
  0
LINE
  5
42
  8
0
  6
CONTINUOUS
 62
     7
 10
10.06426644800484
 20
7.9999999999999876
 30
0.0
 11
11.565884570982179
 21
-7.9999999999999876
 31
0.0
  0
LINE
  5
43
  8
0
  6
CONTINUOUS
 62
     7
 10
9.0642664480048456
 20
7.9999999999999876
 30
0.0
 11
10.565884570982179
 21
-7.9999999999999876
 31
0.0
  0
LINE
  5
44
  8
0
  6
CONTINUOUS
 62
     7
 10
8.0642664480048456
 20
7.9999999999999876
 30
0.0
 11
9.5658845709821758
 21
-7.9999999999999876
 31
0.0
  0
LINE
  5
45
  8
0
  6
CONTINUOUS
 62
     7
 10
7.0642664480048429
 20
7.9999999999999876
 30
0.0
 11
8.5658845709821776
 21
-7.9999999999999876
 31
0.0
  0
LINE
  5
46
  8
0
  6
CONTINUOUS
 62
     7
 10
6.0642664480048429
 20
7.9999999999999876
 30
0.0
 11
7.5658845709821767
 21
-7.9999999999999876
 31
0.0
  0
LINE
  5
47
  8
0
  6
CONTINUOUS
 62
     7
 10
5.0642664480048429
 20
7.9999999999999876
 30
0.0
 11
6.5658845709821767
 21
-7.9999999999999876
 31
0.0
  0
LINE
  5
48
  8
0
  6
CONTINUOUS
 62
     7
 10
4.5000000000001696
 20
3.3571838770152982
 30
0.0
 11
5.5658845709821767
 21
-7.9999999999999876
 31
0.0
  0
ENDBLK
  5
49
  8
DATA
  0
ENDSEC
  0
SECTION
  2
ENTITIES
  0
LINE
  5
4A
  8
HIBINO-BASE
  6
CONTINUOUS
 62
     7
 10
30.0
 20
810.0000299999997
 30
0.0
 11
570.0
 21
810.0000299999997
 31
0.0
  0
LINE
  5
4B
  8
HIBINO-BASE
  6
CONTINUOUS
 62
     7
 10
570.0
 20
29.99999999999995
 30
0.0
 11
30.0
 21
29.99999999999995
 31
0.0
  0
LINE
  5
4C
  8
HIBINO-BASE
  6
CONTINUOUS
 62
     7
 10
30.0
 20
29.99999999999995
 30
0.0
 11
30.0
 21
810.0000299999997
 31
0.0
  0
TEXT
  5
4D
  8
HIBINO-BASE
 62
     7
 10
51.552000000000021
 20
10.7739665999999
 30
0.0
 40
10.800132539062499
  1
Hibino Corporation
 41
0.7
 11
51.552000000000021
 21
21.574099139062401
 31
0.0
 73
     3
  0
LINE
  5
4E
  8
HIBINO-BASE
  6
CONTINUOUS
 62
     7
 10
570.0
 20
810.0000299999997
 30
0.0
 11
570.0
 21
29.99999999999995
 31
0.0
  0
LINE
  5
4F
  8
HIBINO-BASE
  6
CONTINUOUS
 62
     7
 10
300.0
 20
97.499999999999872
 30
0.0
 11
570.0
 21
97.499999999999872
 31
0.0
  0
LINE
  5
50
  8
HIBINO-BASE
  6
CONTINUOUS
 62
     7
 10
300.0
 20
29.99999999999995
 30
0.0
 11
300.0
 21
97.499999999999872
 31
0.0
  0
TEXT
  5
51
  8
HIBINO-BASE
 62
     7
 10
302.69999999999999
 20
89.399990399999922
 30
0.0
 40
5.4000778125000002
  1
NOTE
 41
0.7
 11
302.69999999999999
 21
94.800068212499909
 31
0.0
 73
     3
  0
LINE
  5
52
  8
HIBINO-BASE
  6
CONTINUOUS
 62
     7
 10
405.0
 20
29.99999999999995
 30
0.0
 11
405.0
 21
97.499999999999872
 31
0.0
  0
TEXT
  5
53
  8
HIBINO-BASE
 62
     7
 10
407.69999999999987
 20
89.399990399999922
 30
0.0
 40
5.4000778125000002
  1
TITLE
 41
0.7
 11
407.69999999999987
 21
94.800068212499909
 31
0.0
 73
     3
  0
TEXT
  5
54
  8
HIBINO-BASE
 62
     7
 10
450.2051699999999
 20
10.7739665999999
 30
0.0
 40
10.800132539062499
  1
ヒビノ株式会社
 41
0.7
 11
450.2051699999999
 21
21.574099139062401
 31
0.0
 73
     3
  0
LINE
  5
55
  8
HIBINO-BASE
  6
CONTINUOUS
 62
     7
 10
300.0
 20
59.999999999999929
 30
0.0
 11
570.0
 21
59.999999999999929
 31
0.0
  0
TEXT
  5
56
  8
HIBINO-BASE
 62
     7
 10
445.19999999999987
 20
52.068950399999892
 30
0.0
 40
5.4000778125000002
  1
DRAWN
 41
0.7
 11
445.19999999999987
 21
57.469028212499893
 31
0.0
 73
     3
  0
TEXT
  5
57
  8
HIBINO-BASE
 62
     7
 10
370.19999999999999
 20
52.068950399999892
 30
0.0
 40
5.4000778125000002
  1
DATE
 41
0.7
 11
370.19999999999999
 21
57.469028212499893
 31
0.0
 73
     3
  0
TEXT
  5
58
  8
HIBINO-BASE
 62
     7
 10
303.30000000000001
 20
52.14163139999993
 30
0.0
 40
4.8865311328124994
  1
図面サイズ
 41
0.7
 11
303.30000000000001
 21
57.028162532812424
 31
0.0
 73
     3
  0
TEXT
  5
59
  8
HIBINO-BASE
 62
     7
 10
340.19999999999999
 20
52.068950399999892
 30
0.0
 40
5.4000778125000002
  1
SCALE
 41
0.7
 11
340.19999999999999
 21
57.469028212499893
 31
0.0
 73
     3
  0
TEXT
  5
5A
  8
HIBINO-BASE
 62
     7
 10
407.69999999999987
 20
52.068950399999892
 30
0.0
 40
5.4000778125000002
  1
DESIGN
 41
0.7
 11
407.69999999999987
 21
57.469028212499893
 31
0.0
 73
     3
  0
TEXT
  5
5B
  8
HIBINO-BASE
 62
     7
 10
520.20000000000005
 20
52.068950399999892
 30
0.0
 40
5.4000778125000002
  1
DRAWING NO.
 41
0.7
 11
520.20000000000005
 21
57.469028212499893
 31
0.0
 73
     3
  0
TEXT
  5
5C
  8
HIBINO-BASE
 62
     7
 10
482.69999999999987
 20
52.068950399999892
 30
0.0
 40
5.4000778125000002
  1
CHECK
 41
0.7
 11
482.69999999999987
 21
57.469028212499893
 31
0.0
 73
     3
  0
LINE
  5
5D
  8
HIBINO-BASE
  6
CONTINUOUS
 62
     7
 10
343.125
 20
33.74999999999995
 30
0.0
 11
354.375
 21
44.999999999999929
 31
0.0
  0
TEXT
  5
5E
  8
HIBINO-BASE
 62
     7
 10
341.25
 20
39.852842399999901
 30
0.0
 40
6.515359453124999
  1
1
 41
0.7
 11
341.25
 21
46.368201853124887
 31
0.0
 73
     3
  0
LINE
  5
5F
  8
HIBINO-BASE
  6
CONTINUOUS
 62
     7
 10
337.5
 20
29.99999999999995
 30
0.0
 11
337.5
 21
59.999999999999929
 31
0.0
  0
LINE
  5
60
  8
HIBINO-BASE
  6
CONTINUOUS
 62
     7
 10
367.5
 20
29.99999999999995
 30
0.0
 11
367.5
 21
59.999999999999929
 31
0.0
  0
LINE
  5
61
  8
HIBINO-BASE
  6
CONTINUOUS
 62
     7
 10
442.49999999999989
 20
59.999999999999929
 30
0.0
 11
442.49999999999989
 21
29.99999999999995
 31
0.0
  0
LINE
  5
62
  8
HIBINO-BASE
  6
CONTINUOUS
 62
     7
 10
517.49999999999989
 20
59.999999999999929
 30
0.0
 11
517.49999999999989
 21
29.99999999999995
 31
0.0
  0
LINE
  5
63
  8
HIBINO-BASE
  6
CONTINUOUS
 62
     7
 10
480.0
 20
29.99999999999995
 30
0.0
 11
480.0
 21
59.999999999999929
 31
0.0
  0
TEXT
  5
64
  8
HIBINO-BASE
 62
     7
 10
311.73266999999998
 20
37.495368599999942
 30
0.0
 40
9.7730391796875011
  1
A4
 41
0.7
 11
311.73266999999998
 21
47.268407779687429
 31
0.0
 73
     3
  0
TEXT
  5
65
  8
HIBINO-BASE
 62
     7
 10
375.21962000000002
 20
38.01701039999994
 30
0.0
 40
5.4000778125000002
  1
'07.02.
 41
0.7
 11
375.21962000000002
 21
43.417088212499927
 31
0.0
 73
     3
  0
TEXT
  5
66
  8
HIBINO-BASE
 62
     7
 10
352.5
 20
34.227842399999901
 30
0.0
 40
6.515359453124999
  1
3
 41
0.7
 11
352.5
 21
40.743201853124887
 31
0.0
 73
     3
  0
TEXT
  5
67
  8
HIBINO-BASE
 62
     7
 10
447.01743003310389
 20
38.590939999999918
 30
0.0
 40
4.8865234374999993
  1
N.Sasaki
 41
0.7
 11
447.01743003310389
 21
43.477463437499907
 31
0.0
 73
     3
  0
TEXT
  5
68
  8
HIBINO-BASE
 62
     7
 10
487.30000000000001
 20
38.590939999999918
 30
0.0
 40
4.8865234374999993
  1
Y.Koga
 41
0.7
 11
487.30000000000001
 21
43.477463437499907
 31
0.0
 73
     3
  0
LINE
  5
69
  8
SPEC
  6
CONTINUOUS
 62
     7
 10
52.500000000000021
 20
780.0000299999997
 30
0.0
 11
495.0
 21
780.0000299999997
 31
0.0
  0
LINE
  5
6A
  8
SPEC
  6
CONTINUOUS
 62
     7
 10
52.500000000000021
 20
768.75002999999981
 30
0.0
 11
495.0
 21
768.75002999999981
 31
0.0
  0
LINE
  5
6B
  8
SPEC
  6
CONTINUOUS
 62
     7
 10
52.500000000000021
 20
746.25002999999981
 30
0.0
 11
495.0
 21
746.25002999999981
 31
0.0
  0
LINE
  5
6C
  8
SPEC
  6
CONTINUOUS
 62
     7
 10
52.500000000000021
 20
757.50002999999981
 30
0.0
 11
495.0
 21
757.50002999999981
 31
0.0
  0
LINE
  5
6D
  8
SPEC
  6
CONTINUOUS
 62
     7
 10
52.500000000000021
 20
780.0000299999997
 30
0.0
 11
52.500000000000021
 21
746.25002999999981
 31
0.0
  0
TEXT
  5
6E
  8
SPEC
 62
     7
 10
56.250000000000021
 20
784.17983999999979
 30
0.0
 40
7.3297851562499989
  1
仕様
 41
0.7
 11
56.250000000000021
 21
791.50962515624974
 31
0.0
 73
     3
  0
LINE
  5
6F
  8
SPEC
  6
CONTINUOUS
 62
     7
 10
150.0
 20
780.0000299999997
 30
0.0
 11
150.0
 21
746.25002999999981
 31
0.0
  0
LINE
  5
70
  8
SPEC
  6
CONTINUOUS
 62
     7
 10
495.0
 20
780.0000299999997
 30
0.0
 11
495.0
 21
746.25002999999981
 31
0.0
  0
TEXT
  5
71
  8
SPEC
 62
     7
 10
152.69999999999999
 20
759.86379479999982
 30
0.0
 40
5.700933749999999
  1
Φ19×300mm
 41
0.7
 11
152.69999999999999
 21
765.5647285499997
 31
0.0
 73
     3
  0
TEXT
  5
72
  8
SPEC
 62
     7
 10
55.200000000000017
 20
759.86379479999982
 30
0.0
 40
5.700933749999999
  1
寸法
 41
0.7
 11
55.200000000000017
 21
765.5647285499997
 31
0.0
 73
     3
  0
TEXT
  5
73
  8
SPEC
 62
     7
 10
152.69999999999999
 20
748.61379479999982
 30
0.0
 40
5.700933749999999
  1
約246g
 41
0.7
 11
152.69999999999999
 21
754.31472854999981
 31
0.0
 73
     3
  0
TEXT
  5
74
  8
SPEC
 62
     7
 10
55.200000000000017
 20
748.61379479999982
 30
0.0
 40
5.700933749999999
  1
重量
 41
0.7
 11
55.200000000000017
 21
754.31472854999981
 31
0.0
 73
     3
  0
TEXT
  5
75
  8
SPEC
 62
     7
 10
152.69999999999999
 20
771.11379479999982
 30
0.0
 40
5.700933749999999
  1
黒色(ボディ本体)
 41
0.7
 11
152.69999999999999
 21
776.81472854999981
 31
0.0
 73
     3
  0
TEXT
  5
76
  8
SPEC
 62
     7
 10
55.200000000000017
 20
771.11379479999982
 30
0.0
 40
5.700933749999999
  1
外装
 41
0.7
 11
55.200000000000017
 21
776.81472854999981
 31
0.0
 73
     3
  0
TEXT
  5
77
  8
DIMNSIONS
 62
     7
 10
240.0
 20
66.8084699999999
 30
0.0
 40
7.3297851562499989
  1
(単位：mm)
 41
0.7
 11
240.0
 21
74.138255156249883
 31
0.0
 73
     3
  0
LINE
  5
78
  8
DIMNSIONS
  6
CONTINUOUS
 62
     7
 10
239.3877096765616
 20
166.85381720573059
 30
0.0
 11
249.5
 21
150.0
 31
0.0
  0
LINE
  5
79
  8
DIMNSIONS
  6
CONTINUOUS
 62
     7
 10
239.3877096765616
 20
166.85381720573059
 30
0.0
 11
246.48112348924411
 21
160.00378711176171
 31
0.0
  0
LINE
  5
7A
  8
DIMNSIONS
  6
CONTINUOUS
 62
     7
 10
239.3877096765616
 20
166.85381720573059
 30
0.0
 11
242.10577119091559
 21
157.3748102213244
 31
0.0
  0
LINE
  5
7B
  8
DIMNSIONS
  6
CONTINUOUS
 62
     7
 10
249.5
 20
150.0
 30
0.0
 11
288.66666667057819
 21
150.0
 31
0.0
  0
TEXT
  5
7C
  8
DIMNSIONS
 62
     7
 10
267.50000000391151
 20
154.48166665549081
 30
0.0
 40
8.1442057291666661
  1
φ19
 41
0.7
 11
267.50000000391151
 21
162.62587238465741
 31
0.0
 73
     3
  0
LINE
  5
7D
  8
DIMNSIONS
  6
CONTINUOUS
 62
     7
 10
219.00000002235171
 20
241.0
 30
0.0
 11
169.00000002235171
 21
241.0
 31
0.0
  0
LINE
  5
7E
  8
DIMNSIONS
  6
CONTINUOUS
 62
     7
 10
220.0000000223518
 20
541.0
 30
0.0
 11
169.00000002235171
 21
541.0
 31
0.0
  0
LINE
  5
7F
  8
DIMNSIONS
  6
CONTINUOUS
 62
     7
 10
175.0
 20
241.0
 30
0.0
 11
175.0
 21
541.0
 31
0.0
  0
LINE
  5
80
  8
DIMNSIONS
  6
CONTINUOUS
 62
     7
 10
175.0
 20
241.0
 30
0.0
 11
172.44778394209351
 21
250.52500000000001
 31
0.0
  0
LINE
  5
81
  8
DIMNSIONS
  6
CONTINUOUS
 62
     7
 10
175.0
 20
241.0
 30
0.0
 11
177.55221605790649
 21
250.52500000000001
 31
0.0
  0
LINE
  5
82
  8
DIMNSIONS
  6
CONTINUOUS
 62
     7
 10
175.0
 20
541.0
 30
0.0
 11
177.55221605790649
 21
531.47500000000002
 31
0.0
  0
LINE
  5
83
  8
DIMNSIONS
  6
CONTINUOUS
 62
     7
 10
175.0
 20
541.0
 30
0.0
 11
172.44778394209351
 21
531.47500000000002
 31
0.0
  0
TEXT
  5
84
  8
DIMNSIONS
 62
     7
 10
170.51833334450919
 20
383.0625
 30
0.0
 40
8.1442057291666661
  1
300
 50
90.0
 41
0.7
 11
162.3741276153425
 21
383.0625
 31
0.0
 73
     3
  0
LINE
  5
85
  8
DIMNSIONS
  6
CONTINUOUS
 62
     7
 10
219.00000002235171
 20
225.0
 30
0.0
 11
169.00000002235171
 21
225.0
 31
0.0
  0
LINE
  5
86
  8
DIMNSIONS
  6
CONTINUOUS
 62
     7
 10
219.00000002235171
 20
241.0
 30
0.0
 11
169.00000002235171
 21
241.0
 31
0.0
  0
LINE
  5
87
  8
DIMNSIONS
  6
CONTINUOUS
 62
     7
 10
175.0
 20
241.0
 30
0.0
 11
175.0
 21
225.0
 31
0.0
  0
LINE
  5
88
  8
DIMNSIONS
  6
CONTINUOUS
 62
     7
 10
175.0
 20
225.0
 30
0.0
 11
175.0
 21
209.99999998491259
 31
0.0
  0
LINE
  5
89
  8
DIMNSIONS
  6
CONTINUOUS
 62
     7
 10
175.0
 20
225.0
 30
0.0
 11
177.55221605790649
 21
215.47499999999999
 31
0.0
  0
LINE
  5
8A
  8
DIMNSIONS
  6
CONTINUOUS
 62
     7
 10
175.0
 20
225.0
 30
0.0
 11
172.44778394209351
 21
215.47499999999999
 31
0.0
  0
LINE
  5
8B
  8
DIMNSIONS
  6
CONTINUOUS
 62
     7
 10
175.0
 20
241.0
 30
0.0
 11
175.0
 21
256.00000001508738
 31
0.0
  0
LINE
  5
8C
  8
DIMNSIONS
  6
CONTINUOUS
 62
     7
 10
175.0
 20
241.0
 30
0.0
 11
172.44778394209351
 21
250.52500000000001
 31
0.0
  0
LINE
  5
8D
  8
DIMNSIONS
  6
CONTINUOUS
 62
     7
 10
175.0
 20
241.0
 30
0.0
 11
177.55221605790649
 21
250.52500000000001
 31
0.0
  0
TEXT
  5
8E
  8
DIMNSIONS
 62
     7
 10
170.51833334450919
 20
227.70833333333329
 30
0.0
 40
8.1442057291666661
  1
16
 50
90.0
 41
0.7
 11
162.3741276153425
 21
227.70833333333329
 31
0.0
 73
     3
  0
LINE
  5
8F
  8
DIMNSIONS
  6
CONTINUOUS
 62
     7
 10
220.0000000223518
 20
541.0
 30
0.0
 11
169.00000002235171
 21
541.0
 31
0.0
  0
LINE
  5
90
  8
DIMNSIONS
  6
CONTINUOUS
 62
     7
 10
220.0000000223518
 20
559.0
 30
0.0
 11
169.00000002235171
 21
559.0
 31
0.0
  0
LINE
  5
91
  8
DIMNSIONS
  6
CONTINUOUS
 62
     7
 10
175.0
 20
559.0
 30
0.0
 11
175.0
 21
541.0
 31
0.0
  0
LINE
  5
92
  8
DIMNSIONS
  6
CONTINUOUS
 62
     7
 10
175.0
 20
541.0
 30
0.0
 11
175.0
 21
525.99999998491262
 31
0.0
  0
LINE
  5
93
  8
DIMNSIONS
  6
CONTINUOUS
 62
     7
 10
175.0
 20
541.0
 30
0.0
 11
177.55221605790649
 21
531.47500000000002
 31
0.0
  0
LINE
  5
94
  8
DIMNSIONS
  6
CONTINUOUS
 62
     7
 10
175.0
 20
541.0
 30
0.0
 11
172.44778394209351
 21
531.47500000000002
 31
0.0
  0
LINE
  5
95
  8
DIMNSIONS
  6
CONTINUOUS
 62
     7
 10
175.0
 20
559.0
 30
0.0
 11
175.0
 21
574.00000001508738
 31
0.0
  0
LINE
  5
96
  8
DIMNSIONS
  6
CONTINUOUS
 62
     7
 10
175.0
 20
559.0
 30
0.0
 11
172.44778394209351
 21
568.52499999999986
 31
0.0
  0
LINE
  5
97
  8
DIMNSIONS
  6
CONTINUOUS
 62
     7
 10
175.0
 20
559.0
 30
0.0
 11
177.55221605790649
 21
568.52499999999986
 31
0.0
  0
TEXT
  5
98
  8
DIMNSIONS
 62
     7
 10
170.51833334450919
 20
544.70833333333326
 30
0.0
 40
8.1442057291666661
  1
18
 50
90.0
 41
0.7
 11
162.3741276153425
 21
544.70833333333326
 31
0.0
 73
     3
  0
TEXT
  5
99
  8
DATA
 62
     7
 10
441.30000000000001
 20
84.232503333333256
 30
0.0
 40
8.1442057291666661
  1
SHURE
 41
0.7
 11
441.30000000000001
 21
92.376709062499927
 31
0.0
 73
     3
  0
TEXT
  5
9A
  8
DATA
 62
     7
 10
441.30000000000001
 20
75.601643333333243
 30
0.0
 40
5.7009440104166647
  1
フレキシブル・グースネック
 41
0.7
 11
441.30000000000001
 21
81.302587343749906
 31
0.0
 73
     3
  0
TEXT
  5
9B
  8
DATA
 62
     7
 10
441.30000000000001
 20
63.248343333333281
 30
0.0
 40
8.1442057291666661
  1
G12B
 41
0.7
 11
441.30000000000001
 21
71.392549062499938
 31
0.0
 73
     3
  0
CIRCLE
  5
9C
  8
DATA
  6
CONTINUOUS
 62
     7
 10
234.5
 20
175.0
 30
0.0
 40
9.5
  0
CIRCLE
  5
9D
  8
DATA
  6
CONTINUOUS
 62
     7
 10
234.5
 20
175.0
 30
0.0
 40
7.5
  0
ARC
  5
9E
  8
DATA
  6
STYLE_01
 62
     7
 10
426.93393403766572
 20
382.22868965084808
 30
0.0
 40
100.0
 50
92.283248539161335
 51
177.91718629870351
  0
ARC
  5
9F
  8
DATA
  6
STYLE_01
 62
     7
 10
428.33399129359373
 20
379.4882607580663
 30
0.0
 40
87.907428654222258
 50
93.511364051624284
 51
169.14325877941431
  0
LINE
  5
A0
  8
DATA
  6
CONTINUOUS
 62
     7
 10
227.0
 20
255.0
 30
0.0
 11
227.0
 21
499.0
 31
0.0
  0
LINE
  5
A1
  8
DATA
  6
CONTINUOUS
 62
     7
 10
242.0
 20
255.0
 30
0.0
 11
242.0
 21
499.0
 31
0.0
  0
LINE
  5
A2
  8
DATA
  6
CONTINUOUS
 62
     7
 10
227.0
 20
262.58295391468209
 30
0.0
 11
242.0
 21
266.04597678156563
 31
0.0
  0
LINE
  5
A3
  8
DATA
  6
CONTINUOUS
 62
     7
 10
227.0
 20
265.58295391468209
 30
0.0
 11
242.0
 21
269.04597678156563
 31
0.0
  0
LINE
  5
A4
  8
DATA
  6
CONTINUOUS
 62
     7
 10
227.0
 20
267.58295391468209
 30
0.0
 11
242.0
 21
271.04597678156563
 31
0.0
  0
LINE
  5
A5
  8
DATA
  6
CONTINUOUS
 62
     7
 10
227.0
 20
270.58295391468209
 30
0.0
 11
242.0
 21
274.04597678156563
 31
0.0
  0
LINE
  5
A6
  8
DATA
  6
CONTINUOUS
 62
     7
 10
227.0
 20
272.58295391468209
 30
0.0
 11
242.0
 21
276.04597678156563
 31
0.0
  0
LINE
  5
A7
  8
DATA
  6
CONTINUOUS
 62
     7
 10
227.0
 20
275.58295391468209
 30
0.0
 11
242.0
 21
279.04597678156563
 31
0.0
  0
LINE
  5
A8
  8
DATA
  6
CONTINUOUS
 62
     7
 10
227.0
 20
277.58295391468209
 30
0.0
 11
242.0
 21
281.04597678156563
 31
0.0
  0
LINE
  5
A9
  8
DATA
  6
CONTINUOUS
 62
     7
 10
227.0
 20
280.58295391468209
 30
0.0
 11
242.0
 21
284.04597678156563
 31
0.0
  0
LINE
  5
AA
  8
DATA
  6
CONTINUOUS
 62
     7
 10
227.0
 20
282.58295391468198
 30
0.0
 11
242.0
 21
286.04597678156563
 31
0.0
  0
LINE
  5
AB
  8
DATA
  6
CONTINUOUS
 62
     7
 10
227.0
 20
285.58295391468209
 30
0.0
 11
242.0
 21
289.04597678156563
 31
0.0
  0
LINE
  5
AC
  8
DATA
  6
CONTINUOUS
 62
     7
 10
227.0
 20
287.58295391468198
 30
0.0
 11
242.0
 21
291.04597678156563
 31
0.0
  0
LINE
  5
AD
  8
DATA
  6
CONTINUOUS
 62
     7
 10
227.0
 20
290.58295391468209
 30
0.0
 11
242.0
 21
294.04597678156563
 31
0.0
  0
LINE
  5
AE
  8
DATA
  6
CONTINUOUS
 62
     7
 10
227.0
 20
292.58295391468209
 30
0.0
 11
242.0
 21
296.04597678156563
 31
0.0
  0
LINE
  5
AF
  8
DATA
  6
CONTINUOUS
 62
     7
 10
227.0
 20
295.58295391468209
 30
0.0
 11
242.0
 21
299.04597678156563
 31
0.0
  0
LINE
  5
B0
  8
DATA
  6
CONTINUOUS
 62
     7
 10
227.0
 20
297.58295391468209
 30
0.0
 11
242.0
 21
301.04597678156563
 31
0.0
  0
LINE
  5
B1
  8
DATA
  6
CONTINUOUS
 62
     7
 10
227.0
 20
300.58295391468209
 30
0.0
 11
242.0
 21
304.04597678156563
 31
0.0
  0
LINE
  5
B2
  8
DATA
  6
CONTINUOUS
 62
     7
 10
227.0
 20
302.58295391468209
 30
0.0
 11
242.0
 21
306.04597678156563
 31
0.0
  0
LINE
  5
B3
  8
DATA
  6
CONTINUOUS
 62
     7
 10
227.0
 20
305.58295391468209
 30
0.0
 11
242.0
 21
309.04597678156563
 31
0.0
  0
LINE
  5
B4
  8
DATA
  6
CONTINUOUS
 62
     7
 10
227.0
 20
307.58295391468209
 30
0.0
 11
242.0
 21
311.04597678156563
 31
0.0
  0
LINE
  5
B5
  8
DATA
  6
CONTINUOUS
 62
     7
 10
227.0
 20
310.58295391468209
 30
0.0
 11
242.0
 21
314.04597678156563
 31
0.0
  0
LINE
  5
B6
  8
DATA
  6
CONTINUOUS
 62
     7
 10
227.0
 20
312.58295391468209
 30
0.0
 11
242.0
 21
316.04597678156563
 31
0.0
  0
LINE
  5
B7
  8
DATA
  6
CONTINUOUS
 62
     7
 10
227.0
 20
315.58295391468209
 30
0.0
 11
242.0
 21
319.04597678156563
 31
0.0
  0
LINE
  5
B8
  8
DATA
  6
CONTINUOUS
 62
     7
 10
227.0
 20
317.58295391468209
 30
0.0
 11
242.0
 21
321.04597678156568
 31
0.0
  0
LINE
  5
B9
  8
DATA
  6
CONTINUOUS
 62
     7
 10
227.0
 20
320.58295391468209
 30
0.0
 11
242.0
 21
324.04597678156563
 31
0.0
  0
LINE
  5
BA
  8
DATA
  6
CONTINUOUS
 62
     7
 10
227.0
 20
322.58295391468209
 30
0.0
 11
242.0
 21
326.04597678156563
 31
0.0
  0
LINE
  5
BB
  8
DATA
  6
CONTINUOUS
 62
     7
 10
227.0
 20
325.58295391468209
 30
0.0
 11
242.0
 21
329.04597678156563
 31
0.0
  0
LINE
  5
BC
  8
DATA
  6
CONTINUOUS
 62
     7
 10
227.0
 20
327.58295391468209
 30
0.0
 11
242.0
 21
331.04597678156563
 31
0.0
  0
LINE
  5
BD
  8
DATA
  6
CONTINUOUS
 62
     7
 10
227.0
 20
330.58295391468209
 30
0.0
 11
242.0
 21
334.04597678156563
 31
0.0
  0
LINE
  5
BE
  8
DATA
  6
CONTINUOUS
 62
     7
 10
227.0
 20
332.58295391468209
 30
0.0
 11
242.0
 21
336.04597678156563
 31
0.0
  0
LINE
  5
BF
  8
DATA
  6
CONTINUOUS
 62
     7
 10
227.0
 20
335.58295391468209
 30
0.0
 11
242.0
 21
339.04597678156563
 31
0.0
  0
LINE
  5
C0
  8
DATA
  6
CONTINUOUS
 62
     7
 10
227.0
 20
337.58295391468209
 30
0.0
 11
242.0
 21
341.04597678156563
 31
0.0
  0
LINE
  5
C1
  8
DATA
  6
CONTINUOUS
 62
     7
 10
227.0
 20
340.58295391468209
 30
0.0
 11
242.0
 21
344.04597678156563
 31
0.0
  0
LINE
  5
C2
  8
DATA
  6
CONTINUOUS
 62
     7
 10
227.0
 20
342.58295391468209
 30
0.0
 11
242.0
 21
346.04597678156568
 31
0.0
  0
LINE
  5
C3
  8
DATA
  6
CONTINUOUS
 62
     7
 10
227.0
 20
345.58295391468209
 30
0.0
 11
242.0
 21
349.04597678156563
 31
0.0
  0
LINE
  5
C4
  8
DATA
  6
CONTINUOUS
 62
     7
 10
227.0
 20
347.58295391468209
 30
0.0
 11
242.0
 21
351.04597678156563
 31
0.0
  0
LINE
  5
C5
  8
DATA
  6
CONTINUOUS
 62
     7
 10
227.0
 20
350.58295391468221
 30
0.0
 11
242.0
 21
354.04597678156563
 31
0.0
  0
LINE
  5
C6
  8
DATA
  6
CONTINUOUS
 62
     7
 10
227.0
 20
352.58295391468221
 30
0.0
 11
242.0
 21
356.04597678156563
 31
0.0
  0
LINE
  5
C7
  8
DATA
  6
CONTINUOUS
 62
     7
 10
227.0
 20
355.58295391468209
 30
0.0
 11
242.0
 21
359.04597678156563
 31
0.0
  0
LINE
  5
C8
  8
DATA
  6
CONTINUOUS
 62
     7
 10
227.0
 20
357.58295391468209
 30
0.0
 11
242.0
 21
361.04597678156563
 31
0.0
  0
LINE
  5
C9
  8
DATA
  6
CONTINUOUS
 62
     7
 10
227.0
 20
360.58295391468209
 30
0.0
 11
242.0
 21
364.04597678156563
 31
0.0
  0
LINE
  5
CA
  8
DATA
  6
CONTINUOUS
 62
     7
 10
227.0
 20
362.58295391468209
 30
0.0
 11
242.0
 21
366.04597678156563
 31
0.0
  0
LINE
  5
CB
  8
DATA
  6
CONTINUOUS
 62
     7
 10
227.0
 20
365.58295391468209
 30
0.0
 11
242.0
 21
369.04597678156563
 31
0.0
  0
LINE
  5
CC
  8
DATA
  6
CONTINUOUS
 62
     7
 10
227.0
 20
370.58295391468209
 30
0.0
 11
242.0
 21
374.04597678156563
 31
0.0
  0
LINE
  5
CD
  8
DATA
  6
CONTINUOUS
 62
     7
 10
227.0
 20
367.58295391468209
 30
0.0
 11
242.0
 21
371.04597678156568
 31
0.0
  0
LINE
  5
CE
  8
DATA
  6
CONTINUOUS
 62
     7
 10
227.0
 20
372.58295391468209
 30
0.0
 11
242.0
 21
376.04597678156563
 31
0.0
  0
LINE
  5
CF
  8
DATA
  6
CONTINUOUS
 62
     7
 10
227.0
 20
375.58295391468209
 30
0.0
 11
242.0
 21
379.04597678156563
 31
0.0
  0
LINE
  5
D0
  8
DATA
  6
CONTINUOUS
 62
     7
 10
227.0
 20
377.58295391468209
 30
0.0
 11
242.0
 21
381.04597678156563
 31
0.0
  0
LINE
  5
D1
  8
DATA
  6
CONTINUOUS
 62
     7
 10
227.0
 20
380.58295391468209
 30
0.0
 11
242.0
 21
384.04597678156563
 31
0.0
  0
LINE
  5
D2
  8
DATA
  6
CONTINUOUS
 62
     7
 10
227.0
 20
382.58295391468209
 30
0.0
 11
242.0
 21
386.04597678156563
 31
0.0
  0
LINE
  5
D3
  8
DATA
  6
CONTINUOUS
 62
     7
 10
227.0
 20
385.58295391468209
 30
0.0
 11
242.0
 21
389.04597678156563
 31
0.0
  0
LINE
  5
D4
  8
DATA
  6
CONTINUOUS
 62
     7
 10
227.0
 20
387.58295391468209
 30
0.0
 11
242.0
 21
391.04597678156563
 31
0.0
  0
LINE
  5
D5
  8
DATA
  6
CONTINUOUS
 62
     7
 10
227.0
 20
390.58295391468209
 30
0.0
 11
242.0
 21
394.04597678156563
 31
0.0
  0
LINE
  5
D6
  8
DATA
  6
CONTINUOUS
 62
     7
 10
227.0
 20
392.58295391468209
 30
0.0
 11
242.0
 21
396.04597678156563
 31
0.0
  0
LINE
  5
D7
  8
DATA
  6
CONTINUOUS
 62
     7
 10
227.0
 20
395.58295391468209
 30
0.0
 11
242.0
 21
399.04597678156563
 31
0.0
  0
LINE
  5
D8
  8
DATA
  6
CONTINUOUS
 62
     7
 10
227.0
 20
397.58295391468209
 30
0.0
 11
242.0
 21
401.04597678156563
 31
0.0
  0
LINE
  5
D9
  8
DATA
  6
CONTINUOUS
 62
     7
 10
227.0
 20
400.58295391468198
 30
0.0
 11
242.0
 21
404.04597678156563
 31
0.0
  0
LINE
  5
DA
  8
DATA
  6
CONTINUOUS
 62
     7
 10
227.0
 20
402.58295391468209
 30
0.0
 11
242.0
 21
406.04597678156563
 31
0.0
  0
LINE
  5
DB
  8
DATA
  6
CONTINUOUS
 62
     7
 10
227.0
 20
405.58295391468209
 30
0.0
 11
242.0
 21
409.04597678156563
 31
0.0
  0
LINE
  5
DC
  8
DATA
  6
CONTINUOUS
 62
     7
 10
227.0
 20
407.58295391468221
 30
0.0
 11
242.0
 21
411.04597678156563
 31
0.0
  0
LINE
  5
DD
  8
DATA
  6
CONTINUOUS
 62
     7
 10
227.0
 20
410.58295391468209
 30
0.0
 11
242.0
 21
414.04597678156563
 31
0.0
  0
LINE
  5
DE
  8
DATA
  6
CONTINUOUS
 62
     7
 10
227.0
 20
412.58295391468209
 30
0.0
 11
242.0
 21
416.04597678156563
 31
0.0
  0
LINE
  5
DF
  8
DATA
  6
CONTINUOUS
 62
     7
 10
227.0
 20
415.58295391468209
 30
0.0
 11
242.0
 21
419.04597678156563
 31
0.0
  0
LINE
  5
E0
  8
DATA
  6
CONTINUOUS
 62
     7
 10
227.0
 20
417.58295391468209
 30
0.0
 11
242.0
 21
421.04597678156563
 31
0.0
  0
LINE
  5
E1
  8
DATA
  6
CONTINUOUS
 62
     7
 10
227.0
 20
420.58295391468209
 30
0.0
 11
242.0
 21
424.04597678156551
 31
0.0
  0
LINE
  5
E2
  8
DATA
  6
CONTINUOUS
 62
     7
 10
227.0
 20
422.58295391468209
 30
0.0
 11
242.0
 21
426.04597678156563
 31
0.0
  0
LINE
  5
E3
  8
DATA
  6
CONTINUOUS
 62
     7
 10
227.0
 20
425.58295391468209
 30
0.0
 11
242.0
 21
429.04597678156563
 31
0.0
  0
LINE
  5
E4
  8
DATA
  6
CONTINUOUS
 62
     7
 10
227.0
 20
427.58295391468209
 30
0.0
 11
242.0
 21
431.04597678156563
 31
0.0
  0
LINE
  5
E5
  8
DATA
  6
CONTINUOUS
 62
     7
 10
227.0
 20
430.58295391468209
 30
0.0
 11
242.0
 21
434.04597678156563
 31
0.0
  0
LINE
  5
E6
  8
DATA
  6
CONTINUOUS
 62
     7
 10
227.0
 20
432.58295391468221
 30
0.0
 11
242.0
 21
436.04597678156563
 31
0.0
  0
LINE
  5
E7
  8
DATA
  6
CONTINUOUS
 62
     7
 10
227.0
 20
435.58295391468209
 30
0.0
 11
242.0
 21
439.04597678156563
 31
0.0
  0
LINE
  5
E8
  8
DATA
  6
CONTINUOUS
 62
     7
 10
227.0
 20
440.58295391468209
 30
0.0
 11
242.0
 21
444.04597678156563
 31
0.0
  0
LINE
  5
E9
  8
DATA
  6
CONTINUOUS
 62
     7
 10
227.0
 20
437.58295391468198
 30
0.0
 11
242.0
 21
441.04597678156563
 31
0.0
  0
LINE
  5
EA
  8
DATA
  6
CONTINUOUS
 62
     7
 10
227.0
 20
442.58295391468198
 30
0.0
 11
242.0
 21
446.04597678156563
 31
0.0
  0
LINE
  5
EB
  8
DATA
  6
CONTINUOUS
 62
     7
 10
227.0
 20
445.58295391468209
 30
0.0
 11
242.0
 21
449.04597678156563
 31
0.0
  0
LINE
  5
EC
  8
DATA
  6
CONTINUOUS
 62
     7
 10
227.0
 20
447.58295391468209
 30
0.0
 11
242.0
 21
451.04597678156563
 31
0.0
  0
LINE
  5
ED
  8
DATA
  6
CONTINUOUS
 62
     7
 10
227.0
 20
450.58295391468198
 30
0.0
 11
242.0
 21
454.04597678156563
 31
0.0
  0
LINE
  5
EE
  8
DATA
  6
CONTINUOUS
 62
     7
 10
227.0
 20
452.58295391468209
 30
0.0
 11
242.0
 21
456.04597678156563
 31
0.0
  0
LINE
  5
EF
  8
DATA
  6
CONTINUOUS
 62
     7
 10
227.0
 20
455.58295391468198
 30
0.0
 11
242.0
 21
459.04597678156563
 31
0.0
  0
LINE
  5
F0
  8
DATA
  6
CONTINUOUS
 62
     7
 10
227.0
 20
457.58295391468221
 30
0.0
 11
242.0
 21
461.04597678156563
 31
0.0
  0
LINE
  5
F1
  8
DATA
  6
CONTINUOUS
 62
     7
 10
227.0
 20
460.58295391468209
 30
0.0
 11
242.0
 21
464.04597678156563
 31
0.0
  0
LINE
  5
F2
  8
DATA
  6
CONTINUOUS
 62
     7
 10
227.0
 20
462.58295391468209
 30
0.0
 11
242.0
 21
466.04597678156563
 31
0.0
  0
LINE
  5
F3
  8
DATA
  6
CONTINUOUS
 62
     7
 10
227.0
 20
465.58295391468209
 30
0.0
 11
242.0
 21
469.04597678156563
 31
0.0
  0
LINE
  5
F4
  8
DATA
  6
CONTINUOUS
 62
     7
 10
227.0
 20
467.58295391468209
 30
0.0
 11
242.0
 21
471.04597678156563
 31
0.0
  0
LINE
  5
F5
  8
DATA
  6
CONTINUOUS
 62
     7
 10
227.0
 20
470.58295391468209
 30
0.0
 11
242.0
 21
474.04597678156563
 31
0.0
  0
LINE
  5
F6
  8
DATA
  6
CONTINUOUS
 62
     7
 10
227.0
 20
472.58295391468209
 30
0.0
 11
242.0
 21
476.04597678156563
 31
0.0
  0
LINE
  5
F7
  8
DATA
  6
CONTINUOUS
 62
     7
 10
227.0
 20
475.58295391468209
 30
0.0
 11
242.0
 21
479.04597678156563
 31
0.0
  0
LINE
  5
F8
  8
DATA
  6
CONTINUOUS
 62
     7
 10
227.0
 20
477.58295391468209
 30
0.0
 11
242.0
 21
481.04597678156563
 31
0.0
  0
LINE
  5
F9
  8
DATA
  6
CONTINUOUS
 62
     7
 10
227.0
 20
480.58295391468209
 30
0.0
 11
242.0
 21
484.04597678156563
 31
0.0
  0
LINE
  5
FA
  8
DATA
  6
CONTINUOUS
 62
     7
 10
227.0
 20
482.58295391468221
 30
0.0
 11
242.0
 21
486.04597678156563
 31
0.0
  0
LINE
  5
FB
  8
DATA
  6
CONTINUOUS
 62
     7
 10
227.0
 20
485.58295391468209
 30
0.0
 11
242.0
 21
489.04597678156563
 31
0.0
  0
LINE
  5
FC
  8
DATA
  6
CONTINUOUS
 62
     7
 10
227.0
 20
487.58295391468209
 30
0.0
 11
242.0
 21
491.04597678156563
 31
0.0
  0
LINE
  5
FD
  8
DATA
  6
CONTINUOUS
 62
     7
 10
227.0
 20
490.58295391468209
 30
0.0
 11
242.0
 21
494.04597678156563
 31
0.0
  0
LINE
  5
FE
  8
DATA
  6
CONTINUOUS
 62
     7
 10
227.0
 20
492.58295391468209
 30
0.0
 11
242.0
 21
496.04597678156563
 31
0.0
  0
LINE
  5
FF
  8
DATA
  6
CONTINUOUS
 62
     7
 10
227.0
 20
495.58295391468209
 30
0.0
 11
241.8008526798713
 21
499.0
 31
0.0
  0
LINE
  5
100
  8
DATA
  6
CONTINUOUS
 62
     7
 10
227.0
 20
260.55015752561758
 30
0.0
 11
242.0
 21
264.01904188581489
 31
0.0
  0
LINE
  5
101
  8
DATA
  6
CONTINUOUS
 62
     7
 10
227.0
 20
257.55015752561758
 30
0.0
 11
242.0
 21
261.01904188581489
 31
0.0
  0
LINE
  5
102
  8
DATA
  6
CONTINUOUS
 62
     7
 10
227.0
 20
255.55015752561761
 30
0.0
 11
242.0
 21
259.01904188581489
 31
0.0
  0
LINE
  5
103
  8
DATA
  6
CONTINUOUS
 62
     7
 10
237.5935030689939
 20
255.0
 30
0.0
 11
242.0
 21
256.01904188581489
 31
0.0
  0
LINE
  5
104
  8
DATA
  6
CONTINUOUS
 62
     7
 10
227.0
 20
495.40869765282878
 30
0.0
 11
227.0
 21
495.84985117902039
 31
0.0
  0
LINE
  5
105
  8
DATA
  6
CONTINUOUS
 62
     7
 10
242.0
 20
495.40869765282878
 30
0.0
 11
242.0
 21
495.84985117902039
 31
0.0
  0
LINE
  5
106
  8
DATA
  6
CONTINUOUS
 62
     7
 10
241.8008526798713
 20
495.40869765282878
 30
0.0
 11
242.0
 21
495.45467443439452
 31
0.0
  0
TEXT
  5
107
  8
DATA
 62
     7
 10
126.4305941578716
 20
188.40917074870089
 30
0.0
 40
8.1442057291666661
  1
5/8インチネジ
 41
0.7
 11
126.4305941578716
 21
196.55337647786749
 31
0.0
 73
     3
  0
LINE
  5
108
  8
DATA
  6
CONTINUOUS
 62
     7
 10
199.5
 20
185.68638144213611
 30
0.0
 11
123.5
 21
185.68638144213611
 31
0.0
  0
LINE
  5
109
  8
DATA
  6
CONTINUOUS
 62
     7
 10
225.0
 20
225.0
 30
0.0
 11
244.0
 21
225.0
 31
0.0
  0
LINE
  5
10A
  8
DATA
  6
CONTINUOUS
 62
     7
 10
225.0
 20
241.0
 30
0.0
 11
244.0
 21
241.0
 31
0.0
  0
LINE
  5
10B
  8
DATA
  6
CONTINUOUS
 62
     7
 10
225.0
 20
225.0
 30
0.0
 11
225.0
 21
241.0
 31
0.0
  0
LINE
  5
10C
  8
DATA
  6
CONTINUOUS
 62
     7
 10
244.0
 20
225.0
 30
0.0
 11
244.0
 21
241.0
 31
0.0
  0
LINE
  5
10D
  8
DATA
  6
CONTINUOUS
 62
     7
 10
225.75
 20
247.0
 30
0.0
 11
243.25
 21
247.0
 31
0.0
  0
LINE
  5
10E
  8
DATA
  6
CONTINUOUS
 62
     7
 10
225.75
 20
241.0
 30
0.0
 11
225.75
 21
255.0
 31
0.0
  0
LINE
  5
10F
  8
DATA
  6
CONTINUOUS
 62
     7
 10
243.25
 20
241.0
 30
0.0
 11
243.25
 21
255.0
 31
0.0
  0
LINE
  5
110
  8
DATA
  6
CONTINUOUS
 62
     7
 10
225.75
 20
255.0
 30
0.0
 11
243.25
 21
255.0
 31
0.0
  0
LINE
  5
111
  8
DATA
  6
CONTINUOUS
 62
     7
 10
227.0
 20
497.56395811818368
 30
0.0
 11
242.0
 21
501.0269809850671
 31
0.0
  0
LINE
  5
112
  8
DATA
  6
CONTINUOUS
 62
     7
 10
227.0
 20
500.56395811818368
 30
0.0
 11
242.0
 21
504.02698098506721
 31
0.0
  0
LINE
  5
113
  8
DATA
  6
CONTINUOUS
 62
     7
 10
227.0
 20
502.56395811818362
 30
0.0
 11
242.0
 21
506.02698098506721
 31
0.0
  0
LINE
  5
114
  8
DATA
  6
CONTINUOUS
 62
     7
 10
227.0
 20
505.56395811818368
 30
0.0
 11
242.0
 21
509.02698098506721
 31
0.0
  0
LINE
  5
115
  8
DATA
  6
CONTINUOUS
 62
     7
 10
227.0
 20
507.56395811818362
 30
0.0
 11
242.0
 21
511.02698098506721
 31
0.0
  0
LINE
  5
116
  8
DATA
  6
CONTINUOUS
 62
     7
 10
227.0
 20
510.56395811818362
 30
0.0
 11
242.0
 21
514.0269809850671
 31
0.0
  0
LINE
  5
117
  8
DATA
  6
CONTINUOUS
 62
     7
 10
227.0
 20
512.56395811818356
 30
0.0
 11
242.0
 21
516.02698098506721
 31
0.0
  0
LINE
  5
118
  8
DATA
  6
CONTINUOUS
 62
     7
 10
227.0
 20
515.56395811818356
 30
0.0
 11
242.0
 21
519.02698098506721
 31
0.0
  0
LINE
  5
119
  8
DATA
  6
CONTINUOUS
 62
     7
 10
227.0
 20
517.56395811818368
 30
0.0
 11
242.0
 21
521.02698098506721
 31
0.0
  0
LINE
  5
11A
  8
DATA
  6
CONTINUOUS
 62
     7
 10
227.0
 20
520.56395811818356
 30
0.0
 11
242.0
 21
524.02698098506721
 31
0.0
  0
LINE
  5
11B
  8
DATA
  6
CONTINUOUS
 62
     7
 10
227.0
 20
522.56395811818368
 30
0.0
 11
242.0
 21
526.0269809850671
 31
0.0
  0
LINE
  5
11C
  8
DATA
  6
CONTINUOUS
 62
     7
 10
227.0
 20
525.56395811818368
 30
0.0
 11
242.0
 21
529.02698098506721
 31
0.0
  0
LINE
  5
11D
  8
DATA
  6
CONTINUOUS
 62
     7
 10
227.0
 20
527.56395811818356
 30
0.0
 11
237.55165663983311
 21
530.0
 31
0.0
  0
LINE
  5
11E
  8
DATA
  6
CONTINUOUS
 62
     7
 10
227.0
 20
499.0
 30
0.0
 11
227.0
 21
530.0
 31
0.0
  0
LINE
  5
11F
  8
DATA
  6
CONTINUOUS
 62
     7
 10
242.0
 20
499.0
 30
0.0
 11
242.0
 21
530.0
 31
0.0
  0
LINE
  5
120
  8
DATA
  6
CONTINUOUS
 62
     7
 10
226.5
 20
559.0
 30
0.0
 11
242.5
 21
559.0
 31
0.0
  0
LINE
  5
121
  8
DATA
  6
CONTINUOUS
 62
     7
 10
226.5
 20
549.0
 30
0.0
 11
242.5
 21
549.0
 31
0.0
  0
LINE
  5
122
  8
DATA
  6
CONTINUOUS
 62
     7
 10
226.5
 20
559.0
 30
0.0
 11
226.5
 21
549.0
 31
0.0
  0
LINE
  5
123
  8
DATA
  6
CONTINUOUS
 62
     7
 10
242.5
 20
559.0
 30
0.0
 11
242.5
 21
549.0
 31
0.0
  0
LINE
  5
124
  8
DATA
  6
CONTINUOUS
 62
     7
 10
226.5
 20
549.0
 30
0.0
 11
225.5
 21
546.0
 31
0.0
  0
LINE
  5
125
  8
DATA
  6
CONTINUOUS
 62
     7
 10
242.5
 20
549.0
 30
0.0
 11
243.5
 21
546.0
 31
0.0
  0
LINE
  5
126
  8
DATA
  6
CONTINUOUS
 62
     7
 10
243.0
 20
530.0
 30
0.0
 11
226.0
 21
530.0
 31
0.0
  0
LINE
  5
127
  8
DATA
  6
CONTINUOUS
 62
     7
 10
225.5
 20
546.0
 30
0.0
 11
243.5
 21
546.0
 31
0.0
  0
LINE
  5
128
  8
DATA
  6
CONTINUOUS
 62
     7
 10
226.5
 20
558.56426644800467
 30
0.0
 11
231.1428161229847
 21
559.0
 31
0.0
  0
LINE
  5
129
  8
DATA
  6
CONTINUOUS
 62
     7
 10
226.5
 20
557.56426644800479
 30
0.0
 11
241.79798853677801
 21
559.0
 31
0.0
  0
LINE
  5
12A
  8
DATA
  6
CONTINUOUS
 62
     7
 10
226.5
 20
556.56426644800479
 30
0.0
 11
242.5
 21
558.06588457098201
 31
0.0
  0
LINE
  5
12B
  8
DATA
  6
CONTINUOUS
 62
     7
 10
226.5
 20
555.56426644800467
 30
0.0
 11
242.5
 21
557.06588457098201
 31
0.0
  0
LINE
  5
12C
  8
DATA
  6
CONTINUOUS
 62
     7
 10
226.5
 20
554.56426644800467
 30
0.0
 11
242.5
 21
556.06588457098201
 31
0.0
  0
LINE
  5
12D
  8
DATA
  6
CONTINUOUS
 62
     7
 10
226.5
 20
553.56426644800479
 30
0.0
 11
242.5
 21
555.06588457098189
 31
0.0
  0
LINE
  5
12E
  8
DATA
  6
CONTINUOUS
 62
     7
 10
226.5
 20
552.56426644800479
 30
0.0
 11
242.5
 21
554.06588457098201
 31
0.0
  0
LINE
  5
12F
  8
DATA
  6
CONTINUOUS
 62
     7
 10
226.5
 20
551.56426644800467
 30
0.0
 11
242.5
 21
553.06588457098201
 31
0.0
  0
LINE
  5
130
  8
DATA
  6
CONTINUOUS
 62
     7
 10
226.5
 20
550.56426644800467
 30
0.0
 11
242.5
 21
552.06588457098201
 31
0.0
  0
LINE
  5
131
  8
DATA
  6
CONTINUOUS
 62
     7
 10
226.5
 20
549.56426644800479
 30
0.0
 11
242.5
 21
551.06588457098189
 31
0.0
  0
LINE
  5
132
  8
DATA
  6
CONTINUOUS
 62
     7
 10
231.1428161229847
 20
549.0
 30
0.0
 11
242.5
 21
550.06588457098189
 31
0.0
  0
LINE
  5
133
  8
DATA
  6
CONTINUOUS
 62
     7
 10
327.0
 20
255.0
 30
0.0
 11
327.0
 21
499.0
 31
0.0
  0
LINE
  5
134
  8
DATA
  6
CONTINUOUS
 62
     7
 10
342.0
 20
255.0
 30
0.0
 11
342.0
 21
499.0
 31
0.0
  0
LINE
  5
135
  8
DATA
  6
CONTINUOUS
 62
     7
 10
327.0
 20
262.58295391468209
 30
0.0
 11
342.0
 21
266.04597678156563
 31
0.0
  0
LINE
  5
136
  8
DATA
  6
CONTINUOUS
 62
     7
 10
327.0
 20
265.58295391468209
 30
0.0
 11
342.0
 21
269.04597678156563
 31
0.0
  0
LINE
  5
137
  8
DATA
  6
CONTINUOUS
 62
     7
 10
327.0
 20
267.58295391468209
 30
0.0
 11
342.0
 21
271.04597678156563
 31
0.0
  0
LINE
  5
138
  8
DATA
  6
CONTINUOUS
 62
     7
 10
327.0
 20
270.58295391468209
 30
0.0
 11
342.0
 21
274.04597678156563
 31
0.0
  0
LINE
  5
139
  8
DATA
  6
CONTINUOUS
 62
     7
 10
327.0
 20
272.58295391468209
 30
0.0
 11
342.0
 21
276.04597678156563
 31
0.0
  0
LINE
  5
13A
  8
DATA
  6
CONTINUOUS
 62
     7
 10
327.0
 20
275.58295391468209
 30
0.0
 11
342.0
 21
279.04597678156563
 31
0.0
  0
LINE
  5
13B
  8
DATA
  6
CONTINUOUS
 62
     7
 10
327.0
 20
277.58295391468209
 30
0.0
 11
342.0
 21
281.04597678156563
 31
0.0
  0
LINE
  5
13C
  8
DATA
  6
CONTINUOUS
 62
     7
 10
327.0
 20
280.58295391468209
 30
0.0
 11
342.0
 21
284.04597678156563
 31
0.0
  0
LINE
  5
13D
  8
DATA
  6
CONTINUOUS
 62
     7
 10
327.0
 20
282.58295391468198
 30
0.0
 11
342.0
 21
286.04597678156563
 31
0.0
  0
LINE
  5
13E
  8
DATA
  6
CONTINUOUS
 62
     7
 10
327.0
 20
285.58295391468209
 30
0.0
 11
342.0
 21
289.04597678156563
 31
0.0
  0
LINE
  5
13F
  8
DATA
  6
CONTINUOUS
 62
     7
 10
327.0
 20
287.58295391468198
 30
0.0
 11
342.0
 21
291.04597678156563
 31
0.0
  0
LINE
  5
140
  8
DATA
  6
CONTINUOUS
 62
     7
 10
327.0
 20
290.58295391468209
 30
0.0
 11
342.0
 21
294.04597678156563
 31
0.0
  0
LINE
  5
141
  8
DATA
  6
CONTINUOUS
 62
     7
 10
327.0
 20
292.58295391468209
 30
0.0
 11
342.0
 21
296.04597678156563
 31
0.0
  0
LINE
  5
142
  8
DATA
  6
CONTINUOUS
 62
     7
 10
327.0
 20
295.58295391468209
 30
0.0
 11
342.0
 21
299.04597678156563
 31
0.0
  0
LINE
  5
143
  8
DATA
  6
CONTINUOUS
 62
     7
 10
327.0
 20
297.58295391468209
 30
0.0
 11
342.0
 21
301.04597678156563
 31
0.0
  0
LINE
  5
144
  8
DATA
  6
CONTINUOUS
 62
     7
 10
327.0
 20
300.58295391468209
 30
0.0
 11
342.0
 21
304.04597678156563
 31
0.0
  0
LINE
  5
145
  8
DATA
  6
CONTINUOUS
 62
     7
 10
327.0
 20
302.58295391468209
 30
0.0
 11
342.0
 21
306.04597678156563
 31
0.0
  0
LINE
  5
146
  8
DATA
  6
CONTINUOUS
 62
     7
 10
327.0
 20
305.58295391468209
 30
0.0
 11
342.0
 21
309.04597678156563
 31
0.0
  0
LINE
  5
147
  8
DATA
  6
CONTINUOUS
 62
     7
 10
327.0
 20
307.58295391468209
 30
0.0
 11
342.0
 21
311.04597678156563
 31
0.0
  0
LINE
  5
148
  8
DATA
  6
CONTINUOUS
 62
     7
 10
327.0
 20
310.58295391468209
 30
0.0
 11
342.0
 21
314.04597678156563
 31
0.0
  0
LINE
  5
149
  8
DATA
  6
CONTINUOUS
 62
     7
 10
327.0
 20
312.58295391468209
 30
0.0
 11
342.0
 21
316.04597678156563
 31
0.0
  0
LINE
  5
14A
  8
DATA
  6
CONTINUOUS
 62
     7
 10
327.0
 20
315.58295391468209
 30
0.0
 11
342.0
 21
319.04597678156563
 31
0.0
  0
LINE
  5
14B
  8
DATA
  6
CONTINUOUS
 62
     7
 10
327.0
 20
317.58295391468209
 30
0.0
 11
342.0
 21
321.04597678156568
 31
0.0
  0
LINE
  5
14C
  8
DATA
  6
CONTINUOUS
 62
     7
 10
327.0
 20
320.58295391468209
 30
0.0
 11
342.0
 21
324.04597678156563
 31
0.0
  0
LINE
  5
14D
  8
DATA
  6
CONTINUOUS
 62
     7
 10
327.0
 20
322.58295391468209
 30
0.0
 11
342.0
 21
326.04597678156563
 31
0.0
  0
LINE
  5
14E
  8
DATA
  6
CONTINUOUS
 62
     7
 10
327.0
 20
325.58295391468209
 30
0.0
 11
342.0
 21
329.04597678156563
 31
0.0
  0
LINE
  5
14F
  8
DATA
  6
CONTINUOUS
 62
     7
 10
327.0
 20
327.58295391468209
 30
0.0
 11
342.0
 21
331.04597678156563
 31
0.0
  0
LINE
  5
150
  8
DATA
  6
CONTINUOUS
 62
     7
 10
327.0
 20
330.58295391468209
 30
0.0
 11
342.0
 21
334.04597678156563
 31
0.0
  0
LINE
  5
151
  8
DATA
  6
CONTINUOUS
 62
     7
 10
327.0
 20
332.58295391468209
 30
0.0
 11
342.0
 21
336.04597678156563
 31
0.0
  0
LINE
  5
152
  8
DATA
  6
CONTINUOUS
 62
     7
 10
327.0
 20
335.58295391468209
 30
0.0
 11
342.0
 21
339.04597678156563
 31
0.0
  0
LINE
  5
153
  8
DATA
  6
CONTINUOUS
 62
     7
 10
327.0
 20
337.58295391468209
 30
0.0
 11
342.0
 21
341.04597678156563
 31
0.0
  0
LINE
  5
154
  8
DATA
  6
CONTINUOUS
 62
     7
 10
327.0
 20
340.58295391468209
 30
0.0
 11
342.0
 21
344.04597678156563
 31
0.0
  0
LINE
  5
155
  8
DATA
  6
CONTINUOUS
 62
     7
 10
327.0
 20
342.58295391468209
 30
0.0
 11
342.0
 21
346.04597678156568
 31
0.0
  0
LINE
  5
156
  8
DATA
  6
CONTINUOUS
 62
     7
 10
327.0
 20
345.58295391468209
 30
0.0
 11
342.0
 21
349.04597678156563
 31
0.0
  0
LINE
  5
157
  8
DATA
  6
CONTINUOUS
 62
     7
 10
327.0
 20
347.58295391468209
 30
0.0
 11
342.0
 21
351.04597678156563
 31
0.0
  0
LINE
  5
158
  8
DATA
  6
CONTINUOUS
 62
     7
 10
327.0
 20
350.58295391468221
 30
0.0
 11
342.0
 21
354.04597678156563
 31
0.0
  0
LINE
  5
159
  8
DATA
  6
CONTINUOUS
 62
     7
 10
327.0
 20
352.58295391468221
 30
0.0
 11
342.0
 21
356.04597678156563
 31
0.0
  0
LINE
  5
15A
  8
DATA
  6
CONTINUOUS
 62
     7
 10
327.0
 20
355.58295391468209
 30
0.0
 11
342.0
 21
359.04597678156563
 31
0.0
  0
LINE
  5
15B
  8
DATA
  6
CONTINUOUS
 62
     7
 10
327.0
 20
357.58295391468209
 30
0.0
 11
342.0
 21
361.04597678156563
 31
0.0
  0
LINE
  5
15C
  8
DATA
  6
CONTINUOUS
 62
     7
 10
327.0
 20
360.58295391468209
 30
0.0
 11
342.0
 21
364.04597678156563
 31
0.0
  0
LINE
  5
15D
  8
DATA
  6
CONTINUOUS
 62
     7
 10
327.0
 20
362.58295391468209
 30
0.0
 11
342.0
 21
366.04597678156563
 31
0.0
  0
LINE
  5
15E
  8
DATA
  6
CONTINUOUS
 62
     7
 10
327.0
 20
365.58295391468209
 30
0.0
 11
342.0
 21
369.04597678156563
 31
0.0
  0
LINE
  5
15F
  8
DATA
  6
CONTINUOUS
 62
     7
 10
327.0
 20
370.58295391468209
 30
0.0
 11
342.0
 21
374.04597678156563
 31
0.0
  0
LINE
  5
160
  8
DATA
  6
CONTINUOUS
 62
     7
 10
327.0
 20
367.58295391468209
 30
0.0
 11
342.0
 21
371.04597678156568
 31
0.0
  0
LINE
  5
161
  8
DATA
  6
CONTINUOUS
 62
     7
 10
327.0
 20
372.58295391468209
 30
0.0
 11
342.0
 21
376.04597678156563
 31
0.0
  0
LINE
  5
162
  8
DATA
  6
CONTINUOUS
 62
     7
 10
327.0
 20
375.58295391468209
 30
0.0
 11
342.0
 21
379.04597678156563
 31
0.0
  0
LINE
  5
163
  8
DATA
  6
CONTINUOUS
 62
     7
 10
327.0
 20
377.58295391468209
 30
0.0
 11
342.0
 21
381.04597678156563
 31
0.0
  0
LINE
  5
164
  8
DATA
  6
CONTINUOUS
 62
     7
 10
327.0
 20
380.58295391468209
 30
0.0
 11
342.0
 21
384.04597678156563
 31
0.0
  0
LINE
  5
165
  8
DATA
  6
CONTINUOUS
 62
     7
 10
327.0
 20
382.58295391468209
 30
0.0
 11
342.0
 21
386.04597678156563
 31
0.0
  0
LINE
  5
166
  8
DATA
  6
CONTINUOUS
 62
     7
 10
327.0
 20
385.58295391468209
 30
0.0
 11
342.0
 21
389.04597678156563
 31
0.0
  0
LINE
  5
167
  8
DATA
  6
CONTINUOUS
 62
     7
 10
327.0
 20
387.58295391468209
 30
0.0
 11
342.0
 21
391.04597678156563
 31
0.0
  0
LINE
  5
168
  8
DATA
  6
CONTINUOUS
 62
     7
 10
327.0
 20
390.58295391468209
 30
0.0
 11
342.0
 21
394.04597678156563
 31
0.0
  0
LINE
  5
169
  8
DATA
  6
CONTINUOUS
 62
     7
 10
327.0
 20
392.58295391468209
 30
0.0
 11
342.0
 21
396.04597678156563
 31
0.0
  0
LINE
  5
16A
  8
DATA
  6
CONTINUOUS
 62
     7
 10
327.0
 20
395.58295391468209
 30
0.0
 11
342.0
 21
399.04597678156563
 31
0.0
  0
LINE
  5
16B
  8
DATA
  6
CONTINUOUS
 62
     7
 10
327.0
 20
397.58295391468209
 30
0.0
 11
342.0
 21
401.04597678156563
 31
0.0
  0
LINE
  5
16C
  8
DATA
  6
CONTINUOUS
 62
     7
 10
327.0
 20
400.58295391468198
 30
0.0
 11
342.0
 21
404.04597678156563
 31
0.0
  0
LINE
  5
16D
  8
DATA
  6
CONTINUOUS
 62
     7
 10
327.0
 20
402.58295391468209
 30
0.0
 11
342.0
 21
406.04597678156563
 31
0.0
  0
LINE
  5
16E
  8
DATA
  6
CONTINUOUS
 62
     7
 10
327.0
 20
405.58295391468209
 30
0.0
 11
342.0
 21
409.04597678156563
 31
0.0
  0
LINE
  5
16F
  8
DATA
  6
CONTINUOUS
 62
     7
 10
327.0
 20
407.58295391468221
 30
0.0
 11
342.0
 21
411.04597678156563
 31
0.0
  0
LINE
  5
170
  8
DATA
  6
CONTINUOUS
 62
     7
 10
327.0
 20
410.58295391468209
 30
0.0
 11
342.0
 21
414.04597678156563
 31
0.0
  0
LINE
  5
171
  8
DATA
  6
CONTINUOUS
 62
     7
 10
327.0
 20
412.58295391468209
 30
0.0
 11
342.0
 21
416.04597678156563
 31
0.0
  0
LINE
  5
172
  8
DATA
  6
CONTINUOUS
 62
     7
 10
327.0
 20
415.58295391468209
 30
0.0
 11
342.0
 21
419.04597678156563
 31
0.0
  0
LINE
  5
173
  8
DATA
  6
CONTINUOUS
 62
     7
 10
327.0
 20
417.58295391468209
 30
0.0
 11
342.0
 21
421.04597678156563
 31
0.0
  0
LINE
  5
174
  8
DATA
  6
CONTINUOUS
 62
     7
 10
327.0
 20
420.58295391468209
 30
0.0
 11
342.0
 21
424.04597678156551
 31
0.0
  0
LINE
  5
175
  8
DATA
  6
CONTINUOUS
 62
     7
 10
327.0
 20
422.58295391468209
 30
0.0
 11
342.0
 21
426.04597678156563
 31
0.0
  0
LINE
  5
176
  8
DATA
  6
CONTINUOUS
 62
     7
 10
327.0
 20
425.58295391468209
 30
0.0
 11
342.0
 21
429.04597678156563
 31
0.0
  0
LINE
  5
177
  8
DATA
  6
CONTINUOUS
 62
     7
 10
327.0
 20
427.58295391468209
 30
0.0
 11
342.0
 21
431.04597678156563
 31
0.0
  0
LINE
  5
178
  8
DATA
  6
CONTINUOUS
 62
     7
 10
327.0
 20
430.58295391468209
 30
0.0
 11
342.0
 21
434.04597678156563
 31
0.0
  0
LINE
  5
179
  8
DATA
  6
CONTINUOUS
 62
     7
 10
327.0
 20
432.58295391468221
 30
0.0
 11
342.0
 21
436.04597678156563
 31
0.0
  0
LINE
  5
17A
  8
DATA
  6
CONTINUOUS
 62
     7
 10
327.0
 20
435.58295391468209
 30
0.0
 11
342.0
 21
439.04597678156563
 31
0.0
  0
LINE
  5
17B
  8
DATA
  6
CONTINUOUS
 62
     7
 10
327.0
 20
440.58295391468209
 30
0.0
 11
342.0
 21
444.04597678156563
 31
0.0
  0
LINE
  5
17C
  8
DATA
  6
CONTINUOUS
 62
     7
 10
327.0
 20
437.58295391468198
 30
0.0
 11
342.0
 21
441.04597678156563
 31
0.0
  0
LINE
  5
17D
  8
DATA
  6
CONTINUOUS
 62
     7
 10
327.0
 20
442.58295391468198
 30
0.0
 11
342.0
 21
446.04597678156563
 31
0.0
  0
LINE
  5
17E
  8
DATA
  6
CONTINUOUS
 62
     7
 10
327.0
 20
445.58295391468209
 30
0.0
 11
342.0
 21
449.04597678156563
 31
0.0
  0
LINE
  5
17F
  8
DATA
  6
CONTINUOUS
 62
     7
 10
327.0
 20
447.58295391468209
 30
0.0
 11
342.0
 21
451.04597678156563
 31
0.0
  0
LINE
  5
180
  8
DATA
  6
CONTINUOUS
 62
     7
 10
327.0
 20
450.58295391468198
 30
0.0
 11
342.0
 21
454.04597678156563
 31
0.0
  0
LINE
  5
181
  8
DATA
  6
CONTINUOUS
 62
     7
 10
327.0
 20
452.58295391468209
 30
0.0
 11
342.0
 21
456.04597678156563
 31
0.0
  0
LINE
  5
182
  8
DATA
  6
CONTINUOUS
 62
     7
 10
327.0
 20
455.58295391468198
 30
0.0
 11
342.0
 21
459.04597678156563
 31
0.0
  0
LINE
  5
183
  8
DATA
  6
CONTINUOUS
 62
     7
 10
327.0
 20
457.58295391468221
 30
0.0
 11
342.0
 21
461.04597678156563
 31
0.0
  0
LINE
  5
184
  8
DATA
  6
CONTINUOUS
 62
     7
 10
327.0
 20
460.58295391468209
 30
0.0
 11
342.0
 21
464.04597678156563
 31
0.0
  0
LINE
  5
185
  8
DATA
  6
CONTINUOUS
 62
     7
 10
327.0
 20
462.58295391468209
 30
0.0
 11
342.0
 21
466.04597678156563
 31
0.0
  0
LINE
  5
186
  8
DATA
  6
CONTINUOUS
 62
     7
 10
327.0
 20
465.58295391468209
 30
0.0
 11
342.0
 21
469.04597678156563
 31
0.0
  0
LINE
  5
187
  8
DATA
  6
CONTINUOUS
 62
     7
 10
327.0
 20
467.58295391468209
 30
0.0
 11
342.0
 21
471.04597678156563
 31
0.0
  0
LINE
  5
188
  8
DATA
  6
CONTINUOUS
 62
     7
 10
327.0
 20
470.58295391468209
 30
0.0
 11
342.0
 21
474.04597678156563
 31
0.0
  0
LINE
  5
189
  8
DATA
  6
CONTINUOUS
 62
     7
 10
327.0
 20
472.58295391468209
 30
0.0
 11
342.0
 21
476.04597678156563
 31
0.0
  0
LINE
  5
18A
  8
DATA
  6
CONTINUOUS
 62
     7
 10
327.0
 20
475.58295391468209
 30
0.0
 11
342.0
 21
479.04597678156563
 31
0.0
  0
LINE
  5
18B
  8
DATA
  6
CONTINUOUS
 62
     7
 10
327.0
 20
477.58295391468209
 30
0.0
 11
342.0
 21
481.04597678156563
 31
0.0
  0
LINE
  5
18C
  8
DATA
  6
CONTINUOUS
 62
     7
 10
327.0
 20
480.58295391468209
 30
0.0
 11
342.0
 21
484.04597678156563
 31
0.0
  0
LINE
  5
18D
  8
DATA
  6
CONTINUOUS
 62
     7
 10
327.0
 20
482.58295391468221
 30
0.0
 11
342.0
 21
486.04597678156563
 31
0.0
  0
LINE
  5
18E
  8
DATA
  6
CONTINUOUS
 62
     7
 10
327.0
 20
485.58295391468209
 30
0.0
 11
342.0
 21
489.04597678156563
 31
0.0
  0
LINE
  5
18F
  8
DATA
  6
CONTINUOUS
 62
     7
 10
327.0
 20
487.58295391468209
 30
0.0
 11
342.0
 21
491.04597678156563
 31
0.0
  0
LINE
  5
190
  8
DATA
  6
CONTINUOUS
 62
     7
 10
327.0
 20
490.58295391468209
 30
0.0
 11
342.0
 21
494.04597678156563
 31
0.0
  0
LINE
  5
191
  8
DATA
  6
CONTINUOUS
 62
     7
 10
327.0
 20
492.58295391468209
 30
0.0
 11
342.0
 21
496.04597678156563
 31
0.0
  0
LINE
  5
192
  8
DATA
  6
CONTINUOUS
 62
     7
 10
327.0
 20
495.58295391468209
 30
0.0
 11
341.8008526798713
 21
499.0
 31
0.0
  0
LINE
  5
193
  8
DATA
  6
CONTINUOUS
 62
     7
 10
327.0
 20
260.55015752561758
 30
0.0
 11
342.0
 21
264.01904188581489
 31
0.0
  0
LINE
  5
194
  8
DATA
  6
CONTINUOUS
 62
     7
 10
327.0
 20
257.55015752561758
 30
0.0
 11
342.0
 21
261.01904188581489
 31
0.0
  0
LINE
  5
195
  8
DATA
  6
CONTINUOUS
 62
     7
 10
327.0
 20
255.55015752561761
 30
0.0
 11
342.0
 21
259.01904188581489
 31
0.0
  0
LINE
  5
196
  8
DATA
  6
CONTINUOUS
 62
     7
 10
337.59350306899393
 20
255.0
 30
0.0
 11
342.0
 21
256.01904188581489
 31
0.0
  0
LINE
  5
197
  8
DATA
  6
CONTINUOUS
 62
     7
 10
327.0
 20
495.40869765282878
 30
0.0
 11
327.0
 21
495.84985117902039
 31
0.0
  0
LINE
  5
198
  8
DATA
  6
CONTINUOUS
 62
     7
 10
342.0
 20
495.40869765282878
 30
0.0
 11
342.0
 21
495.84985117902039
 31
0.0
  0
LINE
  5
199
  8
DATA
  6
CONTINUOUS
 62
     7
 10
341.8008526798713
 20
495.40869765282878
 30
0.0
 11
342.0
 21
495.45467443439452
 31
0.0
  0
LINE
  5
19A
  8
DATA
  6
CONTINUOUS
 62
     7
 10
325.0
 20
225.0
 30
0.0
 11
344.0
 21
225.0
 31
0.0
  0
LINE
  5
19B
  8
DATA
  6
CONTINUOUS
 62
     7
 10
325.0
 20
241.0
 30
0.0
 11
344.0
 21
241.0
 31
0.0
  0
LINE
  5
19C
  8
DATA
  6
CONTINUOUS
 62
     7
 10
325.0
 20
225.0
 30
0.0
 11
325.0
 21
241.0
 31
0.0
  0
LINE
  5
19D
  8
DATA
  6
CONTINUOUS
 62
     7
 10
344.0
 20
225.0
 30
0.0
 11
344.0
 21
241.0
 31
0.0
  0
LINE
  5
19E
  8
DATA
  6
CONTINUOUS
 62
     7
 10
325.75
 20
247.0
 30
0.0
 11
343.25
 21
247.0
 31
0.0
  0
LINE
  5
19F
  8
DATA
  6
CONTINUOUS
 62
     7
 10
325.75
 20
241.0
 30
0.0
 11
325.75
 21
255.0
 31
0.0
  0
LINE
  5
1A0
  8
DATA
  6
CONTINUOUS
 62
     7
 10
343.25
 20
241.0
 30
0.0
 11
343.25
 21
255.0
 31
0.0
  0
LINE
  5
1A1
  8
DATA
  6
CONTINUOUS
 62
     7
 10
325.75
 20
255.0
 30
0.0
 11
343.25
 21
255.0
 31
0.0
  0
LINE
  5
1A2
  8
DATA
  6
CONTINUOUS
 62
     7
 10
327.0
 20
497.56395811818368
 30
0.0
 11
342.0
 21
501.0269809850671
 31
0.0
  0
LINE
  5
1A3
  8
DATA
  6
CONTINUOUS
 62
     7
 10
327.0
 20
500.56395811818368
 30
0.0
 11
342.0
 21
504.02698098506721
 31
0.0
  0
LINE
  5
1A4
  8
DATA
  6
CONTINUOUS
 62
     7
 10
327.0
 20
502.56395811818362
 30
0.0
 11
342.0
 21
506.02698098506721
 31
0.0
  0
LINE
  5
1A5
  8
DATA
  6
CONTINUOUS
 62
     7
 10
327.0
 20
505.56395811818368
 30
0.0
 11
342.0
 21
509.02698098506721
 31
0.0
  0
LINE
  5
1A6
  8
DATA
  6
CONTINUOUS
 62
     7
 10
327.0
 20
507.56395811818362
 30
0.0
 11
342.0
 21
511.02698098506721
 31
0.0
  0
LINE
  5
1A7
  8
DATA
  6
CONTINUOUS
 62
     7
 10
327.0
 20
510.56395811818362
 30
0.0
 11
342.0
 21
514.0269809850671
 31
0.0
  0
LINE
  5
1A8
  8
DATA
  6
CONTINUOUS
 62
     7
 10
327.0
 20
512.56395811818356
 30
0.0
 11
342.0
 21
516.02698098506721
 31
0.0
  0
LINE
  5
1A9
  8
DATA
  6
CONTINUOUS
 62
     7
 10
327.0
 20
515.56395811818356
 30
0.0
 11
342.0
 21
519.02698098506721
 31
0.0
  0
LINE
  5
1AA
  8
DATA
  6
CONTINUOUS
 62
     7
 10
327.0
 20
517.56395811818368
 30
0.0
 11
342.0
 21
521.02698098506721
 31
0.0
  0
LINE
  5
1AB
  8
DATA
  6
CONTINUOUS
 62
     7
 10
327.0
 20
520.56395811818356
 30
0.0
 11
342.0
 21
524.02698098506721
 31
0.0
  0
LINE
  5
1AC
  8
DATA
  6
CONTINUOUS
 62
     7
 10
327.0
 20
522.56395811818368
 30
0.0
 11
342.0
 21
526.0269809850671
 31
0.0
  0
LINE
  5
1AD
  8
DATA
  6
CONTINUOUS
 62
     7
 10
327.0
 20
525.56395811818368
 30
0.0
 11
342.0
 21
529.02698098506721
 31
0.0
  0
LINE
  5
1AE
  8
DATA
  6
CONTINUOUS
 62
     7
 10
327.0
 20
527.56395811818356
 30
0.0
 11
337.55165663983308
 21
530.0
 31
0.0
  0
LINE
  5
1AF
  8
DATA
  6
CONTINUOUS
 62
     7
 10
327.0
 20
499.0
 30
0.0
 11
327.0
 21
530.0
 31
0.0
  0
LINE
  5
1B0
  8
DATA
  6
CONTINUOUS
 62
     7
 10
342.0
 20
499.0
 30
0.0
 11
342.0
 21
530.0
 31
0.0
  0
LINE
  5
1B1
  8
DATA
  6
CONTINUOUS
 62
     7
 10
326.5
 20
559.0
 30
0.0
 11
342.5
 21
559.0
 31
0.0
  0
LINE
  5
1B2
  8
DATA
  6
CONTINUOUS
 62
     7
 10
326.5
 20
549.0
 30
0.0
 11
342.5
 21
549.0
 31
0.0
  0
LINE
  5
1B3
  8
DATA
  6
CONTINUOUS
 62
     7
 10
326.5
 20
559.0
 30
0.0
 11
326.5
 21
549.0
 31
0.0
  0
LINE
  5
1B4
  8
DATA
  6
CONTINUOUS
 62
     7
 10
342.5
 20
559.0
 30
0.0
 11
342.5
 21
549.0
 31
0.0
  0
LINE
  5
1B5
  8
DATA
  6
CONTINUOUS
 62
     7
 10
326.5
 20
549.0
 30
0.0
 11
325.5
 21
546.0
 31
0.0
  0
LINE
  5
1B6
  8
DATA
  6
CONTINUOUS
 62
     7
 10
342.5
 20
549.0
 30
0.0
 11
343.5
 21
546.0
 31
0.0
  0
POLYLINE
  5
1B7
  8
DATA
  6
CONTINUOUS
 62
     7
 66
     1
 10
0.0
 20
0.0
 30
0.0
 70
     1
  0
VERTEX
  5
239
  8
DATA
  6
CONTINUOUS
 62
     7
 10
326.0
 20
539.0
 30
0.0
  0
VERTEX
  5
23A
  8
DATA
  6
CONTINUOUS
 62
     7
 10
343.0
 20
539.0
 30
0.0
  0
VERTEX
  5
23B
  8
DATA
  6
CONTINUOUS
 62
     7
 10
343.0
 20
530.0
 30
0.0
  0
VERTEX
  5
23C
  8
DATA
  6
CONTINUOUS
 62
     7
 10
326.0
 20
530.0
 30
0.0
  0
SEQEND
  5
23D
  8
DATA
  6
CONTINUOUS
 62
     7
  0
LINE
  5
1BE
  8
DATA
  6
CONTINUOUS
 62
     7
 10
326.0
 20
539.0
 30
0.0
 11
325.5
 21
546.0
 31
0.0
  0
LINE
  5
1BF
  8
DATA
  6
CONTINUOUS
 62
     7
 10
343.0
 20
539.0
 30
0.0
 11
343.5
 21
546.0
 31
0.0
  0
LINE
  5
1C0
  8
DATA
  6
CONTINUOUS
 62
     7
 10
325.5
 20
546.0
 30
0.0
 11
343.5
 21
546.0
 31
0.0
  0
LINE
  5
1C1
  8
DATA
  6
CONTINUOUS
 62
     7
 10
326.5
 20
558.56426644800467
 30
0.0
 11
331.1428161229847
 21
559.0
 31
0.0
  0
LINE
  5
1C2
  8
DATA
  6
CONTINUOUS
 62
     7
 10
326.5
 20
557.56426644800479
 30
0.0
 11
341.79798853677801
 21
559.0
 31
0.0
  0
LINE
  5
1C3
  8
DATA
  6
CONTINUOUS
 62
     7
 10
326.5
 20
556.56426644800479
 30
0.0
 11
342.5
 21
558.06588457098201
 31
0.0
  0
LINE
  5
1C4
  8
DATA
  6
CONTINUOUS
 62
     7
 10
326.5
 20
555.56426644800467
 30
0.0
 11
342.5
 21
557.06588457098201
 31
0.0
  0
LINE
  5
1C5
  8
DATA
  6
CONTINUOUS
 62
     7
 10
326.5
 20
554.56426644800467
 30
0.0
 11
342.5
 21
556.06588457098201
 31
0.0
  0
LINE
  5
1C6
  8
DATA
  6
CONTINUOUS
 62
     7
 10
326.5
 20
553.56426644800479
 30
0.0
 11
342.5
 21
555.06588457098189
 31
0.0
  0
LINE
  5
1C7
  8
DATA
  6
CONTINUOUS
 62
     7
 10
326.5
 20
552.56426644800479
 30
0.0
 11
342.5
 21
554.06588457098201
 31
0.0
  0
LINE
  5
1C8
  8
DATA
  6
CONTINUOUS
 62
     7
 10
326.5
 20
551.56426644800467
 30
0.0
 11
342.5
 21
553.06588457098201
 31
0.0
  0
LINE
  5
1C9
  8
DATA
  6
CONTINUOUS
 62
     7
 10
326.5
 20
550.56426644800467
 30
0.0
 11
342.5
 21
552.06588457098201
 31
0.0
  0
LINE
  5
1CA
  8
DATA
  6
CONTINUOUS
 62
     7
 10
326.5
 20
549.56426644800479
 30
0.0
 11
342.5
 21
551.06588457098189
 31
0.0
  0
LINE
  5
1CB
  8
DATA
  6
CONTINUOUS
 62
     7
 10
331.1428161229847
 20
549.0
 30
0.0
 11
342.5
 21
550.06588457098189
 31
0.0
  0
INSERT
  5
1CC
  8
DATA
 62
     7
  2
____-2
 10
437.5253267782503
 20
474.5785628677466
 30
0.0
  0
CIRCLE
  5
1CD
  8
DATA
  6
CONTINUOUS
 62
     7
 10
234.5
 20
600.0
 30
0.0
 40
8.0
  0
CIRCLE
  5
1CE
  8
DATA
  6
CONTINUOUS
 62
     7
 10
234.5
 20
600.0
 30
0.0
 40
5.5
  0
LINE
  5
1CF
  8
DATA
  6
CONTINUOUS
 62
     7
 10
226.0
 20
541.0
 30
0.0
 11
243.0
 21
541.0
 31
0.0
  0
LINE
  5
1D0
  8
DATA
  6
CONTINUOUS
 62
     7
 10
226.0
 20
530.0
 30
0.0
 11
226.0
 21
541.0
 31
0.0
  0
LINE
  5
1D1
  8
DATA
  6
CONTINUOUS
 62
     7
 10
243.0
 20
530.0
 30
0.0
 11
243.0
 21
541.0
 31
0.0
  0
LINE
  5
1D2
  8
DATA
  6
CONTINUOUS
 62
     7
 10
226.0
 20
541.0
 30
0.0
 11
225.5
 21
546.0
 31
0.0
  0
LINE
  5
1D3
  8
DATA
  6
CONTINUOUS
 62
     7
 10
243.0
 20
541.0
 30
0.0
 11
243.5
 21
546.0
 31
0.0
  0
TEXT
  5
1D4
  8
DATA
 62
     7
 10
263.81832961661559
 20
582.14415737487207
 30
0.0
 40
8.1442057291666661
  1
5/8インチネジ
 41
0.7
 11
263.81832961661559
 21
590.28836310403881
 31
0.0
 73
     3
  0
LINE
  5
1D5
  8
DATA
  6
CONTINUOUS
 62
     7
 10
242.5
 20
555.40000000000009
 30
0.0
 11
260.19999999999999
 21
580.20000000000005
 31
0.0
  0
LINE
  5
1D6
  8
DATA
  6
CONTINUOUS
 62
     7
 10
242.5
 20
555.40000000000009
 30
0.0
 11
246.03386836392289
 21
564.60604183092266
 31
0.0
  0
LINE
  5
1D7
  8
DATA
  6
CONTINUOUS
 62
     7
 10
242.5
 20
555.40000000000009
 30
0.0
 11
250.1634406922488
 21
561.60573191191997
 31
0.0
  0
LINE
  5
1D8
  8
DATA
  6
CONTINUOUS
 62
     7
 10
260.19999999999999
 20
580.20000000000005
 30
0.0
 11
339.60000000000002
 21
580.20000000000005
 31
0.0
  0
LINE
  5
1D9
  8
DATA
  6
CONTINUOUS
 62
     7
 10
199.5
 20
185.68638144213611
 30
0.0
 11
232.5
 21
225.0
 31
0.0
  0
LINE
  5
1DA
  8
DATA
  6
CONTINUOUS
 62
     7
 10
232.5
 20
225.0
 30
0.0
 11
228.33255894653399
 21
216.06289382002649
 31
0.0
  0
LINE
  5
1DB
  8
DATA
  6
CONTINUOUS
 62
     7
 10
232.5
 20
225.0
 30
0.0
 11
224.4223370889375
 21
219.34395953855699
 31
0.0
  0
CIRCLE
  5
1DC
  8
DATA
  6
CONTINUOUS
 62
     7
 10
234.5
 20
600.0
 30
0.0
 40
9.0
  0
ENDSEC
  0
EOF
