  0
SECTION
  2
HEADER
  9
$ACADVER
  1
AC1009
  9
$INSBASE
 10
0.0
 20
0.0
 30
0.0
  9
$EXTMIN
 10
29.989015033921529
 20
7.1438620221135798
 30
-0.0015258207003583
  9
$EXTMAX
 10
570.01739634668616
 20
810.02475112515378
 30
0.0000000349246037
  9
$LIMMIN
 10
0.0
 20
0.0
  9
$LIMMAX
 10
0.0
 20
0.0
  9
$ORTHOMODE
 70
     0
  9
$REGENMODE
 70
     1
  9
$FILLMODE
 70
     1
  9
$QTEXTMODE
 70
     0
  9
$MIRRTEXT
 70
     1
  9
$DRAGMODE
 70
     2
  9
$LTSCALE
 40
15.24
  9
$OSMODE
 70
   231
  9
$ATTMODE
 70
     1
  9
$TEXTSIZE
 40
0.0
  9
$TRACEWID
 40
1.0
  9
$TEXTSTYLE
  7
STANDARD
  9
$CLAYER
  8
DATA
  9
$CELTYPE
  6
BYLAYER
  9
$CECOLOR
 62
   256
  9
$DIMSCALE
 40
1.0
  9
$DIMASZ
 40
0.18
  9
$DIMEXO
 40
0.0625
  9
$DIMDLI
 40
0.38
  9
$DIMRND
 40
0.0
  9
$DIMDLE
 40
0.0
  9
$DIMEXE
 40
0.18
  9
$DIMTP
 40
0.0
  9
$DIMTM
 40
0.0
  9
$DIMTXT
 40
0.18
  9
$DIMCEN
 40
0.09
  9
$DIMTSZ
 40
0.0
  9
$DIMTOL
 70
     0
  9
$DIMLIM
 70
     0
  9
$DIMTIH
 70
     1
  9
$DIMTOH
 70
     1
  9
$DIMSE1
 70
     0
  9
$DIMSE2
 70
     0
  9
$DIMTAD
 70
     0
  9
$DIMZIN
 70
     0
  9
$DIMBLK
  1

  9
$DIMASO
 70
     1
  9
$DIMSHO
 70
     1
  9
$DIMPOST
  1

  9
$DIMAPOST
  1

  9
$DIMALT
 70
     0
  9
$DIMALTD
 70
     2
  9
$DIMALTF
 40
25.399999999999999
  9
$DIMLFAC
 40
1.0
  9
$DIMTOFL
 70
     0
  9
$DIMTVP
 40
0.0
  9
$DIMTIX
 70
     0
  9
$DIMSOXD
 70
     0
  9
$DIMSAH
 70
     0
  9
$DIMBLK1
  1

  9
$DIMBLK2
  1

  9
$DIMSTYLE
  2
STANDARD
  9
$DIMCLRD
 70
     0
  9
$DIMCLRE
 70
     0
  9
$DIMCLRT
 70
     0
  9
$DIMTFAC
 40
1.0
  9
$DIMGAP
 40
0.09
  9
$LUNITS
 70
     2
  9
$LUPREC
 70
     4
  9
$SKETCHINC
 40
0.1
  9
$FILLETRAD
 40
0.0
  9
$AUNITS
 70
     0
  9
$AUPREC
 70
     0
  9
$MENU
  1
acad
  9
$ELEVATION
 40
0.0
  9
$PELEVATION
 40
0.0
  9
$THICKNESS
 40
0.0
  9
$LIMCHECK
 70
     0
  9
$BLIPMODE
 70
     0
  9
$CHAMFERA
 40
0.0
  9
$CHAMFERB
 40
0.0
  9
$SKPOLY
 70
     0
  9
$TDCREATE
 40
2454146.4050231478
  9
$TDUPDATE
 40
2454146.4095361461
  9
$TDINDWG
 40
0.0002365046
  9
$TDUSRTIMER
 40
0.000236331
  9
$USRTIMER
 70
     1
  9
$ANGBASE
 50
0.0
  9
$ANGDIR
 70
     0
  9
$PDMODE
 70
     1
  9
$PDSIZE
 40
-2.0
  9
$PLINEWID
 40
0.0
  9
$COORDS
 70
     1
  9
$SPLFRAME
 70
     0
  9
$SPLINETYPE
 70
     6
  9
$SPLINESEGS
 70
     8
  9
$ATTDIA
 70
     0
  9
$ATTREQ
 70
     1
  9
$HANDLING
 70
     1
  9
$HANDSEED
  5
2A2
  9
$SURFTAB1
 70
     6
  9
$SURFTAB2
 70
     6
  9
$SURFTYPE
 70
     6
  9
$SURFU
 70
     6
  9
$SURFV
 70
     6
  9
$UCSNAME
  2

  9
$UCSORG
 10
0.0
 20
0.0
 30
0.0
  9
$UCSXDIR
 10
1.0
 20
0.0
 30
0.0
  9
$UCSYDIR
 10
0.0
 20
1.0
 30
0.0
  9
$PUCSNAME
  2

  9
$PUCSORG
 10
0.0
 20
0.0
 30
0.0
  9
$PUCSXDIR
 10
1.0
 20
0.0
 30
0.0
  9
$PUCSYDIR
 10
0.0
 20
1.0
 30
0.0
  9
$USERI1
 70
     0
  9
$USERI2
 70
     0
  9
$USERI3
 70
     0
  9
$USERI4
 70
     0
  9
$USERI5
 70
     0
  9
$USERR1
 40
0.0
  9
$USERR2
 40
0.0
  9
$USERR3
 40
0.0
  9
$USERR4
 40
0.0
  9
$USERR5
 40
0.0
  9
$WORLDVIEW
 70
     1
  9
$SHADEDGE
 70
     3
  9
$SHADEDIF
 70
    70
  9
$TILEMODE
 70
     1
  9
$MAXACTVP
 70
    64
  9
$PLIMCHECK
 70
     0
  9
$PEXTMIN
 10
1.0000000000000000E+020
 20
1.0000000000000000E+020
 30
1.0000000000000000E+020
  9
$PEXTMAX
 10
-1.0000000000000000E+020
 20
-1.0000000000000000E+020
 30
-1.0000000000000000E+020
  9
$PLIMMIN
 10
0.0
 20
0.0
  9
$PLIMMAX
 10
12.0
 20
9.0
  9
$UNITMODE
 70
     0
  9
$VISRETAIN
 70
     0
  9
$PLINEGEN
 70
     1
  9
$PSLTSCALE
 70
     0
  0
ENDSEC
  0
SECTION
  2
TABLES
  0
TABLE
  2
VPORT
 70
     1
  0
VPORT
  2
*ACTIVE
 70
     0
 10
0.0
 20
0.0
 11
1.0
 21
1.0
 12
300.00320569030379
 22
408.58430657363368
 13
0.0
 23
0.0
 14
1.0
 24
1.0
 15
0.0
 25
0.0
 16
0.0
 26
0.0
 36
1.0
 17
0.0
 27
0.0
 37
0.0
 40
809.54380104580434
 41
1.6703601108033239
 42
50.0
 43
0.0
 44
0.0
 50
0.0
 51
0.0
 71
     0
 72
  2000
 73
     1
 74
     1
 75
     0
 76
     0
 77
     0
 78
     0
  0
ENDTAB
  0
TABLE
  2
LTYPE
 70
    11
  0
LTYPE
  2
CONTINUOUS
 70
     0
  3
Solid line
 72
    65
 73
     0
 40
0.0
  0
LTYPE
  2
STYLE_01
 70
     0
  3

 72
    65
 73
     2
 40
0.4166412353515625
 49
0.208282470703125
 49
-0.2083587646484375
  0
ENDTAB
  0
TABLE
  2
LAYER
 70
     5
  0
LAYER
  2
0
 70
     0
 62
     7
  6
CONTINUOUS
  0
LAYER
  2
DATA
 70
     0
 62
     7
  6
CONTINUOUS
  0
LAYER
  2
HIBINO-BASE
 70
     0
 62
     7
  6
CONTINUOUS
  0
LAYER
  2
SPEC
 70
     0
 62
     7
  6
CONTINUOUS
  0
LAYER
  2
DIMNSIONS
 70
     0
 62
     7
  6
CONTINUOUS
  0
ENDTAB
  0
TABLE
  2
STYLE
 70
     2
  0
STYLE
  2
STANDARD
 70
     0
 40
0.0
 41
1.0
 50
0.0
 71
     0
 42
0.0
  3
txt
  4
BIGFONT.SHX
  0
ENDTAB
  0
TABLE
  2
VIEW
 70
     0
  0
ENDTAB
  0
TABLE
  2
UCS
 70
     0
  0
ENDTAB
  0
TABLE
  2
APPID
 70
     1
  0
APPID
  2
ACAD
 70
     0
  0
ENDTAB
  0
TABLE
  2
DIMSTYLE
 70
     1
  0
DIMSTYLE
  2
STANDARD
 70
     0
  3

  4

  5

  6

  7

 40
1.0
 41
0.18
 42
0.0625
 43
0.38
 44
0.18
 45
0.0
 46
0.0
 47
0.0
 48
0.0
140
0.18
141
0.09
142
0.0
143
25.399999999999999
144
1.0
145
0.0
146
1.0
147
0.09
 71
     0
 72
     0
 73
     1
 74
     1
 75
     0
 76
     0
 77
     0
 78
     0
170
     0
171
     2
172
     0
173
     0
174
     0
175
     0
176
     0
177
     0
178
     0
  0
ENDTAB
  0
ENDSEC
  0
SECTION
  2
BLOCKS
  0
BLOCK
  8
0
  2
$MODEL_SPACE
 70
     0
 10
0.0
 20
0.0
 30
0.0
  3
$MODEL_SPACE
  1

  0
ENDBLK
  5
275
  8
0
  0
BLOCK
 67
     1
  8
0
  2
$PAPER_SPACE
 70
     0
 10
0.0
 20
0.0
 30
0.0
  3
$PAPER_SPACE
  1

  0
ENDBLK
  5
271
 67
     1
  8
0
  0
ENDSEC
  0
SECTION
  2
ENTITIES
  0
LINE
  5
2C
  8
HIBINO-BASE
  6
CONTINUOUS
 62
     7
 10
30.0
 20
810.0000299999997
 30
0.0
 11
570.0
 21
810.0000299999997
 31
0.0
  0
LINE
  5
2D
  8
HIBINO-BASE
  6
CONTINUOUS
 62
     7
 10
570.0
 20
29.99999999999995
 30
0.0
 11
30.0
 21
29.99999999999995
 31
0.0
  0
LINE
  5
2E
  8
HIBINO-BASE
  6
CONTINUOUS
 62
     7
 10
30.0
 20
29.99999999999995
 30
0.0
 11
30.0
 21
810.0000299999997
 31
0.0
  0
TEXT
  5
2F
  8
HIBINO-BASE
 62
     7
 10
51.552000000000021
 20
10.7739665999999
 30
0.0
 40
10.800132539062499
  1
Hibino Corporation
 41
0.7
 11
51.552000000000021
 21
21.574099139062401
 31
0.0
 73
     3
  0
LINE
  5
30
  8
HIBINO-BASE
  6
CONTINUOUS
 62
     7
 10
570.0
 20
810.0000299999997
 30
0.0
 11
570.0
 21
29.99999999999995
 31
0.0
  0
LINE
  5
31
  8
HIBINO-BASE
  6
CONTINUOUS
 62
     7
 10
300.0
 20
97.499999999999872
 30
0.0
 11
570.0
 21
97.499999999999872
 31
0.0
  0
LINE
  5
32
  8
HIBINO-BASE
  6
CONTINUOUS
 62
     7
 10
300.0
 20
29.99999999999995
 30
0.0
 11
300.0
 21
97.499999999999872
 31
0.0
  0
TEXT
  5
33
  8
HIBINO-BASE
 62
     7
 10
302.69999999999999
 20
89.399990399999922
 30
0.0
 40
5.4000778125000002
  1
NOTE
 41
0.7
 11
302.69999999999999
 21
94.800068212499909
 31
0.0
 73
     3
  0
LINE
  5
34
  8
HIBINO-BASE
  6
CONTINUOUS
 62
     7
 10
405.0
 20
29.99999999999995
 30
0.0
 11
405.0
 21
97.499999999999872
 31
0.0
  0
TEXT
  5
35
  8
HIBINO-BASE
 62
     7
 10
407.69999999999987
 20
89.399990399999922
 30
0.0
 40
5.4000778125000002
  1
TITLE
 41
0.7
 11
407.69999999999987
 21
94.800068212499909
 31
0.0
 73
     3
  0
TEXT
  5
36
  8
HIBINO-BASE
 62
     7
 10
450.2051699999999
 20
10.7739665999999
 30
0.0
 40
10.800132539062499
  1
ヒビノ株式会社
 41
0.7
 11
450.2051699999999
 21
21.574099139062401
 31
0.0
 73
     3
  0
LINE
  5
37
  8
HIBINO-BASE
  6
CONTINUOUS
 62
     7
 10
300.0
 20
59.999999999999929
 30
0.0
 11
570.0
 21
59.999999999999929
 31
0.0
  0
TEXT
  5
38
  8
HIBINO-BASE
 62
     7
 10
445.19999999999987
 20
52.068950399999892
 30
0.0
 40
5.4000778125000002
  1
DRAWN
 41
0.7
 11
445.19999999999987
 21
57.469028212499893
 31
0.0
 73
     3
  0
TEXT
  5
39
  8
HIBINO-BASE
 62
     7
 10
370.19999999999999
 20
52.068950399999892
 30
0.0
 40
5.4000778125000002
  1
DATE
 41
0.7
 11
370.19999999999999
 21
57.469028212499893
 31
0.0
 73
     3
  0
TEXT
  5
3A
  8
HIBINO-BASE
 62
     7
 10
303.30000000000001
 20
52.14163139999993
 30
0.0
 40
4.8865311328124994
  1
図面サイズ
 41
0.7
 11
303.30000000000001
 21
57.028162532812424
 31
0.0
 73
     3
  0
TEXT
  5
3B
  8
HIBINO-BASE
 62
     7
 10
340.19999999999999
 20
52.068950399999892
 30
0.0
 40
5.4000778125000002
  1
SCALE
 41
0.7
 11
340.19999999999999
 21
57.469028212499893
 31
0.0
 73
     3
  0
TEXT
  5
3C
  8
HIBINO-BASE
 62
     7
 10
407.69999999999987
 20
52.068950399999892
 30
0.0
 40
5.4000778125000002
  1
DESIGN
 41
0.7
 11
407.69999999999987
 21
57.469028212499893
 31
0.0
 73
     3
  0
TEXT
  5
3D
  8
HIBINO-BASE
 62
     7
 10
520.20000000000005
 20
52.068950399999892
 30
0.0
 40
5.4000778125000002
  1
DRAWING NO.
 41
0.7
 11
520.20000000000005
 21
57.469028212499893
 31
0.0
 73
     3
  0
TEXT
  5
3E
  8
HIBINO-BASE
 62
     7
 10
482.69999999999987
 20
52.068950399999892
 30
0.0
 40
5.4000778125000002
  1
CHECK
 41
0.7
 11
482.69999999999987
 21
57.469028212499893
 31
0.0
 73
     3
  0
LINE
  5
3F
  8
HIBINO-BASE
  6
CONTINUOUS
 62
     7
 10
343.125
 20
33.74999999999995
 30
0.0
 11
354.375
 21
44.999999999999929
 31
0.0
  0
TEXT
  5
40
  8
HIBINO-BASE
 62
     7
 10
341.25
 20
39.852842399999901
 30
0.0
 40
6.515359453124999
  1
1
 41
0.7
 11
341.25
 21
46.368201853124887
 31
0.0
 73
     3
  0
LINE
  5
41
  8
HIBINO-BASE
  6
CONTINUOUS
 62
     7
 10
337.5
 20
29.99999999999995
 30
0.0
 11
337.5
 21
59.999999999999929
 31
0.0
  0
LINE
  5
42
  8
HIBINO-BASE
  6
CONTINUOUS
 62
     7
 10
367.5
 20
29.99999999999995
 30
0.0
 11
367.5
 21
59.999999999999929
 31
0.0
  0
LINE
  5
43
  8
HIBINO-BASE
  6
CONTINUOUS
 62
     7
 10
442.49999999999989
 20
59.999999999999929
 30
0.0
 11
442.49999999999989
 21
29.99999999999995
 31
0.0
  0
LINE
  5
44
  8
HIBINO-BASE
  6
CONTINUOUS
 62
     7
 10
517.49999999999989
 20
59.999999999999929
 30
0.0
 11
517.49999999999989
 21
29.99999999999995
 31
0.0
  0
LINE
  5
45
  8
HIBINO-BASE
  6
CONTINUOUS
 62
     7
 10
480.0
 20
29.99999999999995
 30
0.0
 11
480.0
 21
59.999999999999929
 31
0.0
  0
TEXT
  5
46
  8
HIBINO-BASE
 62
     7
 10
311.73266999999998
 20
37.495368599999942
 30
0.0
 40
9.7730391796875011
  1
A4
 41
0.7
 11
311.73266999999998
 21
47.268407779687429
 31
0.0
 73
     3
  0
TEXT
  5
47
  8
HIBINO-BASE
 62
     7
 10
375.21962000000002
 20
38.01701039999994
 30
0.0
 40
5.4000778125000002
  1
'07.02.
 41
0.7
 11
375.21962000000002
 21
43.417088212499927
 31
0.0
 73
     3
  0
TEXT
  5
48
  8
HIBINO-BASE
 62
     7
 10
352.5
 20
34.227842399999901
 30
0.0
 40
6.515359453124999
  1
3
 41
0.7
 11
352.5
 21
40.743201853124887
 31
0.0
 73
     3
  0
TEXT
  5
49
  8
HIBINO-BASE
 62
     7
 10
447.01743003310389
 20
38.590939999999918
 30
0.0
 40
4.8865234374999993
  1
N.Sasaki
 41
0.7
 11
447.01743003310389
 21
43.477463437499907
 31
0.0
 73
     3
  0
TEXT
  5
4A
  8
HIBINO-BASE
 62
     7
 10
487.30000000000001
 20
38.590939999999918
 30
0.0
 40
4.8865234374999993
  1
Y.Koga
 41
0.7
 11
487.30000000000001
 21
43.477463437499907
 31
0.0
 73
     3
  0
LINE
  5
4B
  8
SPEC
  6
CONTINUOUS
 62
     7
 10
52.500000000000021
 20
780.0000299999997
 30
0.0
 11
495.0
 21
780.0000299999997
 31
0.0
  0
LINE
  5
4C
  8
SPEC
  6
CONTINUOUS
 62
     7
 10
52.500000000000021
 20
768.75002999999981
 30
0.0
 11
495.0
 21
768.75002999999981
 31
0.0
  0
LINE
  5
4D
  8
SPEC
  6
CONTINUOUS
 62
     7
 10
52.500000000000021
 20
746.25002999999981
 30
0.0
 11
495.0
 21
746.25002999999981
 31
0.0
  0
LINE
  5
4E
  8
SPEC
  6
CONTINUOUS
 62
     7
 10
52.500000000000021
 20
757.50002999999981
 30
0.0
 11
495.0
 21
757.50002999999981
 31
0.0
  0
LINE
  5
4F
  8
SPEC
  6
CONTINUOUS
 62
     7
 10
52.500000000000021
 20
780.0000299999997
 30
0.0
 11
52.500000000000021
 21
746.25002999999981
 31
0.0
  0
TEXT
  5
50
  8
SPEC
 62
     7
 10
56.250000000000021
 20
784.17983999999979
 30
0.0
 40
7.3297851562499989
  1
仕様
 41
0.7
 11
56.250000000000021
 21
791.50962515624974
 31
0.0
 73
     3
  0
LINE
  5
51
  8
SPEC
  6
CONTINUOUS
 62
     7
 10
150.0
 20
780.0000299999997
 30
0.0
 11
150.0
 21
746.25002999999981
 31
0.0
  0
LINE
  5
52
  8
SPEC
  6
CONTINUOUS
 62
     7
 10
495.0
 20
780.0000299999997
 30
0.0
 11
495.0
 21
746.25002999999981
 31
0.0
  0
TEXT
  5
53
  8
SPEC
 62
     7
 10
152.69999999999999
 20
759.86379479999982
 30
0.0
 40
5.700933749999999
  1
Φ19×450mm
 41
0.7
 11
152.69999999999999
 21
765.5647285499997
 31
0.0
 73
     3
  0
TEXT
  5
54
  8
SPEC
 62
     7
 10
55.200000000000017
 20
759.86379479999982
 30
0.0
 40
5.700933749999999
  1
寸法
 41
0.7
 11
55.200000000000017
 21
765.5647285499997
 31
0.0
 73
     3
  0
TEXT
  5
55
  8
SPEC
 62
     7
 10
152.69999999999999
 20
748.61379479999982
 30
0.0
 40
5.700933749999999
  1
約390g
 41
0.7
 11
152.69999999999999
 21
754.31472854999981
 31
0.0
 73
     3
  0
TEXT
  5
56
  8
SPEC
 62
     7
 10
55.200000000000017
 20
748.61379479999982
 30
0.0
 40
5.700933749999999
  1
重量
 41
0.7
 11
55.200000000000017
 21
754.31472854999981
 31
0.0
 73
     3
  0
TEXT
  5
57
  8
SPEC
 62
     7
 10
152.69999999999999
 20
771.11379479999982
 30
0.0
 40
5.700933749999999
  1
シルバー(ボディ本体)
 41
0.7
 11
152.69999999999999
 21
776.81472854999981
 31
0.0
 73
     3
  0
TEXT
  5
58
  8
SPEC
 62
     7
 10
55.200000000000017
 20
771.11379479999982
 30
0.0
 40
5.700933749999999
  1
外装
 41
0.7
 11
55.200000000000017
 21
776.81472854999981
 31
0.0
 73
     3
  0
TEXT
  5
59
  8
DIMNSIONS
 62
     7
 10
240.0
 20
66.8084699999999
 30
0.0
 40
7.3297851562499989
  1
(単位：mm)
 41
0.7
 11
240.0
 21
74.138255156249883
 31
0.0
 73
     3
  0
LINE
  5
5A
  8
DIMNSIONS
  6
CONTINUOUS
 62
     7
 10
189.3877096765614
 20
117.1712485754426
 30
0.0
 11
199.49999999999989
 21
100.3174313697119
 31
0.0
  0
LINE
  5
5B
  8
DIMNSIONS
  6
CONTINUOUS
 62
     7
 10
189.3877096765614
 20
117.1712485754426
 30
0.0
 11
196.481123489244
 21
110.32121848147359
 31
0.0
  0
LINE
  5
5C
  8
DIMNSIONS
  6
CONTINUOUS
 62
     7
 10
189.3877096765614
 20
117.1712485754426
 30
0.0
 11
192.10577119091539
 21
107.69224159103619
 31
0.0
  0
LINE
  5
5D
  8
DIMNSIONS
  6
CONTINUOUS
 62
     7
 10
199.49999999999989
 20
100.3174313697119
 30
0.0
 11
238.66666667057811
 21
100.3174313697119
 31
0.0
  0
TEXT
  5
5E
  8
DIMNSIONS
 62
     7
 10
217.5000000039114
 20
104.7990980252027
 30
0.0
 40
8.1442057291666661
  1
φ19
 41
0.7
 11
217.5000000039114
 21
112.9433037543693
 31
0.0
 73
     3
  0
LINE
  5
5F
  8
DIMNSIONS
  6
CONTINUOUS
 62
     7
 10
169.00000002235171
 20
150.0
 30
0.0
 11
119.0000000223517
 21
150.0
 31
0.0
  0
LINE
  5
60
  8
DIMNSIONS
  6
CONTINUOUS
 62
     7
 10
169.00000002235171
 20
190.0
 30
0.0
 11
119.0000000223517
 21
190.0
 31
0.0
  0
LINE
  5
61
  8
DIMNSIONS
  6
CONTINUOUS
 62
     7
 10
125.0
 20
150.0
 30
0.0
 11
125.0
 21
190.0
 31
0.0
  0
LINE
  5
62
  8
DIMNSIONS
  6
CONTINUOUS
 62
     7
 10
125.0
 20
150.0
 30
0.0
 11
122.44778394209349
 21
159.52499999999989
 31
0.0
  0
LINE
  5
63
  8
DIMNSIONS
  6
CONTINUOUS
 62
     7
 10
125.0
 20
150.0
 30
0.0
 11
127.55221605790641
 21
159.52499999999989
 31
0.0
  0
LINE
  5
64
  8
DIMNSIONS
  6
CONTINUOUS
 62
     7
 10
125.0
 20
190.0
 30
0.0
 11
127.55221605790641
 21
180.47499999999999
 31
0.0
  0
LINE
  5
65
  8
DIMNSIONS
  6
CONTINUOUS
 62
     7
 10
125.0
 20
190.0
 30
0.0
 11
122.44778394209349
 21
180.47499999999999
 31
0.0
  0
TEXT
  5
66
  8
DIMNSIONS
 62
     7
 10
120.5183333445092
 20
164.70833333333329
 30
0.0
 40
8.1442057291666661
  1
40
 50
90.0
 41
0.7
 11
112.3741276153425
 21
164.70833333333329
 31
0.0
 73
     3
  0
LINE
  5
67
  8
DIMNSIONS
  6
CONTINUOUS
 62
     7
 10
169.00000002235171
 20
190.0
 30
0.0
 11
119.0000000223517
 21
190.0
 31
0.0
  0
LINE
  5
68
  8
DIMNSIONS
  6
CONTINUOUS
 62
     7
 10
169.00000002235171
 20
640.0
 30
0.0
 11
119.0000000223517
 21
640.0
 31
0.0
  0
LINE
  5
69
  8
DIMNSIONS
  6
CONTINUOUS
 62
     7
 10
125.0
 20
190.0
 30
0.0
 11
125.0
 21
640.0
 31
0.0
  0
LINE
  5
6A
  8
DIMNSIONS
  6
CONTINUOUS
 62
     7
 10
125.0
 20
190.0
 30
0.0
 11
122.44778394209349
 21
199.52500000000001
 31
0.0
  0
LINE
  5
6B
  8
DIMNSIONS
  6
CONTINUOUS
 62
     7
 10
125.0
 20
190.0
 30
0.0
 11
127.55221605790641
 21
199.52500000000001
 31
0.0
  0
LINE
  5
6C
  8
DIMNSIONS
  6
CONTINUOUS
 62
     7
 10
125.0
 20
640.0
 30
0.0
 11
127.55221605790641
 21
630.47500000000002
 31
0.0
  0
LINE
  5
6D
  8
DIMNSIONS
  6
CONTINUOUS
 62
     7
 10
125.0
 20
640.0
 30
0.0
 11
122.44778394209349
 21
630.47500000000002
 31
0.0
  0
TEXT
  5
6E
  8
DIMNSIONS
 62
     7
 10
120.5183333445092
 20
407.06249999999989
 30
0.0
 40
8.1442057291666661
  1
450
 50
90.0
 41
0.7
 11
112.3741276153425
 21
407.06249999999989
 31
0.0
 73
     3
  0
TEXT
  5
6F
  8
DATA
 62
     7
 10
441.30000000000001
 20
85.14266999999991
 30
0.0
 40
7.3297851562499989
  1
SHURE
 41
0.7
 11
441.30000000000001
 21
92.472455156249907
 31
0.0
 73
     3
  0
TEXT
  5
70
  8
DATA
 62
     7
 10
441.30000000000001
 20
75.601643333333243
 30
0.0
 40
5.7009440104166647
  1
フレキシブル・グースネック
 41
0.7
 11
441.30000000000001
 21
81.302587343749906
 31
0.0
 73
     3
  0
TEXT
  5
71
  8
DATA
 62
     7
 10
441.30000000000001
 20
64.158509999999936
 30
0.0
 40
7.3297851562499989
  1
G18A
 41
0.7
 11
441.30000000000001
 21
71.488295156249933
 31
0.0
 73
     3
  0
LINE
  5
72
  8
DATA
  6
CONTINUOUS
 62
     7
 10
275.0
 20
150.0
 30
0.0
 11
275.0
 21
190.0
 31
0.0
  0
LINE
  5
73
  8
DATA
  6
CONTINUOUS
 62
     7
 10
294.0
 20
150.0
 30
0.0
 11
275.0
 21
150.0
 31
0.0
  0
LINE
  5
74
  8
DATA
  6
CONTINUOUS
 62
     7
 10
294.0
 20
190.0
 30
0.0
 11
294.0
 21
150.0
 31
0.0
  0
LINE
  5
75
  8
DATA
  6
CONTINUOUS
 62
     7
 10
275.0
 20
190.0
 30
0.0
 11
294.0
 21
190.0
 31
0.0
  0
LINE
  5
76
  8
DATA
  6
CONTINUOUS
 62
     7
 10
275.60000000000002
 20
190.0
 30
0.0
 11
275.85000000000002
 21
205.0
 31
0.0
  0
LINE
  5
77
  8
DATA
  6
CONTINUOUS
 62
     7
 10
293.39999999999998
 20
190.0
 30
0.0
 11
293.14999999999998
 21
205.0
 31
0.0
  0
CIRCLE
  5
78
  8
DATA
  6
CONTINUOUS
 62
     7
 10
184.5
 20
125.3174313697117
 30
0.0
 40
9.5
  0
CIRCLE
  5
79
  8
DATA
  6
CONTINUOUS
 62
     7
 10
184.5
 20
125.3174313697117
 30
0.0
 40
7.5
  0
ARC
  5
7A
  8
DATA
  6
STYLE_01
 62
     7
 10
376.93393403766578
 20
409.70001749747689
 30
0.0
 40
99.999999999999872
 50
92.283248539161335
 51
177.91718629870351
  0
ARC
  5
7B
  8
DATA
  6
STYLE_01
 62
     7
 10
378.33399129359373
 20
406.95958860469523
 30
0.0
 40
87.907428654222187
 50
93.511364051624284
 51
169.14325877941431
  0
LINE
  5
7C
  8
DATA
  6
CONTINUOUS
 62
     7
 10
175.0
 20
150.0
 30
0.0
 11
175.0
 21
190.0
 31
0.0
  0
LINE
  5
7D
  8
DATA
  6
CONTINUOUS
 62
     7
 10
194.0
 20
150.0
 30
0.0
 11
175.0
 21
150.0
 31
0.0
  0
LINE
  5
7E
  8
DATA
  6
CONTINUOUS
 62
     7
 10
194.0
 20
190.0
 30
0.0
 11
194.0
 21
150.0
 31
0.0
  0
LINE
  5
7F
  8
DATA
  6
CONTINUOUS
 62
     7
 10
175.0
 20
190.0
 30
0.0
 11
194.0
 21
190.0
 31
0.0
  0
LINE
  5
80
  8
DATA
  6
CONTINUOUS
 62
     7
 10
175.84999999999999
 20
205.0
 30
0.0
 11
193.15000000000001
 21
205.0
 31
0.0
  0
LINE
  5
81
  8
DATA
  6
CONTINUOUS
 62
     7
 10
175.59999999999999
 20
190.0
 30
0.0
 11
175.84999999999999
 21
205.0
 31
0.0
  0
LINE
  5
82
  8
DATA
  6
CONTINUOUS
 62
     7
 10
193.40000000000001
 20
190.0
 30
0.0
 11
193.15000000000001
 21
205.0
 31
0.0
  0
LINE
  5
83
  8
DATA
  6
CONTINUOUS
 62
     7
 10
177.0
 20
205.0
 30
0.0
 11
177.0
 21
449.0
 31
0.0
  0
LINE
  5
84
  8
DATA
  6
CONTINUOUS
 62
     7
 10
192.0
 20
205.0
 30
0.0
 11
192.0
 21
449.0
 31
0.0
  0
LINE
  5
85
  8
DATA
  6
CONTINUOUS
 62
     7
 10
177.0
 20
212.58295391468209
 30
0.0
 11
192.0
 21
216.0459767815656
 31
0.0
  0
LINE
  5
86
  8
DATA
  6
CONTINUOUS
 62
     7
 10
177.0
 20
215.58295391468209
 30
0.0
 11
192.0
 21
219.0459767815656
 31
0.0
  0
LINE
  5
87
  8
DATA
  6
CONTINUOUS
 62
     7
 10
177.0
 20
217.58295391468209
 30
0.0
 11
192.0
 21
221.0459767815656
 31
0.0
  0
LINE
  5
88
  8
DATA
  6
CONTINUOUS
 62
     7
 10
177.0
 20
220.58295391468209
 30
0.0
 11
192.0
 21
224.0459767815656
 31
0.0
  0
LINE
  5
89
  8
DATA
  6
CONTINUOUS
 62
     7
 10
177.0
 20
222.58295391468209
 30
0.0
 11
192.0
 21
226.0459767815656
 31
0.0
  0
LINE
  5
8A
  8
DATA
  6
CONTINUOUS
 62
     7
 10
177.0
 20
225.58295391468209
 30
0.0
 11
192.0
 21
229.0459767815656
 31
0.0
  0
LINE
  5
8B
  8
DATA
  6
CONTINUOUS
 62
     7
 10
177.0
 20
227.58295391468209
 30
0.0
 11
192.0
 21
231.0459767815656
 31
0.0
  0
LINE
  5
8C
  8
DATA
  6
CONTINUOUS
 62
     7
 10
177.0
 20
230.58295391468209
 30
0.0
 11
192.0
 21
234.0459767815656
 31
0.0
  0
LINE
  5
8D
  8
DATA
  6
CONTINUOUS
 62
     7
 10
177.0
 20
232.58295391468209
 30
0.0
 11
192.0
 21
236.0459767815656
 31
0.0
  0
LINE
  5
8E
  8
DATA
  6
CONTINUOUS
 62
     7
 10
177.0
 20
235.58295391468209
 30
0.0
 11
192.0
 21
239.0459767815656
 31
0.0
  0
LINE
  5
8F
  8
DATA
  6
CONTINUOUS
 62
     7
 10
177.0
 20
237.58295391468209
 30
0.0
 11
192.0
 21
241.0459767815656
 31
0.0
  0
LINE
  5
90
  8
DATA
  6
CONTINUOUS
 62
     7
 10
177.0
 20
240.58295391468209
 30
0.0
 11
192.0
 21
244.0459767815656
 31
0.0
  0
LINE
  5
91
  8
DATA
  6
CONTINUOUS
 62
     7
 10
177.0
 20
242.58295391468209
 30
0.0
 11
192.0
 21
246.0459767815656
 31
0.0
  0
LINE
  5
92
  8
DATA
  6
CONTINUOUS
 62
     7
 10
177.0
 20
245.58295391468209
 30
0.0
 11
192.0
 21
249.0459767815656
 31
0.0
  0
LINE
  5
93
  8
DATA
  6
CONTINUOUS
 62
     7
 10
177.0
 20
247.58295391468209
 30
0.0
 11
192.0
 21
251.0459767815656
 31
0.0
  0
LINE
  5
94
  8
DATA
  6
CONTINUOUS
 62
     7
 10
177.0
 20
250.58295391468209
 30
0.0
 11
192.0
 21
254.0459767815656
 31
0.0
  0
LINE
  5
95
  8
DATA
  6
CONTINUOUS
 62
     7
 10
177.0
 20
252.58295391468209
 30
0.0
 11
192.0
 21
256.04597678156563
 31
0.0
  0
LINE
  5
96
  8
DATA
  6
CONTINUOUS
 62
     7
 10
177.0
 20
255.58295391468209
 30
0.0
 11
192.0
 21
259.04597678156563
 31
0.0
  0
LINE
  5
97
  8
DATA
  6
CONTINUOUS
 62
     7
 10
177.0
 20
257.58295391468209
 30
0.0
 11
192.0
 21
261.04597678156563
 31
0.0
  0
LINE
  5
98
  8
DATA
  6
CONTINUOUS
 62
     7
 10
177.0
 20
260.58295391468209
 30
0.0
 11
192.0
 21
264.04597678156563
 31
0.0
  0
LINE
  5
99
  8
DATA
  6
CONTINUOUS
 62
     7
 10
177.0
 20
262.58295391468209
 30
0.0
 11
192.0
 21
266.04597678156563
 31
0.0
  0
LINE
  5
9A
  8
DATA
  6
CONTINUOUS
 62
     7
 10
177.0
 20
265.58295391468209
 30
0.0
 11
192.0
 21
269.04597678156563
 31
0.0
  0
LINE
  5
9B
  8
DATA
  6
CONTINUOUS
 62
     7
 10
177.0
 20
267.58295391468209
 30
0.0
 11
192.0
 21
271.04597678156563
 31
0.0
  0
LINE
  5
9C
  8
DATA
  6
CONTINUOUS
 62
     7
 10
177.0
 20
270.58295391468209
 30
0.0
 11
192.0
 21
274.04597678156563
 31
0.0
  0
LINE
  5
9D
  8
DATA
  6
CONTINUOUS
 62
     7
 10
177.0
 20
272.58295391468209
 30
0.0
 11
192.0
 21
276.04597678156563
 31
0.0
  0
LINE
  5
9E
  8
DATA
  6
CONTINUOUS
 62
     7
 10
177.0
 20
275.58295391468209
 30
0.0
 11
192.0
 21
279.04597678156563
 31
0.0
  0
LINE
  5
9F
  8
DATA
  6
CONTINUOUS
 62
     7
 10
177.0
 20
277.58295391468209
 30
0.0
 11
192.0
 21
281.04597678156563
 31
0.0
  0
LINE
  5
A0
  8
DATA
  6
CONTINUOUS
 62
     7
 10
177.0
 20
280.58295391468209
 30
0.0
 11
192.0
 21
284.04597678156563
 31
0.0
  0
LINE
  5
A1
  8
DATA
  6
CONTINUOUS
 62
     7
 10
177.0
 20
282.58295391468209
 30
0.0
 11
192.0
 21
286.04597678156563
 31
0.0
  0
LINE
  5
A2
  8
DATA
  6
CONTINUOUS
 62
     7
 10
177.0
 20
285.58295391468209
 30
0.0
 11
192.0
 21
289.04597678156563
 31
0.0
  0
LINE
  5
A3
  8
DATA
  6
CONTINUOUS
 62
     7
 10
177.0
 20
287.58295391468209
 30
0.0
 11
192.0
 21
291.04597678156563
 31
0.0
  0
LINE
  5
A4
  8
DATA
  6
CONTINUOUS
 62
     7
 10
177.0
 20
290.58295391468209
 30
0.0
 11
192.0
 21
294.04597678156563
 31
0.0
  0
LINE
  5
A5
  8
DATA
  6
CONTINUOUS
 62
     7
 10
177.0
 20
292.58295391468209
 30
0.0
 11
192.0
 21
296.04597678156563
 31
0.0
  0
LINE
  5
A6
  8
DATA
  6
CONTINUOUS
 62
     7
 10
177.0
 20
295.58295391468209
 30
0.0
 11
192.0
 21
299.04597678156563
 31
0.0
  0
LINE
  5
A7
  8
DATA
  6
CONTINUOUS
 62
     7
 10
177.0
 20
297.58295391468209
 30
0.0
 11
192.0
 21
301.04597678156563
 31
0.0
  0
LINE
  5
A8
  8
DATA
  6
CONTINUOUS
 62
     7
 10
177.0
 20
300.58295391468209
 30
0.0
 11
192.0
 21
304.04597678156563
 31
0.0
  0
LINE
  5
A9
  8
DATA
  6
CONTINUOUS
 62
     7
 10
177.0
 20
302.58295391468209
 30
0.0
 11
192.0
 21
306.04597678156563
 31
0.0
  0
LINE
  5
AA
  8
DATA
  6
CONTINUOUS
 62
     7
 10
177.0
 20
305.58295391468209
 30
0.0
 11
192.0
 21
309.04597678156563
 31
0.0
  0
LINE
  5
AB
  8
DATA
  6
CONTINUOUS
 62
     7
 10
177.0
 20
307.58295391468198
 30
0.0
 11
192.0
 21
311.04597678156563
 31
0.0
  0
LINE
  5
AC
  8
DATA
  6
CONTINUOUS
 62
     7
 10
177.0
 20
310.58295391468198
 30
0.0
 11
192.0
 21
314.04597678156563
 31
0.0
  0
LINE
  5
AD
  8
DATA
  6
CONTINUOUS
 62
     7
 10
177.0
 20
312.58295391468198
 30
0.0
 11
192.0
 21
316.04597678156563
 31
0.0
  0
LINE
  5
AE
  8
DATA
  6
CONTINUOUS
 62
     7
 10
177.0
 20
315.58295391468198
 30
0.0
 11
192.0
 21
319.04597678156563
 31
0.0
  0
LINE
  5
AF
  8
DATA
  6
CONTINUOUS
 62
     7
 10
177.0
 20
320.58295391468209
 30
0.0
 11
192.0
 21
324.04597678156563
 31
0.0
  0
LINE
  5
B0
  8
DATA
  6
CONTINUOUS
 62
     7
 10
177.0
 20
317.58295391468198
 30
0.0
 11
192.0
 21
321.04597678156568
 31
0.0
  0
LINE
  5
B1
  8
DATA
  6
CONTINUOUS
 62
     7
 10
177.0
 20
322.58295391468209
 30
0.0
 11
192.0
 21
326.04597678156563
 31
0.0
  0
LINE
  5
B2
  8
DATA
  6
CONTINUOUS
 62
     7
 10
177.0
 20
325.58295391468198
 30
0.0
 11
192.0
 21
329.04597678156563
 31
0.0
  0
LINE
  5
B3
  8
DATA
  6
CONTINUOUS
 62
     7
 10
177.0
 20
327.58295391468198
 30
0.0
 11
192.0
 21
331.04597678156563
 31
0.0
  0
LINE
  5
B4
  8
DATA
  6
CONTINUOUS
 62
     7
 10
177.0
 20
330.58295391468209
 30
0.0
 11
192.0
 21
334.04597678156563
 31
0.0
  0
LINE
  5
B5
  8
DATA
  6
CONTINUOUS
 62
     7
 10
177.0
 20
332.58295391468198
 30
0.0
 11
192.0
 21
336.04597678156563
 31
0.0
  0
LINE
  5
B6
  8
DATA
  6
CONTINUOUS
 62
     7
 10
177.0
 20
335.58295391468198
 30
0.0
 11
192.0
 21
339.04597678156563
 31
0.0
  0
LINE
  5
B7
  8
DATA
  6
CONTINUOUS
 62
     7
 10
177.0
 20
337.58295391468198
 30
0.0
 11
192.0
 21
341.04597678156563
 31
0.0
  0
LINE
  5
B8
  8
DATA
  6
CONTINUOUS
 62
     7
 10
177.0
 20
340.58295391468198
 30
0.0
 11
192.0
 21
344.04597678156563
 31
0.0
  0
LINE
  5
B9
  8
DATA
  6
CONTINUOUS
 62
     7
 10
177.0
 20
342.58295391468198
 30
0.0
 11
192.0
 21
346.04597678156568
 31
0.0
  0
LINE
  5
BA
  8
DATA
  6
CONTINUOUS
 62
     7
 10
177.0
 20
345.58295391468209
 30
0.0
 11
192.0
 21
349.04597678156563
 31
0.0
  0
LINE
  5
BB
  8
DATA
  6
CONTINUOUS
 62
     7
 10
177.0
 20
347.58295391468209
 30
0.0
 11
192.0
 21
351.04597678156563
 31
0.0
  0
LINE
  5
BC
  8
DATA
  6
CONTINUOUS
 62
     7
 10
177.0
 20
350.58295391468209
 30
0.0
 11
192.0
 21
354.04597678156563
 31
0.0
  0
LINE
  5
BD
  8
DATA
  6
CONTINUOUS
 62
     7
 10
177.0
 20
352.58295391468209
 30
0.0
 11
192.0
 21
356.04597678156563
 31
0.0
  0
LINE
  5
BE
  8
DATA
  6
CONTINUOUS
 62
     7
 10
177.0
 20
355.58295391468209
 30
0.0
 11
192.0
 21
359.04597678156563
 31
0.0
  0
LINE
  5
BF
  8
DATA
  6
CONTINUOUS
 62
     7
 10
177.0
 20
357.58295391468221
 30
0.0
 11
192.0
 21
361.04597678156563
 31
0.0
  0
LINE
  5
C0
  8
DATA
  6
CONTINUOUS
 62
     7
 10
177.0
 20
360.58295391468209
 30
0.0
 11
192.0
 21
364.04597678156563
 31
0.0
  0
LINE
  5
C1
  8
DATA
  6
CONTINUOUS
 62
     7
 10
177.0
 20
362.58295391468209
 30
0.0
 11
192.0
 21
366.04597678156563
 31
0.0
  0
LINE
  5
C2
  8
DATA
  6
CONTINUOUS
 62
     7
 10
177.0
 20
365.58295391468221
 30
0.0
 11
192.0
 21
369.04597678156563
 31
0.0
  0
LINE
  5
C3
  8
DATA
  6
CONTINUOUS
 62
     7
 10
177.0
 20
367.58295391468221
 30
0.0
 11
192.0
 21
371.04597678156568
 31
0.0
  0
LINE
  5
C4
  8
DATA
  6
CONTINUOUS
 62
     7
 10
177.0
 20
370.58295391468209
 30
0.0
 11
192.0
 21
374.04597678156563
 31
0.0
  0
LINE
  5
C5
  8
DATA
  6
CONTINUOUS
 62
     7
 10
177.0
 20
372.58295391468209
 30
0.0
 11
192.0
 21
376.04597678156563
 31
0.0
  0
LINE
  5
C6
  8
DATA
  6
CONTINUOUS
 62
     7
 10
177.0
 20
375.58295391468221
 30
0.0
 11
192.0
 21
379.04597678156563
 31
0.0
  0
LINE
  5
C7
  8
DATA
  6
CONTINUOUS
 62
     7
 10
177.0
 20
377.58295391468221
 30
0.0
 11
192.0
 21
381.04597678156563
 31
0.0
  0
LINE
  5
C8
  8
DATA
  6
CONTINUOUS
 62
     7
 10
177.0
 20
380.58295391468221
 30
0.0
 11
192.0
 21
384.04597678156563
 31
0.0
  0
LINE
  5
C9
  8
DATA
  6
CONTINUOUS
 62
     7
 10
177.0
 20
382.58295391468221
 30
0.0
 11
192.0
 21
386.04597678156563
 31
0.0
  0
LINE
  5
CA
  8
DATA
  6
CONTINUOUS
 62
     7
 10
177.0
 20
385.58295391468209
 30
0.0
 11
192.0
 21
389.04597678156563
 31
0.0
  0
LINE
  5
CB
  8
DATA
  6
CONTINUOUS
 62
     7
 10
177.0
 20
390.58295391468209
 30
0.0
 11
192.0
 21
394.04597678156563
 31
0.0
  0
LINE
  5
CC
  8
DATA
  6
CONTINUOUS
 62
     7
 10
177.0
 20
387.58295391468209
 30
0.0
 11
192.0
 21
391.04597678156563
 31
0.0
  0
LINE
  5
CD
  8
DATA
  6
CONTINUOUS
 62
     7
 10
177.0
 20
392.58295391468209
 30
0.0
 11
192.0
 21
396.04597678156563
 31
0.0
  0
LINE
  5
CE
  8
DATA
  6
CONTINUOUS
 62
     7
 10
177.0
 20
395.58295391468209
 30
0.0
 11
192.0
 21
399.04597678156563
 31
0.0
  0
LINE
  5
CF
  8
DATA
  6
CONTINUOUS
 62
     7
 10
177.0
 20
397.58295391468209
 30
0.0
 11
192.0
 21
401.04597678156563
 31
0.0
  0
LINE
  5
D0
  8
DATA
  6
CONTINUOUS
 62
     7
 10
177.0
 20
400.58295391468198
 30
0.0
 11
192.0
 21
404.04597678156563
 31
0.0
  0
LINE
  5
D1
  8
DATA
  6
CONTINUOUS
 62
     7
 10
177.0
 20
402.58295391468209
 30
0.0
 11
192.0
 21
406.04597678156563
 31
0.0
  0
LINE
  5
D2
  8
DATA
  6
CONTINUOUS
 62
     7
 10
177.0
 20
405.58295391468198
 30
0.0
 11
192.0
 21
409.04597678156563
 31
0.0
  0
LINE
  5
D3
  8
DATA
  6
CONTINUOUS
 62
     7
 10
177.0
 20
407.58295391468221
 30
0.0
 11
192.0
 21
411.04597678156563
 31
0.0
  0
LINE
  5
D4
  8
DATA
  6
CONTINUOUS
 62
     7
 10
177.0
 20
410.58295391468209
 30
0.0
 11
192.0
 21
414.04597678156563
 31
0.0
  0
LINE
  5
D5
  8
DATA
  6
CONTINUOUS
 62
     7
 10
177.0
 20
412.58295391468209
 30
0.0
 11
192.0
 21
416.04597678156563
 31
0.0
  0
LINE
  5
D6
  8
DATA
  6
CONTINUOUS
 62
     7
 10
177.0
 20
415.58295391468209
 30
0.0
 11
192.0
 21
419.04597678156563
 31
0.0
  0
LINE
  5
D7
  8
DATA
  6
CONTINUOUS
 62
     7
 10
177.0
 20
417.58295391468209
 30
0.0
 11
192.0
 21
421.04597678156563
 31
0.0
  0
LINE
  5
D8
  8
DATA
  6
CONTINUOUS
 62
     7
 10
177.0
 20
420.58295391468209
 30
0.0
 11
192.0
 21
424.04597678156551
 31
0.0
  0
LINE
  5
D9
  8
DATA
  6
CONTINUOUS
 62
     7
 10
177.0
 20
422.58295391468209
 30
0.0
 11
192.0
 21
426.04597678156563
 31
0.0
  0
LINE
  5
DA
  8
DATA
  6
CONTINUOUS
 62
     7
 10
177.0
 20
425.58295391468209
 30
0.0
 11
192.0
 21
429.04597678156563
 31
0.0
  0
LINE
  5
DB
  8
DATA
  6
CONTINUOUS
 62
     7
 10
177.0
 20
427.58295391468209
 30
0.0
 11
192.0
 21
431.04597678156563
 31
0.0
  0
LINE
  5
DC
  8
DATA
  6
CONTINUOUS
 62
     7
 10
177.0
 20
430.58295391468209
 30
0.0
 11
192.0
 21
434.04597678156563
 31
0.0
  0
LINE
  5
DD
  8
DATA
  6
CONTINUOUS
 62
     7
 10
177.0
 20
432.58295391468221
 30
0.0
 11
192.0
 21
436.04597678156563
 31
0.0
  0
LINE
  5
DE
  8
DATA
  6
CONTINUOUS
 62
     7
 10
177.0
 20
435.58295391468209
 30
0.0
 11
192.0
 21
439.04597678156563
 31
0.0
  0
LINE
  5
DF
  8
DATA
  6
CONTINUOUS
 62
     7
 10
177.0
 20
437.58295391468209
 30
0.0
 11
192.0
 21
441.04597678156563
 31
0.0
  0
LINE
  5
E0
  8
DATA
  6
CONTINUOUS
 62
     7
 10
177.0
 20
440.58295391468209
 30
0.0
 11
192.0
 21
444.04597678156563
 31
0.0
  0
LINE
  5
E1
  8
DATA
  6
CONTINUOUS
 62
     7
 10
177.0
 20
442.58295391468209
 30
0.0
 11
192.0
 21
446.04597678156563
 31
0.0
  0
LINE
  5
E2
  8
DATA
  6
CONTINUOUS
 62
     7
 10
177.0
 20
445.58295391468209
 30
0.0
 11
191.8008526798713
 21
449.0
 31
0.0
  0
LINE
  5
E3
  8
DATA
  6
CONTINUOUS
 62
     7
 10
177.0
 20
210.55015752561761
 30
0.0
 11
192.0
 21
214.01904188581489
 31
0.0
  0
LINE
  5
E4
  8
DATA
  6
CONTINUOUS
 62
     7
 10
177.0
 20
207.55015752561761
 30
0.0
 11
192.0
 21
211.01904188581489
 31
0.0
  0
LINE
  5
E5
  8
DATA
  6
CONTINUOUS
 62
     7
 10
177.0
 20
205.55015752561761
 30
0.0
 11
192.0
 21
209.01904188581489
 31
0.0
  0
LINE
  5
E6
  8
DATA
  6
CONTINUOUS
 62
     7
 10
187.5935030689939
 20
205.0
 30
0.0
 11
192.0
 21
206.01904188581489
 31
0.0
  0
LINE
  5
E7
  8
DATA
  6
CONTINUOUS
 62
     7
 10
177.0
 20
449.0
 30
0.0
 11
177.0
 21
450.0
 31
0.0
  0
LINE
  5
E8
  8
DATA
  6
CONTINUOUS
 62
     7
 10
192.0
 20
449.0
 30
0.0
 11
192.0
 21
450.0
 31
0.0
  0
LINE
  5
E9
  8
DATA
  6
CONTINUOUS
 62
     7
 10
191.8008526798713
 20
449.0
 30
0.0
 11
192.0
 21
449.04597678156563
 31
0.0
  0
CIRCLE
  5
EA
  8
DATA
  6
CONTINUOUS
 62
     7
 10
184.5
 20
173.0
 30
0.0
 40
4.7750000000000048
  0
TEXT
  5
EB
  8
DATA
 62
     7
 10
76.43059415787161
 20
116.22278930656471
 30
0.0
 40
8.1442057291666661
  1
5/8インチネジ
 41
0.7
 11
76.43059415787161
 21
124.36699503573131
 31
0.0
 73
     3
  0
LINE
  5
EC
  8
DATA
  6
CONTINUOUS
 62
     7
 10
179.75
 20
150.0
 30
0.0
 11
149.5
 21
113.5
 31
0.0
  0
LINE
  5
ED
  8
DATA
  6
CONTINUOUS
 62
     7
 10
179.75
 20
150.0
 30
0.0
 11
175.7391676774179
 21
140.991523109517
 31
0.0
  0
LINE
  5
EE
  8
DATA
  6
CONTINUOUS
 62
     7
 10
179.75
 20
150.0
 30
0.0
 11
171.77227887308271
 21
144.20384632472769
 31
0.0
  0
TEXT
  5
EF
  8
DATA
 62
     7
 10
200.29084425885051
 20
200.29375546275861
 30
0.0
 40
8.1442057291666661
  1
サイドベント
 41
0.7
 11
200.29084425885051
 21
208.43796119192521
 31
0.0
 73
     3
  0
TEXT
  5
F0
  8
DATA
 62
     7
 10
200.29084425885051
 20
189.7104221294253
 30
0.0
 40
8.1442057291666661
  1
(横穴)
 41
0.7
 11
200.29084425885051
 21
197.8546278585919
 31
0.0
 73
     3
  0
LINE
  5
F1
  8
DATA
  6
CONTINUOUS
 62
     7
 10
184.42288935287371
 20
172.8045778705748
 30
0.0
 11
200.02288935287379
 21
187.4379112039081
 31
0.0
  0
LINE
  5
F2
  8
DATA
  6
CONTINUOUS
 62
     7
 10
184.42288935287371
 20
172.8045778705748
 30
0.0
 11
189.64842619477901
 21
181.16718491145181
 31
0.0
  0
LINE
  5
F3
  8
DATA
  6
CONTINUOUS
 62
     7
 10
184.42288935287371
 20
172.8045778705748
 30
0.0
 11
193.12964052681369
 21
177.43403958888831
 31
0.0
  0
LINE
  5
F4
  8
DATA
  6
CONTINUOUS
 62
     7
 10
200.02288935287379
 20
187.4379112039081
 30
0.0
 11
261.39999999999998
 21
187.4379112039081
 31
0.0
  0
LINE
  5
F5
  8
DATA
  6
CONTINUOUS
 62
     7
 10
149.5
 20
113.5
 30
0.0
 11
73.5
 21
113.5
 31
0.0
  0
LINE
  5
F6
  8
DATA
  6
CONTINUOUS
 62
     7
 10
177.0
 20
450.0
 30
0.0
 11
177.0
 21
605.0
 31
0.0
  0
LINE
  5
F7
  8
DATA
  6
CONTINUOUS
 62
     7
 10
192.0
 20
450.0
 30
0.0
 11
192.0
 21
605.0
 31
0.0
  0
LINE
  5
F8
  8
DATA
  6
CONTINUOUS
 62
     7
 10
177.0
 20
448.48052214653347
 30
0.0
 11
192.0
 21
451.94354501341678
 31
0.0
  0
LINE
  5
F9
  8
DATA
  6
CONTINUOUS
 62
     7
 10
177.0
 20
450.48052214653347
 30
0.0
 11
192.0
 21
453.94354501341678
 31
0.0
  0
LINE
  5
FA
  8
DATA
  6
CONTINUOUS
 62
     7
 10
177.0
 20
453.48052214653347
 30
0.0
 11
192.0
 21
456.94354501341678
 31
0.0
  0
LINE
  5
FB
  8
DATA
  6
CONTINUOUS
 62
     7
 10
177.0
 20
455.48052214653342
 30
0.0
 11
192.0
 21
458.94354501341678
 31
0.0
  0
LINE
  5
FC
  8
DATA
  6
CONTINUOUS
 62
     7
 10
177.0
 20
458.48052214653342
 30
0.0
 11
192.0
 21
461.94354501341678
 31
0.0
  0
LINE
  5
FD
  8
DATA
  6
CONTINUOUS
 62
     7
 10
177.0
 20
460.4805221465333
 30
0.0
 11
192.0
 21
463.94354501341678
 31
0.0
  0
LINE
  5
FE
  8
DATA
  6
CONTINUOUS
 62
     7
 10
177.0
 20
463.48052214653342
 30
0.0
 11
192.0
 21
466.94354501341678
 31
0.0
  0
LINE
  5
FF
  8
DATA
  6
CONTINUOUS
 62
     7
 10
177.0
 20
465.48052214653342
 30
0.0
 11
192.0
 21
468.94354501341678
 31
0.0
  0
LINE
  5
100
  8
DATA
  6
CONTINUOUS
 62
     7
 10
177.0
 20
468.4805221465333
 30
0.0
 11
192.0
 21
471.94354501341678
 31
0.0
  0
LINE
  5
101
  8
DATA
  6
CONTINUOUS
 62
     7
 10
177.0
 20
470.4805221465333
 30
0.0
 11
192.0
 21
473.94354501341678
 31
0.0
  0
LINE
  5
102
  8
DATA
  6
CONTINUOUS
 62
     7
 10
177.0
 20
473.4805221465333
 30
0.0
 11
192.0
 21
476.94354501341678
 31
0.0
  0
LINE
  5
103
  8
DATA
  6
CONTINUOUS
 62
     7
 10
177.0
 20
475.4805221465333
 30
0.0
 11
192.0
 21
478.94354501341678
 31
0.0
  0
LINE
  5
104
  8
DATA
  6
CONTINUOUS
 62
     7
 10
177.0
 20
478.4805221465333
 30
0.0
 11
192.0
 21
481.94354501341678
 31
0.0
  0
LINE
  5
105
  8
DATA
  6
CONTINUOUS
 62
     7
 10
177.0
 20
483.4805221465333
 30
0.0
 11
192.0
 21
486.94354501341689
 31
0.0
  0
LINE
  5
106
  8
DATA
  6
CONTINUOUS
 62
     7
 10
177.0
 20
480.48052214653342
 30
0.0
 11
192.0
 21
483.94354501341678
 31
0.0
  0
LINE
  5
107
  8
DATA
  6
CONTINUOUS
 62
     7
 10
177.0
 20
485.4805221465333
 30
0.0
 11
192.0
 21
488.94354501341678
 31
0.0
  0
LINE
  5
108
  8
DATA
  6
CONTINUOUS
 62
     7
 10
177.0
 20
488.48052214653347
 30
0.0
 11
192.0
 21
491.94354501341689
 31
0.0
  0
LINE
  5
109
  8
DATA
  6
CONTINUOUS
 62
     7
 10
177.0
 20
490.48052214653347
 30
0.0
 11
192.0
 21
493.94354501341678
 31
0.0
  0
LINE
  5
10A
  8
DATA
  6
CONTINUOUS
 62
     7
 10
177.0
 20
493.48052214653347
 30
0.0
 11
192.0
 21
496.94354501341678
 31
0.0
  0
LINE
  5
10B
  8
DATA
  6
CONTINUOUS
 62
     7
 10
177.0
 20
495.48052214653347
 30
0.0
 11
192.0
 21
498.94354501341689
 31
0.0
  0
LINE
  5
10C
  8
DATA
  6
CONTINUOUS
 62
     7
 10
177.0
 20
498.48052214653347
 30
0.0
 11
192.0
 21
501.94354501341678
 31
0.0
  0
LINE
  5
10D
  8
DATA
  6
CONTINUOUS
 62
     7
 10
177.0
 20
500.48052214653347
 30
0.0
 11
192.0
 21
503.94354501341689
 31
0.0
  0
LINE
  5
10E
  8
DATA
  6
CONTINUOUS
 62
     7
 10
177.0
 20
503.48052214653347
 30
0.0
 11
192.0
 21
506.94354501341689
 31
0.0
  0
LINE
  5
10F
  8
DATA
  6
CONTINUOUS
 62
     7
 10
177.0
 20
505.48052214653347
 30
0.0
 11
192.0
 21
508.94354501341678
 31
0.0
  0
LINE
  5
110
  8
DATA
  6
CONTINUOUS
 62
     7
 10
177.0
 20
508.48052214653347
 30
0.0
 11
192.0
 21
511.94354501341689
 31
0.0
  0
LINE
  5
111
  8
DATA
  6
CONTINUOUS
 62
     7
 10
177.0
 20
510.48052214653347
 30
0.0
 11
192.0
 21
513.94354501341695
 31
0.0
  0
LINE
  5
112
  8
DATA
  6
CONTINUOUS
 62
     7
 10
177.0
 20
513.48052214653353
 30
0.0
 11
192.0
 21
516.94354501341695
 31
0.0
  0
LINE
  5
113
  8
DATA
  6
CONTINUOUS
 62
     7
 10
177.0
 20
515.48052214653353
 30
0.0
 11
192.0
 21
518.94354501341695
 31
0.0
  0
LINE
  5
114
  8
DATA
  6
CONTINUOUS
 62
     7
 10
177.0
 20
518.48052214653353
 30
0.0
 11
192.0
 21
521.94354501341695
 31
0.0
  0
LINE
  5
115
  8
DATA
  6
CONTINUOUS
 62
     7
 10
177.0
 20
520.48052214653353
 30
0.0
 11
192.0
 21
523.94354501341695
 31
0.0
  0
LINE
  5
116
  8
DATA
  6
CONTINUOUS
 62
     7
 10
177.0
 20
523.48052214653353
 30
0.0
 11
192.0
 21
526.94354501341695
 31
0.0
  0
LINE
  5
117
  8
DATA
  6
CONTINUOUS
 62
     7
 10
177.0
 20
525.48052214653353
 30
0.0
 11
192.0
 21
528.94354501341695
 31
0.0
  0
LINE
  5
118
  8
DATA
  6
CONTINUOUS
 62
     7
 10
177.0
 20
528.48052214653353
 30
0.0
 11
192.0
 21
531.94354501341707
 31
0.0
  0
LINE
  5
119
  8
DATA
  6
CONTINUOUS
 62
     7
 10
177.0
 20
530.48052214653353
 30
0.0
 11
192.0
 21
533.94354501341695
 31
0.0
  0
LINE
  5
11A
  8
DATA
  6
CONTINUOUS
 62
     7
 10
177.0
 20
533.48052214653353
 30
0.0
 11
192.0
 21
536.94354501341695
 31
0.0
  0
LINE
  5
11B
  8
DATA
  6
CONTINUOUS
 62
     7
 10
177.0
 20
535.48052214653353
 30
0.0
 11
192.0
 21
538.94354501341695
 31
0.0
  0
LINE
  5
11C
  8
DATA
  6
CONTINUOUS
 62
     7
 10
177.0
 20
538.48052214653353
 30
0.0
 11
192.0
 21
541.94354501341695
 31
0.0
  0
LINE
  5
11D
  8
DATA
  6
CONTINUOUS
 62
     7
 10
177.0
 20
540.48052214653353
 30
0.0
 11
192.0
 21
543.94354501341695
 31
0.0
  0
LINE
  5
11E
  8
DATA
  6
CONTINUOUS
 62
     7
 10
177.0
 20
543.48052214653353
 30
0.0
 11
192.0
 21
546.94354501341695
 31
0.0
  0
LINE
  5
11F
  8
DATA
  6
CONTINUOUS
 62
     7
 10
177.0
 20
545.48052214653353
 30
0.0
 11
192.0
 21
548.94354501341695
 31
0.0
  0
LINE
  5
120
  8
DATA
  6
CONTINUOUS
 62
     7
 10
177.0
 20
548.48052214653353
 30
0.0
 11
192.0
 21
551.94354501341695
 31
0.0
  0
LINE
  5
121
  8
DATA
  6
CONTINUOUS
 62
     7
 10
177.0
 20
553.48052214653353
 30
0.0
 11
192.0
 21
556.94354501341695
 31
0.0
  0
LINE
  5
122
  8
DATA
  6
CONTINUOUS
 62
     7
 10
177.0
 20
550.48052214653353
 30
0.0
 11
192.0
 21
553.94354501341695
 31
0.0
  0
LINE
  5
123
  8
DATA
  6
CONTINUOUS
 62
     7
 10
177.0
 20
555.48052214653353
 30
0.0
 11
192.0
 21
558.94354501341695
 31
0.0
  0
LINE
  5
124
  8
DATA
  6
CONTINUOUS
 62
     7
 10
177.0
 20
558.48052214653353
 30
0.0
 11
192.0
 21
561.94354501341695
 31
0.0
  0
LINE
  5
125
  8
DATA
  6
CONTINUOUS
 62
     7
 10
177.0
 20
560.48052214653353
 30
0.0
 11
192.0
 21
563.94354501341695
 31
0.0
  0
LINE
  5
126
  8
DATA
  6
CONTINUOUS
 62
     7
 10
177.0
 20
563.48052214653353
 30
0.0
 11
192.0
 21
566.94354501341695
 31
0.0
  0
LINE
  5
127
  8
DATA
  6
CONTINUOUS
 62
     7
 10
177.0
 20
565.48052214653353
 30
0.0
 11
192.0
 21
568.94354501341695
 31
0.0
  0
LINE
  5
128
  8
DATA
  6
CONTINUOUS
 62
     7
 10
177.0
 20
568.48052214653353
 30
0.0
 11
192.0
 21
571.94354501341695
 31
0.0
  0
LINE
  5
129
  8
DATA
  6
CONTINUOUS
 62
     7
 10
177.0
 20
570.48052214653353
 30
0.0
 11
192.0
 21
573.94354501341695
 31
0.0
  0
LINE
  5
12A
  8
DATA
  6
CONTINUOUS
 62
     7
 10
177.0
 20
573.48052214653353
 30
0.0
 11
192.0
 21
576.94354501341695
 31
0.0
  0
LINE
  5
12B
  8
DATA
  6
CONTINUOUS
 62
     7
 10
177.0
 20
575.48052214653353
 30
0.0
 11
192.0
 21
578.94354501341695
 31
0.0
  0
LINE
  5
12C
  8
DATA
  6
CONTINUOUS
 62
     7
 10
177.0
 20
578.48052214653353
 30
0.0
 11
192.0
 21
581.94354501341695
 31
0.0
  0
LINE
  5
12D
  8
DATA
  6
CONTINUOUS
 62
     7
 10
177.0
 20
580.48052214653353
 30
0.0
 11
192.0
 21
583.94354501341695
 31
0.0
  0
LINE
  5
12E
  8
DATA
  6
CONTINUOUS
 62
     7
 10
177.0
 20
583.48052214653353
 30
0.0
 11
192.0
 21
586.94354501341695
 31
0.0
  0
LINE
  5
12F
  8
DATA
  6
CONTINUOUS
 62
     7
 10
177.0
 20
585.48052214653353
 30
0.0
 11
192.0
 21
588.94354501341695
 31
0.0
  0
LINE
  5
130
  8
DATA
  6
CONTINUOUS
 62
     7
 10
177.0
 20
588.48052214653353
 30
0.0
 11
192.0
 21
591.94354501341695
 31
0.0
  0
LINE
  5
131
  8
DATA
  6
CONTINUOUS
 62
     7
 10
177.0
 20
590.48052214653353
 30
0.0
 11
192.0
 21
593.94354501341695
 31
0.0
  0
LINE
  5
132
  8
DATA
  6
CONTINUOUS
 62
     7
 10
177.0
 20
593.48052214653353
 30
0.0
 11
192.0
 21
596.94354501341695
 31
0.0
  0
LINE
  5
133
  8
DATA
  6
CONTINUOUS
 62
     7
 10
177.0
 20
595.48052214653353
 30
0.0
 11
192.0
 21
598.94354501341695
 31
0.0
  0
LINE
  5
134
  8
DATA
  6
CONTINUOUS
 62
     7
 10
177.0
 20
598.48052214653353
 30
0.0
 11
192.0
 21
601.94354501341695
 31
0.0
  0
LINE
  5
135
  8
DATA
  6
CONTINUOUS
 62
     7
 10
177.0
 20
600.48052214653353
 30
0.0
 11
192.0
 21
603.94354501341695
 31
0.0
  0
LINE
  5
136
  8
DATA
  6
CONTINUOUS
 62
     7
 10
275.85000000000002
 20
205.0
 30
0.0
 11
293.14999999999998
 21
205.0
 31
0.0
  0
LINE
  5
137
  8
DATA
  6
CONTINUOUS
 62
     7
 10
277.0
 20
205.0
 30
0.0
 11
277.0
 21
449.0
 31
0.0
  0
LINE
  5
138
  8
DATA
  6
CONTINUOUS
 62
     7
 10
292.0
 20
205.0
 30
0.0
 11
292.0
 21
449.0
 31
0.0
  0
LINE
  5
139
  8
DATA
  6
CONTINUOUS
 62
     7
 10
277.0
 20
212.58295391468209
 30
0.0
 11
292.0
 21
216.0459767815656
 31
0.0
  0
LINE
  5
13A
  8
DATA
  6
CONTINUOUS
 62
     7
 10
277.0
 20
215.58295391468209
 30
0.0
 11
292.0
 21
219.0459767815656
 31
0.0
  0
LINE
  5
13B
  8
DATA
  6
CONTINUOUS
 62
     7
 10
277.0
 20
217.58295391468209
 30
0.0
 11
292.0
 21
221.0459767815656
 31
0.0
  0
LINE
  5
13C
  8
DATA
  6
CONTINUOUS
 62
     7
 10
277.0
 20
220.58295391468209
 30
0.0
 11
292.0
 21
224.0459767815656
 31
0.0
  0
LINE
  5
13D
  8
DATA
  6
CONTINUOUS
 62
     7
 10
277.0
 20
222.58295391468209
 30
0.0
 11
292.0
 21
226.0459767815656
 31
0.0
  0
LINE
  5
13E
  8
DATA
  6
CONTINUOUS
 62
     7
 10
277.0
 20
225.58295391468209
 30
0.0
 11
292.0
 21
229.0459767815656
 31
0.0
  0
LINE
  5
13F
  8
DATA
  6
CONTINUOUS
 62
     7
 10
277.0
 20
227.58295391468209
 30
0.0
 11
292.0
 21
231.0459767815656
 31
0.0
  0
LINE
  5
140
  8
DATA
  6
CONTINUOUS
 62
     7
 10
277.0
 20
230.58295391468209
 30
0.0
 11
292.0
 21
234.0459767815656
 31
0.0
  0
LINE
  5
141
  8
DATA
  6
CONTINUOUS
 62
     7
 10
277.0
 20
232.58295391468209
 30
0.0
 11
292.0
 21
236.0459767815656
 31
0.0
  0
LINE
  5
142
  8
DATA
  6
CONTINUOUS
 62
     7
 10
277.0
 20
235.58295391468209
 30
0.0
 11
292.0
 21
239.0459767815656
 31
0.0
  0
LINE
  5
143
  8
DATA
  6
CONTINUOUS
 62
     7
 10
277.0
 20
237.58295391468209
 30
0.0
 11
292.0
 21
241.0459767815656
 31
0.0
  0
LINE
  5
144
  8
DATA
  6
CONTINUOUS
 62
     7
 10
277.0
 20
240.58295391468209
 30
0.0
 11
292.0
 21
244.0459767815656
 31
0.0
  0
LINE
  5
145
  8
DATA
  6
CONTINUOUS
 62
     7
 10
277.0
 20
242.58295391468209
 30
0.0
 11
292.0
 21
246.0459767815656
 31
0.0
  0
LINE
  5
146
  8
DATA
  6
CONTINUOUS
 62
     7
 10
277.0
 20
245.58295391468209
 30
0.0
 11
292.0
 21
249.0459767815656
 31
0.0
  0
LINE
  5
147
  8
DATA
  6
CONTINUOUS
 62
     7
 10
277.0
 20
247.58295391468209
 30
0.0
 11
292.0
 21
251.0459767815656
 31
0.0
  0
LINE
  5
148
  8
DATA
  6
CONTINUOUS
 62
     7
 10
277.0
 20
250.58295391468209
 30
0.0
 11
292.0
 21
254.0459767815656
 31
0.0
  0
LINE
  5
149
  8
DATA
  6
CONTINUOUS
 62
     7
 10
277.0
 20
252.58295391468209
 30
0.0
 11
292.0
 21
256.04597678156563
 31
0.0
  0
LINE
  5
14A
  8
DATA
  6
CONTINUOUS
 62
     7
 10
277.0
 20
255.58295391468209
 30
0.0
 11
292.0
 21
259.04597678156563
 31
0.0
  0
LINE
  5
14B
  8
DATA
  6
CONTINUOUS
 62
     7
 10
277.0
 20
257.58295391468209
 30
0.0
 11
292.0
 21
261.04597678156563
 31
0.0
  0
LINE
  5
14C
  8
DATA
  6
CONTINUOUS
 62
     7
 10
277.0
 20
260.58295391468209
 30
0.0
 11
292.0
 21
264.04597678156563
 31
0.0
  0
LINE
  5
14D
  8
DATA
  6
CONTINUOUS
 62
     7
 10
277.0
 20
262.58295391468209
 30
0.0
 11
292.0
 21
266.04597678156563
 31
0.0
  0
LINE
  5
14E
  8
DATA
  6
CONTINUOUS
 62
     7
 10
277.0
 20
265.58295391468209
 30
0.0
 11
292.0
 21
269.04597678156563
 31
0.0
  0
LINE
  5
14F
  8
DATA
  6
CONTINUOUS
 62
     7
 10
277.0
 20
267.58295391468209
 30
0.0
 11
292.0
 21
271.04597678156563
 31
0.0
  0
LINE
  5
150
  8
DATA
  6
CONTINUOUS
 62
     7
 10
277.0
 20
270.58295391468209
 30
0.0
 11
292.0
 21
274.04597678156563
 31
0.0
  0
LINE
  5
151
  8
DATA
  6
CONTINUOUS
 62
     7
 10
277.0
 20
272.58295391468209
 30
0.0
 11
292.0
 21
276.04597678156563
 31
0.0
  0
LINE
  5
152
  8
DATA
  6
CONTINUOUS
 62
     7
 10
277.0
 20
275.58295391468209
 30
0.0
 11
292.0
 21
279.04597678156563
 31
0.0
  0
LINE
  5
153
  8
DATA
  6
CONTINUOUS
 62
     7
 10
277.0
 20
277.58295391468209
 30
0.0
 11
292.0
 21
281.04597678156563
 31
0.0
  0
LINE
  5
154
  8
DATA
  6
CONTINUOUS
 62
     7
 10
277.0
 20
280.58295391468209
 30
0.0
 11
292.0
 21
284.04597678156563
 31
0.0
  0
LINE
  5
155
  8
DATA
  6
CONTINUOUS
 62
     7
 10
277.0
 20
282.58295391468209
 30
0.0
 11
292.0
 21
286.04597678156563
 31
0.0
  0
LINE
  5
156
  8
DATA
  6
CONTINUOUS
 62
     7
 10
277.0
 20
285.58295391468209
 30
0.0
 11
292.0
 21
289.04597678156563
 31
0.0
  0
LINE
  5
157
  8
DATA
  6
CONTINUOUS
 62
     7
 10
277.0
 20
287.58295391468209
 30
0.0
 11
292.0
 21
291.04597678156563
 31
0.0
  0
LINE
  5
158
  8
DATA
  6
CONTINUOUS
 62
     7
 10
277.0
 20
290.58295391468209
 30
0.0
 11
292.0
 21
294.04597678156563
 31
0.0
  0
LINE
  5
159
  8
DATA
  6
CONTINUOUS
 62
     7
 10
277.0
 20
292.58295391468209
 30
0.0
 11
292.0
 21
296.04597678156563
 31
0.0
  0
LINE
  5
15A
  8
DATA
  6
CONTINUOUS
 62
     7
 10
277.0
 20
295.58295391468209
 30
0.0
 11
292.0
 21
299.04597678156563
 31
0.0
  0
LINE
  5
15B
  8
DATA
  6
CONTINUOUS
 62
     7
 10
277.0
 20
297.58295391468209
 30
0.0
 11
292.0
 21
301.04597678156563
 31
0.0
  0
LINE
  5
15C
  8
DATA
  6
CONTINUOUS
 62
     7
 10
277.0
 20
300.58295391468209
 30
0.0
 11
292.0
 21
304.04597678156563
 31
0.0
  0
LINE
  5
15D
  8
DATA
  6
CONTINUOUS
 62
     7
 10
277.0
 20
302.58295391468209
 30
0.0
 11
292.0
 21
306.04597678156563
 31
0.0
  0
LINE
  5
15E
  8
DATA
  6
CONTINUOUS
 62
     7
 10
277.0
 20
305.58295391468209
 30
0.0
 11
292.0
 21
309.04597678156563
 31
0.0
  0
LINE
  5
15F
  8
DATA
  6
CONTINUOUS
 62
     7
 10
277.0
 20
307.58295391468198
 30
0.0
 11
292.0
 21
311.04597678156563
 31
0.0
  0
LINE
  5
160
  8
DATA
  6
CONTINUOUS
 62
     7
 10
277.0
 20
310.58295391468198
 30
0.0
 11
292.0
 21
314.04597678156563
 31
0.0
  0
LINE
  5
161
  8
DATA
  6
CONTINUOUS
 62
     7
 10
277.0
 20
312.58295391468198
 30
0.0
 11
292.0
 21
316.04597678156563
 31
0.0
  0
LINE
  5
162
  8
DATA
  6
CONTINUOUS
 62
     7
 10
277.0
 20
315.58295391468198
 30
0.0
 11
292.0
 21
319.04597678156563
 31
0.0
  0
LINE
  5
163
  8
DATA
  6
CONTINUOUS
 62
     7
 10
277.0
 20
320.58295391468209
 30
0.0
 11
292.0
 21
324.04597678156563
 31
0.0
  0
LINE
  5
164
  8
DATA
  6
CONTINUOUS
 62
     7
 10
277.0
 20
317.58295391468198
 30
0.0
 11
292.0
 21
321.04597678156568
 31
0.0
  0
LINE
  5
165
  8
DATA
  6
CONTINUOUS
 62
     7
 10
277.0
 20
322.58295391468209
 30
0.0
 11
292.0
 21
326.04597678156563
 31
0.0
  0
LINE
  5
166
  8
DATA
  6
CONTINUOUS
 62
     7
 10
277.0
 20
325.58295391468198
 30
0.0
 11
292.0
 21
329.04597678156563
 31
0.0
  0
LINE
  5
167
  8
DATA
  6
CONTINUOUS
 62
     7
 10
277.0
 20
327.58295391468198
 30
0.0
 11
292.0
 21
331.04597678156563
 31
0.0
  0
LINE
  5
168
  8
DATA
  6
CONTINUOUS
 62
     7
 10
277.0
 20
330.58295391468209
 30
0.0
 11
292.0
 21
334.04597678156563
 31
0.0
  0
LINE
  5
169
  8
DATA
  6
CONTINUOUS
 62
     7
 10
277.0
 20
332.58295391468198
 30
0.0
 11
292.0
 21
336.04597678156563
 31
0.0
  0
LINE
  5
16A
  8
DATA
  6
CONTINUOUS
 62
     7
 10
277.0
 20
335.58295391468198
 30
0.0
 11
292.0
 21
339.04597678156563
 31
0.0
  0
LINE
  5
16B
  8
DATA
  6
CONTINUOUS
 62
     7
 10
277.0
 20
337.58295391468198
 30
0.0
 11
292.0
 21
341.04597678156563
 31
0.0
  0
LINE
  5
16C
  8
DATA
  6
CONTINUOUS
 62
     7
 10
277.0
 20
340.58295391468198
 30
0.0
 11
292.0
 21
344.04597678156563
 31
0.0
  0
LINE
  5
16D
  8
DATA
  6
CONTINUOUS
 62
     7
 10
277.0
 20
342.58295391468198
 30
0.0
 11
292.0
 21
346.04597678156568
 31
0.0
  0
LINE
  5
16E
  8
DATA
  6
CONTINUOUS
 62
     7
 10
277.0
 20
345.58295391468209
 30
0.0
 11
292.0
 21
349.04597678156563
 31
0.0
  0
LINE
  5
16F
  8
DATA
  6
CONTINUOUS
 62
     7
 10
277.0
 20
347.58295391468209
 30
0.0
 11
292.0
 21
351.04597678156563
 31
0.0
  0
LINE
  5
170
  8
DATA
  6
CONTINUOUS
 62
     7
 10
277.0
 20
350.58295391468209
 30
0.0
 11
292.0
 21
354.04597678156563
 31
0.0
  0
LINE
  5
171
  8
DATA
  6
CONTINUOUS
 62
     7
 10
277.0
 20
352.58295391468209
 30
0.0
 11
292.0
 21
356.04597678156563
 31
0.0
  0
LINE
  5
172
  8
DATA
  6
CONTINUOUS
 62
     7
 10
277.0
 20
355.58295391468209
 30
0.0
 11
292.0
 21
359.04597678156563
 31
0.0
  0
LINE
  5
173
  8
DATA
  6
CONTINUOUS
 62
     7
 10
277.0
 20
357.58295391468221
 30
0.0
 11
292.0
 21
361.04597678156563
 31
0.0
  0
LINE
  5
174
  8
DATA
  6
CONTINUOUS
 62
     7
 10
277.0
 20
360.58295391468209
 30
0.0
 11
292.0
 21
364.04597678156563
 31
0.0
  0
LINE
  5
175
  8
DATA
  6
CONTINUOUS
 62
     7
 10
277.0
 20
362.58295391468209
 30
0.0
 11
292.0
 21
366.04597678156563
 31
0.0
  0
LINE
  5
176
  8
DATA
  6
CONTINUOUS
 62
     7
 10
277.0
 20
365.58295391468221
 30
0.0
 11
292.0
 21
369.04597678156563
 31
0.0
  0
LINE
  5
177
  8
DATA
  6
CONTINUOUS
 62
     7
 10
277.0
 20
367.58295391468221
 30
0.0
 11
292.0
 21
371.04597678156568
 31
0.0
  0
LINE
  5
178
  8
DATA
  6
CONTINUOUS
 62
     7
 10
277.0
 20
370.58295391468209
 30
0.0
 11
292.0
 21
374.04597678156563
 31
0.0
  0
LINE
  5
179
  8
DATA
  6
CONTINUOUS
 62
     7
 10
277.0
 20
372.58295391468209
 30
0.0
 11
292.0
 21
376.04597678156563
 31
0.0
  0
LINE
  5
17A
  8
DATA
  6
CONTINUOUS
 62
     7
 10
277.0
 20
375.58295391468221
 30
0.0
 11
292.0
 21
379.04597678156563
 31
0.0
  0
LINE
  5
17B
  8
DATA
  6
CONTINUOUS
 62
     7
 10
277.0
 20
377.58295391468221
 30
0.0
 11
292.0
 21
381.04597678156563
 31
0.0
  0
LINE
  5
17C
  8
DATA
  6
CONTINUOUS
 62
     7
 10
277.0
 20
380.58295391468221
 30
0.0
 11
292.0
 21
384.04597678156563
 31
0.0
  0
LINE
  5
17D
  8
DATA
  6
CONTINUOUS
 62
     7
 10
277.0
 20
382.58295391468221
 30
0.0
 11
292.0
 21
386.04597678156563
 31
0.0
  0
LINE
  5
17E
  8
DATA
  6
CONTINUOUS
 62
     7
 10
277.0
 20
385.58295391468209
 30
0.0
 11
292.0
 21
389.04597678156563
 31
0.0
  0
LINE
  5
17F
  8
DATA
  6
CONTINUOUS
 62
     7
 10
277.0
 20
390.58295391468209
 30
0.0
 11
292.0
 21
394.04597678156563
 31
0.0
  0
LINE
  5
180
  8
DATA
  6
CONTINUOUS
 62
     7
 10
277.0
 20
387.58295391468209
 30
0.0
 11
292.0
 21
391.04597678156563
 31
0.0
  0
LINE
  5
181
  8
DATA
  6
CONTINUOUS
 62
     7
 10
277.0
 20
392.58295391468209
 30
0.0
 11
292.0
 21
396.04597678156563
 31
0.0
  0
LINE
  5
182
  8
DATA
  6
CONTINUOUS
 62
     7
 10
277.0
 20
395.58295391468209
 30
0.0
 11
292.0
 21
399.04597678156563
 31
0.0
  0
LINE
  5
183
  8
DATA
  6
CONTINUOUS
 62
     7
 10
277.0
 20
397.58295391468209
 30
0.0
 11
292.0
 21
401.04597678156563
 31
0.0
  0
LINE
  5
184
  8
DATA
  6
CONTINUOUS
 62
     7
 10
277.0
 20
400.58295391468198
 30
0.0
 11
292.0
 21
404.04597678156563
 31
0.0
  0
LINE
  5
185
  8
DATA
  6
CONTINUOUS
 62
     7
 10
277.0
 20
402.58295391468209
 30
0.0
 11
292.0
 21
406.04597678156563
 31
0.0
  0
LINE
  5
186
  8
DATA
  6
CONTINUOUS
 62
     7
 10
277.0
 20
405.58295391468198
 30
0.0
 11
292.0
 21
409.04597678156563
 31
0.0
  0
LINE
  5
187
  8
DATA
  6
CONTINUOUS
 62
     7
 10
277.0
 20
407.58295391468221
 30
0.0
 11
292.0
 21
411.04597678156563
 31
0.0
  0
LINE
  5
188
  8
DATA
  6
CONTINUOUS
 62
     7
 10
277.0
 20
410.58295391468209
 30
0.0
 11
292.0
 21
414.04597678156563
 31
0.0
  0
LINE
  5
189
  8
DATA
  6
CONTINUOUS
 62
     7
 10
277.0
 20
412.58295391468209
 30
0.0
 11
292.0
 21
416.04597678156563
 31
0.0
  0
LINE
  5
18A
  8
DATA
  6
CONTINUOUS
 62
     7
 10
277.0
 20
415.58295391468209
 30
0.0
 11
292.0
 21
419.04597678156563
 31
0.0
  0
LINE
  5
18B
  8
DATA
  6
CONTINUOUS
 62
     7
 10
277.0
 20
417.58295391468209
 30
0.0
 11
292.0
 21
421.04597678156563
 31
0.0
  0
LINE
  5
18C
  8
DATA
  6
CONTINUOUS
 62
     7
 10
277.0
 20
420.58295391468209
 30
0.0
 11
292.0
 21
424.04597678156551
 31
0.0
  0
LINE
  5
18D
  8
DATA
  6
CONTINUOUS
 62
     7
 10
277.0
 20
422.58295391468209
 30
0.0
 11
292.0
 21
426.04597678156563
 31
0.0
  0
LINE
  5
18E
  8
DATA
  6
CONTINUOUS
 62
     7
 10
277.0
 20
425.58295391468209
 30
0.0
 11
292.0
 21
429.04597678156563
 31
0.0
  0
LINE
  5
18F
  8
DATA
  6
CONTINUOUS
 62
     7
 10
277.0
 20
427.58295391468209
 30
0.0
 11
292.0
 21
431.04597678156563
 31
0.0
  0
LINE
  5
190
  8
DATA
  6
CONTINUOUS
 62
     7
 10
277.0
 20
430.58295391468209
 30
0.0
 11
292.0
 21
434.04597678156563
 31
0.0
  0
LINE
  5
191
  8
DATA
  6
CONTINUOUS
 62
     7
 10
277.0
 20
432.58295391468221
 30
0.0
 11
292.0
 21
436.04597678156563
 31
0.0
  0
LINE
  5
192
  8
DATA
  6
CONTINUOUS
 62
     7
 10
277.0
 20
435.58295391468209
 30
0.0
 11
292.0
 21
439.04597678156563
 31
0.0
  0
LINE
  5
193
  8
DATA
  6
CONTINUOUS
 62
     7
 10
277.0
 20
437.58295391468209
 30
0.0
 11
292.0
 21
441.04597678156563
 31
0.0
  0
LINE
  5
194
  8
DATA
  6
CONTINUOUS
 62
     7
 10
277.0
 20
440.58295391468209
 30
0.0
 11
292.0
 21
444.04597678156563
 31
0.0
  0
LINE
  5
195
  8
DATA
  6
CONTINUOUS
 62
     7
 10
277.0
 20
442.58295391468209
 30
0.0
 11
292.0
 21
446.04597678156563
 31
0.0
  0
LINE
  5
196
  8
DATA
  6
CONTINUOUS
 62
     7
 10
277.0
 20
445.58295391468209
 30
0.0
 11
291.8008526798713
 21
449.0
 31
0.0
  0
LINE
  5
197
  8
DATA
  6
CONTINUOUS
 62
     7
 10
277.0
 20
210.55015752561761
 30
0.0
 11
292.0
 21
214.01904188581489
 31
0.0
  0
LINE
  5
198
  8
DATA
  6
CONTINUOUS
 62
     7
 10
277.0
 20
207.55015752561761
 30
0.0
 11
292.0
 21
211.01904188581489
 31
0.0
  0
LINE
  5
199
  8
DATA
  6
CONTINUOUS
 62
     7
 10
277.0
 20
205.55015752561761
 30
0.0
 11
292.0
 21
209.01904188581489
 31
0.0
  0
LINE
  5
19A
  8
DATA
  6
CONTINUOUS
 62
     7
 10
287.59350306899393
 20
205.0
 30
0.0
 11
292.0
 21
206.01904188581489
 31
0.0
  0
LINE
  5
19B
  8
DATA
  6
CONTINUOUS
 62
     7
 10
277.0
 20
449.0
 30
0.0
 11
277.0
 21
450.0
 31
0.0
  0
LINE
  5
19C
  8
DATA
  6
CONTINUOUS
 62
     7
 10
292.0
 20
449.0
 30
0.0
 11
292.0
 21
450.0
 31
0.0
  0
LINE
  5
19D
  8
DATA
  6
CONTINUOUS
 62
     7
 10
291.8008526798713
 20
449.0
 30
0.0
 11
292.0
 21
449.04597678156563
 31
0.0
  0
LINE
  5
19E
  8
DATA
  6
CONTINUOUS
 62
     7
 10
277.0
 20
450.0
 30
0.0
 11
277.0
 21
605.0
 31
0.0
  0
LINE
  5
19F
  8
DATA
  6
CONTINUOUS
 62
     7
 10
292.0
 20
450.0
 30
0.0
 11
292.0
 21
605.0
 31
0.0
  0
LINE
  5
1A0
  8
DATA
  6
CONTINUOUS
 62
     7
 10
277.0
 20
448.48052214653347
 30
0.0
 11
292.0
 21
451.94354501341678
 31
0.0
  0
LINE
  5
1A1
  8
DATA
  6
CONTINUOUS
 62
     7
 10
277.0
 20
450.48052214653347
 30
0.0
 11
292.0
 21
453.94354501341678
 31
0.0
  0
LINE
  5
1A2
  8
DATA
  6
CONTINUOUS
 62
     7
 10
277.0
 20
453.48052214653347
 30
0.0
 11
292.0
 21
456.94354501341678
 31
0.0
  0
LINE
  5
1A3
  8
DATA
  6
CONTINUOUS
 62
     7
 10
277.0
 20
455.48052214653342
 30
0.0
 11
292.0
 21
458.94354501341678
 31
0.0
  0
LINE
  5
1A4
  8
DATA
  6
CONTINUOUS
 62
     7
 10
277.0
 20
458.48052214653342
 30
0.0
 11
292.0
 21
461.94354501341678
 31
0.0
  0
LINE
  5
1A5
  8
DATA
  6
CONTINUOUS
 62
     7
 10
277.0
 20
460.4805221465333
 30
0.0
 11
292.0
 21
463.94354501341678
 31
0.0
  0
LINE
  5
1A6
  8
DATA
  6
CONTINUOUS
 62
     7
 10
277.0
 20
463.48052214653342
 30
0.0
 11
292.0
 21
466.94354501341678
 31
0.0
  0
LINE
  5
1A7
  8
DATA
  6
CONTINUOUS
 62
     7
 10
277.0
 20
465.48052214653342
 30
0.0
 11
292.0
 21
468.94354501341678
 31
0.0
  0
LINE
  5
1A8
  8
DATA
  6
CONTINUOUS
 62
     7
 10
277.0
 20
468.4805221465333
 30
0.0
 11
292.0
 21
471.94354501341678
 31
0.0
  0
LINE
  5
1A9
  8
DATA
  6
CONTINUOUS
 62
     7
 10
277.0
 20
470.4805221465333
 30
0.0
 11
292.0
 21
473.94354501341678
 31
0.0
  0
LINE
  5
1AA
  8
DATA
  6
CONTINUOUS
 62
     7
 10
277.0
 20
473.4805221465333
 30
0.0
 11
292.0
 21
476.94354501341678
 31
0.0
  0
LINE
  5
1AB
  8
DATA
  6
CONTINUOUS
 62
     7
 10
277.0
 20
475.4805221465333
 30
0.0
 11
292.0
 21
478.94354501341678
 31
0.0
  0
LINE
  5
1AC
  8
DATA
  6
CONTINUOUS
 62
     7
 10
277.0
 20
478.4805221465333
 30
0.0
 11
292.0
 21
481.94354501341678
 31
0.0
  0
LINE
  5
1AD
  8
DATA
  6
CONTINUOUS
 62
     7
 10
277.0
 20
483.4805221465333
 30
0.0
 11
292.0
 21
486.94354501341689
 31
0.0
  0
LINE
  5
1AE
  8
DATA
  6
CONTINUOUS
 62
     7
 10
277.0
 20
480.48052214653342
 30
0.0
 11
292.0
 21
483.94354501341678
 31
0.0
  0
LINE
  5
1AF
  8
DATA
  6
CONTINUOUS
 62
     7
 10
277.0
 20
485.4805221465333
 30
0.0
 11
292.0
 21
488.94354501341678
 31
0.0
  0
LINE
  5
1B0
  8
DATA
  6
CONTINUOUS
 62
     7
 10
277.0
 20
488.48052214653347
 30
0.0
 11
292.0
 21
491.94354501341689
 31
0.0
  0
LINE
  5
1B1
  8
DATA
  6
CONTINUOUS
 62
     7
 10
277.0
 20
490.48052214653347
 30
0.0
 11
292.0
 21
493.94354501341678
 31
0.0
  0
LINE
  5
1B2
  8
DATA
  6
CONTINUOUS
 62
     7
 10
277.0
 20
493.48052214653347
 30
0.0
 11
292.0
 21
496.94354501341678
 31
0.0
  0
LINE
  5
1B3
  8
DATA
  6
CONTINUOUS
 62
     7
 10
277.0
 20
495.48052214653347
 30
0.0
 11
292.0
 21
498.94354501341689
 31
0.0
  0
LINE
  5
1B4
  8
DATA
  6
CONTINUOUS
 62
     7
 10
277.0
 20
498.48052214653347
 30
0.0
 11
292.0
 21
501.94354501341678
 31
0.0
  0
LINE
  5
1B5
  8
DATA
  6
CONTINUOUS
 62
     7
 10
277.0
 20
500.48052214653347
 30
0.0
 11
292.0
 21
503.94354501341689
 31
0.0
  0
LINE
  5
1B6
  8
DATA
  6
CONTINUOUS
 62
     7
 10
277.0
 20
503.48052214653347
 30
0.0
 11
292.0
 21
506.94354501341689
 31
0.0
  0
LINE
  5
1B7
  8
DATA
  6
CONTINUOUS
 62
     7
 10
277.0
 20
505.48052214653347
 30
0.0
 11
292.0
 21
508.94354501341678
 31
0.0
  0
LINE
  5
1B8
  8
DATA
  6
CONTINUOUS
 62
     7
 10
277.0
 20
508.48052214653347
 30
0.0
 11
292.0
 21
511.94354501341689
 31
0.0
  0
LINE
  5
1B9
  8
DATA
  6
CONTINUOUS
 62
     7
 10
277.0
 20
510.48052214653347
 30
0.0
 11
292.0
 21
513.94354501341695
 31
0.0
  0
LINE
  5
1BA
  8
DATA
  6
CONTINUOUS
 62
     7
 10
277.0
 20
513.48052214653353
 30
0.0
 11
292.0
 21
516.94354501341695
 31
0.0
  0
LINE
  5
1BB
  8
DATA
  6
CONTINUOUS
 62
     7
 10
277.0
 20
515.48052214653353
 30
0.0
 11
292.0
 21
518.94354501341695
 31
0.0
  0
LINE
  5
1BC
  8
DATA
  6
CONTINUOUS
 62
     7
 10
277.0
 20
518.48052214653353
 30
0.0
 11
292.0
 21
521.94354501341695
 31
0.0
  0
LINE
  5
1BD
  8
DATA
  6
CONTINUOUS
 62
     7
 10
277.0
 20
520.48052214653353
 30
0.0
 11
292.0
 21
523.94354501341695
 31
0.0
  0
LINE
  5
1BE
  8
DATA
  6
CONTINUOUS
 62
     7
 10
277.0
 20
523.48052214653353
 30
0.0
 11
292.0
 21
526.94354501341695
 31
0.0
  0
LINE
  5
1BF
  8
DATA
  6
CONTINUOUS
 62
     7
 10
277.0
 20
525.48052214653353
 30
0.0
 11
292.0
 21
528.94354501341695
 31
0.0
  0
LINE
  5
1C0
  8
DATA
  6
CONTINUOUS
 62
     7
 10
277.0
 20
528.48052214653353
 30
0.0
 11
292.0
 21
531.94354501341707
 31
0.0
  0
LINE
  5
1C1
  8
DATA
  6
CONTINUOUS
 62
     7
 10
277.0
 20
530.48052214653353
 30
0.0
 11
292.0
 21
533.94354501341695
 31
0.0
  0
LINE
  5
1C2
  8
DATA
  6
CONTINUOUS
 62
     7
 10
277.0
 20
533.48052214653353
 30
0.0
 11
292.0
 21
536.94354501341695
 31
0.0
  0
LINE
  5
1C3
  8
DATA
  6
CONTINUOUS
 62
     7
 10
277.0
 20
535.48052214653353
 30
0.0
 11
292.0
 21
538.94354501341695
 31
0.0
  0
LINE
  5
1C4
  8
DATA
  6
CONTINUOUS
 62
     7
 10
277.0
 20
538.48052214653353
 30
0.0
 11
292.0
 21
541.94354501341695
 31
0.0
  0
LINE
  5
1C5
  8
DATA
  6
CONTINUOUS
 62
     7
 10
277.0
 20
540.48052214653353
 30
0.0
 11
292.0
 21
543.94354501341695
 31
0.0
  0
LINE
  5
1C6
  8
DATA
  6
CONTINUOUS
 62
     7
 10
277.0
 20
543.48052214653353
 30
0.0
 11
292.0
 21
546.94354501341695
 31
0.0
  0
LINE
  5
1C7
  8
DATA
  6
CONTINUOUS
 62
     7
 10
277.0
 20
545.48052214653353
 30
0.0
 11
292.0
 21
548.94354501341695
 31
0.0
  0
LINE
  5
1C8
  8
DATA
  6
CONTINUOUS
 62
     7
 10
277.0
 20
548.48052214653353
 30
0.0
 11
292.0
 21
551.94354501341695
 31
0.0
  0
LINE
  5
1C9
  8
DATA
  6
CONTINUOUS
 62
     7
 10
277.0
 20
553.48052214653353
 30
0.0
 11
292.0
 21
556.94354501341695
 31
0.0
  0
LINE
  5
1CA
  8
DATA
  6
CONTINUOUS
 62
     7
 10
277.0
 20
550.48052214653353
 30
0.0
 11
292.0
 21
553.94354501341695
 31
0.0
  0
LINE
  5
1CB
  8
DATA
  6
CONTINUOUS
 62
     7
 10
277.0
 20
555.48052214653353
 30
0.0
 11
292.0
 21
558.94354501341695
 31
0.0
  0
LINE
  5
1CC
  8
DATA
  6
CONTINUOUS
 62
     7
 10
277.0
 20
558.48052214653353
 30
0.0
 11
292.0
 21
561.94354501341695
 31
0.0
  0
LINE
  5
1CD
  8
DATA
  6
CONTINUOUS
 62
     7
 10
277.0
 20
560.48052214653353
 30
0.0
 11
292.0
 21
563.94354501341695
 31
0.0
  0
LINE
  5
1CE
  8
DATA
  6
CONTINUOUS
 62
     7
 10
277.0
 20
563.48052214653353
 30
0.0
 11
292.0
 21
566.94354501341695
 31
0.0
  0
LINE
  5
1CF
  8
DATA
  6
CONTINUOUS
 62
     7
 10
277.0
 20
565.48052214653353
 30
0.0
 11
292.0
 21
568.94354501341695
 31
0.0
  0
LINE
  5
1D0
  8
DATA
  6
CONTINUOUS
 62
     7
 10
277.0
 20
568.48052214653353
 30
0.0
 11
292.0
 21
571.94354501341695
 31
0.0
  0
LINE
  5
1D1
  8
DATA
  6
CONTINUOUS
 62
     7
 10
277.0
 20
570.48052214653353
 30
0.0
 11
292.0
 21
573.94354501341695
 31
0.0
  0
LINE
  5
1D2
  8
DATA
  6
CONTINUOUS
 62
     7
 10
277.0
 20
573.48052214653353
 30
0.0
 11
292.0
 21
576.94354501341695
 31
0.0
  0
LINE
  5
1D3
  8
DATA
  6
CONTINUOUS
 62
     7
 10
277.0
 20
575.48052214653353
 30
0.0
 11
292.0
 21
578.94354501341695
 31
0.0
  0
LINE
  5
1D4
  8
DATA
  6
CONTINUOUS
 62
     7
 10
277.0
 20
578.48052214653353
 30
0.0
 11
292.0
 21
581.94354501341695
 31
0.0
  0
LINE
  5
1D5
  8
DATA
  6
CONTINUOUS
 62
     7
 10
277.0
 20
580.48052214653353
 30
0.0
 11
292.0
 21
583.94354501341695
 31
0.0
  0
LINE
  5
1D6
  8
DATA
  6
CONTINUOUS
 62
     7
 10
277.0
 20
583.48052214653353
 30
0.0
 11
292.0
 21
586.94354501341695
 31
0.0
  0
LINE
  5
1D7
  8
DATA
  6
CONTINUOUS
 62
     7
 10
277.0
 20
585.48052214653353
 30
0.0
 11
292.0
 21
588.94354501341695
 31
0.0
  0
LINE
  5
1D8
  8
DATA
  6
CONTINUOUS
 62
     7
 10
277.0
 20
588.48052214653353
 30
0.0
 11
292.0
 21
591.94354501341695
 31
0.0
  0
LINE
  5
1D9
  8
DATA
  6
CONTINUOUS
 62
     7
 10
277.0
 20
590.48052214653353
 30
0.0
 11
292.0
 21
593.94354501341695
 31
0.0
  0
LINE
  5
1DA
  8
DATA
  6
CONTINUOUS
 62
     7
 10
277.0
 20
593.48052214653353
 30
0.0
 11
292.0
 21
596.94354501341695
 31
0.0
  0
LINE
  5
1DB
  8
DATA
  6
CONTINUOUS
 62
     7
 10
277.0
 20
595.48052214653353
 30
0.0
 11
292.0
 21
598.94354501341695
 31
0.0
  0
LINE
  5
1DC
  8
DATA
  6
CONTINUOUS
 62
     7
 10
277.0
 20
598.48052214653353
 30
0.0
 11
292.0
 21
601.94354501341695
 31
0.0
  0
LINE
  5
1DD
  8
DATA
  6
CONTINUOUS
 62
     7
 10
277.0
 20
600.48052214653353
 30
0.0
 11
292.0
 21
603.94354501341695
 31
0.0
  0
LINE
  5
1DE
  8
DATA
  6
STYLE_01
 62
     7
 10
372.94996821681048
 20
494.7019860423411
 30
0.0
 11
424.8220627255069
 21
494.7019860423411
 31
0.0
  0
LINE
  5
1DF
  8
DATA
  6
STYLE_01
 62
     7
 10
372.94996821681002
 20
509.62062606416981
 30
0.0
 11
424.8220627255069
 21
509.62062606416981
 31
0.0
  0
LINE
  5
1E0
  8
DATA
  6
CONTINUOUS
 62
     7
 10
176.49178806827109
 20
639.99631576589434
 30
0.0
 11
192.49178806827109
 21
639.99631576589434
 31
0.0
  0
LINE
  5
1E1
  8
DATA
  6
CONTINUOUS
 62
     7
 10
176.49178806827109
 20
629.99631576589434
 30
0.0
 11
192.49178806827109
 21
629.99631576589434
 31
0.0
  0
LINE
  5
1E2
  8
DATA
  6
CONTINUOUS
 62
     7
 10
176.49178806827109
 20
639.99631576589434
 30
0.0
 11
176.49178806827109
 21
629.99631576589434
 31
0.0
  0
LINE
  5
1E3
  8
DATA
  6
CONTINUOUS
 62
     7
 10
192.49178806827109
 20
639.99631576589434
 30
0.0
 11
192.49178806827109
 21
629.99631576589434
 31
0.0
  0
LINE
  5
1E4
  8
DATA
  6
CONTINUOUS
 62
     7
 10
176.49178806827109
 20
629.99631576589434
 30
0.0
 11
175.49178806827109
 21
626.99631576589434
 31
0.0
  0
LINE
  5
1E5
  8
DATA
  6
CONTINUOUS
 62
     7
 10
192.49178806827109
 20
629.99631576589434
 30
0.0
 11
193.49178806827109
 21
626.99631576589434
 31
0.0
  0
LINE
  5
1E6
  8
DATA
  6
CONTINUOUS
 62
     7
 10
192.99178806827109
 20
610.99631576589434
 30
0.0
 11
175.99178806827109
 21
610.99631576589434
 31
0.0
  0
LINE
  5
1E7
  8
DATA
  6
CONTINUOUS
 62
     7
 10
175.49178806827109
 20
626.99631576589434
 30
0.0
 11
193.49178806827109
 21
626.99631576589434
 31
0.0
  0
LINE
  5
1E8
  8
DATA
  6
CONTINUOUS
 62
     7
 10
176.49178806827109
 20
639.56058221389901
 30
0.0
 11
181.1346041912557
 21
639.99631576589434
 31
0.0
  0
LINE
  5
1E9
  8
DATA
  6
CONTINUOUS
 62
     7
 10
176.49178806827109
 20
638.56058221389901
 30
0.0
 11
191.78977660504901
 21
639.99631576589434
 31
0.0
  0
LINE
  5
1EA
  8
DATA
  6
CONTINUOUS
 62
     7
 10
176.49178806827109
 20
637.5605822138989
 30
0.0
 11
192.49178806827109
 21
639.06220033687634
 31
0.0
  0
LINE
  5
1EB
  8
DATA
  6
CONTINUOUS
 62
     7
 10
176.49178806827109
 20
636.56058221389901
 30
0.0
 11
192.49178806827109
 21
638.06220033687634
 31
0.0
  0
LINE
  5
1EC
  8
DATA
  6
CONTINUOUS
 62
     7
 10
176.49178806827109
 20
635.56058221389901
 30
0.0
 11
192.49178806827109
 21
637.06220033687634
 31
0.0
  0
LINE
  5
1ED
  8
DATA
  6
CONTINUOUS
 62
     7
 10
176.49178806827109
 20
634.56058221389901
 30
0.0
 11
192.49178806827109
 21
636.06220033687634
 31
0.0
  0
LINE
  5
1EE
  8
DATA
  6
CONTINUOUS
 62
     7
 10
176.49178806827109
 20
633.5605822138989
 30
0.0
 11
192.49178806827109
 21
635.06220033687634
 31
0.0
  0
LINE
  5
1EF
  8
DATA
  6
CONTINUOUS
 62
     7
 10
176.49178806827109
 20
632.56058221389901
 30
0.0
 11
192.49178806827109
 21
634.06220033687634
 31
0.0
  0
LINE
  5
1F0
  8
DATA
  6
CONTINUOUS
 62
     7
 10
176.49178806827109
 20
631.56058221389901
 30
0.0
 11
192.49178806827109
 21
633.06220033687634
 31
0.0
  0
LINE
  5
1F1
  8
DATA
  6
CONTINUOUS
 62
     7
 10
176.49178806827109
 20
630.56058221389901
 30
0.0
 11
192.49178806827109
 21
632.06220033687634
 31
0.0
  0
LINE
  5
1F2
  8
DATA
  6
CONTINUOUS
 62
     7
 10
181.1346041912557
 20
629.99631576589434
 30
0.0
 11
192.49178806827109
 21
631.06220033687634
 31
0.0
  0
LINE
  5
1F3
  8
DATA
  6
CONTINUOUS
 62
     7
 10
175.99178806827109
 20
621.99631576589434
 30
0.0
 11
192.99178806827109
 21
621.99631576589434
 31
0.0
  0
LINE
  5
1F4
  8
DATA
  6
CONTINUOUS
 62
     7
 10
175.99178806827109
 20
610.99631576589434
 30
0.0
 11
175.99178806827109
 21
621.99631576589434
 31
0.0
  0
LINE
  5
1F5
  8
DATA
  6
CONTINUOUS
 62
     7
 10
192.99178806827109
 20
610.99631576589434
 30
0.0
 11
192.99178806827109
 21
621.99631576589434
 31
0.0
  0
LINE
  5
1F6
  8
DATA
  6
CONTINUOUS
 62
     7
 10
175.99178806827109
 20
621.99631576589434
 30
0.0
 11
175.49178806827109
 21
626.99631576589434
 31
0.0
  0
LINE
  5
1F7
  8
DATA
  6
CONTINUOUS
 62
     7
 10
192.99178806827109
 20
621.99631576589434
 30
0.0
 11
193.49178806827109
 21
626.99631576589434
 31
0.0
  0
LINE
  5
1F8
  8
DATA
  6
CONTINUOUS
 62
     7
 10
177.0
 20
605.0
 30
0.0
 11
177.0
 21
610.99631576589434
 31
0.0
  0
LINE
  5
1F9
  8
DATA
  6
CONTINUOUS
 62
     7
 10
192.0
 20
605.0
 30
0.0
 11
192.0
 21
610.99631576589434
 31
0.0
  0
LINE
  5
1FA
  8
DATA
  6
CONTINUOUS
 62
     7
 10
177.0
 20
603.54950316365762
 30
0.0
 11
192.0
 21
607.01252603054104
 31
0.0
  0
LINE
  5
1FB
  8
DATA
  6
CONTINUOUS
 62
     7
 10
177.0
 20
605.54950316365762
 30
0.0
 11
192.0
 21
609.01252603054104
 31
0.0
  0
LINE
  5
1FC
  8
DATA
  6
CONTINUOUS
 62
     7
 10
177.0
 20
608.5495031636575
 30
0.0
 11
187.59830975548309
 21
610.99631576589434
 31
0.0
  0
LINE
  5
1FD
  8
DATA
  6
CONTINUOUS
 62
     7
 10
177.0
 20
610.54950316365762
 30
0.0
 11
178.9353580069147
 21
610.99631576589434
 31
0.0
  0
CIRCLE
  5
1FE
  8
DATA
  6
CONTINUOUS
 62
     7
 10
184.49178806827109
 20
675.0
 30
0.0
 40
8.0
  0
CIRCLE
  5
1FF
  8
DATA
  6
CONTINUOUS
 62
     7
 10
184.49178806827109
 20
675.0
 30
0.0
 40
5.5
  0
LINE
  5
200
  8
DATA
  6
CONTINUOUS
 62
     7
 10
276.49178806827109
 20
639.99631576589434
 30
0.0
 11
292.49178806827109
 21
639.99631576589434
 31
0.0
  0
LINE
  5
201
  8
DATA
  6
CONTINUOUS
 62
     7
 10
276.49178806827109
 20
629.99631576589434
 30
0.0
 11
292.49178806827109
 21
629.99631576589434
 31
0.0
  0
LINE
  5
202
  8
DATA
  6
CONTINUOUS
 62
     7
 10
276.49178806827109
 20
639.99631576589434
 30
0.0
 11
276.49178806827109
 21
629.99631576589434
 31
0.0
  0
LINE
  5
203
  8
DATA
  6
CONTINUOUS
 62
     7
 10
292.49178806827109
 20
639.99631576589434
 30
0.0
 11
292.49178806827109
 21
629.99631576589434
 31
0.0
  0
LINE
  5
204
  8
DATA
  6
CONTINUOUS
 62
     7
 10
276.49178806827109
 20
629.99631576589434
 30
0.0
 11
275.49178806827109
 21
626.99631576589434
 31
0.0
  0
LINE
  5
205
  8
DATA
  6
CONTINUOUS
 62
     7
 10
292.49178806827109
 20
629.99631576589434
 30
0.0
 11
293.49178806827109
 21
626.99631576589434
 31
0.0
  0
LINE
  5
206
  8
DATA
  6
CONTINUOUS
 62
     7
 10
292.99178806827109
 20
610.99631576589434
 30
0.0
 11
275.99178806827109
 21
610.99631576589434
 31
0.0
  0
LINE
  5
207
  8
DATA
  6
CONTINUOUS
 62
     7
 10
275.49178806827109
 20
626.99631576589434
 30
0.0
 11
293.49178806827109
 21
626.99631576589434
 31
0.0
  0
LINE
  5
208
  8
DATA
  6
CONTINUOUS
 62
     7
 10
276.49178806827109
 20
639.56058221389901
 30
0.0
 11
281.13460419125568
 21
639.99631576589434
 31
0.0
  0
LINE
  5
209
  8
DATA
  6
CONTINUOUS
 62
     7
 10
276.49178806827109
 20
638.56058221389901
 30
0.0
 11
291.78977660504898
 21
639.99631576589434
 31
0.0
  0
LINE
  5
20A
  8
DATA
  6
CONTINUOUS
 62
     7
 10
276.49178806827109
 20
637.5605822138989
 30
0.0
 11
292.49178806827109
 21
639.06220033687634
 31
0.0
  0
LINE
  5
20B
  8
DATA
  6
CONTINUOUS
 62
     7
 10
276.49178806827109
 20
636.56058221389901
 30
0.0
 11
292.49178806827109
 21
638.06220033687634
 31
0.0
  0
LINE
  5
20C
  8
DATA
  6
CONTINUOUS
 62
     7
 10
276.49178806827109
 20
635.56058221389901
 30
0.0
 11
292.49178806827109
 21
637.06220033687634
 31
0.0
  0
LINE
  5
20D
  8
DATA
  6
CONTINUOUS
 62
     7
 10
276.49178806827109
 20
634.56058221389901
 30
0.0
 11
292.49178806827109
 21
636.06220033687634
 31
0.0
  0
LINE
  5
20E
  8
DATA
  6
CONTINUOUS
 62
     7
 10
276.49178806827109
 20
633.5605822138989
 30
0.0
 11
292.49178806827109
 21
635.06220033687634
 31
0.0
  0
LINE
  5
20F
  8
DATA
  6
CONTINUOUS
 62
     7
 10
276.49178806827109
 20
632.56058221389901
 30
0.0
 11
292.49178806827109
 21
634.06220033687634
 31
0.0
  0
LINE
  5
210
  8
DATA
  6
CONTINUOUS
 62
     7
 10
276.49178806827109
 20
631.56058221389901
 30
0.0
 11
292.49178806827109
 21
633.06220033687634
 31
0.0
  0
LINE
  5
211
  8
DATA
  6
CONTINUOUS
 62
     7
 10
276.49178806827109
 20
630.56058221389901
 30
0.0
 11
292.49178806827109
 21
632.06220033687634
 31
0.0
  0
LINE
  5
212
  8
DATA
  6
CONTINUOUS
 62
     7
 10
281.13460419125568
 20
629.99631576589434
 30
0.0
 11
292.49178806827109
 21
631.06220033687634
 31
0.0
  0
LINE
  5
213
  8
DATA
  6
CONTINUOUS
 62
     7
 10
275.99178806827109
 20
621.99631576589434
 30
0.0
 11
292.99178806827109
 21
621.99631576589434
 31
0.0
  0
LINE
  5
214
  8
DATA
  6
CONTINUOUS
 62
     7
 10
275.99178806827109
 20
610.99631576589434
 30
0.0
 11
275.99178806827109
 21
621.99631576589434
 31
0.0
  0
LINE
  5
215
  8
DATA
  6
CONTINUOUS
 62
     7
 10
292.99178806827109
 20
610.99631576589434
 30
0.0
 11
292.99178806827109
 21
621.99631576589434
 31
0.0
  0
LINE
  5
216
  8
DATA
  6
CONTINUOUS
 62
     7
 10
275.99178806827109
 20
621.99631576589434
 30
0.0
 11
275.49178806827109
 21
626.99631576589434
 31
0.0
  0
LINE
  5
217
  8
DATA
  6
CONTINUOUS
 62
     7
 10
292.99178806827109
 20
621.99631576589434
 30
0.0
 11
293.49178806827109
 21
626.99631576589434
 31
0.0
  0
LINE
  5
218
  8
DATA
  6
CONTINUOUS
 62
     7
 10
277.0
 20
605.0
 30
0.0
 11
277.0
 21
610.99631576589434
 31
0.0
  0
LINE
  5
219
  8
DATA
  6
CONTINUOUS
 62
     7
 10
292.0
 20
605.0
 30
0.0
 11
292.0
 21
610.99631576589434
 31
0.0
  0
LINE
  5
21A
  8
DATA
  6
CONTINUOUS
 62
     7
 10
277.0
 20
603.54950316365762
 30
0.0
 11
292.0
 21
607.01252603054104
 31
0.0
  0
LINE
  5
21B
  8
DATA
  6
CONTINUOUS
 62
     7
 10
277.0
 20
605.54950316365762
 30
0.0
 11
292.0
 21
609.01252603054104
 31
0.0
  0
LINE
  5
21C
  8
DATA
  6
CONTINUOUS
 62
     7
 10
277.0
 20
608.5495031636575
 30
0.0
 11
287.59830975548311
 21
610.99631576589434
 31
0.0
  0
LINE
  5
21D
  8
DATA
  6
CONTINUOUS
 62
     7
 10
277.0
 20
610.54950316365762
 30
0.0
 11
278.93535800691473
 21
610.99631576589434
 31
0.0
  0
LINE
  5
21E
  8
DATA
  6
CONTINUOUS
 62
     7
 10
453.8220627255069
 20
510.24138507941359
 30
0.0
 11
453.8220627255069
 21
494.2413850794137
 31
0.0
  0
LINE
  5
21F
  8
DATA
  6
CONTINUOUS
 62
     7
 10
443.8220627255069
 20
510.24138507941359
 30
0.0
 11
443.8220627255069
 21
494.2413850794137
 31
0.0
  0
LINE
  5
220
  8
DATA
  6
CONTINUOUS
 62
     7
 10
453.8220627255069
 20
510.24138507941359
 30
0.0
 11
443.8220627255069
 21
510.24138507941359
 31
0.0
  0
LINE
  5
221
  8
DATA
  6
CONTINUOUS
 62
     7
 10
453.8220627255069
 20
494.2413850794137
 30
0.0
 11
443.8220627255069
 21
494.2413850794137
 31
0.0
  0
LINE
  5
222
  8
DATA
  6
CONTINUOUS
 62
     7
 10
443.8220627255069
 20
510.24138507941359
 30
0.0
 11
440.8220627255069
 21
511.2413850794137
 31
0.0
  0
LINE
  5
223
  8
DATA
  6
CONTINUOUS
 62
     7
 10
443.8220627255069
 20
494.2413850794137
 30
0.0
 11
440.8220627255069
 21
493.24138507941359
 31
0.0
  0
LINE
  5
224
  8
DATA
  6
CONTINUOUS
 62
     7
 10
424.8220627255069
 20
493.74138507941359
 30
0.0
 11
424.8220627255069
 21
510.7413850794137
 31
0.0
  0
LINE
  5
225
  8
DATA
  6
CONTINUOUS
 62
     7
 10
440.8220627255069
 20
511.2413850794137
 30
0.0
 11
440.8220627255069
 21
493.24138507941359
 31
0.0
  0
LINE
  5
226
  8
DATA
  6
CONTINUOUS
 62
     7
 10
453.38632917351151
 20
510.24138507941359
 30
0.0
 11
453.8220627255069
 21
505.59856895642878
 31
0.0
  0
LINE
  5
227
  8
DATA
  6
CONTINUOUS
 62
     7
 10
452.38632917351151
 20
510.24138507941359
 30
0.0
 11
453.8220627255069
 21
494.94339654263558
 31
0.0
  0
LINE
  5
228
  8
DATA
  6
CONTINUOUS
 62
     7
 10
451.3863291735114
 20
510.24138507941359
 30
0.0
 11
452.8879472964889
 21
494.2413850794137
 31
0.0
  0
LINE
  5
229
  8
DATA
  6
CONTINUOUS
 62
     7
 10
450.38632917351151
 20
510.24138507941359
 30
0.0
 11
451.8879472964889
 21
494.2413850794137
 31
0.0
  0
LINE
  5
22A
  8
DATA
  6
CONTINUOUS
 62
     7
 10
449.38632917351151
 20
510.24138507941359
 30
0.0
 11
450.88794729648879
 21
494.2413850794137
 31
0.0
  0
LINE
  5
22B
  8
DATA
  6
CONTINUOUS
 62
     7
 10
448.38632917351151
 20
510.24138507941359
 30
0.0
 11
449.8879472964889
 21
494.2413850794137
 31
0.0
  0
LINE
  5
22C
  8
DATA
  6
CONTINUOUS
 62
     7
 10
447.3863291735114
 20
510.24138507941359
 30
0.0
 11
448.8879472964889
 21
494.2413850794137
 31
0.0
  0
LINE
  5
22D
  8
DATA
  6
CONTINUOUS
 62
     7
 10
446.38632917351151
 20
510.24138507941359
 30
0.0
 11
447.8879472964889
 21
494.2413850794137
 31
0.0
  0
LINE
  5
22E
  8
DATA
  6
CONTINUOUS
 62
     7
 10
445.38632917351151
 20
510.24138507941359
 30
0.0
 11
446.88794729648879
 21
494.2413850794137
 31
0.0
  0
LINE
  5
22F
  8
DATA
  6
CONTINUOUS
 62
     7
 10
444.38632917351151
 20
510.24138507941359
 30
0.0
 11
445.8879472964889
 21
494.2413850794137
 31
0.0
  0
LINE
  5
230
  8
DATA
  6
CONTINUOUS
 62
     7
 10
443.8220627255069
 20
505.59856895642878
 30
0.0
 11
444.8879472964889
 21
494.2413850794137
 31
0.0
  0
LINE
  5
231
  8
DATA
  6
CONTINUOUS
 62
     7
 10
435.8220627255069
 20
510.7413850794137
 30
0.0
 11
435.8220627255069
 21
493.74138507941359
 31
0.0
  0
LINE
  5
232
  8
DATA
  6
CONTINUOUS
 62
     7
 10
424.8220627255069
 20
510.7413850794137
 30
0.0
 11
435.8220627255069
 21
510.7413850794137
 31
0.0
  0
LINE
  5
233
  8
DATA
  6
CONTINUOUS
 62
     7
 10
424.8220627255069
 20
493.74138507941359
 30
0.0
 11
435.8220627255069
 21
493.74138507941359
 31
0.0
  0
LINE
  5
234
  8
DATA
  6
CONTINUOUS
 62
     7
 10
435.8220627255069
 20
510.7413850794137
 30
0.0
 11
440.8220627255069
 21
511.2413850794137
 31
0.0
  0
LINE
  5
235
  8
DATA
  6
CONTINUOUS
 62
     7
 10
435.8220627255069
 20
493.74138507941359
 30
0.0
 11
440.8220627255069
 21
493.24138507941359
 31
0.0
  0
LINE
  5
236
  8
DATA
  6
CONTINUOUS
 62
     7
 10
192.49178806827109
 20
637.49631576589434
 30
0.0
 11
225.0
 21
675.0
 31
0.0
  0
LINE
  5
237
  8
DATA
  6
CONTINUOUS
 62
     7
 10
192.49178806827109
 20
637.49631576589434
 30
0.0
 11
196.8145684097052
 21
646.35932890624042
 31
0.0
  0
LINE
  5
238
  8
DATA
  6
CONTINUOUS
 62
     7
 10
192.49178806827109
 20
637.49631576589434
 30
0.0
 11
200.6669322291061
 21
643.01052012879211
 31
0.0
  0
TEXT
  5
239
  8
DATA
 62
     7
 10
230.73890988483339
 20
677.90572674344423
 30
0.0
 40
8.1442057291666661
  1
5/8インチネジ
 41
0.7
 11
230.73890988483339
 21
686.04993247261086
 31
0.0
 73
     3
  0
LINE
  5
23A
  8
DATA
  6
CONTINUOUS
 62
     7
 10
225.0
 20
675.0
 30
0.0
 11
314.0
 21
675.0
 31
0.0
  0
CIRCLE
  5
23B
  8
DATA
  6
CONTINUOUS
 62
     7
 10
184.49178806827109
 20
675.0
 30
0.0
 40
9.0
  0
ENDSEC
  0
EOF
