  0
SECTION
  2
HEADER
  9
$ACADVER
  1
AC1009
  9
$INSBASE
 10
0.0
 20
0.0
 30
0.0
  9
$EXTMIN
 10
29.989015033921529
 20
7.1438617575261096
 30
-0.0015258207003583
  9
$EXTMAX
 10
570.01739634668616
 20
810.02472112423811
 30
0.0000000349246037
  9
$LIMMIN
 10
0.0
 20
0.0
  9
$LIMMAX
 10
0.0
 20
0.0
  9
$ORTHOMODE
 70
     0
  9
$REGENMODE
 70
     1
  9
$FILLMODE
 70
     1
  9
$QTEXTMODE
 70
     0
  9
$MIRRTEXT
 70
     1
  9
$DRAGMODE
 70
     2
  9
$LTSCALE
 40
15.24
  9
$OSMODE
 70
   231
  9
$ATTMODE
 70
     1
  9
$TEXTSIZE
 40
0.0
  9
$TRACEWID
 40
1.0
  9
$TEXTSTYLE
  7
STANDARD
  9
$CLAYER
  8
DATA
  9
$CELTYPE
  6
BYLAYER
  9
$CECOLOR
 62
   256
  9
$DIMSCALE
 40
1.0
  9
$DIMASZ
 40
0.18
  9
$DIMEXO
 40
0.0625
  9
$DIMDLI
 40
0.38
  9
$DIMRND
 40
0.0
  9
$DIMDLE
 40
0.0
  9
$DIMEXE
 40
0.18
  9
$DIMTP
 40
0.0
  9
$DIMTM
 40
0.0
  9
$DIMTXT
 40
0.18
  9
$DIMCEN
 40
0.09
  9
$DIMTSZ
 40
0.0
  9
$DIMTOL
 70
     0
  9
$DIMLIM
 70
     0
  9
$DIMTIH
 70
     1
  9
$DIMTOH
 70
     1
  9
$DIMSE1
 70
     0
  9
$DIMSE2
 70
     0
  9
$DIMTAD
 70
     0
  9
$DIMZIN
 70
     0
  9
$DIMBLK
  1

  9
$DIMASO
 70
     1
  9
$DIMSHO
 70
     1
  9
$DIMPOST
  1

  9
$DIMAPOST
  1

  9
$DIMALT
 70
     0
  9
$DIMALTD
 70
     2
  9
$DIMALTF
 40
25.399999999999999
  9
$DIMLFAC
 40
1.0
  9
$DIMTOFL
 70
     0
  9
$DIMTVP
 40
0.0
  9
$DIMTIX
 70
     0
  9
$DIMSOXD
 70
     0
  9
$DIMSAH
 70
     0
  9
$DIMBLK1
  1

  9
$DIMBLK2
  1

  9
$DIMSTYLE
  2
STANDARD
  9
$DIMCLRD
 70
     0
  9
$DIMCLRE
 70
     0
  9
$DIMCLRT
 70
     0
  9
$DIMTFAC
 40
1.0
  9
$DIMGAP
 40
0.09
  9
$LUNITS
 70
     2
  9
$LUPREC
 70
     4
  9
$SKETCHINC
 40
0.1
  9
$FILLETRAD
 40
0.0
  9
$AUNITS
 70
     0
  9
$AUPREC
 70
     0
  9
$MENU
  1
acad
  9
$ELEVATION
 40
0.0
  9
$PELEVATION
 40
0.0
  9
$THICKNESS
 40
0.0
  9
$LIMCHECK
 70
     0
  9
$BLIPMODE
 70
     0
  9
$CHAMFERA
 40
0.0
  9
$CHAMFERB
 40
0.0
  9
$SKPOLY
 70
     0
  9
$TDCREATE
 40
2453984.658692129
  9
$TDUPDATE
 40
2453984.6760883569
  9
$TDINDWG
 40
0.0002647569
  9
$TDUSRTIMER
 40
0.0002645833
  9
$USRTIMER
 70
     1
  9
$ANGBASE
 50
0.0
  9
$ANGDIR
 70
     0
  9
$PDMODE
 70
     1
  9
$PDSIZE
 40
-2.0
  9
$PLINEWID
 40
0.0
  9
$COORDS
 70
     1
  9
$SPLFRAME
 70
     0
  9
$SPLINETYPE
 70
     6
  9
$SPLINESEGS
 70
     8
  9
$ATTDIA
 70
     0
  9
$ATTREQ
 70
     1
  9
$HANDLING
 70
     1
  9
$HANDSEED
  5
3B4
  9
$SURFTAB1
 70
     6
  9
$SURFTAB2
 70
     6
  9
$SURFTYPE
 70
     6
  9
$SURFU
 70
     6
  9
$SURFV
 70
     6
  9
$UCSNAME
  2

  9
$UCSORG
 10
0.0
 20
0.0
 30
0.0
  9
$UCSXDIR
 10
1.0
 20
0.0
 30
0.0
  9
$UCSYDIR
 10
0.0
 20
1.0
 30
0.0
  9
$PUCSNAME
  2

  9
$PUCSORG
 10
0.0
 20
0.0
 30
0.0
  9
$PUCSXDIR
 10
1.0
 20
0.0
 30
0.0
  9
$PUCSYDIR
 10
0.0
 20
1.0
 30
0.0
  9
$USERI1
 70
     0
  9
$USERI2
 70
     0
  9
$USERI3
 70
     0
  9
$USERI4
 70
     0
  9
$USERI5
 70
     0
  9
$USERR1
 40
0.0
  9
$USERR2
 40
0.0
  9
$USERR3
 40
0.0
  9
$USERR4
 40
0.0
  9
$USERR5
 40
0.0
  9
$WORLDVIEW
 70
     1
  9
$SHADEDGE
 70
     3
  9
$SHADEDIF
 70
    70
  9
$TILEMODE
 70
     1
  9
$MAXACTVP
 70
    64
  9
$PLIMCHECK
 70
     0
  9
$PEXTMIN
 10
1.0000000000000000E+020
 20
1.0000000000000000E+020
 30
1.0000000000000000E+020
  9
$PEXTMAX
 10
-1.0000000000000000E+020
 20
-1.0000000000000000E+020
 30
-1.0000000000000000E+020
  9
$PLIMMIN
 10
0.0
 20
0.0
  9
$PLIMMAX
 10
12.0
 20
9.0
  9
$UNITMODE
 70
     0
  9
$VISRETAIN
 70
     0
  9
$PLINEGEN
 70
     1
  9
$PSLTSCALE
 70
     0
  0
ENDSEC
  0
SECTION
  2
TABLES
  0
TABLE
  2
VPORT
 70
     1
  0
VPORT
  2
*ACTIVE
 70
     0
 10
0.0
 20
0.0
 11
1.0
 21
1.0
 12
300.00320569030379
 22
408.58429144088211
 13
0.0
 23
0.0
 14
1.0
 24
1.0
 15
0.0
 25
0.0
 16
0.0
 26
0.0
 36
1.0
 17
0.0
 27
0.0
 37
0.0
 40
809.54377106270135
 41
1.6703601108033239
 42
50.0
 43
0.0
 44
0.0
 50
0.0
 51
0.0
 71
     0
 72
  2000
 73
     1
 74
     1
 75
     0
 76
     0
 77
     0
 78
     0
  0
ENDTAB
  0
TABLE
  2
LTYPE
 70
    11
  0
LTYPE
  2
CONTINUOUS
 70
     0
  3
Solid line
 72
    65
 73
     0
 40
0.0
  0
ENDTAB
  0
TABLE
  2
LAYER
 70
     5
  0
LAYER
  2
0
 70
     0
 62
     7
  6
CONTINUOUS
  0
LAYER
  2
DATA
 70
     0
 62
     7
  6
CONTINUOUS
  0
LAYER
  2
HIBINO-BASE
 70
     0
 62
     7
  6
CONTINUOUS
  0
LAYER
  2
SPEC
 70
     0
 62
     7
  6
CONTINUOUS
  0
LAYER
  2
DIMNSIONS
 70
     0
 62
     7
  6
CONTINUOUS
  0
ENDTAB
  0
TABLE
  2
STYLE
 70
     2
  0
STYLE
  2
STANDARD
 70
     0
 40
0.0
 41
1.0
 50
0.0
 71
     0
 42
0.0
  3
txt
  4
BIGFONT.SHX
  0
ENDTAB
  0
TABLE
  2
VIEW
 70
     0
  0
ENDTAB
  0
TABLE
  2
UCS
 70
     0
  0
ENDTAB
  0
TABLE
  2
APPID
 70
     1
  0
APPID
  2
ACAD
 70
     0
  0
ENDTAB
  0
TABLE
  2
DIMSTYLE
 70
     1
  0
DIMSTYLE
  2
STANDARD
 70
     0
  3

  4

  5

  6

  7

 40
1.0
 41
0.18
 42
0.0625
 43
0.38
 44
0.18
 45
0.0
 46
0.0
 47
0.0
 48
0.0
140
0.18
141
0.09
142
0.0
143
25.399999999999999
144
1.0
145
0.0
146
1.0
147
0.09
 71
     0
 72
     0
 73
     1
 74
     1
 75
     0
 76
     0
 77
     0
 78
     0
170
     0
171
     2
172
     0
173
     0
174
     0
175
     0
176
     0
177
     0
178
     0
  0
ENDTAB
  0
ENDSEC
  0
SECTION
  2
BLOCKS
  0
BLOCK
  8
0
  2
$MODEL_SPACE
 70
     0
 10
0.0
 20
0.0
 30
0.0
  3
$MODEL_SPACE
  1

  0
ENDBLK
  5
35E
  8
0
  0
BLOCK
 67
     1
  8
0
  2
$PAPER_SPACE
 70
     0
 10
0.0
 20
0.0
 30
0.0
  3
$PAPER_SPACE
  1

  0
ENDBLK
  5
35A
 67
     1
  8
0
  0
ENDSEC
  0
SECTION
  2
ENTITIES
  0
LINE
  5
2C
  8
HIBINO-BASE
 62
     7
 10
30.0
 20
810.0
 30
0.0
 11
569.99999999999989
 21
810.0
 31
0.0
  0
LINE
  5
2D
  8
HIBINO-BASE
 62
     7
 10
569.99999999999989
 20
30.0
 30
0.0
 11
30.0
 21
30.0
 31
0.0
  0
LINE
  5
2E
  8
HIBINO-BASE
 62
     7
 10
30.0
 20
30.0
 30
0.0
 11
30.0
 21
810.0
 31
0.0
  0
TEXT
  5
2F
  8
HIBINO-BASE
 62
     7
 10
51.551999999999971
 20
10.77396660000008
 30
0.0
 40
10.800132539062499
  1
Hibino Corporation
 41
0.8
 11
51.551999999999971
 21
21.574099139062589
 31
0.0
 73
     3
  0
LINE
  5
30
  8
HIBINO-BASE
 62
     7
 10
569.99999999999989
 20
810.0
 30
0.0
 11
569.99999999999989
 21
30.0
 31
0.0
  0
LINE
  5
31
  8
HIBINO-BASE
 62
     7
 10
300.0
 20
97.500000000000057
 30
0.0
 11
569.99999999999989
 21
97.500000000000057
 31
0.0
  0
LINE
  5
32
  8
HIBINO-BASE
 62
     7
 10
300.0
 20
30.0
 30
0.0
 11
300.0
 21
97.500000000000057
 31
0.0
  0
TEXT
  5
33
  8
HIBINO-BASE
 62
     7
 10
302.69999999999987
 20
89.973919999999993
 30
0.0
 40
4.8865234374999993
  1
NOTE
 41
0.8
 11
302.69999999999987
 21
94.860443437499995
 31
0.0
 73
     3
  0
LINE
  5
34
  8
HIBINO-BASE
 62
     7
 10
405.0
 20
30.0
 30
0.0
 11
405.0
 21
97.500000000000057
 31
0.0
  0
TEXT
  5
35
  8
HIBINO-BASE
 62
     7
 10
407.69999999999987
 20
89.973919999999993
 30
0.0
 40
4.8865234374999993
  1
TITLE
 41
0.8
 11
407.69999999999987
 21
94.860443437499995
 31
0.0
 73
     3
  0
TEXT
  5
36
  8
HIBINO-BASE
 62
     7
 10
450.2051699999999
 20
10.77396660000008
 30
0.0
 40
10.800132539062499
  1
ヒビノ株式会社
 41
0.8
 11
450.2051699999999
 21
21.574099139062589
 31
0.0
 73
     3
  0
LINE
  5
37
  8
HIBINO-BASE
 62
     7
 10
300.0
 20
60.000000000000071
 30
0.0
 11
569.99999999999989
 21
60.000000000000071
 31
0.0
  0
TEXT
  5
38
  8
HIBINO-BASE
 62
     7
 10
445.19999999999987
 20
52.64287999999997
 30
0.0
 40
4.8865234374999993
  1
DRAWN
 41
0.8
 11
445.19999999999987
 21
57.529403437499973
 31
0.0
 73
     3
  0
TEXT
  5
39
  8
HIBINO-BASE
 62
     7
 10
370.19999999999987
 20
52.64287999999997
 30
0.0
 40
4.8865234374999993
  1
DATE
 41
0.8
 11
370.19999999999987
 21
57.529403437499973
 31
0.0
 73
     3
  0
TEXT
  5
3A
  8
HIBINO-BASE
 62
     7
 10
340.19999999999987
 20
52.64287999999997
 30
0.0
 40
4.8865234374999993
  1
SCALE
 41
0.8
 11
340.19999999999987
 21
57.529403437499973
 31
0.0
 73
     3
  0
TEXT
  5
3B
  8
HIBINO-BASE
 62
     7
 10
407.69999999999987
 20
52.64287999999997
 30
0.0
 40
4.8865234374999993
  1
DESIGN
 41
0.8
 11
407.69999999999987
 21
57.529403437499973
 31
0.0
 73
     3
  0
TEXT
  5
3C
  8
HIBINO-BASE
 62
     7
 10
520.19999999999993
 20
52.64287999999997
 30
0.0
 40
4.8865234374999993
  1
DRAWING NO.
 41
0.8
 11
520.19999999999993
 21
57.529403437499973
 31
0.0
 73
     3
  0
TEXT
  5
3D
  8
HIBINO-BASE
 62
     7
 10
482.69999999999987
 20
52.64287999999997
 30
0.0
 40
4.8865234374999993
  1
CHECK
 41
0.8
 11
482.69999999999987
 21
57.529403437499973
 31
0.0
 73
     3
  0
LINE
  5
3E
  8
HIBINO-BASE
 62
     7
 10
343.12499999999989
 20
33.75
 30
0.0
 11
354.37499999999989
 21
45.000000000000057
 31
0.0
  0
TEXT
  5
3F
  8
HIBINO-BASE
 62
     7
 10
342.55323920034613
 20
40.6000984332901
 30
0.0
 40
5.7009440104166647
  1
1
 41
0.8
 11
342.55323920034613
 21
46.301042443706763
 31
0.0
 73
     3
  0
LINE
  5
40
  8
HIBINO-BASE
 62
     7
 10
337.5
 20
30.0
 30
0.0
 11
337.5
 21
60.000000000000071
 31
0.0
  0
LINE
  5
41
  8
HIBINO-BASE
 62
     7
 10
367.5
 20
30.0
 30
0.0
 11
367.5
 21
60.000000000000071
 31
0.0
  0
LINE
  5
42
  8
HIBINO-BASE
 62
     7
 10
442.49999999999989
 20
60.000000000000071
 30
0.0
 11
442.49999999999989
 21
30.0
 31
0.0
  0
LINE
  5
43
  8
HIBINO-BASE
 62
     7
 10
517.49999999999989
 20
60.000000000000071
 30
0.0
 11
517.49999999999989
 21
30.0
 31
0.0
  0
LINE
  5
44
  8
HIBINO-BASE
 62
     7
 10
479.99999999999989
 20
30.0
 30
0.0
 11
479.99999999999989
 21
60.000000000000071
 31
0.0
  0
TEXT
  5
45
  8
HIBINO-BASE
 62
     7
 10
370.06961999999987
 20
37.68077333333332
 30
0.0
 40
5.7009440104166647
  1
'06.08.
 41
0.8
 11
370.06961999999987
 21
43.381717343749983
 31
0.0
 73
     3
  0
TEXT
  5
46
  8
HIBINO-BASE
 62
     7
 10
352.49999999999989
 20
35.138003333333351
 30
0.0
 40
5.7009440104166647
  1
3
 41
0.8
 11
352.49999999999989
 21
40.838947343750007
 31
0.0
 73
     3
  0
TEXT
  5
47
  8
HIBINO-BASE
 62
     7
 10
311.64999999999998
 20
35.928000000000033
 30
0.0
 40
9.7730468749999986
  1
A4
 41
0.8
 11
311.64999999999998
 21
45.701046875000031
 31
0.0
 73
     3
  0
TEXT
  5
48
  8
HIBINO-BASE
 62
     7
 10
302.875
 20
52.141635000000051
 30
0.0
 40
4.8865234374999993
  1
PAPER SIZE
 41
0.8
 11
302.875
 21
57.028158437500053
 31
0.0
 73
     3
  0
LINE
  5
49
  8
SPEC
 62
     7
 10
52.5
 20
780.0
 30
0.0
 11
495.0
 21
780.0
 31
0.0
  0
LINE
  5
4A
  8
SPEC
 62
     7
 10
52.5
 20
768.75
 30
0.0
 11
495.0
 21
768.75
 31
0.0
  0
LINE
  5
4B
  8
SPEC
 62
     7
 10
52.5
 20
746.25
 30
0.0
 11
495.0
 21
746.25
 31
0.0
  0
LINE
  5
4C
  8
SPEC
 62
     7
 10
52.5
 20
757.5
 30
0.0
 11
495.0
 21
757.5
 31
0.0
  0
TEXT
  5
4D
  8
SPEC
 62
     7
 10
153.08713990674909
 20
771.71861235938445
 30
0.0
 40
5.700933749999999
  1
サスペンション・ショックマウント
 41
0.8
 11
153.08713990674909
 21
777.41954610938444
 31
0.0
 73
     3
  0
LINE
  5
4E
  8
SPEC
 62
     7
 10
52.5
 20
780.0
 30
0.0
 11
52.5
 21
746.25
 31
0.0
  0
TEXT
  5
4F
  8
SPEC
 62
     7
 10
56.25
 20
784.17980999999986
 30
0.0
 40
7.3297851562499989
  1
仕様
 41
0.8
 11
56.25
 21
791.50959515624982
 31
0.0
 73
     3
  0
LINE
  5
50
  8
SPEC
 62
     7
 10
150.0
 20
780.0
 30
0.0
 11
150.0
 21
746.25
 31
0.0
  0
LINE
  5
51
  8
SPEC
 62
     7
 10
495.0
 20
780.0
 30
0.0
 11
495.0
 21
746.25
 31
0.0
  0
TEXT
  5
52
  8
SPEC
 62
     7
 10
55.19999999999996
 20
771.83727079219045
 30
0.0
 40
5.700933749999999
  1
形式
 41
0.8
 11
55.19999999999996
 21
777.53820454219044
 31
0.0
 73
     3
  0
TEXT
  5
53
  8
SPEC
 62
     7
 10
55.502609488178358
 20
760.51556280248872
 30
0.0
 40
5.700933749999999
  1
寸法
 41
0.8
 11
55.502609488178358
 21
766.21649655248871
 31
0.0
 73
     3
  0
TEXT
  5
54
  8
SPEC
 62
     7
 10
55.326176042301931
 20
749.39215217826643
 30
0.0
 40
5.700933749999999
  1
質量
 41
0.8
 11
55.326176042301931
 21
755.09308592826642
 31
0.0
 73
     3
  0
TEXT
  5
55
  8
SPEC
 62
     7
 10
152.3020989173348
 20
759.89229035296955
 30
0.0
 40
5.700933749999999
  1
Φ105.5×152mm
 41
0.8
 11
152.3020989173348
 21
765.59322410296954
 31
0.0
 73
     3
  0
TEXT
  5
56
  8
SPEC
 62
     7
 10
154.61796258072769
 20
749.38195201215422
 30
0.0
 40
5.7009440104166647
  1
230g
 41
0.8
 11
154.61796258072769
 21
755.08289602257094
 31
0.0
 73
     3
  0
TEXT
  5
57
  8
DIMNSIONS
 62
     7
 10
240.0
 20
66.808470000000028
 30
0.0
 40
7.3297851562499989
  1
(単位：mm)
 41
0.8
 11
240.0
 21
74.138255156250025
 31
0.0
 73
     3
  0
LINE
  5
58
  8
DIMNSIONS
 62
     7
 10
180.25000000000011
 20
340.5000000000004
 30
0.0
 11
94.0
 21
340.5000000000004
 31
0.0
  0
LINE
  5
59
  8
DIMNSIONS
 62
     7
 10
194.00000000000011
 20
492.50000000000051
 30
0.0
 11
94.0
 21
492.50000000000051
 31
0.0
  0
LINE
  5
5A
  8
DIMNSIONS
 62
     7
 10
100.0
 20
340.5000000000004
 30
0.0
 11
100.0
 21
492.50000000000051
 31
0.0
  0
LINE
  5
5B
  8
DIMNSIONS
 62
     7
 10
100.0
 20
340.5000000000004
 30
0.0
 11
97.989880614549264
 21
348.00186767578168
 31
0.0
  0
LINE
  5
5C
  8
DIMNSIONS
 62
     7
 10
100.0
 20
340.5000000000004
 30
0.0
 11
102.01011938545069
 21
348.00186767578168
 31
0.0
  0
LINE
  5
5D
  8
DIMNSIONS
 62
     7
 10
100.0
 20
492.50000000000051
 30
0.0
 11
102.01011938545069
 21
484.99813232421923
 31
0.0
  0
LINE
  5
5E
  8
DIMNSIONS
 62
     7
 10
100.0
 20
492.50000000000051
 30
0.0
 11
97.989880614549264
 21
484.99813232421923
 31
0.0
  0
TEXT
  5
5F
  8
DIMNSIONS
 62
     7
 10
97.018333333333345
 20
408.56250000000051
 30
0.0
 40
8.1442057291666661
  1
152
 50
90.0
 41
0.8
 11
88.874127604166674
 21
408.56250000000051
 31
0.0
 73
     3
  0
LINE
  5
60
  8
DIMNSIONS
 62
     7
 10
189.59999999999999
 20
387.00000000000051
 30
0.0
 11
114.0
 21
387.00000000000051
 31
0.0
  0
LINE
  5
61
  8
DIMNSIONS
 62
     7
 10
194.00000000000011
 20
492.50000000000051
 30
0.0
 11
114.0
 21
492.50000000000051
 31
0.0
  0
LINE
  5
62
  8
DIMNSIONS
 62
     7
 10
120.0
 20
387.00000000000051
 30
0.0
 11
120.0
 21
492.50000000000051
 31
0.0
  0
LINE
  5
63
  8
DIMNSIONS
 62
     7
 10
120.0
 20
387.00000000000051
 30
0.0
 11
117.98988061454931
 21
394.50186767578168
 31
0.0
  0
LINE
  5
64
  8
DIMNSIONS
 62
     7
 10
120.0
 20
387.00000000000051
 30
0.0
 11
122.01011938545069
 21
394.50186767578168
 31
0.0
  0
LINE
  5
65
  8
DIMNSIONS
 62
     7
 10
120.0
 20
492.50000000000051
 30
0.0
 11
122.01011938545069
 21
484.99813232421923
 31
0.0
  0
LINE
  5
66
  8
DIMNSIONS
 62
     7
 10
120.0
 20
492.50000000000051
 30
0.0
 11
117.98988061454931
 21
484.99813232421923
 31
0.0
  0
TEXT
  5
67
  8
DIMNSIONS
 62
     7
 10
117.0183333333333
 20
426.52083333333371
 30
0.0
 40
8.1442057291666661
  1
105.5
 50
90.0
 41
0.8
 11
108.8741276041667
 21
426.52083333333371
 31
0.0
 73
     3
  0
LINE
  5
68
  8
DIMNSIONS
 62
     7
 10
294.5
 20
393.49017396738861
 30
0.0
 11
294.5
 21
294.0
 31
0.0
  0
LINE
  5
69
  8
DIMNSIONS
 62
     7
 10
370.5
 20
414.88461538461542
 30
0.0
 11
370.5
 21
294.0
 31
0.0
  0
LINE
  5
6A
  8
DIMNSIONS
 62
     7
 10
294.5
 20
300.0
 30
0.0
 11
370.5
 21
300.0
 31
0.0
  0
LINE
  5
6B
  8
DIMNSIONS
 62
     7
 10
294.5
 20
300.0
 30
0.0
 11
302.00186767578123
 21
302.01011938545082
 31
0.0
  0
LINE
  5
6C
  8
DIMNSIONS
 62
     7
 10
294.5
 20
300.0
 30
0.0
 11
302.00186767578123
 21
297.98988061454918
 31
0.0
  0
LINE
  5
6D
  8
DIMNSIONS
 62
     7
 10
370.5
 20
300.0
 30
0.0
 11
362.99813232421877
 21
297.98988061454918
 31
0.0
  0
LINE
  5
6E
  8
DIMNSIONS
 62
     7
 10
370.5
 20
300.0
 30
0.0
 11
362.99813232421877
 21
302.01011938545082
 31
0.0
  0
TEXT
  5
6F
  8
DIMNSIONS
 62
     7
 10
327.20833333333331
 20
302.98166666666663
 30
0.0
 40
8.1442057291666661
  1
76
 41
0.8
 11
327.20833333333331
 21
311.12587239583331
 31
0.0
 73
     3
  0
LINE
  5
70
  8
DIMNSIONS
 62
     7
 10
202.07456152210801
 20
450.29301678279938
 30
0.0
 11
213.09878864390981
 21
504.99014365652982
 31
0.0
  0
LINE
  5
71
  8
DIMNSIONS
 62
     7
 10
202.07456152210801
 20
450.29301678279938
 30
0.0
 11
201.66809406080361
 21
458.04887797106193
 31
0.0
  0
LINE
  5
72
  8
DIMNSIONS
 62
     7
 10
202.07456152210801
 20
450.29301678279938
 30
0.0
 11
205.60048096893789
 21
457.2130233307127
 31
0.0
  0
LINE
  5
73
  8
DIMNSIONS
 62
     7
 10
213.09878864390981
 20
504.99014365652982
 30
0.0
 11
240.2654553105765
 21
504.99014365652982
 31
0.0
  0
TEXT
  5
74
  8
DIMNSIONS
 62
     7
 10
219.09878864390981
 20
507.97181032319639
 30
0.0
 40
8.1442057291666661
  1
φ21
 41
0.8
 11
219.09878864390981
 21
516.11601605236319
 31
0.0
 73
     3
  0
LINE
  5
75
  8
DIMNSIONS
 62
     7
 10
376.5
 20
421.0000000002068
 30
0.0
 11
402.0
 21
421.0000000002068
 31
0.0
  0
LINE
  5
76
  8
DIMNSIONS
 62
     7
 10
376.5
 20
459.0000000002068
 30
0.0
 11
402.0
 21
459.0000000002068
 31
0.0
  0
LINE
  5
77
  8
DIMNSIONS
 62
     7
 10
396.0
 20
421.0000000002068
 30
0.0
 11
396.0
 21
459.0000000002068
 31
0.0
  0
LINE
  5
78
  8
DIMNSIONS
 62
     7
 10
396.0
 20
421.0000000002068
 30
0.0
 11
393.98988061454918
 21
428.50186767598802
 31
0.0
  0
LINE
  5
79
  8
DIMNSIONS
 62
     7
 10
396.0
 20
421.0000000002068
 30
0.0
 11
398.01011938545082
 21
428.50186767598802
 31
0.0
  0
LINE
  5
7A
  8
DIMNSIONS
 62
     7
 10
396.0
 20
459.0000000002068
 30
0.0
 11
398.01011938545082
 21
451.49813232442563
 31
0.0
  0
LINE
  5
7B
  8
DIMNSIONS
 62
     7
 10
396.0
 20
459.0000000002068
 30
0.0
 11
393.98988061454918
 21
451.49813232442563
 31
0.0
  0
TEXT
  5
7C
  8
DIMNSIONS
 62
     7
 10
393.01833333333332
 20
434.70833333354
 30
0.0
 40
8.1442057291666661
  1
38
 50
90.0
 41
0.8
 11
384.87412760416657
 21
434.70833333354
 31
0.0
 73
     3
  0
LINE
  5
7D
  8
DIMNSIONS
 62
     7
 10
186.25000000000011
 20
334.5000000000004
 30
0.0
 11
186.25000000000011
 21
294.0
 31
0.0
  0
LINE
  5
7E
  8
DIMNSIONS
 62
     7
 10
213.75000000000011
 20
334.5000000000004
 30
0.0
 11
213.75000000000011
 21
294.0
 31
0.0
  0
LINE
  5
7F
  8
DIMNSIONS
 62
     7
 10
186.25000000000011
 20
300.0
 30
0.0
 11
213.75000000000011
 21
300.0
 31
0.0
  0
LINE
  5
80
  8
DIMNSIONS
 62
     7
 10
186.25000000000011
 20
300.0
 30
0.0
 11
193.75186767578131
 21
302.01011938545082
 31
0.0
  0
LINE
  5
81
  8
DIMNSIONS
 62
     7
 10
186.25000000000011
 20
300.0
 30
0.0
 11
193.75186767578131
 21
297.98988061454918
 31
0.0
  0
LINE
  5
82
  8
DIMNSIONS
 62
     7
 10
213.75000000000011
 20
300.0
 30
0.0
 11
206.2481323242188
 21
297.98988061454918
 31
0.0
  0
LINE
  5
83
  8
DIMNSIONS
 62
     7
 10
213.75000000000011
 20
300.0
 30
0.0
 11
206.2481323242188
 21
302.01011938545082
 31
0.0
  0
TEXT
  5
84
  8
DIMNSIONS
 62
     7
 10
189.41666666666671
 20
302.98166666666663
 30
0.0
 40
8.1442057291666661
  1
27.5
 41
0.8
 11
189.41666666666671
 21
311.12587239583331
 31
0.0
 73
     3
  0
TEXT
  5
85
  8
DATA
 62
     7
 10
432.63697156969971
 20
87.929716699211554
 30
0.0
 40
7.3297851562499989
  1
SHURE
 41
0.8
 11
432.63697156969971
 21
95.259501855461565
 31
0.0
 73
     3
  0
TEXT
  5
86
  8
DATA
 62
     7
 10
428.02843232740372
 20
77.010984354471077
 30
0.0
 40
5.7009440104166647
  1
KSM27/SL 付属品
 41
0.8
 11
428.02843232740372
 21
82.71192836488774
 31
0.0
 73
     3
  0
TEXT
  5
87
  8
DATA
 62
     7
 10
426.73462435621008
 20
66.12883333333339
 30
0.0
 40
5.7009440104166647
  1
サスペンション・シヨックマウント
 41
0.8
 11
426.73462435621008
 21
71.829777343750052
 31
0.0
 73
     3
  0
ARC
  5
88
  8
DATA
 62
     7
 10
200.00000000000031
 20
440.00000000000068
 30
0.0
 40
52.499999999999758
 50
136.3370228631378
 51
223.66297713686299
  0
ARC
  5
89
  8
DATA
 62
     7
 10
200.00000000000031
 20
440.00000000000068
 30
0.0
 40
52.499999999999702
 50
226.33702286313761
 51
264.05327984614848
  0
ARC
  5
8A
  8
DATA
 62
     7
 10
200.00000000000031
 20
440.00000000000068
 30
0.0
 40
52.499999999999723
 50
275.94672015385089
 51
313.6629771368622
  0
ARC
  5
8B
  8
DATA
 62
     7
 10
200.00000000000031
 20
440.00000000000068
 30
0.0
 40
52.499999999999758
 50
316.3370228631378
 51
43.66297713686248
  0
ARC
  5
8C
  8
DATA
 62
     7
 10
200.00000000000031
 20
440.00000000000068
 30
0.0
 40
52.499999999999773
 50
46.33702286313703
 51
133.66297713686311
  0
ARC
  5
8D
  8
DATA
 62
     7
 10
200.0
 20
440.0
 30
0.0
 40
50.000000000000028
 50
136.4038870691659
 51
223.5961129308339
  0
ARC
  5
8E
  8
DATA
 62
     7
 10
200.0
 20
440.0
 30
0.0
 40
50.000000000000028
 50
226.40388706916599
 51
266.48437394292199
  0
ARC
  5
8F
  8
DATA
 62
     7
 10
200.0
 20
440.0
 30
0.0
 40
50.0
 50
273.51562605707812
 51
313.59611293083412
  0
ARC
  5
90
  8
DATA
 62
     7
 10
200.0
 20
440.0
 30
0.0
 40
50.000000000000021
 50
316.40388586174748
 51
43.596112930834011
  0
ARC
  5
91
  8
DATA
 62
     7
 10
200.0
 20
440.0
 30
0.0
 40
50.000000000000028
 50
46.403887069166132
 51
133.5961129308337
  0
CIRCLE
  5
92
  8
DATA
 62
     7
 10
200.00000000000011
 20
440.0
 30
0.0
 40
31.0
  0
CIRCLE
  5
93
  8
DATA
 62
     7
 10
200.00000000000011
 20
440.0
 30
0.0
 40
29.0
  0
CIRCLE
  5
94
  8
DATA
 62
     7
 10
200.00000000000011
 20
440.0
 30
0.0
 40
27.5
  0
CIRCLE
  5
95
  8
DATA
 62
     7
 10
200.00000000000011
 20
440.0
 30
0.0
 40
10.5
  0
ARC
  5
96
  8
DATA
 62
     7
 10
177.340852125624
 20
462.659147874376
 30
0.0
 40
4.9551257642399396
 50
28.456397244828501
 51
120.68700701056569
  0
ARC
  5
97
  8
DATA
 62
     7
 10
177.340852125624
 20
462.659147874376
 30
0.0
 40
4.9551257642399644
 50
149.3129929894346
 51
213.9005621320693
  0
ARC
  5
98
  8
DATA
 62
     7
 10
177.25995626994319
 20
462.7400437300567
 30
0.0
 40
1.9500000000000071
 50
7.1131406954653134
 51
96.082176055900206
  0
ARC
  5
99
  8
DATA
 62
     7
 10
177.25995626994319
 20
462.7400437300567
 30
0.0
 40
1.9499999999999931
 50
173.9178239441006
 51
199.4992774403531
  0
LINE
  5
9A
  8
DATA
 62
     7
 10
175.42179715363579
 20
462.08914353560641
 30
0.0
 11
173.1887490493601
 21
459.8560954313308
 31
0.0
  0
LINE
  5
9B
  8
DATA
 62
     7
 10
165.8132275440334
 20
479.84362670545909
 30
0.0
 11
167.58640675133401
 21
478.07044749815839
 31
0.0
  0
LINE
  5
9C
  8
DATA
 62
     7
 10
161.92955250184161
 20
472.41359324866602
 30
0.0
 11
160.15637329454111
 21
474.18677245596672
 31
0.0
  0
LINE
  5
9D
  8
DATA
 62
     7
 10
164.04372966215379
 20
478.25436737670248
 30
0.0
 11
165.81238643173231
 21
476.48571060712402
 31
0.0
  0
LINE
  5
9E
  8
DATA
 62
     7
 10
163.51428939287609
 20
474.18761356826769
 30
0.0
 11
161.74563262329761
 21
475.95627033784621
 31
0.0
  0
LINE
  5
9F
  8
DATA
 62
     7
 10
163.75320690495161
 20
477.97920470895548
 30
0.0
 11
177.60403460523281
 21
464.12837700867442
 31
0.0
  0
LINE
  5
A0
  8
DATA
 62
     7
 10
175.87162299132581
 20
462.3959653947673
 30
0.0
 11
160.73789597461609
 21
477.5296924114769
 31
0.0
  0
ARC
  5
A1
  8
DATA
 62
     7
 10
176.71996698635871
 20
463.28003301364151
 30
0.0
 40
1.2252604166666401
 50
226.18131442929331
 51
43.818685570707657
  0
ARC
  5
A2
  8
DATA
 62
     7
 10
161.6219635934911
 20
478.3780364065089
 30
0.0
 40
1.2252604166667
 50
46.181314429292279
 51
223.81868557070669
  0
LINE
  5
A3
  8
DATA
 62
     7
 10
163.75320690495161
 20
477.97920470895548
 30
0.0
 11
162.47030758852409
 21
479.26210402538322
 31
0.0
  0
ARC
  5
A4
  8
DATA
 62
     7
 10
177.340852125624
 20
417.34085212562411
 30
0.0
 40
4.9551257642399209
 50
138.10072124937449
 51
210.68700701056571
  0
ARC
  5
A5
  8
DATA
 62
     7
 10
177.340852125624
 20
417.34085212562411
 30
0.0
 40
4.9551257642399236
 50
239.31299298943449
 51
303.9005621320693
  0
ARC
  5
A6
  8
DATA
 62
     7
 10
177.25995626994319
 20
417.25995626994319
 30
0.0
 40
1.9500000000000119
 50
142.39033265089691
 51
186.08217605590019
  0
ARC
  5
A7
  8
DATA
 62
     7
 10
177.25995626994319
 20
417.25995626994319
 30
0.0
 40
1.9500000000000199
 50
263.91782394410069
 51
289.49927744035301
  0
LINE
  5
A8
  8
DATA
 62
     7
 10
160.15637329454111
 20
405.81322754403351
 30
0.0
 11
161.92955250184161
 21
407.5864067513341
 31
0.0
  0
LINE
  5
A9
  8
DATA
 62
     7
 10
167.58640675133401
 20
401.92955250184161
 30
0.0
 11
165.8132275440334
 21
400.15637329454108
 31
0.0
  0
LINE
  5
AA
  8
DATA
 62
     7
 10
161.74563262329761
 20
404.04372966215379
 30
0.0
 11
163.51428939287609
 21
405.81238643173242
 31
0.0
  0
LINE
  5
AB
  8
DATA
 62
     7
 10
165.81238643173231
 20
403.51428939287598
 30
0.0
 11
164.04372966215379
 21
401.74563262329758
 31
0.0
  0
LINE
  5
AC
  8
DATA
 62
     7
 10
162.02079529104461
 20
403.75320690495158
 30
0.0
 11
175.87162299132569
 21
417.60403460523281
 31
0.0
  0
LINE
  5
AD
  8
DATA
 62
     7
 10
177.60403460523281
 20
415.87162299132581
 30
0.0
 11
162.47030758852321
 21
400.73789597461609
 31
0.0
  0
ARC
  5
AE
  8
DATA
 62
     7
 10
176.71996698635871
 20
416.71996698635871
 30
0.0
 40
1.225260416666639
 50
316.18131442929138
 51
133.81868557070871
  0
ARC
  5
AF
  8
DATA
 62
     7
 10
161.6219635934911
 20
401.62196359349122
 30
0.0
 40
1.225260416666679
 50
136.1813144292914
 51
313.81868557070771
  0
LINE
  5
B0
  8
DATA
 62
     7
 10
162.02079529104461
 20
403.75320690495158
 30
0.0
 11
160.737895974617
 21
402.47030758852401
 31
0.0
  0
ARC
  5
B1
  8
DATA
 62
     7
 10
177.25995626994319
 20
417.25995626994319
 30
0.0
 40
1.9500000000000199
 50
263.91782394410069
 51
289.49927744035301
  0
LINE
  5
B2
  8
DATA
 62
     7
 10
160.15637329454111
 20
405.81322754403351
 30
0.0
 11
161.92955250184161
 21
407.5864067513341
 31
0.0
  0
LINE
  5
B3
  8
DATA
 62
     7
 10
167.58640675133401
 20
401.92955250184161
 30
0.0
 11
165.8132275440334
 21
400.15637329454108
 31
0.0
  0
LINE
  5
B4
  8
DATA
 62
     7
 10
161.74563262329761
 20
404.04372966215379
 30
0.0
 11
163.51428939287609
 21
405.81238643173242
 31
0.0
  0
LINE
  5
B5
  8
DATA
 62
     7
 10
165.81238643173231
 20
403.51428939287598
 30
0.0
 11
164.04372966215379
 21
401.74563262329758
 31
0.0
  0
LINE
  5
B6
  8
DATA
 62
     7
 10
162.02079529104461
 20
403.75320690495158
 30
0.0
 11
160.737895974617
 21
402.47030758852401
 31
0.0
  0
ARC
  5
B7
  8
DATA
 62
     7
 10
222.65914787437609
 20
417.34085212562411
 30
0.0
 40
4.9551257642399182
 50
208.45639724482871
 51
300.68700701056571
  0
ARC
  5
B8
  8
DATA
 62
     7
 10
222.65914787437609
 20
417.34085212562411
 30
0.0
 40
4.9551257642399271
 50
329.31299298943452
 51
33.900562132069183
  0
ARC
  5
B9
  8
DATA
 62
     7
 10
222.7400437300569
 20
417.25995626994342
 30
0.0
 40
1.9500000000000079
 50
187.11314069546569
 51
276.08217605590011
  0
ARC
  5
BA
  8
DATA
 62
     7
 10
222.7400437300569
 20
417.25995626994342
 30
0.0
 40
1.950000000000021
 50
353.9178239441008
 51
19.499277440353008
  0
LINE
  5
BB
  8
DATA
 62
     7
 10
224.57820284636429
 20
417.91085646439382
 30
0.0
 11
226.81125095063999
 21
420.14390456866943
 31
0.0
  0
LINE
  5
BC
  8
DATA
 62
     7
 10
234.1867724559666
 20
400.15637329454108
 30
0.0
 11
232.4135932486661
 21
401.92955250184161
 31
0.0
  0
LINE
  5
BD
  8
DATA
 62
     7
 10
238.07044749815839
 20
407.5864067513341
 30
0.0
 11
239.843626705459
 21
405.81322754403351
 31
0.0
  0
LINE
  5
BE
  8
DATA
 62
     7
 10
235.95627033784621
 20
401.74563262329758
 30
0.0
 11
234.18761356826769
 21
403.51428939287621
 31
0.0
  0
LINE
  5
BF
  8
DATA
 62
     7
 10
236.4857106071241
 20
405.81238643173242
 30
0.0
 11
238.25436737670259
 21
404.04372966215379
 31
0.0
  0
LINE
  5
C0
  8
DATA
 62
     7
 10
236.2467930950485
 20
402.02079529104458
 30
0.0
 11
222.3959653947673
 21
415.87162299132581
 31
0.0
  0
LINE
  5
C1
  8
DATA
 62
     7
 10
224.12837700867431
 20
417.60403460523281
 30
0.0
 11
239.26210402538399
 21
402.47030758852321
 31
0.0
  0
ARC
  5
C2
  8
DATA
 62
     7
 10
223.2800330136414
 20
416.71996698635871
 30
0.0
 40
1.225260416666639
 50
46.181314429291419
 51
223.8186855707086
  0
ARC
  5
C3
  8
DATA
 62
     7
 10
238.37803640650901
 20
401.62196359349122
 30
0.0
 40
1.225260416666679
 50
226.1813144292914
 51
43.818685570708602
  0
LINE
  5
C4
  8
DATA
 62
     7
 10
236.2467930950485
 20
402.02079529104458
 30
0.0
 11
237.52969241147599
 21
400.737895974617
 31
0.0
  0
ARC
  5
C5
  8
DATA
 62
     7
 10
222.7400437300569
 20
417.25995626994342
 30
0.0
 40
1.950000000000021
 50
353.9178239441008
 51
19.499277440353008
  0
LINE
  5
C6
  8
DATA
 62
     7
 10
234.1867724559666
 20
400.15637329454108
 30
0.0
 11
232.4135932486661
 21
401.92955250184161
 31
0.0
  0
LINE
  5
C7
  8
DATA
 62
     7
 10
238.07044749815839
 20
407.5864067513341
 30
0.0
 11
239.843626705459
 21
405.81322754403351
 31
0.0
  0
LINE
  5
C8
  8
DATA
 62
     7
 10
235.95627033784621
 20
401.74563262329758
 30
0.0
 11
234.18761356826769
 21
403.51428939287621
 31
0.0
  0
LINE
  5
C9
  8
DATA
 62
     7
 10
236.4857106071241
 20
405.81238643173242
 30
0.0
 11
238.25436737670259
 21
404.04372966215379
 31
0.0
  0
LINE
  5
CA
  8
DATA
 62
     7
 10
236.2467930950485
 20
402.02079529104458
 30
0.0
 11
237.52969241147599
 21
400.737895974617
 31
0.0
  0
ARC
  5
CB
  8
DATA
 62
     7
 10
222.65914787437609
 20
462.659147874376
 30
0.0
 40
4.9551257642399236
 50
321.51404968626269
 51
30.687007010565711
  0
ARC
  5
CC
  8
DATA
 62
     7
 10
222.65914787437609
 20
462.659147874376
 30
0.0
 40
4.9551257642399218
 50
59.312992989434569
 51
123.9005621320693
  0
ARC
  5
CD
  8
DATA
 62
     7
 10
222.74004373005681
 20
462.7400437300567
 30
0.0
 40
1.9500000000000111
 50
328.34893864366279
 51
6.0821760559001632
  0
ARC
  5
CE
  8
DATA
 62
     7
 10
222.74004373005681
 20
462.7400437300567
 30
0.0
 40
1.9500000000000151
 50
83.917823944100704
 51
109.4992774403531
  0
LINE
  5
CF
  8
DATA
 62
     7
 10
239.843626705459
 20
474.18677245596672
 30
0.0
 11
238.07044749815839
 21
472.41359324866602
 31
0.0
  0
LINE
  5
D0
  8
DATA
 62
     7
 10
232.4135932486661
 20
478.07044749815839
 30
0.0
 11
234.1867724559666
 21
479.84362670545909
 31
0.0
  0
LINE
  5
D1
  8
DATA
 62
     7
 10
238.2543673767025
 20
475.95627033784621
 30
0.0
 11
236.48571060712399
 21
474.18761356826769
 31
0.0
  0
LINE
  5
D2
  8
DATA
 62
     7
 10
234.18761356826769
 20
476.48571060712402
 30
0.0
 11
235.95627033784621
 21
478.25436737670259
 31
0.0
  0
LINE
  5
D3
  8
DATA
 62
     7
 10
237.97920470895551
 20
476.24679309504847
 30
0.0
 11
224.12837700867431
 21
462.3959653947673
 31
0.0
  0
LINE
  5
D4
  8
DATA
 62
     7
 10
222.3959653947673
 20
464.12837700867442
 30
0.0
 11
237.5296924114769
 21
479.26210402538391
 31
0.0
  0
ARC
  5
D5
  8
DATA
 62
     7
 10
223.28003301364129
 20
463.28003301364151
 30
0.0
 40
1.225260416666639
 50
136.1813144292914
 51
313.81868557070868
  0
ARC
  5
D6
  8
DATA
 62
     7
 10
238.37803640650901
 20
478.37803640650912
 30
0.0
 40
1.225260416666679
 50
316.18131442929138
 51
133.8186855707086
  0
LINE
  5
D7
  8
DATA
 62
     7
 10
237.97920470895551
 20
476.24679309504847
 30
0.0
 11
239.26210402538311
 21
477.52969241147599
 31
0.0
  0
ARC
  5
D8
  8
DATA
 62
     7
 10
222.74004373005681
 20
462.7400437300567
 30
0.0
 40
1.9500000000000151
 50
83.917823944100704
 51
109.4992774403531
  0
LINE
  5
D9
  8
DATA
 62
     7
 10
239.843626705459
 20
474.18677245596672
 30
0.0
 11
238.07044749815839
 21
472.41359324866602
 31
0.0
  0
LINE
  5
DA
  8
DATA
 62
     7
 10
232.4135932486661
 20
478.07044749815839
 30
0.0
 11
234.1867724559666
 21
479.84362670545909
 31
0.0
  0
LINE
  5
DB
  8
DATA
 62
     7
 10
238.2543673767025
 20
475.95627033784621
 30
0.0
 11
236.48571060712399
 21
474.18761356826769
 31
0.0
  0
LINE
  5
DC
  8
DATA
 62
     7
 10
234.18761356826769
 20
476.48571060712402
 30
0.0
 11
235.95627033784621
 21
478.25436737670259
 31
0.0
  0
ARC
  5
DD
  8
DATA
 62
     7
 10
223.28003301364129
 20
463.28003301364151
 30
0.0
 40
1.225260416666639
 50
136.1813144292914
 51
313.81868557070868
  0
LINE
  5
DE
  8
DATA
 62
     7
 10
237.97920470895551
 20
476.24679309504847
 30
0.0
 11
239.26210402538311
 21
477.52969241147599
 31
0.0
  0
LINE
  5
DF
  8
DATA
 62
     7
 10
191.50000000000011
 20
363.30000000000001
 30
0.0
 11
191.50000000000011
 21
381.12296703857322
 31
0.0
  0
LINE
  5
E0
  8
DATA
 62
     7
 10
208.50000000000011
 20
381.12296703857322
 30
0.0
 11
208.50000000000011
 21
363.30000000000001
 31
0.0
  0
ARC
  5
E1
  8
DATA
 62
     7
 10
224.62576687116709
 20
366.67300613497008
 30
0.0
 40
16.474754249146589
 50
191.81415478858841
 51
225.11616949672069
  0
ARC
  5
E2
  8
DATA
 62
     7
 10
175.374233128833
 20
366.67300613497008
 30
0.0
 40
16.474754249146631
 50
314.88383050327928
 51
348.18584521141139
  0
LINE
  5
E3
  8
DATA
 62
     7
 10
197.0
 20
361.0
 30
0.0
 11
197.0
 21
383.70459340771453
 31
0.0
  0
LINE
  5
E4
  8
DATA
 62
     7
 10
203.00000000000011
 20
383.70459340771453
 30
0.0
 11
203.00000000000011
 21
361.0
 31
0.0
  0
LINE
  5
E5
  8
DATA
 62
     7
 10
196.72572186472919
 20
383.89028874589172
 30
0.0
 11
192.12860932364589
 21
382.05144372945853
 31
0.0
  0
LINE
  5
E6
  8
DATA
 62
     7
 10
207.87139067635411
 20
382.05144372945853
 30
0.0
 11
203.27427813527089
 21
383.89028874589172
 31
0.0
  0
ARC
  5
E7
  8
DATA
 62
     7
 10
200.0
 20
361.0
 30
0.0
 40
2.9999999999999849
 50
179.9999999999994
 51
0.0000000000005684
  0
LINE
  5
E8
  8
DATA
 62
     7
 10
197.25
 20
384.7986639654448
 30
0.0
 11
197.25
 21
364.09409441155941
 31
0.0
  0
LINE
  5
E9
  8
DATA
 62
     7
 10
202.75000000000011
 20
384.79866396544458
 30
0.0
 11
202.75000000000011
 21
364.09409441155941
 31
0.0
  0
LINE
  5
EA
  8
DATA
 62
     7
 10
200.25000000000011
 20
387.099740076253
 30
0.0
 11
200.25000000000011
 21
366.20000000000022
 31
0.0
  0
LINE
  5
EB
  8
DATA
 62
     7
 10
199.75
 20
387.099740076253
 30
0.0
 11
199.75
 21
364.60000000000008
 31
0.0
  0
ARC
  5
EC
  8
DATA
 62
     7
 10
203.25000000000011
 20
387.099740076253
 30
0.0
 40
3.0000000000000022
 50
93.515626057078151
 51
180.0
  0
ARC
  5
ED
  8
DATA
 62
     7
 10
205.75000000000011
 20
384.79866396544458
 30
0.0
 40
3.0000000000000129
 50
95.946720153851075
 51
180.0
  0
ARC
  5
EE
  8
DATA
 62
     7
 10
196.75
 20
387.099740076253
 30
0.0
 40
3.0
 50
0.0
 51
86.484373942921806
  0
ARC
  5
EF
  8
DATA
 62
     7
 10
194.25
 20
384.7986639654448
 30
0.0
 40
3.0
 50
0.0
 51
84.053279846148669
  0
LINE
  5
F0
  8
DATA
 62
     7
 10
202.75000000000011
 20
364.09409441155941
 30
0.0
 11
200.25000000000011
 21
364.09409441155941
 31
0.0
  0
LINE
  5
F1
  8
DATA
 62
     7
 10
199.75
 20
364.09409441155941
 30
0.0
 11
197.25
 21
364.09409441155941
 31
0.0
  0
LINE
  5
F2
  8
DATA
 62
     7
 10
199.75
 20
364.60000000000008
 30
0.0
 11
199.75
 21
364.09409441155941
 31
0.0
  0
LINE
  5
F3
  8
DATA
 62
     7
 10
200.25000000000011
 20
366.20000000000022
 30
0.0
 11
200.25000000000011
 21
364.09409441155941
 31
0.0
  0
ARC
  5
F4
  8
DATA
 62
     7
 10
204.1112206553338
 20
373.0
 30
0.0
 40
13.23037741024487
 50
162.40212521268251
 51
197.59787478731749
  0
LINE
  5
F5
  8
DATA
 62
     7
 10
217.50000000000011
 20
359.25000000000011
 30
0.0
 11
217.50000000000011
 21
386.75
 31
0.0
  0
LINE
  5
F6
  8
DATA
 62
     7
 10
217.50000000000011
 20
386.75
 30
0.0
 11
232.50000000000011
 21
386.75
 31
0.0
  0
LINE
  5
F7
  8
DATA
 62
     7
 10
232.50000000000011
 20
359.25000000000011
 30
0.0
 11
217.50000000000011
 21
359.25000000000011
 31
0.0
  0
LINE
  5
F8
  8
DATA
 62
     7
 10
233.75000000000011
 20
375.5
 30
0.0
 11
232.50000000000011
 21
386.75
 31
0.0
  0
LINE
  5
F9
  8
DATA
 62
     7
 10
233.75000000000011
 20
370.5
 30
0.0
 11
232.50000000000011
 21
359.25000000000011
 31
0.0
  0
LINE
  5
FA
  8
DATA
 62
     7
 10
233.75000000000011
 20
370.5
 30
0.0
 11
233.75000000000011
 21
375.7000000000001
 31
0.0
  0
LINE
  5
FB
  8
DATA
 62
     7
 10
217.50000000000011
 20
366.5
 30
0.0
 11
208.50000000000011
 21
366.5
 31
0.0
  0
LINE
  5
FC
  8
DATA
 62
     7
 10
208.50000000000011
 20
379.5
 30
0.0
 11
217.50000000000011
 21
379.5
 31
0.0
  0
LINE
  5
FD
  8
DATA
 62
     7
 10
233.75000000000011
 20
375.0
 30
0.0
 11
217.50000000000011
 21
376.0
 31
0.0
  0
LINE
  5
FE
  8
DATA
 62
     7
 10
233.75000000000011
 20
371.0
 30
0.0
 11
217.50000000000011
 21
370.0
 31
0.0
  0
LINE
  5
FF
  8
DATA
 62
     7
 10
203.00000000000011
 20
365.0
 30
0.0
 11
202.75000000000011
 21
365.0
 31
0.0
  0
LINE
  5
100
  8
DATA
 62
     7
 10
200.25000000000011
 20
365.0
 30
0.0
 11
199.75
 21
365.0
 31
0.0
  0
LINE
  5
101
  8
DATA
 62
     7
 10
197.25
 20
365.0
 30
0.0
 11
197.0
 21
365.0
 31
0.0
  0
LINE
  5
102
  8
DATA
 62
     7
 10
197.0
 20
381.0
 30
0.0
 11
197.25
 21
381.0
 31
0.0
  0
LINE
  5
103
  8
DATA
 62
     7
 10
199.75
 20
381.0
 30
0.0
 11
200.25000000000011
 21
381.0
 31
0.0
  0
LINE
  5
104
  8
DATA
 62
     7
 10
202.75000000000011
 20
381.0
 30
0.0
 11
203.00000000000011
 21
381.0
 31
0.0
  0
ARC
  5
105
  8
DATA
 62
     7
 10
196.80000000000001
 20
383.70459340771453
 30
0.0
 40
0.2000000000000171
 50
0.0
 51
111.8014094863465
  0
ARC
  5
106
  8
DATA
 62
     7
 10
203.19999999999999
 20
383.70459340771453
 30
0.0
 40
0.1999999999999883
 50
68.19859051364817
 51
180.00000000000401
  0
ARC
  5
107
  8
DATA
 62
     7
 10
192.50000000000011
 20
381.12296703857322
 30
0.0
 40
1.0000000000000071
 50
111.80140948635029
 51
180.0
  0
ARC
  5
108
  8
DATA
 62
     7
 10
207.50000000000011
 20
381.12296703857322
 30
0.0
 40
1.0
 50
0.0
 51
68.198590513649435
  0
CIRCLE
  5
109
  8
DATA
 62
     7
 10
200.0
 20
440.0
 30
0.0
 40
12.5
  0
LINE
  5
10A
  8
DATA
 62
     7
 10
196.53993670856769
 20
455.7524594939465
 30
0.0
 11
187.50000000000011
 21
464.25
 31
0.0
  0
LINE
  5
10B
  8
DATA
 62
     7
 10
203.42637943684349
 20
455.78792559150179
 30
0.0
 11
212.50000000000011
 21
464.49489742783192
 31
0.0
  0
ARC
  5
10C
  8
DATA
 62
     7
 10
199.96448675240711
 20
459.39559783845652
 30
0.0
 40
4.9999999999999956
 50
226.77146974003361
 51
313.81868683867589
  0
LINE
  5
10D
  8
DATA
 62
     7
 10
187.50000000000011
 20
464.25
 30
0.0
 11
187.338296544423
 21
464.41170345557708
 31
0.0
  0
LINE
  5
10E
  8
DATA
 62
     7
 10
215.75245949394599
 20
443.4600632914333
 30
0.0
 11
224.24999999999969
 21
452.5000000000008
 31
0.0
  0
LINE
  5
10F
  8
DATA
 62
     7
 10
215.78792559150151
 20
436.57362056315742
 30
0.0
 11
224.4948974278314
 21
427.5000000000008
 31
0.0
  0
ARC
  5
110
  8
DATA
 62
     7
 10
219.3955978384561
 20
440.03551324759383
 30
0.0
 40
5.0000000000000062
 50
136.77146974003369
 51
223.81868683867589
  0
LINE
  5
111
  8
DATA
 62
     7
 10
224.24999999999969
 20
452.5000000000008
 30
0.0
 11
224.41170345557671
 21
452.66170345557788
 31
0.0
  0
LINE
  5
112
  8
DATA
 62
     7
 10
203.4600632914333
 20
424.24754050605401
 30
0.0
 11
212.50000000000091
 21
415.75000000000023
 31
0.0
  0
LINE
  5
113
  8
DATA
 62
     7
 10
196.5736205631575
 20
424.21207440849849
 30
0.0
 11
187.50000000000091
 21
415.50510257216843
 31
0.0
  0
ARC
  5
114
  8
DATA
 62
     7
 10
200.0355132475938
 20
420.60440216154387
 30
0.0
 40
5.0000000000000062
 50
46.77146974003373
 51
133.81868683867589
  0
LINE
  5
115
  8
DATA
 62
     7
 10
212.50000000000091
 20
415.75000000000023
 30
0.0
 11
212.66170345557791
 21
415.5882965444232
 31
0.0
  0
LINE
  5
116
  8
DATA
 62
     7
 10
184.24754050605361
 20
436.53993670856761
 30
0.0
 11
175.74999999999989
 21
427.5
 31
0.0
  0
LINE
  5
117
  8
DATA
 62
     7
 10
184.21207440849801
 20
443.42637943684321
 30
0.0
 11
175.50510257216811
 21
452.5
 31
0.0
  0
ARC
  5
118
  8
DATA
 62
     7
 10
180.60440216154359
 20
439.96448675240708
 30
0.0
 40
5.000000000000016
 50
316.77146974003358
 51
43.818686838675823
  0
LINE
  5
119
  8
DATA
 62
     7
 10
175.74999999999989
 20
427.5
 30
0.0
 11
175.5882965444228
 21
427.33829654442309
 31
0.0
  0
LINE
  5
11A
  8
DATA
 62
     7
 10
197.09999999999999
 20
343.0
 30
0.0
 11
202.90000000000001
 21
343.0
 31
0.0
  0
LINE
  5
11B
  8
DATA
 62
     7
 10
197.09999999999999
 20
343.0
 30
0.0
 11
197.09999999999999
 21
340.5
 31
0.0
  0
LINE
  5
11C
  8
DATA
 62
     7
 10
202.90000000000001
 20
343.0
 30
0.0
 11
202.90000000000001
 21
340.5
 31
0.0
  0
ARC
  5
11D
  8
DATA
 62
     7
 10
479.99999999999898
 20
440.00000000000068
 30
0.0
 40
52.499999999999758
 50
316.33702286313689
 51
43.662977136862139
  0
ARC
  5
11E
  8
DATA
 62
     7
 10
479.99999999999898
 20
440.00000000000068
 30
0.0
 40
52.499999999999702
 50
275.94672015385152
 51
313.66297713686248
  0
ARC
  5
11F
  8
DATA
 62
     7
 10
479.99999999999898
 20
440.00000000000068
 30
0.0
 40
52.499999999999751
 50
226.33702286313769
 51
264.05327984614911
  0
ARC
  5
120
  8
DATA
 62
     7
 10
479.99999999999898
 20
440.00000000000068
 30
0.0
 40
52.499999999999758
 50
136.33702286313749
 51
223.6629771368622
  0
ARC
  5
121
  8
DATA
 62
     7
 10
479.99999999999898
 20
440.00000000000068
 30
0.0
 40
52.499999999999751
 50
46.337022863136873
 51
133.66297713686299
  0
ARC
  5
122
  8
DATA
 62
     7
 10
479.9999999999992
 20
440.0
 30
0.0
 40
50.0
 50
316.4038870691661
 51
43.596112930834167
  0
ARC
  5
123
  8
DATA
 62
     7
 10
479.9999999999992
 20
440.0
 30
0.0
 40
50.0
 50
273.51562605707801
 51
313.5961129308339
  0
ARC
  5
124
  8
DATA
 62
     7
 10
479.9999999999992
 20
440.0
 30
0.0
 40
50.000000000000021
 50
226.4038870691659
 51
266.48437394292188
  0
ARC
  5
125
  8
DATA
 62
     7
 10
479.9999999999992
 20
440.0
 30
0.0
 40
50.000000000000028
 50
136.40388706916599
 51
223.59611413825249
  0
ARC
  5
126
  8
DATA
 62
     7
 10
479.9999999999992
 20
440.0
 30
0.0
 40
50.000000000000021
 50
46.403887069166259
 51
133.5961129308339
  0
CIRCLE
  5
127
  8
DATA
 62
     7
 10
479.9999999999992
 20
440.0
 30
0.0
 40
31.0
  0
ARC
  5
128
  8
DATA
 62
     7
 10
502.65914787437521
 20
462.659147874376
 30
0.0
 40
4.955125764239936
 50
59.312992989434278
 51
125.3642267793095
  0
ARC
  5
129
  8
DATA
 62
     7
 10
502.65914787437521
 20
462.659147874376
 30
0.0
 40
4.9551257642399449
 50
326.09943786793048
 51
30.687007010565491
  0
ARC
  5
12A
  8
DATA
 62
     7
 10
502.74004373005602
 20
462.7400437300567
 30
0.0
 40
1.950000000000006
 50
83.917823944098984
 51
113.9005667848577
  0
ARC
  5
12B
  8
DATA
 62
     7
 10
502.74004373005602
 20
462.7400437300567
 30
0.0
 40
1.950000000000025
 50
340.50072255964722
 51
6.0821760558993114
  0
LINE
  5
12C
  8
DATA
 62
     7
 10
514.18677245596575
 20
479.84362670545909
 30
0.0
 11
512.41359324866505
 21
478.07044749815839
 31
0.0
  0
LINE
  5
12D
  8
DATA
 62
     7
 10
518.07044749815771
 20
472.41359324866602
 30
0.0
 11
519.84362670545818
 21
474.18677245596672
 31
0.0
  0
LINE
  5
12E
  8
DATA
 62
     7
 10
515.95627033784558
 20
478.25436737670248
 30
0.0
 11
514.1876135682669
 21
476.48571060712402
 31
0.0
  0
LINE
  5
12F
  8
DATA
 62
     7
 10
516.48571060712322
 20
474.18761356826769
 30
0.0
 11
518.25436737670168
 21
475.95627033784621
 31
0.0
  0
LINE
  5
130
  8
DATA
 62
     7
 10
516.24679309504768
 20
477.97920470895548
 30
0.0
 11
502.39596539476639
 21
464.12837700867442
 31
0.0
  0
LINE
  5
131
  8
DATA
 62
     7
 10
504.1283770086734
 20
462.3959653947673
 30
0.0
 11
519.26210402538322
 21
477.5296924114769
 31
0.0
  0
ARC
  5
132
  8
DATA
 62
     7
 10
503.2800330136406
 20
463.28003301364151
 30
0.0
 40
1.2252604166666601
 50
136.18131442929231
 51
313.81868557070669
  0
ARC
  5
133
  8
DATA
 62
     7
 10
518.37803640650816
 20
478.3780364065089
 30
0.0
 40
1.2252604166666401
 50
316.18131442929331
 51
133.81868557070769
  0
LINE
  5
134
  8
DATA
 62
     7
 10
516.24679309504768
 20
477.97920470895548
 30
0.0
 11
517.52969241147525
 21
479.26210402538322
 31
0.0
  0
ARC
  5
135
  8
DATA
 62
     7
 10
502.65914787437521
 20
417.34085212562411
 30
0.0
 40
4.9551257642399662
 50
329.31299298943452
 51
41.899278750646097
  0
ARC
  5
136
  8
DATA
 62
     7
 10
502.65914787437521
 20
417.34085212562411
 30
0.0
 40
4.9551257642399502
 50
236.0994378679309
 51
300.68700701056571
  0
ARC
  5
137
  8
DATA
 62
     7
 10
502.74004373005602
 20
417.25995626994319
 30
0.0
 40
1.950000000000025
 50
353.91782394409978
 51
33.986447074096532
  0
ARC
  5
138
  8
DATA
 62
     7
 10
502.74004373005602
 20
417.25995626994319
 30
0.0
 40
1.949999999999956
 50
250.5007225596477
 51
276.08217605589931
  0
LINE
  5
139
  8
DATA
 62
     7
 10
519.84362670545818
 20
405.81322754403351
 30
0.0
 11
518.07044749815771
 21
407.5864067513341
 31
0.0
  0
LINE
  5
13A
  8
DATA
 62
     7
 10
512.41359324866528
 20
401.92955250184161
 30
0.0
 11
514.18677245596575
 21
400.15637329454108
 31
0.0
  0
LINE
  5
13B
  8
DATA
 62
     7
 10
518.25436737670168
 20
404.04372966215379
 30
0.0
 11
516.48571060712322
 21
405.81238643173242
 31
0.0
  0
LINE
  5
13C
  8
DATA
 62
     7
 10
514.1876135682669
 20
403.51428939287598
 30
0.0
 11
515.95627033784558
 21
401.74563262329758
 31
0.0
  0
LINE
  5
13D
  8
DATA
 62
     7
 10
517.97920470895474
 20
403.75320690495158
 30
0.0
 11
504.1283770086734
 21
417.60403460523281
 31
0.0
  0
LINE
  5
13E
  8
DATA
 62
     7
 10
502.39596539476639
 20
415.87162299132581
 30
0.0
 11
517.52969241147605
 21
400.73789597461609
 31
0.0
  0
ARC
  5
13F
  8
DATA
 62
     7
 10
503.2800330136406
 20
416.71996698635871
 30
0.0
 40
1.225260416666679
 50
46.181314429291362
 51
223.81868557070959
  0
ARC
  5
140
  8
DATA
 62
     7
 10
518.37803640650816
 20
401.62196359349122
 30
0.0
 40
1.225260416666659
 50
226.18131442929041
 51
43.818685570708638
  0
LINE
  5
141
  8
DATA
 62
     7
 10
517.97920470895474
 20
403.75320690495158
 30
0.0
 11
519.26210402538231
 21
402.47030758852401
 31
0.0
  0
ARC
  5
142
  8
DATA
 62
     7
 10
502.74004373005602
 20
417.25995626994319
 30
0.0
 40
1.949999999999956
 50
250.5007225596477
 51
276.08217605589931
  0
LINE
  5
143
  8
DATA
 62
     7
 10
519.84362670545818
 20
405.81322754403351
 30
0.0
 11
518.07044749815771
 21
407.5864067513341
 31
0.0
  0
LINE
  5
144
  8
DATA
 62
     7
 10
512.41359324866528
 20
401.92955250184161
 30
0.0
 11
514.18677245596575
 21
400.15637329454108
 31
0.0
  0
LINE
  5
145
  8
DATA
 62
     7
 10
518.25436737670168
 20
404.04372966215379
 30
0.0
 11
516.48571060712322
 21
405.81238643173242
 31
0.0
  0
LINE
  5
146
  8
DATA
 62
     7
 10
514.1876135682669
 20
403.51428939287598
 30
0.0
 11
515.95627033784558
 21
401.74563262329758
 31
0.0
  0
LINE
  5
147
  8
DATA
 62
     7
 10
517.97920470895474
 20
403.75320690495158
 30
0.0
 11
519.26210402538231
 21
402.47030758852401
 31
0.0
  0
ARC
  5
148
  8
DATA
 62
     7
 10
457.34085212562309
 20
417.34085212562411
 30
0.0
 40
4.9551257642399387
 50
239.31299298943421
 51
316.02037017106687
  0
ARC
  5
149
  8
DATA
 62
     7
 10
457.34085212562309
 20
417.34085212562411
 30
0.0
 40
4.9551257642399396
 50
146.09943786793059
 51
210.68700701056559
  0
ARC
  5
14A
  8
DATA
 62
     7
 10
457.25995626994239
 20
417.25995626994342
 30
0.0
 40
1.9500000000000259
 50
263.91782394409898
 51
311.52249392517967
  0
ARC
  5
14B
  8
DATA
 62
     7
 10
457.25995626994239
 20
417.25995626994342
 30
0.0
 40
1.9499999999999671
 50
160.50072255964699
 51
186.0821760558992
  0
LINE
  5
14C
  8
DATA
 62
     7
 10
445.81322754403271
 20
400.15637329454108
 30
0.0
 11
447.58640675133319
 21
401.92955250184161
 31
0.0
  0
LINE
  5
14D
  8
DATA
 62
     7
 10
441.92955250184087
 20
407.5864067513341
 30
0.0
 11
440.15637329454017
 21
405.81322754403351
 31
0.0
  0
LINE
  5
14E
  8
DATA
 62
     7
 10
444.043729662153
 20
401.74563262329758
 30
0.0
 11
445.81238643173151
 21
403.51428939287621
 31
0.0
  0
LINE
  5
14F
  8
DATA
 62
     7
 10
443.51428939287518
 20
405.81238643173242
 30
0.0
 11
441.74563262329667
 21
404.04372966215379
 31
0.0
  0
LINE
  5
150
  8
DATA
 62
     7
 10
443.75320690495079
 20
402.02079529104458
 30
0.0
 11
457.60403460523202
 21
415.87162299132581
 31
0.0
  0
LINE
  5
151
  8
DATA
 62
     7
 10
455.87162299132478
 20
417.60403460523281
 30
0.0
 11
440.73789597461541
 21
402.47030758852321
 31
0.0
  0
ARC
  5
152
  8
DATA
 62
     7
 10
456.71996698635797
 20
416.71996698635871
 30
0.0
 40
1.225260416666679
 50
316.18131442929138
 51
133.81868557070959
  0
ARC
  5
153
  8
DATA
 62
     7
 10
441.62196359349019
 20
401.62196359349122
 30
0.0
 40
1.225260416666619
 50
136.1813144292905
 51
313.81868557070868
  0
LINE
  5
154
  8
DATA
 62
     7
 10
443.75320690495079
 20
402.02079529104458
 30
0.0
 11
442.4703075885231
 21
400.737895974617
 31
0.0
  0
ARC
  5
155
  8
DATA
 62
     7
 10
457.25995626994239
 20
417.25995626994342
 30
0.0
 40
1.9499999999999671
 50
160.50072255964699
 51
186.0821760558992
  0
LINE
  5
156
  8
DATA
 62
     7
 10
445.81322754403271
 20
400.15637329454108
 30
0.0
 11
447.58640675133319
 21
401.92955250184161
 31
0.0
  0
LINE
  5
157
  8
DATA
 62
     7
 10
441.92955250184087
 20
407.5864067513341
 30
0.0
 11
440.15637329454017
 21
405.81322754403351
 31
0.0
  0
LINE
  5
158
  8
DATA
 62
     7
 10
444.043729662153
 20
401.74563262329758
 30
0.0
 11
445.81238643173151
 21
403.51428939287621
 31
0.0
  0
LINE
  5
159
  8
DATA
 62
     7
 10
443.51428939287518
 20
405.81238643173242
 30
0.0
 11
441.74563262329667
 21
404.04372966215379
 31
0.0
  0
ARC
  5
15A
  8
DATA
 62
     7
 10
456.71996698635797
 20
416.71996698635871
 30
0.0
 40
1.225260416666679
 50
316.18131442929138
 51
133.81868557070959
  0
LINE
  5
15B
  8
DATA
 62
     7
 10
443.75320690495079
 20
402.02079529104458
 30
0.0
 11
442.4703075885231
 21
400.737895974617
 31
0.0
  0
ARC
  5
15C
  8
DATA
 62
     7
 10
457.34085212562309
 20
462.659147874376
 30
0.0
 40
4.9551257642399147
 50
149.31299298943421
 51
213.9005621320691
  0
ARC
  5
15D
  8
DATA
 62
     7
 10
457.34085212562309
 20
462.659147874376
 30
0.0
 40
4.9551257642399777
 50
56.099437867930391
 51
120.6870070105651
  0
ARC
  5
15E
  8
DATA
 62
     7
 10
457.25995626994239
 20
462.7400437300567
 30
0.0
 40
1.950000000000025
 50
173.91782394409989
 51
199.4992774402813
  0
ARC
  5
15F
  8
DATA
 62
     7
 10
457.25995626994239
 20
462.7400437300567
 30
0.0
 40
1.9499999999999691
 50
70.500722559646135
 51
96.082176055899311
  0
LINE
  5
160
  8
DATA
 62
     7
 10
440.15637329454017
 20
474.18677245596672
 30
0.0
 11
441.92955250184087
 21
472.41359324866602
 31
0.0
  0
LINE
  5
161
  8
DATA
 62
     7
 10
447.58640675133319
 20
478.07044749815839
 30
0.0
 11
445.81322754403271
 21
479.84362670545909
 31
0.0
  0
LINE
  5
162
  8
DATA
 62
     7
 10
441.74563262329679
 20
475.95627033784621
 30
0.0
 11
443.5142893928753
 21
474.18761356826769
 31
0.0
  0
LINE
  5
163
  8
DATA
 62
     7
 10
445.81238643173151
 20
476.48571060712402
 30
0.0
 11
444.04372966215311
 21
478.25436737670259
 31
0.0
  0
LINE
  5
164
  8
DATA
 62
     7
 10
442.02079529104378
 20
476.24679309504847
 30
0.0
 11
455.87162299132478
 21
462.3959653947673
 31
0.0
  0
LINE
  5
165
  8
DATA
 62
     7
 10
457.60403460523202
 20
464.12837700867442
 30
0.0
 11
442.4703075885223
 21
479.26210402538391
 31
0.0
  0
ARC
  5
166
  8
DATA
 62
     7
 10
456.71996698635797
 20
463.28003301364151
 30
0.0
 40
1.225260416666679
 50
226.1813144292914
 51
43.818685570707657
  0
ARC
  5
167
  8
DATA
 62
     7
 10
441.62196359349019
 20
478.37803640650912
 30
0.0
 40
1.225260416666619
 50
46.181314429292357
 51
223.8186855707086
  0
LINE
  5
168
  8
DATA
 62
     7
 10
442.02079529104378
 20
476.24679309504847
 30
0.0
 11
440.73789597461609
 21
477.52969241147599
 31
0.0
  0
ARC
  5
169
  8
DATA
 62
     7
 10
457.34085212562309
 20
462.659147874376
 30
0.0
 40
4.9551257642399147
 50
149.31299298943421
 51
213.9005621320691
  0
ARC
  5
16A
  8
DATA
 62
     7
 10
457.25995626994239
 20
462.7400437300567
 30
0.0
 40
1.950000000000025
 50
173.91782394409989
 51
199.4992774402813
  0
ARC
  5
16B
  8
DATA
 62
     7
 10
457.25995626994239
 20
462.7400437300567
 30
0.0
 40
1.9499999999999691
 50
70.500722559646135
 51
96.082176055899311
  0
LINE
  5
16C
  8
DATA
 62
     7
 10
440.15637329454017
 20
474.18677245596672
 30
0.0
 11
441.92955250184087
 21
472.41359324866602
 31
0.0
  0
LINE
  5
16D
  8
DATA
 62
     7
 10
447.58640675133319
 20
478.07044749815839
 30
0.0
 11
445.81322754403271
 21
479.84362670545909
 31
0.0
  0
LINE
  5
16E
  8
DATA
 62
     7
 10
441.74563262329679
 20
475.95627033784621
 30
0.0
 11
443.5142893928753
 21
474.18761356826769
 31
0.0
  0
LINE
  5
16F
  8
DATA
 62
     7
 10
445.81238643173151
 20
476.48571060712402
 30
0.0
 11
444.04372966215311
 21
478.25436737670259
 31
0.0
  0
ARC
  5
170
  8
DATA
 62
     7
 10
441.62196359349019
 20
478.37803640650912
 30
0.0
 40
1.225260416666619
 50
46.181314429292357
 51
223.8186855707086
  0
LINE
  5
171
  8
DATA
 62
     7
 10
442.02079529104378
 20
476.24679309504847
 30
0.0
 11
440.73789597461609
 21
477.52969241147599
 31
0.0
  0
LINE
  5
172
  8
DATA
 62
     7
 10
488.4999999999992
 20
363.30000000000001
 30
0.0
 11
488.4999999999992
 21
381.12296703857322
 31
0.0
  0
LINE
  5
173
  8
DATA
 62
     7
 10
471.4999999999992
 20
381.12296703857322
 30
0.0
 11
471.4999999999992
 21
363.30000000000001
 31
0.0
  0
ARC
  5
174
  8
DATA
 62
     7
 10
455.37423312883209
 20
366.67300613497008
 30
0.0
 40
16.474754249146631
 50
314.88383050327928
 51
348.18584521141139
  0
ARC
  5
175
  8
DATA
 62
     7
 10
504.62576687116632
 20
366.67300613497008
 30
0.0
 40
16.474754249146599
 50
191.81415478858841
 51
225.11616949672069
  0
LINE
  5
176
  8
DATA
 62
     7
 10
482.9999999999992
 20
361.0
 30
0.0
 11
482.9999999999992
 21
383.70459340771453
 31
0.0
  0
LINE
  5
177
  8
DATA
 62
     7
 10
476.9999999999992
 20
383.70459340771453
 30
0.0
 11
476.9999999999992
 21
361.0
 31
0.0
  0
LINE
  5
178
  8
DATA
 62
     7
 10
483.27427813527009
 20
383.89028874589172
 30
0.0
 11
487.8713906763532
 21
382.05144372945853
 31
0.0
  0
LINE
  5
179
  8
DATA
 62
     7
 10
472.12860932364509
 20
382.05144372945853
 30
0.0
 11
476.72572186472843
 21
383.89028874589172
 31
0.0
  0
ARC
  5
17A
  8
DATA
 62
     7
 10
479.9999999999992
 20
361.0
 30
0.0
 40
3.0
 50
179.9999999999994
 51
0.0000000000005684
  0
LINE
  5
17B
  8
DATA
 62
     7
 10
482.7499999999992
 20
384.7986639654448
 30
0.0
 11
482.7499999999992
 21
364.09409441155941
 31
0.0
  0
LINE
  5
17C
  8
DATA
 62
     7
 10
477.2499999999992
 20
384.79866396544458
 30
0.0
 11
477.2499999999992
 21
364.09409441155941
 31
0.0
  0
LINE
  5
17D
  8
DATA
 62
     7
 10
479.7499999999992
 20
387.099740076253
 30
0.0
 11
479.7499999999992
 21
366.20000000000022
 31
0.0
  0
LINE
  5
17E
  8
DATA
 62
     7
 10
480.24999999999932
 20
387.099740076253
 30
0.0
 11
480.24999999999932
 21
364.60000000000008
 31
0.0
  0
ARC
  5
17F
  8
DATA
 62
     7
 10
476.7499999999992
 20
387.099740076253
 30
0.0
 40
3.0
 50
0.0
 51
86.484373942922403
  0
ARC
  5
180
  8
DATA
 62
     7
 10
474.2499999999992
 20
384.79866396544458
 30
0.0
 40
3.0
 50
0.0
 51
84.053279846149451
  0
ARC
  5
181
  8
DATA
 62
     7
 10
483.2499999999992
 20
387.099740076253
 30
0.0
 40
2.9999999999999858
 50
93.51562605707764
 51
180.0
  0
ARC
  5
182
  8
DATA
 62
     7
 10
485.7499999999992
 20
384.7986639654448
 30
0.0
 40
2.999999999999996
 50
95.946720153850549
 51
180.0
  0
LINE
  5
183
  8
DATA
 62
     7
 10
477.2499999999992
 20
364.09409441155941
 30
0.0
 11
479.7499999999992
 21
364.09409441155941
 31
0.0
  0
LINE
  5
184
  8
DATA
 62
     7
 10
480.24999999999932
 20
364.09409441155941
 30
0.0
 11
482.7499999999992
 21
364.09409441155941
 31
0.0
  0
LINE
  5
185
  8
DATA
 62
     7
 10
480.24999999999932
 20
364.60000000000008
 30
0.0
 11
480.24999999999932
 21
364.09409441155941
 31
0.0
  0
LINE
  5
186
  8
DATA
 62
     7
 10
479.7499999999992
 20
366.20000000000022
 30
0.0
 11
479.7499999999992
 21
364.09409441155941
 31
0.0
  0
ARC
  5
187
  8
DATA
 62
     7
 10
475.88877934466552
 20
373.0
 30
0.0
 40
13.23037741024487
 50
342.40212521268251
 51
17.59787478731749
  0
LINE
  5
188
  8
DATA
 62
     7
 10
462.4999999999992
 20
359.25000000000011
 30
0.0
 11
462.4999999999992
 21
386.75
 31
0.0
  0
LINE
  5
189
  8
DATA
 62
     7
 10
462.4999999999992
 20
386.75
 30
0.0
 11
447.4999999999992
 21
386.75
 31
0.0
  0
LINE
  5
18A
  8
DATA
 62
     7
 10
447.4999999999992
 20
359.25000000000011
 30
0.0
 11
462.4999999999992
 21
359.25000000000011
 31
0.0
  0
LINE
  5
18B
  8
DATA
 62
     7
 10
446.2499999999992
 20
375.5
 30
0.0
 11
447.4999999999992
 21
386.75
 31
0.0
  0
LINE
  5
18C
  8
DATA
 62
     7
 10
446.2499999999992
 20
370.5
 30
0.0
 11
447.4999999999992
 21
359.25000000000011
 31
0.0
  0
LINE
  5
18D
  8
DATA
 62
     7
 10
446.2499999999992
 20
370.5
 30
0.0
 11
446.2499999999992
 21
375.7000000000001
 31
0.0
  0
LINE
  5
18E
  8
DATA
 62
     7
 10
462.4999999999992
 20
366.5
 30
0.0
 11
471.4999999999992
 21
366.5
 31
0.0
  0
LINE
  5
18F
  8
DATA
 62
     7
 10
471.4999999999992
 20
379.5
 30
0.0
 11
462.4999999999992
 21
379.5
 31
0.0
  0
LINE
  5
190
  8
DATA
 62
     7
 10
446.2499999999992
 20
375.0
 30
0.0
 11
462.4999999999992
 21
376.0
 31
0.0
  0
LINE
  5
191
  8
DATA
 62
     7
 10
446.2499999999992
 20
371.0
 30
0.0
 11
462.4999999999992
 21
370.0
 31
0.0
  0
LINE
  5
192
  8
DATA
 62
     7
 10
476.9999999999992
 20
365.0
 30
0.0
 11
477.2499999999992
 21
365.0
 31
0.0
  0
LINE
  5
193
  8
DATA
 62
     7
 10
479.7499999999992
 20
365.0
 30
0.0
 11
480.24999999999932
 21
365.0
 31
0.0
  0
LINE
  5
194
  8
DATA
 62
     7
 10
482.7499999999992
 20
365.0
 30
0.0
 11
482.9999999999992
 21
365.0
 31
0.0
  0
LINE
  5
195
  8
DATA
 62
     7
 10
482.9999999999992
 20
381.0
 30
0.0
 11
482.7499999999992
 21
381.0
 31
0.0
  0
LINE
  5
196
  8
DATA
 62
     7
 10
480.24999999999932
 20
381.0
 30
0.0
 11
479.7499999999992
 21
381.0
 31
0.0
  0
LINE
  5
197
  8
DATA
 62
     7
 10
477.2499999999992
 20
381.0
 30
0.0
 11
476.9999999999992
 21
381.0
 31
0.0
  0
ARC
  5
198
  8
DATA
 62
     7
 10
483.19999999999919
 20
383.70459340771453
 30
0.0
 40
0.200000000000012
 50
68.198590513642145
 51
180.0
  0
ARC
  5
199
  8
DATA
 62
     7
 10
476.79999999999922
 20
383.70459340771453
 30
0.0
 40
0.1999999999999886
 50
359.99999999999602
 51
111.8014094863593
  0
ARC
  5
19A
  8
DATA
 62
     7
 10
487.4999999999992
 20
381.12296703857322
 30
0.0
 40
1.0
 50
0.0
 51
68.19859051365124
  0
ARC
  5
19B
  8
DATA
 62
     7
 10
472.4999999999992
 20
381.12296703857322
 30
0.0
 40
1.000000000000004
 50
111.8014094863521
 51
180.0
  0
CIRCLE
  5
19C
  8
DATA
 62
     7
 10
479.9999999999992
 20
440.0
 30
0.0
 40
20.0
  0
CIRCLE
  5
19D
  8
DATA
 62
     7
 10
479.9999999999992
 20
440.0
 30
0.0
 40
10.0
  0
LINE
  5
19E
  8
DATA
 62
     7
 10
460.10458963593283
 20
466.7719360179039
 30
0.0
 11
461.87605175465279
 21
465.15000000000009
 31
0.0
  0
LINE
  5
19F
  8
DATA
 62
     7
 10
457.91085646439291
 20
464.57820284636432
 30
0.0
 11
459.49542733924869
 21
463.25
 31
0.0
  0
LINE
  5
1A0
  8
DATA
 62
     7
 10
455.4217971536342
 20
462.0891435356088
 30
0.0
 11
453.22806398209542
 21
459.89541036406649
 31
0.0
  0
LINE
  5
1A1
  8
DATA
 62
     7
 10
499.8954103640657
 20
413.22806398209627
 30
0.0
 11
498.05436235373543
 21
414.80000000000001
 31
0.0
  0
LINE
  5
1A2
  8
DATA
 62
     7
 10
502.0891435356055
 20
415.42179715363591
 30
0.0
 11
500.33322404342141
 21
416.60000000000008
 31
0.0
  0
LINE
  5
1A3
  8
DATA
 62
     7
 10
504.35692488418022
 20
418.35000000000008
 30
0.0
 11
506.34734685015309
 21
420.65000000000009
 31
0.0
  0
LINE
  5
1A4
  8
DATA
 62
     7
 10
453.22806398209542
 20
420.10458963593362
 30
0.0
 11
453.64729313002817
 21
420.52844222695018
 31
0.0
  0
LINE
  5
1A5
  8
DATA
 62
     7
 10
455.421797153635
 20
417.91085646439382
 30
0.0
 11
455.72884786522599
 21
418.33548663708842
 31
0.0
  0
CIRCLE
  5
1A6
  8
DATA
 62
     7
 10
479.9999999999992
 20
440.0
 30
0.0
 40
27.5
  0
LINE
  5
1A7
  8
DATA
 62
     7
 10
471.07382775385821
 20
463.8396722710599
 30
0.0
 11
478.11163148007512
 21
460.9690791631254
 31
0.0
  0
LINE
  5
1A8
  8
DATA
 62
     7
 10
481.88836851992329
 20
460.9690791631254
 30
0.0
 11
488.92617224614031
 21
463.8396722710599
 31
0.0
  0
ARC
  5
1A9
  8
DATA
 62
     7
 10
479.9999999999992
 20
465.59877292545559
 30
0.0
 40
4.9999999999999911
 50
247.81033922983079
 51
292.1896607701691
  0
ARC
  5
1AA
  8
DATA
 62
     7
 10
479.99999999999898
 20
440.00000000000068
 30
0.0
 40
26.499999999999989
 50
70.373292550658803
 51
109.6267074493398
  0
ARC
  5
1AB
  8
DATA
 62
     7
 10
471.30043197624911
 20
464.39523552253968
 30
0.0
 40
0.6000000000000132
 50
109.6267074493382
 51
247.8103392298313
  0
ARC
  5
1AC
  8
DATA
 62
     7
 10
488.69956802374941
 20
464.39523552253962
 30
0.0
 40
0.5999999999999196
 50
292.189660770167
 51
70.373292550669987
  0
LINE
  5
1AD
  8
DATA
 62
     7
 10
503.8396722710583
 20
448.9261722461415
 30
0.0
 11
500.96907916312369
 21
441.88836851992448
 31
0.0
  0
LINE
  5
1AE
  8
DATA
 62
     7
 10
500.96907916312369
 20
438.11163148007608
 30
0.0
 11
503.8396722710583
 21
431.0738277538594
 31
0.0
  0
ARC
  5
1AF
  8
DATA
 62
     7
 10
505.598772925454
 20
440.00000000000028
 30
0.0
 40
5.0000000000000098
 50
157.81033922983099
 51
202.18966077016901
  0
ARC
  5
1B0
  8
DATA
 62
     7
 10
479.99999999999892
 20
440.00000000000068
 30
0.0
 40
26.5
 50
340.37329255065879
 51
19.62670744933974
  0
ARC
  5
1B1
  8
DATA
 62
     7
 10
504.39523552253792
 20
448.69956802375049
 30
0.0
 40
0.6000000000000468
 50
19.626707449337019
 51
157.81033922983229
  0
ARC
  5
1B2
  8
DATA
 62
     7
 10
504.3952355225378
 20
431.30043197625008
 30
0.0
 40
0.5999999999999131
 50
202.18966077016731
 51
340.37329255066879
  0
LINE
  5
1B3
  8
DATA
 62
     7
 10
488.92617224614082
 20
416.1603277289409
 30
0.0
 11
481.88836851992392
 21
419.03092083687562
 31
0.0
  0
LINE
  5
1B4
  8
DATA
 62
     7
 10
478.11163148007557
 20
419.03092083687562
 30
0.0
 11
471.07382775385861
 21
416.1603277289409
 31
0.0
  0
ARC
  5
1B5
  8
DATA
 62
     7
 10
479.99999999999972
 20
414.4012270745452
 30
0.0
 40
5.000000000000008
 50
67.810339229831001
 51
112.189660770169
  0
ARC
  5
1B6
  8
DATA
 62
     7
 10
480.0
 20
440.00000000000028
 30
0.0
 40
26.5
 50
250.3732925506587
 51
289.62670744933979
  0
ARC
  5
1B7
  8
DATA
 62
     7
 10
488.6995680237498
 20
415.60476447746117
 30
0.0
 40
0.6000000000000183
 50
289.62670744933808
 51
67.810339229835805
  0
ARC
  5
1B8
  8
DATA
 62
     7
 10
471.3004319762494
 20
415.60476447746152
 30
0.0
 40
0.5999999999999131
 50
112.18966077016719
 51
250.3732925506653
  0
LINE
  5
1B9
  8
DATA
 62
     7
 10
456.16032772893931
 20
431.07382775385889
 30
0.0
 11
459.03092083687369
 21
438.11163148007591
 31
0.0
  0
LINE
  5
1BA
  8
DATA
 62
     7
 10
459.03092083687369
 20
441.88836851992409
 30
0.0
 11
456.16032772893931
 21
448.92617224614099
 31
0.0
  0
ARC
  5
1BB
  8
DATA
 62
     7
 10
454.40122707454361
 20
440.0
 30
0.0
 40
5.0000000000000098
 50
337.81033922983107
 51
22.189660770169041
  0
ARC
  5
1BC
  8
DATA
 62
     7
 10
479.99999999999852
 20
439.99999999999972
 30
0.0
 40
26.5
 50
160.3732925506587
 51
199.6267074493397
  0
ARC
  5
1BD
  8
DATA
 62
     7
 10
455.60476447745958
 20
431.3004319762498
 30
0.0
 40
0.6000000000000468
 50
199.626707449337
 51
337.81033922983232
  0
ARC
  5
1BE
  8
DATA
 62
     7
 10
455.60476447745958
 20
448.69956802375009
 30
0.0
 40
0.5999999999999131
 50
22.18966077016729
 51
160.37329255066879
  0
LINE
  5
1BF
  8
DATA
 62
     7
 10
458.5526386322623
 20
415.79999999999978
 30
0.0
 11
459.5522617387636
 21
416.7000000000001
 31
0.0
  0
LINE
  5
1C0
  8
DATA
 62
     7
 10
460.90649484314582
 20
413.89999999999998
 30
0.0
 11
461.79999999999922
 21
414.75000000000011
 31
0.0
  0
LINE
  5
1C1
  8
DATA
 62
     7
 10
455.72884786522599
 20
418.33548663708842
 30
0.0
 11
453.64729313002817
 21
420.52844222695018
 31
0.0
  0
LINE
  5
1C2
  8
DATA
 62
     7
 10
506.77193601790287
 20
459.89541036406649
 30
0.0
 11
504.57820284636341
 21
462.08914353560641
 31
0.0
  0
LINE
  5
1C3
  8
DATA
 62
     7
 10
499.79125920180161
 20
466.69999999999987
 30
0.0
 11
498.1499999999993
 21
465.1312057012791
 31
0.0
  0
LINE
  5
1C4
  8
DATA
 62
     7
 10
501.94999999999669
 20
464.52283112753139
 30
0.0
 11
500.67341287741249
 21
463.10000000000008
 31
0.0
  0
LINE
  5
1C5
  8
DATA
 62
     7
 10
219.89541036406649
 20
466.7719360179039
 30
0.0
 11
218.11621034773219
 21
465.1555743849496
 31
0.0
  0
LINE
  5
1C6
  8
DATA
 62
     7
 10
222.08914353560641
 20
464.57820284636432
 30
0.0
 11
220.3000000000001
 21
463.42882839580329
 31
0.0
  0
LINE
  5
1C7
  8
DATA
 62
     7
 10
224.40000000000001
 20
461.71679147285141
 30
0.0
 11
226.5378259933949
 21
459.57546057043641
 31
0.0
  0
LINE
  5
1C8
  8
DATA
 62
     7
 10
180.10458963593359
 20
413.22806398209627
 30
0.0
 11
181.94999999999999
 21
414.7968751937384
 31
0.0
  0
LINE
  5
1C9
  8
DATA
 62
     7
 10
177.9108564643937
 20
415.42179715363591
 30
0.0
 11
179.72446054971661
 21
416.55000000000001
 31
0.0
  0
LINE
  5
1CA
  8
DATA
 62
     7
 10
175.71519223600549
 20
418.4500000000001
 30
0.0
 11
173.6526531498435
 21
420.65000000000009
 31
0.0
  0
LINE
  5
1CB
  8
DATA
 62
     7
 10
310.25
 20
387.78251996731279
 30
0.0
 11
310.25
 21
396.57307014946161
 31
0.0
  0
LINE
  5
1CC
  8
DATA
 62
     7
 10
310.25
 20
408.25969600106339
 30
0.0
 11
310.25
 21
470.00000000000011
 31
0.0
  0
LINE
  5
1CD
  8
DATA
 62
     7
 10
310.25
 20
484.12841969949972
 30
0.0
 11
310.25
 21
491.50000000000051
 31
0.0
  0
POLYLINE
  5
1CE
  8
DATA
 62
     7
 66
     1
 10
0.0
 20
0.0
 30
0.0
 70
   128
  0
VERTEX
  5
37B
  8
DATA
 62
     7
 10
311.25
 20
492.50000000000051
 30
0.0
  0
VERTEX
  5
37C
  8
DATA
 62
     7
 10
328.75
 20
492.50000000000051
 30
0.0
  0
VERTEX
  5
37D
  8
DATA
 62
     7
 10
328.75
 20
492.50000000000051
 30
0.0
 42
-0.4142135623730951
  0
VERTEX
  5
37E
  8
DATA
 62
     7
 10
329.75
 20
491.50000000000051
 30
0.0
  0
VERTEX
  5
37F
  8
DATA
 62
     7
 10
329.75
 20
484.12841969949972
 30
0.0
  0
SEQEND
  5
380
  8
DATA
 62
     7
  0
LINE
  5
1D5
  8
DATA
 62
     7
 10
329.75
 20
470.00000000000011
 30
0.0
 11
329.75
 21
408.25969600106339
 31
0.0
  0
LINE
  5
1D6
  8
DATA
 62
     7
 10
329.75
 20
396.57307014946161
 30
0.0
 11
329.75
 21
387.78251996731279
 31
0.0
  0
LINE
  5
1D7
  8
DATA
 62
     7
 10
302.25
 20
410.5
 30
0.0
 11
302.25
 21
468.25
 31
0.0
  0
LINE
  5
1D8
  8
DATA
 62
     7
 10
370.5
 20
459.11538461538458
 30
0.0
 11
364.75
 21
460.0
 31
0.0
  0
LINE
  5
1D9
  8
DATA
 62
     7
 10
370.5
 20
420.8846153846153
 30
0.0
 11
364.75
 21
420.00000000000011
 31
0.0
  0
LINE
  5
1DA
  8
DATA
 62
     7
 10
364.75
 20
420.00000000000011
 30
0.0
 11
364.75
 21
460.0
 31
0.0
  0
ARC
  5
1DB
  8
DATA
 62
     7
 10
295.12679916318228
 20
272.71715481172419
 30
0.0
 40
199.80554095564909
 50
69.607166815160781
 51
78.680193707487263
  0
ARC
  5
1DC
  8
DATA
 62
     7
 10
295.12679916318228
 20
272.71715481172419
 30
0.0
 40
199.80554095564909
 50
79.296556950177177
 51
80.021158660436498
  0
ARC
  5
1DD
  8
DATA
 62
     7
 10
295.12679916318228
 20
607.28284518827616
 30
0.0
 40
199.80554095564909
 50
279.97884133956347
 51
280.70344304982189
  0
ARC
  5
1DE
  8
DATA
 62
     7
 10
295.12679916318228
 20
607.28284518827616
 30
0.0
 40
199.80554095564909
 50
281.3198062925124
 51
290.39283318483911
  0
LINE
  5
1DF
  8
DATA
 62
     7
 10
302.25
 20
469.5
 30
0.0
 11
302.25
 21
410.50000000000023
 31
0.0
  0
LINE
  5
1E0
  8
DATA
 62
     7
 10
304.83312101991822
 20
469.5
 30
0.0
 11
302.25
 21
469.5
 31
0.0
  0
LINE
  5
1E1
  8
DATA
 62
     7
 10
310.25
 20
410.5
 30
0.0
 11
307.33312101991822
 21
410.5
 31
0.0
  0
LINE
  5
1E2
  8
DATA
 62
     7
 10
304.83312101991822
 20
410.5
 30
0.0
 11
302.25
 21
410.5
 31
0.0
  0
LINE
  5
1E3
  8
DATA
 62
     7
 10
297.75
 20
479.70982603261177
 30
0.0
 11
343.5
 21
479.70982603261177
 31
0.0
  0
ARC
  5
1E4
  8
DATA
 62
     7
 10
297.75
 20
478.45982603261172
 30
0.0
 40
1.25
 50
90.0
 51
175.88034573915431
  0
LINE
  5
1E5
  8
DATA
 62
     7
 10
297.75
 20
479.70982603261177
 30
0.0
 11
295.30000000000001
 21
479.70982603261177
 31
0.0
  0
ARC
  5
1E6
  8
DATA
 62
     7
 10
295.30000000000001
 20
480.50982603261178
 30
0.0
 40
0.7999999999999973
 50
191.91541621783131
 51
270.0
  0
ARC
  5
1E7
  8
DATA
 62
     7
 10
295.30000000000001
 20
480.1794780978351
 30
0.0
 40
0.7999999999999976
 50
109.521145945542
 51
168.08458378216869
  0
LINE
  5
1E8
  8
DATA
 62
     7
 10
343.5
 20
479.70982603261177
 30
0.0
 11
344.69999999999999
 21
479.70982603261177
 31
0.0
  0
LINE
  5
1E9
  8
DATA
 62
     7
 10
310.25
 20
470.00000000000011
 30
0.0
 11
310.25
 21
471.74030399893678
 31
0.0
  0
LINE
  5
1EA
  8
DATA
 62
     7
 10
329.75
 20
470.00000000000011
 30
0.0
 11
329.75
 21
477.20982603261172
 31
0.0
  0
POLYLINE
  5
1EB
  8
DATA
 62
     7
 66
     1
 10
0.0
 20
0.0
 30
0.0
 70
   128
  0
VERTEX
  5
381
  8
DATA
 62
     7
 10
294.5
 20
475.64213054129618
 30
0.0
  0
VERTEX
  5
382
  8
DATA
 62
     7
 10
294.5
 20
476.20982603261172
 30
0.0
  0
VERTEX
  5
383
  8
DATA
 62
     7
 10
294.5
 20
476.20982603261172
 30
0.0
 42
-0.4142135623730951
  0
VERTEX
  5
384
  8
DATA
 62
     7
 10
295.5
 20
477.20982603261172
 30
0.0
  0
VERTEX
  5
385
  8
DATA
 62
     7
 10
342.25
 20
477.20982603261172
 30
0.0
  0
SEQEND
  5
386
  8
DATA
 62
     7
  0
LINE
  5
1F2
  8
DATA
 62
     7
 10
295.43001878656833
 20
474.64458223180623
 30
0.0
 11
308.38996242686352
 21
473.73540061791709
 31
0.0
  0
ARC
  5
1F3
  8
DATA
 62
     7
 10
295.5
 20
475.64213054129618
 30
0.0
 40
1.0
 50
180.0
 51
265.98709181919429
  0
ARC
  5
1F4
  8
DATA
 62
     7
 10
308.25
 20
471.74030399893678
 30
0.0
 40
2.0
 50
0.0
 51
85.987091819194333
  0
LINE
  5
1F5
  8
DATA
 62
     7
 10
300.26651477906319
 20
474.30528652543029
 30
0.0
 11
310.25
 21
463.80000000000001
 31
0.0
  0
LINE
  5
1F6
  8
DATA
 62
     7
 10
302.9450919647964
 20
474.11737574462421
 30
0.0
 11
310.25
 21
466.43066611833092
 31
0.0
  0
LINE
  5
1F7
  8
DATA
 62
     7
 10
307.33312101991822
 20
469.5
 30
0.0
 11
310.25
 21
469.5
 31
0.0
  0
LINE
  5
1F8
  8
DATA
 62
     7
 10
296.6667514093001
 20
478.0931967377681
 30
0.0
 11
297.50624477848982
 21
477.20982603261172
 31
0.0
  0
ARC
  5
1F9
  8
DATA
 62
     7
 10
297.10167947106157
 20
478.50652176857568
 30
0.0
 40
0.5999999999998097
 50
175.88034573914129
 51
223.54112527488959
  0
LINE
  5
1FA
  8
DATA
 62
     7
 10
310.25
 20
491.50000000000051
 30
0.0
 11
310.25
 21
483.42692985053861
 31
0.0
  0
LINE
  5
1FB
  8
DATA
 62
     7
 10
295.03267621298539
 20
480.93349268184272
 30
0.0
 11
308.32440403714401
 21
481.42831431991328
 31
0.0
  0
LINE
  5
1FC
  8
DATA
 62
     7
 10
344.56998121343179
 20
474.64458223180623
 30
0.0
 11
331.61003757313648
 21
473.73540061791709
 31
0.0
  0
ARC
  5
1FD
  8
DATA
 62
     7
 10
331.75
 20
471.74030399893678
 30
0.0
 40
2.0000000000000009
 50
94.012908180805667
 51
180.0
  0
LINE
  5
1FE
  8
DATA
 62
     7
 10
339.73348522093693
 20
474.30528652543029
 30
0.0
 11
329.75
 21
463.80000000000001
 31
0.0
  0
LINE
  5
1FF
  8
DATA
 62
     7
 10
337.05490803520371
 20
474.11737574462421
 30
0.0
 11
329.75
 21
466.43066611833092
 31
0.0
  0
LINE
  5
200
  8
DATA
 62
     7
 10
345.5
 20
475.64213054129618
 30
0.0
 11
345.5
 21
476.20982603261172
 31
0.0
  0
LINE
  5
201
  8
DATA
 62
     7
 10
342.25
 20
477.20982603261172
 30
0.0
 11
344.5
 21
477.20982603261172
 31
0.0
  0
ARC
  5
202
  8
DATA
 62
     7
 10
344.5
 20
475.64213054129618
 30
0.0
 40
1.0000000000000071
 50
274.0129081808056
 51
0.0
  0
ARC
  5
203
  8
DATA
 62
     7
 10
344.5
 20
476.20982603261172
 30
0.0
 40
1.0
 50
0.0
 51
90.0
  0
ARC
  5
204
  8
DATA
 62
     7
 10
342.25
 20
478.45982603261172
 30
0.0
 40
1.25
 50
4.1196542608456337
 51
90.0
  0
LINE
  5
205
  8
DATA
 62
     7
 10
343.3332485906999
 20
478.0931967377681
 30
0.0
 11
342.49375522151018
 21
477.20982603261172
 31
0.0
  0
ARC
  5
206
  8
DATA
 62
     7
 10
342.89832052893843
 20
478.50652176857568
 30
0.0
 40
0.5999999999998116
 50
316.45887472511049
 51
4.119654260858681
  0
ARC
  5
207
  8
DATA
 62
     7
 10
308.25
 20
483.42692985053878
 30
0.0
 40
2.0000000000000111
 50
272.13201062682151
 51
359.9999999999996
  0
LINE
  5
208
  8
DATA
 62
     7
 10
342.25
 20
479.70982603261177
 30
0.0
 11
344.69999999999999
 21
479.70982603261177
 31
0.0
  0
ARC
  5
209
  8
DATA
 62
     7
 10
344.69999999999999
 20
480.50982603261178
 30
0.0
 40
0.7999999999999972
 50
270.0
 51
348.08458378216881
  0
ARC
  5
20A
  8
DATA
 62
     7
 10
344.69999999999999
 20
480.1794780978351
 30
0.0
 40
0.8000000000000024
 50
11.91541621783121
 51
70.478854054457855
  0
LINE
  5
20B
  8
DATA
 62
     7
 10
344.96732378701461
 20
480.93349268184272
 30
0.0
 11
331.67559596285588
 21
481.42831431991328
 31
0.0
  0
ARC
  5
20C
  8
DATA
 62
     7
 10
331.75
 20
483.42692985053878
 30
0.0
 40
2.0
 50
180.0000000000004
 51
267.86798937317837
  0
LINE
  5
20D
  8
DATA
 62
     7
 10
329.75
 20
483.42692985053861
 30
0.0
 11
329.75
 21
484.30000000000001
 31
0.0
  0
ARC
  5
20E
  8
DATA
 62
     7
 10
295.12679916318228
 20
607.28284518827616
 30
0.0
 40
199.80554095564921
 50
279.97884133956359
 51
280.70344304982279
  0
LINE
  5
20F
  8
DATA
 62
     7
 10
297.75
 20
400.29017396738851
 30
0.0
 11
343.5
 21
400.29017396738851
 31
0.0
  0
ARC
  5
210
  8
DATA
 62
     7
 10
297.75
 20
401.54017396738851
 30
0.0
 40
1.25
 50
184.11965426084561
 51
270.0
  0
LINE
  5
211
  8
DATA
 62
     7
 10
297.75
 20
400.29017396738851
 30
0.0
 11
295.30000000000001
 21
400.29017396738851
 31
0.0
  0
ARC
  5
212
  8
DATA
 62
     7
 10
295.30000000000001
 20
399.49017396738861
 30
0.0
 40
0.7999999999999936
 50
90.0
 51
168.08458378216869
  0
ARC
  5
213
  8
DATA
 62
     7
 10
295.30000000000001
 20
399.82052190216518
 30
0.0
 40
0.7999999999999982
 50
191.91541621783099
 51
250.47885405445791
  0
LINE
  5
214
  8
DATA
 62
     7
 10
343.5
 20
400.29017396738851
 30
0.0
 11
344.69999999999999
 21
400.29017396738851
 31
0.0
  0
LINE
  5
215
  8
DATA
 62
     7
 10
310.25
 20
410.00000000000011
 30
0.0
 11
310.25
 21
408.25969600106339
 31
0.0
  0
LINE
  5
216
  8
DATA
 62
     7
 10
329.75
 20
410.00000000000011
 30
0.0
 11
329.75
 21
408.25969600106339
 31
0.0
  0
POLYLINE
  5
217
  8
DATA
 62
     7
 66
     1
 10
0.0
 20
0.0
 30
0.0
 70
   128
  0
VERTEX
  5
387
  8
DATA
 62
     7
 10
294.5
 20
404.35786945870387
 30
0.0
  0
VERTEX
  5
388
  8
DATA
 62
     7
 10
294.5
 20
403.79017396738851
 30
0.0
  0
VERTEX
  5
389
  8
DATA
 62
     7
 10
294.5
 20
403.79017396738851
 30
0.0
 42
0.4142135623730966
  0
VERTEX
  5
38A
  8
DATA
 62
     7
 10
295.5
 20
402.7901739673884
 30
0.0
  0
VERTEX
  5
38B
  8
DATA
 62
     7
 10
342.25
 20
402.7901739673884
 30
0.0
  0
SEQEND
  5
38C
  8
DATA
 62
     7
  0
LINE
  5
21E
  8
DATA
 62
     7
 10
295.43001878656833
 20
405.355417768194
 30
0.0
 11
308.38996242686352
 21
406.26459938208308
 31
0.0
  0
ARC
  5
21F
  8
DATA
 62
     7
 10
295.5
 20
404.35786945870387
 30
0.0
 40
0.9999999999999936
 50
94.012908180805681
 51
180.0
  0
ARC
  5
220
  8
DATA
 62
     7
 10
308.25
 20
408.25969600106339
 30
0.0
 40
1.999999999999998
 50
274.0129081808056
 51
0.0
  0
LINE
  5
221
  8
DATA
 62
     7
 10
300.26651477906319
 20
405.69471347456971
 30
0.0
 11
310.25
 21
416.2000000000001
 31
0.0
  0
LINE
  5
222
  8
DATA
 62
     7
 10
302.9450919647964
 20
405.88262425537602
 30
0.0
 11
310.25
 21
413.56933388166919
 31
0.0
  0
LINE
  5
223
  8
DATA
 62
     7
 10
296.6667514093001
 20
401.90680326223202
 30
0.0
 11
297.50624477848982
 21
402.7901739673884
 31
0.0
  0
ARC
  5
224
  8
DATA
 62
     7
 10
297.10167947106157
 20
401.49347823142438
 30
0.0
 40
0.5999999999998091
 50
136.45887472511029
 51
184.1196542608586
  0
LINE
  5
225
  8
DATA
 62
     7
 10
295.03267621298539
 20
399.06650731815768
 30
0.0
 11
308.32440403714401
 21
398.57168568008689
 31
0.0
  0
LINE
  5
226
  8
DATA
 62
     7
 10
344.56998121343179
 20
405.355417768194
 30
0.0
 11
331.61003757313648
 21
406.26459938208308
 31
0.0
  0
ARC
  5
227
  8
DATA
 62
     7
 10
331.75
 20
408.25969600106339
 30
0.0
 40
2.0
 50
180.0
 51
265.98709181919429
  0
LINE
  5
228
  8
DATA
 62
     7
 10
339.73348522093693
 20
405.69471347456971
 30
0.0
 11
329.75
 21
416.2000000000001
 31
0.0
  0
LINE
  5
229
  8
DATA
 62
     7
 10
337.05490803520371
 20
405.88262425537602
 30
0.0
 11
329.75
 21
413.56933388166919
 31
0.0
  0
LINE
  5
22A
  8
DATA
 62
     7
 10
345.5
 20
404.35786945870387
 30
0.0
 11
345.5
 21
403.79017396738851
 31
0.0
  0
LINE
  5
22B
  8
DATA
 62
     7
 10
342.25
 20
402.7901739673884
 30
0.0
 11
344.5
 21
402.7901739673884
 31
0.0
  0
ARC
  5
22C
  8
DATA
 62
     7
 10
344.5
 20
404.35786945870387
 30
0.0
 40
1.0
 50
0.0
 51
85.987091819194333
  0
ARC
  5
22D
  8
DATA
 62
     7
 10
344.5
 20
403.79017396738851
 30
0.0
 40
0.9999999999999965
 50
270.0
 51
0.0
  0
ARC
  5
22E
  8
DATA
 62
     7
 10
342.25
 20
401.54017396738851
 30
0.0
 40
1.25
 50
270.0
 51
355.88034573915428
  0
LINE
  5
22F
  8
DATA
 62
     7
 10
343.3332485906999
 20
401.90680326223202
 30
0.0
 11
342.49375522151018
 21
402.7901739673884
 31
0.0
  0
ARC
  5
230
  8
DATA
 62
     7
 10
342.89832052893843
 20
401.49347823142438
 30
0.0
 40
0.599999999999808
 50
355.88034573914132
 51
43.541125274889453
  0
ARC
  5
231
  8
DATA
 62
     7
 10
308.25
 20
396.57307014946161
 30
0.0
 40
2.0
 50
0.0
 51
87.867989373178446
  0
LINE
  5
232
  8
DATA
 62
     7
 10
342.25
 20
400.29017396738851
 30
0.0
 11
344.69999999999999
 21
400.29017396738851
 31
0.0
  0
ARC
  5
233
  8
DATA
 62
     7
 10
344.69999999999999
 20
399.49017396738861
 30
0.0
 40
0.8000000000000024
 50
11.91541621783121
 51
89.999999999999986
  0
ARC
  5
234
  8
DATA
 62
     7
 10
344.69999999999999
 20
399.82052190216518
 30
0.0
 40
0.7999999999999947
 50
289.52114594554229
 51
348.08458378216898
  0
LINE
  5
235
  8
DATA
 62
     7
 10
344.96732378701461
 20
399.06650731815768
 30
0.0
 11
331.67559596285588
 21
398.57168568008689
 31
0.0
  0
ARC
  5
236
  8
DATA
 62
     7
 10
331.75
 20
396.57307014946161
 30
0.0
 40
1.9999999999999969
 50
92.132010626821554
 51
180.0
  0
LINE
  5
237
  8
DATA
 62
     7
 10
329.75
 20
396.57307014946161
 30
0.0
 11
329.75
 21
395.70000000000022
 31
0.0
  0
LINE
  5
238
  8
DATA
 62
     7
 10
329.75
 20
451.5
 30
0.0
 11
356.69572220128879
 21
443.15426855252713
 31
0.0
  0
LINE
  5
239
  8
DATA
 62
     7
 10
356.69572220128879
 20
436.84573144747282
 30
0.0
 11
329.75
 21
428.50000000000011
 31
0.0
  0
LINE
  5
23A
  8
DATA
 62
     7
 10
358.80814802907821
 20
439.71142719001512
 30
0.0
 11
358.80814802907821
 21
440.288572809985
 31
0.0
  0
ARC
  5
23B
  8
DATA
 62
     7
 10
355.80814802907821
 20
440.288572809985
 30
0.0
 40
3.0
 50
0.0
 51
72.791002625129067
  0
ARC
  5
23C
  8
DATA
 62
     7
 10
355.80814802907821
 20
439.71142719001512
 30
0.0
 40
3.0000000000000009
 50
287.20899737487088
 51
359.99999999999977
  0
LINE
  5
23D
  8
DATA
 62
     7
 10
353.72835669495612
 20
442.09415689088001
 30
0.0
 11
329.75
 21
450.7000000000001
 31
0.0
  0
LINE
  5
23E
  8
DATA
 62
     7
 10
353.72835669495612
 20
437.90584310912021
 30
0.0
 11
329.75
 21
429.30000000000013
 31
0.0
  0
ARC
  5
23F
  8
DATA
 62
     7
 10
352.8838488625027
 20
439.74111491910708
 30
0.0
 40
2.5000000000000049
 50
5.9438645711780573
 51
70.256914542334243
  0
ARC
  5
240
  8
DATA
 62
     7
 10
352.8838488625027
 20
440.25888508089309
 30
0.0
 40
2.5000000000000089
 50
289.7430854576657
 51
354.05613542882071
  0
ARC
  5
241
  8
DATA
 62
     7
 10
320.0
 20
372.60136718749999
 30
0.0
 40
11.398632812500001
 50
7.0480571677484827
 51
71.37143863182402
  0
ARC
  5
242
  8
DATA
 62
     7
 10
320.0
 20
372.60136718749999
 30
0.0
 40
11.398632812500001
 50
108.62856136817651
 51
172.95194283225149
  0
LINE
  5
243
  8
DATA
 62
     7
 10
310.25
 20
387.78251996731279
 30
0.0
 11
310.25
 21
378.50613898615592
 31
0.0
  0
LINE
  5
244
  8
DATA
 62
     7
 10
329.75
 20
387.78251996731279
 30
0.0
 11
329.75
 21
378.4000000000002
 31
0.0
  0
ARC
  5
245
  8
DATA
 62
     7
 10
320.0
 20
363.50000000000011
 30
0.0
 40
8.0
 50
180.0
 51
0.0
  0
ARC
  5
246
  8
DATA
 62
     7
 10
320.0
 20
372.93189093459512
 30
0.0
 40
8.0201463771052985
 50
4.061962554422422
 51
50.505816105390309
  0
ARC
  5
247
  8
DATA
 62
     7
 10
320.0
 20
372.93189093459512
 30
0.0
 40
8.0201463771053128
 50
129.49418389460871
 51
175.93803744557741
  0
LINE
  5
248
  8
DATA
 62
     7
 10
312.0
 20
363.50000000000011
 30
0.0
 11
312.0
 21
373.60000000000008
 31
0.0
  0
LINE
  5
249
  8
DATA
 62
     7
 10
328.0
 20
363.50000000000011
 30
0.0
 11
328.0
 21
373.5
 31
0.0
  0
POLYLINE
  5
24A
  8
DATA
 62
     7
 66
     1
 10
0.0
 20
0.0
 30
0.0
 70
     1
  0
VERTEX
  5
38D
  8
DATA
 62
     7
 10
313.75
 20
375.75
 30
0.0
  0
VERTEX
  5
38E
  8
DATA
 62
     7
 10
326.25
 20
375.75
 30
0.0
  0
VERTEX
  5
38F
  8
DATA
 62
     7
 10
326.25
 20
370.25000000000011
 30
0.0
  0
VERTEX
  5
390
  8
DATA
 62
     7
 10
313.75
 20
370.25000000000011
 30
0.0
  0
SEQEND
  5
391
  8
DATA
 62
     7
  0
LINE
  5
251
  8
DATA
 62
     7
 10
313.75
 20
375.75
 30
0.0
 11
317.5
 21
386.75
 31
0.0
  0
LINE
  5
252
  8
DATA
 62
     7
 10
326.25
 20
375.75
 30
0.0
 11
322.5
 21
386.75
 31
0.0
  0
LINE
  5
253
  8
DATA
 62
     7
 10
317.5
 20
359.25000000000011
 30
0.0
 11
313.75
 21
370.25000000000011
 31
0.0
  0
LINE
  5
254
  8
DATA
 62
     7
 10
326.25
 20
370.25000000000011
 30
0.0
 11
322.5
 21
359.25000000000011
 31
0.0
  0
LINE
  5
255
  8
DATA
 62
     7
 10
317.5
 20
386.75
 30
0.0
 11
322.5
 21
386.75
 31
0.0
  0
LINE
  5
256
  8
DATA
 62
     7
 10
322.5
 20
359.25000000000011
 30
0.0
 11
317.80000000000001
 21
359.25000000000011
 31
0.0
  0
LINE
  5
257
  8
DATA
 62
     7
 10
317.5
 20
359.25000000000011
 30
0.0
 11
318.2000000000001
 21
359.25000000000011
 31
0.0
  0
LINE
  5
258
  8
DATA
 62
     7
 10
364.75
 20
440.0
 30
0.0
 11
370.5
 21
440.0
 31
0.0
  0
LINE
  5
259
  8
DATA
 62
     7
 10
364.75
 20
441.5
 30
0.0
 11
370.5
 21
441.5
 31
0.0
  0
LINE
  5
25A
  8
DATA
 62
     7
 10
364.75
 20
443.0
 30
0.0
 11
370.5
 21
443.0
 31
0.0
  0
LINE
  5
25B
  8
DATA
 62
     7
 10
364.75
 20
444.5
 30
0.0
 11
370.5
 21
444.5
 31
0.0
  0
LINE
  5
25C
  8
DATA
 62
     7
 10
364.75
 20
446.0
 30
0.0
 11
370.5
 21
446.0
 31
0.0
  0
LINE
  5
25D
  8
DATA
 62
     7
 10
364.75
 20
447.5
 30
0.0
 11
370.5
 21
447.5
 31
0.0
  0
LINE
  5
25E
  8
DATA
 62
     7
 10
364.75
 20
449.00000000000011
 30
0.0
 11
370.5
 21
449.00000000000011
 31
0.0
  0
LINE
  5
25F
  8
DATA
 62
     7
 10
364.75
 20
450.5
 30
0.0
 11
370.5
 21
450.5
 31
0.0
  0
LINE
  5
260
  8
DATA
 62
     7
 10
364.75
 20
452.0
 30
0.0
 11
370.5
 21
452.0
 31
0.0
  0
LINE
  5
261
  8
DATA
 62
     7
 10
364.75
 20
453.50000000000011
 30
0.0
 11
370.5
 21
453.50000000000011
 31
0.0
  0
LINE
  5
262
  8
DATA
 62
     7
 10
364.75
 20
455.0
 30
0.0
 11
370.5
 21
455.0
 31
0.0
  0
LINE
  5
263
  8
DATA
 62
     7
 10
364.75
 20
456.5
 30
0.0
 11
370.5
 21
456.5
 31
0.0
  0
LINE
  5
264
  8
DATA
 62
     7
 10
364.75
 20
458.0
 30
0.0
 11
370.5
 21
458.0
 31
0.0
  0
LINE
  5
265
  8
DATA
 62
     7
 10
364.75
 20
459.5
 30
0.0
 11
368.0
 21
459.5
 31
0.0
  0
LINE
  5
266
  8
DATA
 62
     7
 10
364.75
 20
438.5
 30
0.0
 11
370.5
 21
438.5
 31
0.0
  0
LINE
  5
267
  8
DATA
 62
     7
 10
364.75
 20
437.0
 30
0.0
 11
370.5
 21
437.0
 31
0.0
  0
LINE
  5
268
  8
DATA
 62
     7
 10
364.75
 20
435.5
 30
0.0
 11
370.5
 21
435.5
 31
0.0
  0
LINE
  5
269
  8
DATA
 62
     7
 10
364.75
 20
434.0
 30
0.0
 11
370.5
 21
434.0
 31
0.0
  0
LINE
  5
26A
  8
DATA
 62
     7
 10
364.75
 20
432.50000000000011
 30
0.0
 11
370.5
 21
432.50000000000011
 31
0.0
  0
LINE
  5
26B
  8
DATA
 62
     7
 10
364.75
 20
431.0
 30
0.0
 11
370.5
 21
431.0
 31
0.0
  0
LINE
  5
26C
  8
DATA
 62
     7
 10
364.75
 20
429.5
 30
0.0
 11
370.5
 21
429.5
 31
0.0
  0
LINE
  5
26D
  8
DATA
 62
     7
 10
364.75
 20
428.0
 30
0.0
 11
370.5
 21
428.0
 31
0.0
  0
LINE
  5
26E
  8
DATA
 62
     7
 10
364.75
 20
426.5
 30
0.0
 11
370.5
 21
426.5
 31
0.0
  0
LINE
  5
26F
  8
DATA
 62
     7
 10
364.75
 20
425.0
 30
0.0
 11
370.5
 21
425.0
 31
0.0
  0
LINE
  5
270
  8
DATA
 62
     7
 10
364.75
 20
423.5
 30
0.0
 11
370.5
 21
423.5
 31
0.0
  0
LINE
  5
271
  8
DATA
 62
     7
 10
364.75
 20
422.0
 30
0.0
 11
370.5
 21
422.0
 31
0.0
  0
LINE
  5
272
  8
DATA
 62
     7
 10
364.75
 20
420.5
 30
0.0
 11
368.0
 21
420.5
 31
0.0
  0
ARC
  5
273
  8
DATA
 62
     7
 10
311.25
 20
491.50000000000051
 30
0.0
 40
1.0
 50
90.0
 51
180.0
  0
LINE
  5
274
  8
DATA
 62
     7
 10
311.28898354183139
 20
191.25969600133911
 30
0.0
 11
311.28898354183139
 21
212.36135853317501
 31
0.0
  0
LINE
  5
275
  8
DATA
 62
     7
 10
311.28898354183139
 20
233.6386414673766
 30
0.0
 11
311.28898354183139
 21
253.0000000002758
 31
0.0
  0
LINE
  5
276
  8
DATA
 62
     7
 10
311.28898354183139
 20
267.12841969977541
 30
0.0
 11
311.28898354183139
 21
274.50000000027609
 31
0.0
  0
POLYLINE
  5
277
  8
DATA
 62
     7
 66
     1
 10
0.0
 20
0.0
 30
0.0
 70
   128
  0
VERTEX
  5
392
  8
DATA
 62
     7
 10
312.28898354183139
 20
275.50000000027609
 30
0.0
  0
VERTEX
  5
393
  8
DATA
 62
     7
 10
329.78898354183139
 20
275.50000000027609
 30
0.0
  0
VERTEX
  5
394
  8
DATA
 62
     7
 10
329.78898354183139
 20
275.50000000027609
 30
0.0
 42
-0.4142135623730951
  0
VERTEX
  5
395
  8
DATA
 62
     7
 10
330.78898354183139
 20
274.50000000027609
 30
0.0
  0
VERTEX
  5
396
  8
DATA
 62
     7
 10
330.78898354183139
 20
267.12841969977541
 30
0.0
  0
SEQEND
  5
397
  8
DATA
 62
     7
  0
LINE
  5
27E
  8
DATA
 62
     7
 10
330.78898354183139
 20
253.0000000002758
 30
0.0
 11
330.78898354183139
 21
231.52410312811801
 31
0.0
  0
LINE
  5
27F
  8
DATA
 62
     7
 10
330.78898354183139
 20
214.47589687243359
 30
0.0
 11
330.78898354183139
 21
191.25969600133911
 31
0.0
  0
LINE
  5
280
  8
DATA
 62
     7
 10
303.28898354183139
 20
193.5000000002758
 30
0.0
 11
303.28898354183139
 21
251.2500000002758
 31
0.0
  0
LINE
  5
281
  8
DATA
 62
     7
 10
372.28898354183139
 20
204.0000000002758
 30
0.0
 11
372.28898354183139
 21
242.0000000002758
 31
0.0
  0
LINE
  5
282
  8
DATA
 62
     7
 10
372.28898354183139
 20
242.0000000002758
 30
0.0
 11
365.78898354183139
 21
243.0000000002758
 31
0.0
  0
LINE
  5
283
  8
DATA
 62
     7
 10
372.28898354183139
 20
204.0000000002758
 30
0.0
 11
365.78898354183139
 21
203.0000000002758
 31
0.0
  0
LINE
  5
284
  8
DATA
 62
     7
 10
365.78898354183139
 20
203.0000000002758
 30
0.0
 11
365.78898354183139
 21
243.0000000002758
 31
0.0
  0
ARC
  5
285
  8
DATA
 62
     7
 10
296.16578270501361
 20
55.717154811999933
 30
0.0
 40
199.80554095564909
 50
69.607166815160781
 51
78.680193707487263
  0
ARC
  5
286
  8
DATA
 62
     7
 10
296.16578270501361
 20
55.717154811999933
 30
0.0
 40
199.80554095564901
 50
79.296556950177177
 51
80.021158660436498
  0
ARC
  5
287
  8
DATA
 62
     7
 10
296.16578270501361
 20
390.28284518855202
 30
0.0
 40
199.80554095564921
 50
279.97884133956347
 51
280.70344304982189
  0
ARC
  5
288
  8
DATA
 62
     7
 10
296.16578270501361
 20
390.28284518855202
 30
0.0
 40
199.80554095564921
 50
281.3198062925124
 51
290.39283318483911
  0
LINE
  5
289
  8
DATA
 62
     7
 10
303.28898354183139
 20
252.5000000002758
 30
0.0
 11
303.28898354183139
 21
193.5000000002758
 31
0.0
  0
LINE
  5
28A
  8
DATA
 62
     7
 10
305.87210456174961
 20
252.5000000002758
 30
0.0
 11
303.28898354183139
 21
252.5000000002758
 31
0.0
  0
LINE
  5
28B
  8
DATA
 62
     7
 10
311.28898354183139
 20
193.5000000002758
 30
0.0
 11
308.37210456174961
 21
193.5000000002758
 31
0.0
  0
LINE
  5
28C
  8
DATA
 62
     7
 10
305.87210456174961
 20
193.5000000002758
 30
0.0
 11
303.28898354183139
 21
193.5000000002758
 31
0.0
  0
LINE
  5
28D
  8
DATA
 62
     7
 10
298.78898354183139
 20
262.70982603288741
 30
0.0
 11
344.53898354183139
 21
262.70982603288741
 31
0.0
  0
ARC
  5
28E
  8
DATA
 62
     7
 10
298.78898354183139
 20
261.45982603288741
 30
0.0
 40
1.25
 50
90.0
 51
175.88034573915431
  0
LINE
  5
28F
  8
DATA
 62
     7
 10
298.78898354183139
 20
262.70982603288741
 30
0.0
 11
296.33898354183128
 21
262.70982603288741
 31
0.0
  0
ARC
  5
290
  8
DATA
 62
     7
 10
296.33898354183128
 20
263.50982603288747
 30
0.0
 40
0.8000000000000063
 50
191.91541621783
 51
270.0
  0
ARC
  5
291
  8
DATA
 62
     7
 10
296.33898354183128
 20
263.17947809811079
 30
0.0
 40
0.7999999999999871
 50
109.5211459455429
 51
168.08458378216989
  0
LINE
  5
292
  8
DATA
 62
     7
 10
344.53898354183139
 20
262.70982603288741
 30
0.0
 11
345.73898354183137
 21
262.70982603288741
 31
0.0
  0
LINE
  5
293
  8
DATA
 62
     7
 10
311.28898354183139
 20
253.0000000002758
 30
0.0
 11
311.28898354183139
 21
254.74030399921261
 31
0.0
  0
LINE
  5
294
  8
DATA
 62
     7
 10
330.78898354183139
 20
253.0000000002758
 30
0.0
 11
330.78898354183139
 21
260.20982603288741
 31
0.0
  0
POLYLINE
  5
295
  8
DATA
 62
     7
 66
     1
 10
0.0
 20
0.0
 30
0.0
 70
   128
  0
VERTEX
  5
398
  8
DATA
 62
     7
 10
295.53898354183139
 20
258.64213054157199
 30
0.0
  0
VERTEX
  5
399
  8
DATA
 62
     7
 10
295.53898354183139
 20
259.20982603288741
 30
0.0
  0
VERTEX
  5
39A
  8
DATA
 62
     7
 10
295.53898354183139
 20
259.20982603288741
 30
0.0
 42
-0.4142135623730951
  0
VERTEX
  5
39B
  8
DATA
 62
     7
 10
296.53898354183139
 20
260.20982603288741
 30
0.0
  0
VERTEX
  5
39C
  8
DATA
 62
     7
 10
343.28898354183139
 20
260.20982603288741
 30
0.0
  0
SEQEND
  5
39D
  8
DATA
 62
     7
  0
LINE
  5
29C
  8
DATA
 62
     7
 10
296.46900232839971
 20
257.64458223208192
 30
0.0
 11
309.42894596869479
 21
256.7354006181929
 31
0.0
  0
ARC
  5
29D
  8
DATA
 62
     7
 10
296.53898354183139
 20
258.64213054157199
 30
0.0
 40
1.0
 50
180.0
 51
265.98709181919531
  0
ARC
  5
29E
  8
DATA
 62
     7
 10
309.28898354183139
 20
254.74030399921261
 30
0.0
 40
2.0
 50
0.0
 51
85.987091819194333
  0
LINE
  5
29F
  8
DATA
 62
     7
 10
301.30549832089451
 20
257.30528652570609
 30
0.0
 11
311.28898354183139
 21
246.8000000002759
 31
0.0
  0
LINE
  5
2A0
  8
DATA
 62
     7
 10
303.98407550662768
 20
257.11737574490002
 30
0.0
 11
311.28898354183139
 21
249.43066611860669
 31
0.0
  0
LINE
  5
2A1
  8
DATA
 62
     7
 10
308.37210456174961
 20
252.5000000002758
 30
0.0
 11
311.28898354183139
 21
252.5000000002758
 31
0.0
  0
LINE
  5
2A2
  8
DATA
 62
     7
 10
297.70573495113138
 20
261.09319673804379
 30
0.0
 11
298.5452283203212
 21
260.20982603288741
 31
0.0
  0
ARC
  5
2A3
  8
DATA
 62
     7
 10
298.1406630128929
 20
261.50652176885148
 30
0.0
 40
0.5999999999997878
 50
175.8803457391399
 51
223.54112527488951
  0
LINE
  5
2A4
  8
DATA
 62
     7
 10
311.28898354183139
 20
274.50000000027609
 30
0.0
 11
311.28898354183139
 21
266.42692985081442
 31
0.0
  0
LINE
  5
2A5
  8
DATA
 62
     7
 10
296.07165975481678
 20
263.93349268211841
 30
0.0
 11
309.36338757897551
 21
264.42831432018909
 31
0.0
  0
LINE
  5
2A6
  8
DATA
 62
     7
 10
345.60896475526312
 20
257.64458223208192
 30
0.0
 11
332.64902111496798
 21
256.7354006181929
 31
0.0
  0
ARC
  5
2A7
  8
DATA
 62
     7
 10
332.78898354183139
 20
254.74030399921261
 30
0.0
 40
1.9999999999999869
 50
94.012908180805681
 51
180.0
  0
LINE
  5
2A8
  8
DATA
 62
     7
 10
340.77246876276831
 20
257.30528652570609
 30
0.0
 11
330.78898354183139
 21
246.8000000002759
 31
0.0
  0
LINE
  5
2A9
  8
DATA
 62
     7
 10
338.09389157703509
 20
257.11737574490002
 30
0.0
 11
330.78898354183139
 21
249.43066611860669
 31
0.0
  0
LINE
  5
2AA
  8
DATA
 62
     7
 10
346.53898354183139
 20
258.64213054157199
 30
0.0
 11
346.53898354183139
 21
259.20982603288741
 31
0.0
  0
LINE
  5
2AB
  8
DATA
 62
     7
 10
343.28898354183139
 20
260.20982603288741
 30
0.0
 11
345.53898354183139
 21
260.20982603288741
 31
0.0
  0
ARC
  5
2AC
  8
DATA
 62
     7
 10
345.53898354183139
 20
258.64213054157199
 30
0.0
 40
1.0000000000000211
 50
274.01290818080548
 51
0.0
  0
ARC
  5
2AD
  8
DATA
 62
     7
 10
345.53898354183139
 20
259.20982603288741
 30
0.0
 40
1.0
 50
0.0
 51
90.0
  0
ARC
  5
2AE
  8
DATA
 62
     7
 10
343.28898354183139
 20
261.45982603288741
 30
0.0
 40
1.25
 50
4.1196542608456337
 51
90.0
  0
LINE
  5
2AF
  8
DATA
 62
     7
 10
344.37223213253128
 20
261.09319673804379
 30
0.0
 11
343.53273876334163
 21
260.20982603288741
 31
0.0
  0
ARC
  5
2B0
  8
DATA
 62
     7
 10
343.93730407076993
 20
261.50652176885148
 30
0.0
 40
0.5999999999997915
 50
316.4588747251106
 51
4.1196542608600444
  0
ARC
  5
2B1
  8
DATA
 62
     7
 10
309.28898354183139
 20
266.42692985081442
 30
0.0
 40
2.0000000000000249
 50
272.13201062682128
 51
0.0
  0
LINE
  5
2B2
  8
DATA
 62
     7
 10
343.28898354183139
 20
262.70982603288741
 30
0.0
 11
345.73898354183137
 21
262.70982603288741
 31
0.0
  0
ARC
  5
2B3
  8
DATA
 62
     7
 10
345.73898354183137
 20
263.50982603288747
 30
0.0
 40
0.799999999999983
 50
270.0
 51
348.08458378216989
  0
ARC
  5
2B4
  8
DATA
 62
     7
 10
345.73898354183137
 20
263.17947809811079
 30
0.0
 40
0.8000000000000063
 50
11.91541621783011
 51
70.478854054457059
  0
LINE
  5
2B5
  8
DATA
 62
     7
 10
346.00630732884599
 20
263.93349268211841
 30
0.0
 11
332.71457950468721
 21
264.42831432018909
 31
0.0
  0
ARC
  5
2B6
  8
DATA
 62
     7
 10
332.78898354183139
 20
266.42692985081442
 30
0.0
 40
2.0
 50
180.0
 51
267.86798937317872
  0
LINE
  5
2B7
  8
DATA
 62
     7
 10
330.78898354183139
 20
266.42692985081442
 30
0.0
 11
330.78898354183139
 21
267.30000000027587
 31
0.0
  0
ARC
  5
2B8
  8
DATA
 62
     7
 10
296.16578270501361
 20
390.28284518855202
 30
0.0
 40
199.80554095564921
 50
279.97884133956359
 51
280.70344304982279
  0
LINE
  5
2B9
  8
DATA
 62
     7
 10
298.78898354183139
 20
183.2901739676642
 30
0.0
 11
344.53898354183139
 21
183.2901739676642
 31
0.0
  0
ARC
  5
2BA
  8
DATA
 62
     7
 10
298.78898354183139
 20
184.54017396766409
 30
0.0
 40
1.249999999999986
 50
184.11965426084561
 51
270.0
  0
LINE
  5
2BB
  8
DATA
 62
     7
 10
298.78898354183139
 20
183.2901739676642
 30
0.0
 11
296.33898354183128
 21
183.2901739676642
 31
0.0
  0
ARC
  5
2BC
  8
DATA
 62
     7
 10
296.33898354183128
 20
182.49017396766411
 30
0.0
 40
0.8000000000000113
 50
90.0
 51
168.0845837821679
  0
ARC
  5
2BD
  8
DATA
 62
     7
 10
296.33898354183128
 20
182.8205219024409
 30
0.0
 40
0.8000000000000063
 50
191.91541621783
 51
250.478854054457
  0
LINE
  5
2BE
  8
DATA
 62
     7
 10
344.53898354183139
 20
183.2901739676642
 30
0.0
 11
345.73898354183137
 21
183.2901739676642
 31
0.0
  0
LINE
  5
2BF
  8
DATA
 62
     7
 10
311.28898354183139
 20
193.0000000002758
 30
0.0
 11
311.28898354183139
 21
191.25969600133911
 31
0.0
  0
LINE
  5
2C0
  8
DATA
 62
     7
 10
330.78898354183139
 20
193.0000000002758
 30
0.0
 11
330.78898354183139
 21
191.25969600133911
 31
0.0
  0
POLYLINE
  5
2C1
  8
DATA
 62
     7
 66
     1
 10
0.0
 20
0.0
 30
0.0
 70
   128
  0
VERTEX
  5
39E
  8
DATA
 62
     7
 10
295.53898354183139
 20
187.35786945897959
 30
0.0
  0
VERTEX
  5
39F
  8
DATA
 62
     7
 10
295.53898354183139
 20
186.79017396766409
 30
0.0
  0
VERTEX
  5
3A0
  8
DATA
 62
     7
 10
295.53898354183139
 20
186.79017396766409
 30
0.0
 42
0.4142135623730951
  0
VERTEX
  5
3A1
  8
DATA
 62
     7
 10
296.53898354183139
 20
185.79017396766409
 30
0.0
  0
VERTEX
  5
3A2
  8
DATA
 62
     7
 10
343.28898354183139
 20
185.79017396766409
 30
0.0
  0
SEQEND
  5
3A3
  8
DATA
 62
     7
  0
LINE
  5
2C8
  8
DATA
 62
     7
 10
296.46900232839971
 20
188.35541776846969
 30
0.0
 11
309.42894596869479
 21
189.2645993823588
 31
0.0
  0
ARC
  5
2C9
  8
DATA
 62
     7
 10
296.53898354183139
 20
187.35786945897959
 30
0.0
 40
0.9999999999999927
 50
94.012908180804885
 51
180.0
  0
ARC
  5
2CA
  8
DATA
 62
     7
 10
309.28898354183139
 20
191.25969600133911
 30
0.0
 40
1.9999999999999869
 50
274.0129081808056
 51
0.0
  0
LINE
  5
2CB
  8
DATA
 62
     7
 10
301.30549832089451
 20
188.69471347484551
 30
0.0
 11
311.28898354183139
 21
199.20000000027579
 31
0.0
  0
LINE
  5
2CC
  8
DATA
 62
     7
 10
303.98407550662768
 20
188.88262425565171
 30
0.0
 11
311.28898354183139
 21
196.56933388194491
 31
0.0
  0
LINE
  5
2CD
  8
DATA
 62
     7
 10
297.70573495113138
 20
184.90680326250779
 30
0.0
 11
298.5452283203212
 21
185.79017396766409
 31
0.0
  0
ARC
  5
2CE
  8
DATA
 62
     7
 10
298.1406630128929
 20
184.49347823170021
 30
0.0
 40
0.5999999999997915
 50
136.4588747251106
 51
184.1196542608601
  0
LINE
  5
2CF
  8
DATA
 62
     7
 10
296.07165975481678
 20
182.0665073184332
 30
0.0
 11
309.36338757897551
 21
181.57168568036249
 31
0.0
  0
LINE
  5
2D0
  8
DATA
 62
     7
 10
345.60896475526312
 20
188.35541776846969
 30
0.0
 11
332.64902111496798
 21
189.2645993823588
 31
0.0
  0
ARC
  5
2D1
  8
DATA
 62
     7
 10
332.78898354183139
 20
191.25969600133911
 30
0.0
 40
2.0
 50
180.0
 51
265.98709181919429
  0
LINE
  5
2D2
  8
DATA
 62
     7
 10
340.77246876276831
 20
188.69471347484551
 30
0.0
 11
330.78898354183139
 21
199.20000000027579
 31
0.0
  0
LINE
  5
2D3
  8
DATA
 62
     7
 10
338.09389157703509
 20
188.88262425565171
 30
0.0
 11
330.78898354183139
 21
196.56933388194491
 31
0.0
  0
LINE
  5
2D4
  8
DATA
 62
     7
 10
346.53898354183139
 20
187.35786945897959
 30
0.0
 11
346.53898354183139
 21
186.79017396766409
 31
0.0
  0
LINE
  5
2D5
  8
DATA
 62
     7
 10
343.28898354183139
 20
185.79017396766409
 30
0.0
 11
345.53898354183139
 21
185.79017396766409
 31
0.0
  0
ARC
  5
2D6
  8
DATA
 62
     7
 10
345.53898354183139
 20
187.35786945897959
 30
0.0
 40
1.0
 50
0.0
 51
85.987091819194333
  0
ARC
  5
2D7
  8
DATA
 62
     7
 10
345.53898354183139
 20
186.79017396766409
 30
0.0
 40
1.0
 50
270.0
 51
0.0
  0
ARC
  5
2D8
  8
DATA
 62
     7
 10
343.28898354183139
 20
184.54017396766409
 30
0.0
 40
1.2499999999999709
 50
270.0
 51
355.88034573915428
  0
LINE
  5
2D9
  8
DATA
 62
     7
 10
344.37223213253128
 20
184.90680326250779
 30
0.0
 11
343.53273876334163
 21
185.79017396766409
 31
0.0
  0
ARC
  5
2DA
  8
DATA
 62
     7
 10
343.93730407076993
 20
184.49347823170021
 30
0.0
 40
0.599999999999802
 50
355.88034573914001
 51
43.541125274889403
  0
ARC
  5
2DB
  8
DATA
 62
     7
 10
309.28898354183139
 20
179.5730701497373
 30
0.0
 40
2.0
 50
0.0
 51
87.867989373178659
  0
LINE
  5
2DC
  8
DATA
 62
     7
 10
343.28898354183139
 20
183.2901739676642
 30
0.0
 11
345.73898354183137
 21
183.2901739676642
 31
0.0
  0
ARC
  5
2DD
  8
DATA
 62
     7
 10
345.73898354183137
 20
182.49017396766411
 30
0.0
 40
0.8000000000000124
 50
11.915416217832099
 51
90.0
  0
ARC
  5
2DE
  8
DATA
 62
     7
 10
345.73898354183137
 20
182.8205219024409
 30
0.0
 40
0.7999999999999871
 50
289.52114594554303
 51
348.08458378216989
  0
LINE
  5
2DF
  8
DATA
 62
     7
 10
346.00630732884599
 20
182.0665073184332
 30
0.0
 11
332.71457950468721
 21
181.57168568036249
 31
0.0
  0
ARC
  5
2E0
  8
DATA
 62
     7
 10
332.78898354183139
 20
179.5730701497373
 30
0.0
 40
1.999999999999996
 50
92.132010626821383
 51
180.0
  0
LINE
  5
2E1
  8
DATA
 62
     7
 10
330.78898354183139
 20
179.5730701497373
 30
0.0
 11
330.78898354183139
 21
178.70000000027579
 31
0.0
  0
LINE
  5
2E2
  8
DATA
 62
     7
 10
330.78898354183139
 20
234.5000000002758
 30
0.0
 11
357.73470574312012
 21
226.15426855280299
 31
0.0
  0
LINE
  5
2E3
  8
DATA
 62
     7
 10
357.73470574312012
 20
219.8457314477487
 30
0.0
 11
330.78898354183139
 21
211.5000000002758
 31
0.0
  0
LINE
  5
2E4
  8
DATA
 62
     7
 10
359.84713157090971
 20
222.71142719029089
 30
0.0
 11
359.84713157090971
 21
223.28857281026069
 31
0.0
  0
ARC
  5
2E5
  8
DATA
 62
     7
 10
356.84713157090971
 20
223.28857281026069
 30
0.0
 40
3.0
 50
0.0
 51
72.791002625128669
  0
ARC
  5
2E6
  8
DATA
 62
     7
 10
356.84713157090971
 20
222.71142719029089
 30
0.0
 40
3.0000000000000231
 50
287.20899737487139
 51
359.99999999999949
  0
LINE
  5
2E7
  8
DATA
 62
     7
 10
354.7673402367875
 20
225.09415689115559
 30
0.0
 11
330.78898354183139
 21
233.70000000027579
 31
0.0
  0
LINE
  5
2E8
  8
DATA
 62
     7
 10
354.7673402367875
 20
220.90584310939599
 30
0.0
 11
330.78898354183139
 21
212.30000000027579
 31
0.0
  0
ARC
  5
2E9
  8
DATA
 62
     7
 10
353.92283240433397
 20
222.7411149193828
 30
0.0
 40
2.4999999999999911
 50
5.9438645711780884
 51
70.256914542334172
  0
ARC
  5
2EA
  8
DATA
 62
     7
 10
353.92283240433397
 20
223.2588850811689
 30
0.0
 40
2.5000000000000222
 50
289.74308545766559
 51
354.05613542882003
  0
LINE
  5
2EB
  8
DATA
 62
     7
 10
365.78898354183139
 20
223.0000000002758
 30
0.0
 11
372.28898354183139
 21
223.0000000002758
 31
0.0
  0
LINE
  5
2EC
  8
DATA
 62
     7
 10
365.78898354183139
 20
224.5000000002758
 30
0.0
 11
372.28898354183139
 21
224.5000000002758
 31
0.0
  0
LINE
  5
2ED
  8
DATA
 62
     7
 10
365.78898354183139
 20
226.0000000002758
 30
0.0
 11
372.28898354183139
 21
226.0000000002758
 31
0.0
  0
LINE
  5
2EE
  8
DATA
 62
     7
 10
365.78898354183139
 20
227.5000000002758
 30
0.0
 11
372.28898354183139
 21
227.5000000002758
 31
0.0
  0
LINE
  5
2EF
  8
DATA
 62
     7
 10
365.78898354183139
 20
229.0000000002758
 30
0.0
 11
372.28898354183139
 21
229.0000000002758
 31
0.0
  0
LINE
  5
2F0
  8
DATA
 62
     7
 10
365.78898354183139
 20
230.5000000002758
 30
0.0
 11
372.28898354183139
 21
230.5000000002758
 31
0.0
  0
LINE
  5
2F1
  8
DATA
 62
     7
 10
365.78898354183139
 20
232.0000000002758
 30
0.0
 11
372.28898354183139
 21
232.0000000002758
 31
0.0
  0
LINE
  5
2F2
  8
DATA
 62
     7
 10
365.78898354183139
 20
233.5000000002758
 30
0.0
 11
372.28898354183139
 21
233.5000000002758
 31
0.0
  0
LINE
  5
2F3
  8
DATA
 62
     7
 10
365.78898354183139
 20
235.0000000002758
 30
0.0
 11
372.28898354183139
 21
235.0000000002758
 31
0.0
  0
LINE
  5
2F4
  8
DATA
 62
     7
 10
365.78898354183139
 20
236.5000000002758
 30
0.0
 11
372.28898354183139
 21
236.5000000002758
 31
0.0
  0
LINE
  5
2F5
  8
DATA
 62
     7
 10
365.78898354183139
 20
238.0000000002758
 30
0.0
 11
372.28898354183139
 21
238.0000000002758
 31
0.0
  0
LINE
  5
2F6
  8
DATA
 62
     7
 10
365.78898354183139
 20
239.5000000002758
 30
0.0
 11
372.28898354183139
 21
239.5000000002758
 31
0.0
  0
LINE
  5
2F7
  8
DATA
 62
     7
 10
365.78898354183139
 20
241.0000000002758
 30
0.0
 11
372.28898354183139
 21
241.0000000002758
 31
0.0
  0
LINE
  5
2F8
  8
DATA
 62
     7
 10
365.78898354183139
 20
242.5000000002758
 30
0.0
 11
369.03898354183139
 21
242.5000000002758
 31
0.0
  0
LINE
  5
2F9
  8
DATA
 62
     7
 10
365.78898354183139
 20
221.5000000002758
 30
0.0
 11
372.28898354183139
 21
221.5000000002758
 31
0.0
  0
LINE
  5
2FA
  8
DATA
 62
     7
 10
365.78898354183139
 20
220.0000000002758
 30
0.0
 11
372.28898354183139
 21
220.0000000002758
 31
0.0
  0
LINE
  5
2FB
  8
DATA
 62
     7
 10
365.78898354183139
 20
218.5000000002758
 30
0.0
 11
372.28898354183139
 21
218.5000000002758
 31
0.0
  0
LINE
  5
2FC
  8
DATA
 62
     7
 10
365.78898354183139
 20
217.0000000002758
 30
0.0
 11
372.28898354183139
 21
217.0000000002758
 31
0.0
  0
LINE
  5
2FD
  8
DATA
 62
     7
 10
365.78898354183139
 20
215.5000000002758
 30
0.0
 11
372.28898354183139
 21
215.5000000002758
 31
0.0
  0
LINE
  5
2FE
  8
DATA
 62
     7
 10
365.78898354183139
 20
214.0000000002758
 30
0.0
 11
372.28898354183139
 21
214.0000000002758
 31
0.0
  0
LINE
  5
2FF
  8
DATA
 62
     7
 10
365.78898354183139
 20
212.5000000002758
 30
0.0
 11
372.28898354183139
 21
212.5000000002758
 31
0.0
  0
LINE
  5
300
  8
DATA
 62
     7
 10
365.78898354183139
 20
211.0000000002758
 30
0.0
 11
372.28898354183139
 21
211.0000000002758
 31
0.0
  0
LINE
  5
301
  8
DATA
 62
     7
 10
365.78898354183139
 20
209.5000000002758
 30
0.0
 11
372.28898354183139
 21
209.5000000002758
 31
0.0
  0
LINE
  5
302
  8
DATA
 62
     7
 10
365.78898354183139
 20
208.0000000002758
 30
0.0
 11
372.28898354183139
 21
208.0000000002758
 31
0.0
  0
LINE
  5
303
  8
DATA
 62
     7
 10
365.78898354183139
 20
206.5000000002758
 30
0.0
 11
372.28898354183139
 21
206.5000000002758
 31
0.0
  0
LINE
  5
304
  8
DATA
 62
     7
 10
365.78898354183139
 20
205.0000000002758
 30
0.0
 11
372.28898354183139
 21
205.0000000002758
 31
0.0
  0
LINE
  5
305
  8
DATA
 62
     7
 10
365.78898354183139
 20
203.5000000002758
 30
0.0
 11
369.03898354183133
 21
203.5000000002758
 31
0.0
  0
ARC
  5
306
  8
DATA
 62
     7
 10
312.28898354183139
 20
274.50000000027609
 30
0.0
 40
1.0
 50
90.0
 51
180.0
  0
LINE
  5
307
  8
DATA
 62
     7
 10
312.28898354183139
 20
170.5000000002758
 30
0.0
 11
329.78898354183139
 21
170.5000000002758
 31
0.0
  0
LINE
  5
308
  8
DATA
 62
     7
 10
311.28898354183139
 20
179.5730701497373
 30
0.0
 11
311.28898354183139
 21
171.5000000002758
 31
0.0
  0
LINE
  5
309
  8
DATA
 62
     7
 10
330.78898354183139
 20
178.91826753764121
 30
0.0
 11
330.78898354183139
 21
171.5000000002758
 31
0.0
  0
ARC
  5
30A
  8
DATA
 62
     7
 10
312.28898354183139
 20
171.5000000002758
 30
0.0
 40
1.0
 50
180.0
 51
270.0
  0
ARC
  5
30B
  8
DATA
 62
     7
 10
329.78898354183139
 20
171.5000000002758
 30
0.0
 40
1.0
 50
270.0
 51
0.0
  0
ARC
  5
30C
  8
DATA
 62
     7
 10
320.0
 20
223.0000000002758
 30
0.0
 40
13.749999999999989
 50
192.17563260514251
 51
167.82436739485769
  0
CIRCLE
  5
30D
  8
DATA
 62
     7
 10
320.0
 20
223.0000000002758
 30
0.0
 40
7.4000000000000039
  0
LINE
  5
30E
  8
DATA
 62
     7
 10
304.75
 20
220.1000000002758
 30
0.0
 11
304.75
 21
225.9000000002759
 31
0.0
  0
LINE
  5
30F
  8
DATA
 62
     7
 10
304.75
 20
220.1000000002758
 30
0.0
 11
304.75
 21
225.9000000002759
 31
0.0
  0
LINE
  5
310
  8
DATA
 62
     7
 10
304.75
 20
225.9000000002759
 30
0.0
 11
306.55929689339138
 21
225.9000000002759
 31
0.0
  0
LINE
  5
311
  8
DATA
 62
     7
 10
304.75
 20
220.1000000002758
 30
0.0
 11
306.55929689339138
 21
220.1000000002758
 31
0.0
  0
LINE
  5
312
  8
DATA
 62
     7
 10
314.0
 20
256.25000000027592
 30
0.0
 11
314.0
 21
240.2500000002758
 31
0.0
  0
LINE
  5
313
  8
DATA
 62
     7
 10
326.0
 20
256.25000000027592
 30
0.0
 11
326.0
 21
240.2500000002758
 31
0.0
  0
LINE
  5
314
  8
DATA
 62
     7
 10
314.0
 20
256.25000000027592
 30
0.0
 11
326.0
 21
256.25000000027592
 31
0.0
  0
LINE
  5
315
  8
DATA
 62
     7
 10
326.0
 20
240.2500000002758
 30
0.0
 11
314.0
 21
240.2500000002758
 31
0.0
  0
LINE
  5
316
  8
DATA
 62
     7
 10
319.0
 20
256.25000000027592
 30
0.0
 11
317.0
 21
240.25000000027589
 31
0.0
  0
LINE
  5
317
  8
DATA
 62
     7
 10
323.0
 20
240.25000000027589
 30
0.0
 11
321.0
 21
256.25000000027592
 31
0.0
  0
LINE
  5
318
  8
DATA
 62
     7
 10
314.30000000000001
 20
240.2500000002758
 30
0.0
 11
314.30000000000001
 21
235.5128933507365
 31
0.0
  0
LINE
  5
319
  8
DATA
 62
     7
 10
325.69999999999999
 20
240.2500000002758
 30
0.0
 11
325.69999999999999
 21
235.5128933507365
 31
0.0
  0
LINE
  5
31A
  8
DATA
 62
     7
 10
186.25000000000011
 20
340.5000000000004
 30
0.0
 11
187.00000000000011
 21
355.0
 31
0.0
  0
LINE
  5
31B
  8
DATA
 62
     7
 10
213.75000000000011
 20
340.5000000000004
 30
0.0
 11
213.00000000000011
 21
355.0
 31
0.0
  0
LINE
  5
31C
  8
DATA
 62
     7
 10
306.25
 20
340.5000000000004
 30
0.0
 11
333.75
 21
340.5000000000004
 31
0.0
  0
LINE
  5
31D
  8
DATA
 62
     7
 10
306.25
 20
340.5000000000004
 30
0.0
 11
308.6875
 21
374.0
 31
0.0
  0
LINE
  5
31E
  8
DATA
 62
     7
 10
333.75
 20
340.5000000000004
 30
0.0
 11
331.3125
 21
374.0
 31
0.0
  0
LINE
  5
31F
  8
DATA
 62
     7
 10
466.2499999999992
 20
340.5000000000004
 30
0.0
 11
493.7499999999992
 21
340.5000000000004
 31
0.0
  0
LINE
  5
320
  8
DATA
 62
     7
 10
466.2499999999992
 20
340.5000000000004
 30
0.0
 11
466.9999999999992
 21
355.0
 31
0.0
  0
LINE
  5
321
  8
DATA
 62
     7
 10
493.7499999999992
 20
340.5000000000004
 30
0.0
 11
492.9999999999992
 21
355.0
 31
0.0
  0
LINE
  5
322
  8
DATA
 62
     7
 10
370.5
 20
420.8846153846153
 30
0.0
 11
370.5
 21
458.90000000020677
 31
0.0
  0
LINE
  5
323
  8
DATA
 62
     7
 10
370.5
 20
458.90000000020677
 30
0.0
 11
370.5
 21
459.11538461538458
 31
0.0
  0
LINE
  5
324
  8
DATA
 62
     7
 10
186.25000000000011
 20
340.5000000000004
 30
0.0
 11
213.75000000000011
 21
340.5000000000004
 31
0.0
  0
ENDSEC
  0
EOF
