  0
SECTION
  2
HEADER
  9
$ACADVER
  1
AC1009
  9
$INSBASE
 10
0.0
 20
0.0
 30
0.0
  9
$EXTMIN
 10
-45.016463234005869
 20
-155.56798085595321
 30
-0.0015258207003583
  9
$EXTMAX
 10
495.01646574857659
 20
647.32218227010958
 30
0.0000000349246037
  9
$LIMMIN
 10
0.0
 20
0.0
  9
$LIMMAX
 10
0.0
 20
0.0
  9
$ORTHOMODE
 70
     0
  9
$REGENMODE
 70
     1
  9
$FILLMODE
 70
     1
  9
$QTEXTMODE
 70
     0
  9
$MIRRTEXT
 70
     1
  9
$DRAGMODE
 70
     2
  9
$LTSCALE
 40
15.24
  9
$OSMODE
 70
   231
  9
$ATTMODE
 70
     1
  9
$TEXTSIZE
 40
0.0
  9
$TRACEWID
 40
1.0
  9
$TEXTSTYLE
  7
STANDARD
  9
$CLAYER
  8
DATA
  9
$CELTYPE
  6
CONTINUOUS
  9
$CECOLOR
 62
   256
  9
$DIMSCALE
 40
1.0
  9
$DIMASZ
 40
0.18
  9
$DIMEXO
 40
0.0625
  9
$DIMDLI
 40
0.38
  9
$DIMRND
 40
0.0
  9
$DIMDLE
 40
0.0
  9
$DIMEXE
 40
0.18
  9
$DIMTP
 40
0.0
  9
$DIMTM
 40
0.0
  9
$DIMTXT
 40
0.18
  9
$DIMCEN
 40
0.09
  9
$DIMTSZ
 40
0.0
  9
$DIMTOL
 70
     0
  9
$DIMLIM
 70
     0
  9
$DIMTIH
 70
     1
  9
$DIMTOH
 70
     1
  9
$DIMSE1
 70
     0
  9
$DIMSE2
 70
     0
  9
$DIMTAD
 70
     0
  9
$DIMZIN
 70
     0
  9
$DIMBLK
  1

  9
$DIMASO
 70
     1
  9
$DIMSHO
 70
     1
  9
$DIMPOST
  1

  9
$DIMAPOST
  1

  9
$DIMALT
 70
     0
  9
$DIMALTD
 70
     2
  9
$DIMALTF
 40
25.399999999999999
  9
$DIMLFAC
 40
1.0
  9
$DIMTOFL
 70
     0
  9
$DIMTVP
 40
0.0
  9
$DIMTIX
 70
     0
  9
$DIMSOXD
 70
     0
  9
$DIMSAH
 70
     0
  9
$DIMBLK1
  1

  9
$DIMBLK2
  1

  9
$DIMSTYLE
  2
STANDARD
  9
$DIMCLRD
 70
     0
  9
$DIMCLRE
 70
     0
  9
$DIMCLRT
 70
     0
  9
$DIMTFAC
 40
1.0
  9
$DIMGAP
 40
0.09
  9
$LUNITS
 70
     2
  9
$LUPREC
 70
     4
  9
$SKETCHINC
 40
0.1
  9
$FILLETRAD
 40
0.0
  9
$AUNITS
 70
     0
  9
$AUPREC
 70
     0
  9
$MENU
  1
acad
  9
$ELEVATION
 40
0.0
  9
$PELEVATION
 40
0.0
  9
$THICKNESS
 40
0.0
  9
$LIMCHECK
 70
     0
  9
$BLIPMODE
 70
     0
  9
$CHAMFERA
 40
0.0
  9
$CHAMFERB
 40
0.0
  9
$SKPOLY
 70
     0
  9
$TDCREATE
 40
2453780.7025925932
  9
$TDUPDATE
 40
2453780.7130841319
  9
$TDINDWG
 40
0.0003996644
  9
$TDUSRTIMER
 40
0.0003982176
  9
$USRTIMER
 70
     1
  9
$ANGBASE
 50
0.0
  9
$ANGDIR
 70
     0
  9
$PDMODE
 70
     1
  9
$PDSIZE
 40
-2.0
  9
$PLINEWID
 40
0.0
  9
$COORDS
 70
     2
  9
$SPLFRAME
 70
     0
  9
$SPLINETYPE
 70
     6
  9
$SPLINESEGS
 70
     8
  9
$ATTDIA
 70
     0
  9
$ATTREQ
 70
     1
  9
$HANDLING
 70
     1
  9
$HANDSEED
  5
441
  9
$SURFTAB1
 70
     6
  9
$SURFTAB2
 70
     6
  9
$SURFTYPE
 70
     6
  9
$SURFU
 70
     6
  9
$SURFV
 70
     6
  9
$UCSNAME
  2

  9
$UCSORG
 10
0.0
 20
0.0
 30
0.0
  9
$UCSXDIR
 10
1.0
 20
0.0
 30
0.0
  9
$UCSYDIR
 10
0.0
 20
1.0
 30
0.0
  9
$PUCSNAME
  2

  9
$PUCSORG
 10
0.0
 20
0.0
 30
0.0
  9
$PUCSXDIR
 10
1.0
 20
0.0
 30
0.0
  9
$PUCSYDIR
 10
0.0
 20
1.0
 30
0.0
  9
$USERI1
 70
     0
  9
$USERI2
 70
     0
  9
$USERI3
 70
     0
  9
$USERI4
 70
     0
  9
$USERI5
 70
     0
  9
$USERR1
 40
0.0
  9
$USERR2
 40
0.0
  9
$USERR3
 40
0.0
  9
$USERR4
 40
0.0
  9
$USERR5
 40
0.0
  9
$WORLDVIEW
 70
     1
  9
$SHADEDGE
 70
     3
  9
$SHADEDIF
 70
    70
  9
$TILEMODE
 70
     1
  9
$MAXACTVP
 70
    64
  9
$PLIMCHECK
 70
     0
  9
$PEXTMIN
 10
1.0000000000000000E+020
 20
1.0000000000000000E+020
 30
1.0000000000000000E+020
  9
$PEXTMAX
 10
-1.0000000000000000E+020
 20
-1.0000000000000000E+020
 30
-1.0000000000000000E+020
  9
$PLIMMIN
 10
0.0
 20
0.0
  9
$PLIMMAX
 10
12.0
 20
9.0
  9
$UNITMODE
 70
     0
  9
$VISRETAIN
 70
     0
  9
$PLINEGEN
 70
     1
  9
$PSLTSCALE
 70
     0
  0
ENDSEC
  0
SECTION
  2
TABLES
  0
TABLE
  2
VPORT
 70
     2
  0
VPORT
  2
*ACTIVE
 70
     0
 10
0.0
 20
0.0
 11
1.0
 21
1.0
 12
225.00000125728539
 22
245.87710070707811
 13
0.0
 23
0.0
 14
1.0
 24
1.0
 15
0.0
 25
0.0
 16
0.0
 26
0.0
 36
1.0
 17
0.0
 27
0.0
 37
0.0
 40
809.53477137262325
 41
1.665745856353591
 42
50.0
 43
0.0
 44
0.0
 50
0.0
 51
0.0
 71
     0
 72
  2000
 73
     1
 74
     1
 75
     0
 76
     0
 77
     0
 78
     0
  0
ENDTAB
  0
TABLE
  2
LTYPE
 70
    11
  0
LTYPE
  2
CONTINUOUS
 70
     0
  3
Solid line
 72
    65
 73
     0
 40
0.0
  0
LTYPE
  2
STYLE_01
 70
     0
  3

 72
    65
 73
     2
 40
0.4166412353515625
 49
0.208282470703125
 49
-0.2083587646484375
  0
ENDTAB
  0
TABLE
  2
LAYER
 70
     6
  0
LAYER
  2
0
 70
     0
 62
     7
  6
CONTINUOUS
  0
LAYER
  2
DATA
 70
     0
 62
     7
  6
CONTINUOUS
  0
LAYER
  2
HIBINO-BASE
 70
     0
 62
     7
  6
CONTINUOUS
  0
LAYER
  2
PATTERN_FILL
 70
     0
 62
     7
  6
CONTINUOUS
  0
LAYER
  2
SPEC
 70
     0
 62
     7
  6
CONTINUOUS
  0
LAYER
  2
DIMNSIONS
 70
     0
 62
     7
  6
CONTINUOUS
  0
ENDTAB
  0
TABLE
  2
STYLE
 70
     2
  0
STYLE
  2
STANDARD
 70
     0
 40
0.0
 41
1.0
 50
0.0
 71
     0
 42
0.0
  3
txt
  4
BIGFONT.SHX
  0
ENDTAB
  0
TABLE
  2
VIEW
 70
     0
  0
ENDTAB
  0
TABLE
  2
UCS
 70
     0
  0
ENDTAB
  0
TABLE
  2
APPID
 70
     1
  0
APPID
  2
ACAD
 70
     0
  0
ENDTAB
  0
TABLE
  2
DIMSTYLE
 70
     1
  0
DIMSTYLE
  2
STANDARD
 70
     0
  3

  4

  5

  6

  7

 40
1.0
 41
0.18
 42
0.0625
 43
0.38
 44
0.18
 45
0.0
 46
0.0
 47
0.0
 48
0.0
140
0.18
141
0.09
142
0.0
143
25.399999999999999
144
1.0
145
0.0
146
1.0
147
0.09
 71
     0
 72
     0
 73
     1
 74
     1
 75
     0
 76
     0
 77
     0
 78
     0
170
     0
171
     2
172
     0
173
     0
174
     0
175
     0
176
     0
177
     0
178
     0
  0
ENDTAB
  0
ENDSEC
  0
SECTION
  2
BLOCKS
  0
BLOCK
  8
0
  2
$MODEL_SPACE
 70
     0
 10
0.0
 20
0.0
 30
0.0
  3
$MODEL_SPACE
  1

  0
ENDBLK
  5
41B
  8
0
  0
BLOCK
 67
     1
  8
0
  2
$PAPER_SPACE
 70
     0
 10
0.0
 20
0.0
 30
0.0
  3
$PAPER_SPACE
  1

  0
ENDBLK
  5
417
 67
     1
  8
0
  0
ENDSEC
  0
SECTION
  2
ENTITIES
  0
LINE
  5
2D
  8
HIBINO-BASE
  6
CONTINUOUS
 62
     7
 10
-44.999985000000031
 20
647.29773
 30
0.0
 11
494.99998499999998
 21
647.29773
 31
0.0
  0
LINE
  5
2E
  8
HIBINO-BASE
  6
CONTINUOUS
 62
     7
 10
494.99998499999998
 20
-132.70225500000001
 30
0.0
 11
-44.999985000000031
 21
-132.70225500000001
 31
0.0
  0
LINE
  5
2F
  8
HIBINO-BASE
  6
CONTINUOUS
 62
     7
 10
-44.999985000000031
 20
-132.70225500000001
 30
0.0
 11
-44.999985000000031
 21
647.29773
 31
0.0
  0
TEXT
  5
30
  8
HIBINO-BASE
 62
     7
 10
-23.44798499999996
 20
-151.9282754999999
 30
0.0
 40
10.800120996093741
  1
Hibino Corporation
 41
0.8
 11
-23.44798499999996
 21
-141.12815450390619
 31
0.0
 73
     3
  0
LINE
  5
31
  8
HIBINO-BASE
  6
CONTINUOUS
 62
     7
 10
494.99998499999998
 20
647.29773
 30
0.0
 11
494.99998499999998
 21
-132.70225500000001
 31
0.0
  0
LINE
  5
32
  8
HIBINO-BASE
  6
CONTINUOUS
 62
     7
 10
225.0
 20
-65.202269999999999
 30
0.0
 11
494.99998499999998
 21
-65.202269999999999
 31
0.0
  0
LINE
  5
33
  8
HIBINO-BASE
  6
CONTINUOUS
 62
     7
 10
225.0
 20
-132.70225500000001
 30
0.0
 11
225.0
 21
-65.202269999999999
 31
0.0
  0
TEXT
  5
34
  8
HIBINO-BASE
 62
     7
 10
227.699985
 20
-73.302279600000006
 30
0.0
 40
5.4000778125000002
  1
NOTE
 41
0.8
 11
227.699985
 21
-67.902201787500019
 31
0.0
 73
     3
  0
LINE
  5
35
  8
HIBINO-BASE
  6
CONTINUOUS
 62
     7
 10
330.0
 20
-132.70225500000001
 30
0.0
 11
330.0
 21
-65.202269999999999
 31
0.0
  0
TEXT
  5
36
  8
HIBINO-BASE
 62
     7
 10
332.69999999999999
 20
-73.302279600000006
 30
0.0
 40
5.4000778125000002
  1
TITLE
 41
0.8
 11
332.69999999999999
 21
-67.902201787500019
 31
0.0
 73
     3
  0
TEXT
  5
37
  8
HIBINO-BASE
 62
     7
 10
375.20515499999999
 20
-151.9282754999999
 30
0.0
 40
10.800120996093741
  1
ヒビノ株式会社
 41
0.8
 11
375.20515499999999
 21
-141.12815450390619
 31
0.0
 73
     3
  0
LINE
  5
38
  8
HIBINO-BASE
  6
CONTINUOUS
 62
     7
 10
225.0
 20
-102.70227
 30
0.0
 11
494.99998499999998
 21
-102.70227
 31
0.0
  0
TEXT
  5
39
  8
HIBINO-BASE
 62
     7
 10
370.2000000000001
 20
-110.6333045999999
 30
0.0
 40
5.4000778125000002
  1
DRAWN
 41
0.8
 11
370.2000000000001
 21
-105.2332267874999
 31
0.0
 73
     3
  0
TEXT
  5
3A
  8
HIBINO-BASE
 62
     7
 10
295.2000000000001
 20
-110.6333045999999
 30
0.0
 40
5.4000778125000002
  1
DATE
 41
0.8
 11
295.2000000000001
 21
-105.2332267874999
 31
0.0
 73
     3
  0
TEXT
  5
3B
  8
HIBINO-BASE
 62
     7
 10
228.29998499999999
 20
-110.5606107
 30
0.0
 40
4.8865195898437506
  1
図面サイズ
 41
0.8
 11
228.29998499999999
 21
-105.6740911101563
 31
0.0
 73
     3
  0
TEXT
  5
3C
  8
HIBINO-BASE
 62
     7
 10
265.19998500000003
 20
-110.6333045999999
 30
0.0
 40
5.4000778125000002
  1
SCALE
 41
0.8
 11
265.19998500000003
 21
-105.2332267874999
 31
0.0
 73
     3
  0
TEXT
  5
3D
  8
HIBINO-BASE
 62
     7
 10
332.69999999999999
 20
-110.6333045999999
 30
0.0
 40
5.4000778125000002
  1
DESIGN
 41
0.8
 11
332.69999999999999
 21
-105.2332267874999
 31
0.0
 73
     3
  0
TEXT
  5
3E
  8
HIBINO-BASE
 62
     7
 10
445.19998499999991
 20
-110.6333045999999
 30
0.0
 40
5.4000778125000002
  1
DRAWING NO.
 41
0.8
 11
445.19998499999991
 21
-105.2332267874999
 31
0.0
 73
     3
  0
TEXT
  5
3F
  8
HIBINO-BASE
 62
     7
 10
407.69998499999991
 20
-110.6333045999999
 30
0.0
 40
5.4000778125000002
  1
CHECK
 41
0.8
 11
407.69998499999991
 21
-105.2332267874999
 31
0.0
 73
     3
  0
LINE
  5
40
  8
HIBINO-BASE
  6
CONTINUOUS
 62
     7
 10
268.12498499999998
 20
-128.95227
 30
0.0
 11
279.375
 21
-117.70227
 31
0.0
  0
TEXT
  5
41
  8
HIBINO-BASE
 62
     7
 10
266.24998499999998
 20
-122.84941259999989
 30
0.0
 40
6.515359453124999
  1
1
 41
0.8
 11
266.24998499999998
 21
-116.33405314687489
 31
0.0
 73
     3
  0
LINE
  5
42
  8
HIBINO-BASE
  6
CONTINUOUS
 62
     7
 10
262.49998499999998
 20
-132.70225500000001
 30
0.0
 11
262.49998499999998
 21
-102.70227
 31
0.0
  0
LINE
  5
43
  8
HIBINO-BASE
  6
CONTINUOUS
 62
     7
 10
292.49998499999998
 20
-132.70225500000001
 30
0.0
 11
292.49998499999998
 21
-102.70227
 31
0.0
  0
LINE
  5
44
  8
HIBINO-BASE
  6
CONTINUOUS
 62
     7
 10
367.49998499999998
 20
-102.70227
 30
0.0
 11
367.49998499999998
 21
-132.70225500000001
 31
0.0
  0
LINE
  5
45
  8
HIBINO-BASE
  6
CONTINUOUS
 62
     7
 10
442.49999999999989
 20
-102.70227
 30
0.0
 11
442.49999999999989
 21
-132.70225500000001
 31
0.0
  0
LINE
  5
46
  8
HIBINO-BASE
  6
CONTINUOUS
 62
     7
 10
404.99998499999992
 20
-132.70225500000001
 30
0.0
 11
404.99998499999992
 21
-102.70227
 31
0.0
  0
TEXT
  5
47
  8
HIBINO-BASE
 62
     7
 10
236.73267000000001
 20
-125.2068734999999
 30
0.0
 40
9.7730276367187496
  1
A4
 41
0.8
 11
236.73267000000001
 21
-115.43384586328121
 31
0.0
 73
     3
  0
TEXT
  5
48
  8
HIBINO-BASE
 62
     7
 10
300.72395988305408
 20
-124.6852445999999
 30
0.0
 40
5.4000778125000002
  1
'05.12
 41
0.8
 11
300.72395988305408
 21
-119.2851667874999
 31
0.0
 73
     3
  0
TEXT
  5
49
  8
HIBINO-BASE
 62
     7
 10
277.5
 20
-128.47441259999991
 30
0.0
 40
6.515359453124999
  1
3
 41
0.8
 11
277.5
 21
-121.95905314687489
 31
0.0
 73
     3
  0
LINE
  5
4A
  8
PATTERN_FILL
  6
CONTINUOUS
 62
     7
 10
100.0
 20
405.0
 30
0.0
 11
100.0
 21
343.5
 31
0.0
  0
LINE
  5
4B
  8
PATTERN_FILL
  6
CONTINUOUS
 62
     7
 10
101.0
 20
404.98798850935282
 30
0.0
 11
101.0
 21
343.5
 31
0.0
  0
LINE
  5
4C
  8
PATTERN_FILL
  6
CONTINUOUS
 62
     7
 10
102.0
 20
404.95193322075852
 30
0.0
 11
102.0
 21
343.5
 31
0.0
  0
LINE
  5
4D
  8
PATTERN_FILL
  6
CONTINUOUS
 62
     7
 10
103.0
 20
404.89177150345688
 30
0.0
 11
103.0
 21
343.5
 31
0.0
  0
LINE
  5
4E
  8
PATTERN_FILL
  6
CONTINUOUS
 62
     7
 10
104.0
 20
404.80739836650213
 30
0.0
 11
104.0
 21
343.5
 31
0.0
  0
LINE
  5
4F
  8
PATTERN_FILL
  6
CONTINUOUS
 62
     7
 10
105.0
 20
404.6986655362395
 30
0.0
 11
105.0
 21
343.5
 31
0.0
  0
LINE
  5
50
  8
PATTERN_FILL
  6
CONTINUOUS
 62
     7
 10
106.0
 20
404.56538013827191
 30
0.0
 11
106.0
 21
343.5
 31
0.0
  0
LINE
  5
51
  8
PATTERN_FILL
  6
CONTINUOUS
 62
     7
 10
107.0
 20
404.40730295622342
 30
0.0
 11
107.0
 21
343.5
 31
0.0
  0
LINE
  5
52
  8
PATTERN_FILL
  6
CONTINUOUS
 62
     7
 10
108.0
 20
404.22414622994171
 30
0.0
 11
108.0
 21
343.5
 31
0.0
  0
LINE
  5
53
  8
PATTERN_FILL
  6
CONTINUOUS
 62
     7
 10
109.0
 20
404.01557094461128
 30
0.0
 11
109.0
 21
343.5
 31
0.0
  0
LINE
  5
54
  8
PATTERN_FILL
  6
CONTINUOUS
 62
     7
 10
110.0
 20
403.78118354914318
 30
0.0
 11
110.0
 21
343.5
 31
0.0
  0
LINE
  5
55
  8
PATTERN_FILL
  6
CONTINUOUS
 62
     7
 10
111.0
 20
403.52053202645448
 30
0.0
 11
111.0
 21
343.5
 31
0.0
  0
LINE
  5
56
  8
PATTERN_FILL
  6
CONTINUOUS
 62
     7
 10
112.0
 20
403.23310121911788
 30
0.0
 11
112.0
 21
343.5
 31
0.0
  0
LINE
  5
57
  8
PATTERN_FILL
  6
CONTINUOUS
 62
     7
 10
113.0
 20
402.91830729021768
 30
0.0
 11
113.0
 21
343.5
 31
0.0
  0
LINE
  5
58
  8
PATTERN_FILL
  6
CONTINUOUS
 62
     7
 10
114.0
 20
402.57549116976048
 30
0.0
 11
114.0
 21
343.5
 31
0.0
  0
LINE
  5
59
  8
PATTERN_FILL
  6
CONTINUOUS
 62
     7
 10
115.0
 20
402.20391079973462
 30
0.0
 11
115.0
 21
343.5
 31
0.0
  0
LINE
  5
5A
  8
PATTERN_FILL
  6
CONTINUOUS
 62
     7
 10
116.0
 20
401.80273194339452
 30
0.0
 11
116.0
 21
343.5
 31
0.0
  0
LINE
  5
5B
  8
PATTERN_FILL
  6
CONTINUOUS
 62
     7
 10
117.0
 20
401.37101726306668
 30
0.0
 11
117.0
 21
343.5
 31
0.0
  0
LINE
  5
5C
  8
PATTERN_FILL
  6
CONTINUOUS
 62
     7
 10
118.0
 20
400.92275200568872
 30
0.0
 11
118.0
 21
343.5
 31
0.0
  0
LINE
  5
5D
  8
PATTERN_FILL
  6
CONTINUOUS
 62
     7
 10
119.0
 20
400.29122637370313
 30
0.0
 11
119.0
 21
343.5
 31
0.0
  0
LINE
  5
5E
  8
PATTERN_FILL
  6
CONTINUOUS
 62
     7
 10
120.0
 20
399.32513658364519
 30
0.0
 11
120.0
 21
343.5
 31
0.0
  0
LINE
  5
5F
  8
PATTERN_FILL
  6
CONTINUOUS
 62
     7
 10
121.0
 20
397.63981496338641
 30
0.0
 11
121.0
 21
343.5
 31
0.0
  0
LINE
  5
60
  8
PATTERN_FILL
  6
CONTINUOUS
 62
     7
 10
99.0
 20
404.98798850935282
 30
0.0
 11
99.0
 21
343.5
 31
0.0
  0
LINE
  5
61
  8
PATTERN_FILL
  6
CONTINUOUS
 62
     7
 10
98.0
 20
404.95193322075852
 30
0.0
 11
98.0
 21
343.5
 31
0.0
  0
LINE
  5
62
  8
PATTERN_FILL
  6
CONTINUOUS
 62
     7
 10
97.0
 20
404.89177150345688
 30
0.0
 11
97.0
 21
343.5
 31
0.0
  0
LINE
  5
63
  8
PATTERN_FILL
  6
CONTINUOUS
 62
     7
 10
96.0
 20
404.80739836650213
 30
0.0
 11
96.0
 21
343.5
 31
0.0
  0
LINE
  5
64
  8
PATTERN_FILL
  6
CONTINUOUS
 62
     7
 10
95.0
 20
404.6986655362395
 30
0.0
 11
95.0
 21
343.5
 31
0.0
  0
LINE
  5
65
  8
PATTERN_FILL
  6
CONTINUOUS
 62
     7
 10
94.0
 20
404.56538013827191
 30
0.0
 11
94.0
 21
343.5
 31
0.0
  0
LINE
  5
66
  8
PATTERN_FILL
  6
CONTINUOUS
 62
     7
 10
93.0
 20
404.40730295622342
 30
0.0
 11
93.0
 21
343.5
 31
0.0
  0
LINE
  5
67
  8
PATTERN_FILL
  6
CONTINUOUS
 62
     7
 10
92.0
 20
404.22414622994171
 30
0.0
 11
92.0
 21
343.5
 31
0.0
  0
LINE
  5
68
  8
PATTERN_FILL
  6
CONTINUOUS
 62
     7
 10
91.0
 20
404.01557094461128
 30
0.0
 11
91.0
 21
343.5
 31
0.0
  0
LINE
  5
69
  8
PATTERN_FILL
  6
CONTINUOUS
 62
     7
 10
90.0
 20
403.78118354914318
 30
0.0
 11
90.0
 21
343.5
 31
0.0
  0
LINE
  5
6A
  8
PATTERN_FILL
  6
CONTINUOUS
 62
     7
 10
89.0
 20
403.52053202645448
 30
0.0
 11
89.0
 21
343.5
 31
0.0
  0
LINE
  5
6B
  8
PATTERN_FILL
  6
CONTINUOUS
 62
     7
 10
88.0
 20
403.23310121911788
 30
0.0
 11
88.0
 21
343.5
 31
0.0
  0
LINE
  5
6C
  8
PATTERN_FILL
  6
CONTINUOUS
 62
     7
 10
87.0
 20
402.91830729021768
 30
0.0
 11
87.0
 21
343.5
 31
0.0
  0
LINE
  5
6D
  8
PATTERN_FILL
  6
CONTINUOUS
 62
     7
 10
86.0
 20
402.57549116976048
 30
0.0
 11
86.0
 21
343.5
 31
0.0
  0
LINE
  5
6E
  8
PATTERN_FILL
  6
CONTINUOUS
 62
     7
 10
85.0
 20
402.20391079973462
 30
0.0
 11
85.0
 21
343.5
 31
0.0
  0
LINE
  5
6F
  8
PATTERN_FILL
  6
CONTINUOUS
 62
     7
 10
84.0
 20
401.80273194339452
 30
0.0
 11
84.0
 21
343.5
 31
0.0
  0
LINE
  5
70
  8
PATTERN_FILL
  6
CONTINUOUS
 62
     7
 10
83.0
 20
401.37101726306668
 30
0.0
 11
83.0
 21
343.5
 31
0.0
  0
LINE
  5
71
  8
PATTERN_FILL
  6
CONTINUOUS
 62
     7
 10
82.0
 20
400.92275200568889
 30
0.0
 11
82.0
 21
343.5
 31
0.0
  0
LINE
  5
72
  8
PATTERN_FILL
  6
CONTINUOUS
 62
     7
 10
81.0
 20
400.29122637370313
 30
0.0
 11
81.0
 21
343.5
 31
0.0
  0
LINE
  5
73
  8
PATTERN_FILL
  6
CONTINUOUS
 62
     7
 10
80.0
 20
399.3251365836453
 30
0.0
 11
80.0
 21
343.5
 31
0.0
  0
LINE
  5
74
  8
PATTERN_FILL
  6
CONTINUOUS
 62
     7
 10
79.0
 20
397.63981496338641
 30
0.0
 11
79.0
 21
343.5
 31
0.0
  0
LINE
  5
75
  8
PATTERN_FILL
  6
CONTINUOUS
 62
     7
 10
125.1818828879868
 20
344.5
 30
0.0
 11
74.818117112013141
 21
344.5
 31
0.0
  0
LINE
  5
76
  8
PATTERN_FILL
  6
CONTINUOUS
 62
     7
 10
125.1068828879868
 20
345.5
 30
0.0
 11
74.893117112013158
 21
345.5
 31
0.0
  0
LINE
  5
77
  8
PATTERN_FILL
  6
CONTINUOUS
 62
     7
 10
125.0318828879868
 20
346.5
 30
0.0
 11
74.968117112013147
 21
346.5
 31
0.0
  0
LINE
  5
78
  8
PATTERN_FILL
  6
CONTINUOUS
 62
     7
 10
124.95688288798679
 20
347.5
 30
0.0
 11
75.043117112013093
 21
347.5
 31
0.0
  0
LINE
  5
79
  8
PATTERN_FILL
  6
CONTINUOUS
 62
     7
 10
124.88188288798681
 20
348.5
 30
0.0
 11
75.118117112013124
 21
348.5
 31
0.0
  0
LINE
  5
7A
  8
PATTERN_FILL
  6
CONTINUOUS
 62
     7
 10
124.8068828879868
 20
349.5
 30
0.0
 11
75.193117112013141
 21
349.5
 31
0.0
  0
LINE
  5
7B
  8
PATTERN_FILL
  6
CONTINUOUS
 62
     7
 10
124.7318828879868
 20
350.5
 30
0.0
 11
75.268117112013144
 21
350.5
 31
0.0
  0
LINE
  5
7C
  8
PATTERN_FILL
  6
CONTINUOUS
 62
     7
 10
124.6568828879868
 20
351.5
 30
0.0
 11
75.343117112013147
 21
351.5
 31
0.0
  0
LINE
  5
7D
  8
PATTERN_FILL
  6
CONTINUOUS
 62
     7
 10
124.58188288798679
 20
352.5
 30
0.0
 11
75.418117112013093
 21
352.5
 31
0.0
  0
LINE
  5
7E
  8
PATTERN_FILL
  6
CONTINUOUS
 62
     7
 10
124.50688288798681
 20
353.5
 30
0.0
 11
75.493117112013124
 21
353.5
 31
0.0
  0
LINE
  5
7F
  8
PATTERN_FILL
  6
CONTINUOUS
 62
     7
 10
124.4318828879868
 20
354.5
 30
0.0
 11
75.568117112013141
 21
354.5
 31
0.0
  0
LINE
  5
80
  8
PATTERN_FILL
  6
CONTINUOUS
 62
     7
 10
124.3568828879868
 20
355.5
 30
0.0
 11
75.643117112013158
 21
355.5
 31
0.0
  0
LINE
  5
81
  8
PATTERN_FILL
  6
CONTINUOUS
 62
     7
 10
124.2818828879868
 20
356.5
 30
0.0
 11
75.718117112013147
 21
356.5
 31
0.0
  0
LINE
  5
82
  8
PATTERN_FILL
  6
CONTINUOUS
 62
     7
 10
124.20688288798679
 20
357.5
 30
0.0
 11
75.793117112013093
 21
357.5
 31
0.0
  0
LINE
  5
83
  8
PATTERN_FILL
  6
CONTINUOUS
 62
     7
 10
124.13188288798681
 20
358.5
 30
0.0
 11
75.868117112013124
 21
358.5
 31
0.0
  0
LINE
  5
84
  8
PATTERN_FILL
  6
CONTINUOUS
 62
     7
 10
124.0568828879868
 20
359.5
 30
0.0
 11
75.943117112013141
 21
359.5
 31
0.0
  0
LINE
  5
85
  8
PATTERN_FILL
  6
CONTINUOUS
 62
     7
 10
123.9818828879868
 20
360.5
 30
0.0
 11
76.018117112013158
 21
360.5
 31
0.0
  0
LINE
  5
86
  8
PATTERN_FILL
  6
CONTINUOUS
 62
     7
 10
123.9068828879868
 20
361.5
 30
0.0
 11
76.093117112013147
 21
361.5
 31
0.0
  0
LINE
  5
87
  8
PATTERN_FILL
  6
CONTINUOUS
 62
     7
 10
123.83188288798679
 20
362.5
 30
0.0
 11
76.168117112013093
 21
362.5
 31
0.0
  0
LINE
  5
88
  8
PATTERN_FILL
  6
CONTINUOUS
 62
     7
 10
123.75688288798681
 20
363.5
 30
0.0
 11
76.243117112013124
 21
363.5
 31
0.0
  0
LINE
  5
89
  8
PATTERN_FILL
  6
CONTINUOUS
 62
     7
 10
123.6818828879868
 20
364.5
 30
0.0
 11
76.318117112013141
 21
364.5
 31
0.0
  0
LINE
  5
8A
  8
PATTERN_FILL
  6
CONTINUOUS
 62
     7
 10
123.6068828879868
 20
365.5
 30
0.0
 11
76.393117112013144
 21
365.5
 31
0.0
  0
LINE
  5
8B
  8
PATTERN_FILL
  6
CONTINUOUS
 62
     7
 10
123.5318828879868
 20
366.5
 30
0.0
 11
76.468117112013147
 21
366.5
 31
0.0
  0
LINE
  5
8C
  8
PATTERN_FILL
  6
CONTINUOUS
 62
     7
 10
123.45688288798679
 20
367.5
 30
0.0
 11
76.543117112013093
 21
367.5
 31
0.0
  0
LINE
  5
8D
  8
PATTERN_FILL
  6
CONTINUOUS
 62
     7
 10
123.38188288798681
 20
368.5
 30
0.0
 11
76.618117112013124
 21
368.5
 31
0.0
  0
LINE
  5
8E
  8
PATTERN_FILL
  6
CONTINUOUS
 62
     7
 10
123.3068828879868
 20
369.5
 30
0.0
 11
76.693117112013141
 21
369.5
 31
0.0
  0
LINE
  5
8F
  8
PATTERN_FILL
  6
CONTINUOUS
 62
     7
 10
123.2318828879868
 20
370.5
 30
0.0
 11
76.768117112013158
 21
370.5
 31
0.0
  0
LINE
  5
90
  8
PATTERN_FILL
  6
CONTINUOUS
 62
     7
 10
123.1568828879868
 20
371.5
 30
0.0
 11
76.843117112013147
 21
371.5
 31
0.0
  0
LINE
  5
91
  8
PATTERN_FILL
  6
CONTINUOUS
 62
     7
 10
123.08188288798679
 20
372.5
 30
0.0
 11
76.918117112013164
 21
372.5
 31
0.0
  0
LINE
  5
92
  8
PATTERN_FILL
  6
CONTINUOUS
 62
     7
 10
123.00688288798681
 20
373.5
 30
0.0
 11
76.993117112013124
 21
373.5
 31
0.0
  0
LINE
  5
93
  8
PATTERN_FILL
  6
CONTINUOUS
 62
     7
 10
122.9318828879868
 20
374.5
 30
0.0
 11
77.068117112013141
 21
374.5
 31
0.0
  0
LINE
  5
94
  8
PATTERN_FILL
  6
CONTINUOUS
 62
     7
 10
122.8568828879868
 20
375.5
 30
0.0
 11
77.143117112013144
 21
375.5
 31
0.0
  0
LINE
  5
95
  8
PATTERN_FILL
  6
CONTINUOUS
 62
     7
 10
122.7818828879868
 20
376.5
 30
0.0
 11
77.218117112013147
 21
376.5
 31
0.0
  0
LINE
  5
96
  8
PATTERN_FILL
  6
CONTINUOUS
 62
     7
 10
122.70688288798679
 20
377.5
 30
0.0
 11
77.293117112013164
 21
377.5
 31
0.0
  0
LINE
  5
97
  8
PATTERN_FILL
  6
CONTINUOUS
 62
     7
 10
122.63188288798681
 20
378.5
 30
0.0
 11
77.368117112013124
 21
378.5
 31
0.0
  0
LINE
  5
98
  8
PATTERN_FILL
  6
CONTINUOUS
 62
     7
 10
122.5568828879868
 20
379.5
 30
0.0
 11
77.443117112013141
 21
379.5
 31
0.0
  0
LINE
  5
99
  8
PATTERN_FILL
  6
CONTINUOUS
 62
     7
 10
122.4818828879868
 20
380.5
 30
0.0
 11
77.518117112013158
 21
380.5
 31
0.0
  0
LINE
  5
9A
  8
PATTERN_FILL
  6
CONTINUOUS
 62
     7
 10
122.4068828879868
 20
381.5
 30
0.0
 11
77.593117112013147
 21
381.5
 31
0.0
  0
LINE
  5
9B
  8
PATTERN_FILL
  6
CONTINUOUS
 62
     7
 10
122.33188288798679
 20
382.5
 30
0.0
 11
77.668117112013164
 21
382.5
 31
0.0
  0
LINE
  5
9C
  8
PATTERN_FILL
  6
CONTINUOUS
 62
     7
 10
122.25688288798681
 20
383.5
 30
0.0
 11
77.743117112013124
 21
383.5
 31
0.0
  0
LINE
  5
9D
  8
PATTERN_FILL
  6
CONTINUOUS
 62
     7
 10
122.1818828879868
 20
384.5
 30
0.0
 11
77.818117112013141
 21
384.5
 31
0.0
  0
LINE
  5
9E
  8
PATTERN_FILL
  6
CONTINUOUS
 62
     7
 10
122.1068828879868
 20
385.5
 30
0.0
 11
77.893117112013158
 21
385.5
 31
0.0
  0
LINE
  5
9F
  8
PATTERN_FILL
  6
CONTINUOUS
 62
     7
 10
122.0318828879868
 20
386.5
 30
0.0
 11
77.968117112013147
 21
386.5
 31
0.0
  0
LINE
  5
A0
  8
PATTERN_FILL
  6
CONTINUOUS
 62
     7
 10
121.95688288798679
 20
387.5
 30
0.0
 11
78.043117112013164
 21
387.5
 31
0.0
  0
LINE
  5
A1
  8
PATTERN_FILL
  6
CONTINUOUS
 62
     7
 10
121.88188288798681
 20
388.5
 30
0.0
 11
78.118117112013124
 21
388.5
 31
0.0
  0
LINE
  5
A2
  8
PATTERN_FILL
  6
CONTINUOUS
 62
     7
 10
121.8068828879868
 20
389.5
 30
0.0
 11
78.193117112013141
 21
389.5
 31
0.0
  0
LINE
  5
A3
  8
PATTERN_FILL
  6
CONTINUOUS
 62
     7
 10
121.7318828879868
 20
390.5
 30
0.0
 11
78.268117112013144
 21
390.5
 31
0.0
  0
LINE
  5
A4
  8
PATTERN_FILL
  6
CONTINUOUS
 62
     7
 10
121.6568828879868
 20
391.5
 30
0.0
 11
78.343117112013147
 21
391.5
 31
0.0
  0
LINE
  5
A5
  8
PATTERN_FILL
  6
CONTINUOUS
 62
     7
 10
122.0
 20
386.9251051731577
 30
0.0
 11
122.0
 21
343.5
 31
0.0
  0
LINE
  5
A6
  8
PATTERN_FILL
  6
CONTINUOUS
 62
     7
 10
123.0
 20
373.59177183982462
 30
0.0
 11
123.0
 21
343.5
 31
0.0
  0
LINE
  5
A7
  8
PATTERN_FILL
  6
CONTINUOUS
 62
     7
 10
124.0
 20
360.25843850649119
 30
0.0
 11
124.0
 21
343.5
 31
0.0
  0
LINE
  5
A8
  8
PATTERN_FILL
  6
CONTINUOUS
 62
     7
 10
125.0
 20
346.92510517315782
 30
0.0
 11
125.0
 21
343.5
 31
0.0
  0
LINE
  5
A9
  8
PATTERN_FILL
  6
CONTINUOUS
 62
     7
 10
78.0
 20
386.92510517315787
 30
0.0
 11
78.0
 21
343.5
 31
0.0
  0
LINE
  5
AA
  8
PATTERN_FILL
  6
CONTINUOUS
 62
     7
 10
77.0
 20
373.59177183982467
 30
0.0
 11
77.0
 21
343.5
 31
0.0
  0
LINE
  5
AB
  8
PATTERN_FILL
  6
CONTINUOUS
 62
     7
 10
76.0
 20
360.25843850649142
 30
0.0
 11
76.0
 21
343.5
 31
0.0
  0
LINE
  5
AC
  8
PATTERN_FILL
  6
CONTINUOUS
 62
     7
 10
75.0
 20
346.9251051731581
 30
0.0
 11
75.0
 21
343.5
 31
0.0
  0
LINE
  5
AD
  8
PATTERN_FILL
  6
CONTINUOUS
 62
     7
 10
125.25688288798681
 20
343.5
 30
0.0
 11
74.743117112013124
 21
343.5
 31
0.0
  0
LINE
  5
AE
  8
PATTERN_FILL
  6
CONTINUOUS
 62
     7
 10
121.58188288798679
 20
392.5
 30
0.0
 11
78.418117112013164
 21
392.5
 31
0.0
  0
LINE
  5
AF
  8
PATTERN_FILL
  6
CONTINUOUS
 62
     7
 10
121.50688288798681
 20
393.5
 30
0.0
 11
78.493117112013124
 21
393.5
 31
0.0
  0
LINE
  5
B0
  8
PATTERN_FILL
  6
CONTINUOUS
 62
     7
 10
121.4318828879868
 20
394.5
 30
0.0
 11
78.568117112013141
 21
394.5
 31
0.0
  0
LINE
  5
B1
  8
PATTERN_FILL
  6
CONTINUOUS
 62
     7
 10
121.3568828879868
 20
395.5
 30
0.0
 11
78.643117112013158
 21
395.5
 31
0.0
  0
LINE
  5
B2
  8
PATTERN_FILL
  6
CONTINUOUS
 62
     7
 10
121.2818828879868
 20
396.5
 30
0.0
 11
78.718117112013147
 21
396.5
 31
0.0
  0
LINE
  5
B3
  8
PATTERN_FILL
  6
CONTINUOUS
 62
     7
 10
121.0537837823865
 20
397.5
 30
0.0
 11
78.946216217613468
 21
397.5
 31
0.0
  0
LINE
  5
B4
  8
PATTERN_FILL
  6
CONTINUOUS
 62
     7
 10
120.5788143281775
 20
398.5
 30
0.0
 11
79.421185671822684
 21
398.5
 31
0.0
  0
LINE
  5
B5
  8
PATTERN_FILL
  6
CONTINUOUS
 62
     7
 10
119.8496270653214
 20
399.5
 30
0.0
 11
80.150372934678416
 21
399.5
 31
0.0
  0
LINE
  5
B6
  8
PATTERN_FILL
  6
CONTINUOUS
 62
     7
 10
118.71319103844409
 20
400.49999999999989
 30
0.0
 11
81.286808961555906
 21
400.49999999999989
 31
0.0
  0
LINE
  5
B7
  8
PATTERN_FILL
  6
CONTINUOUS
 62
     7
 10
116.7086710273438
 20
401.49999999999989
 30
0.0
 11
83.291328972656146
 21
401.49999999999989
 31
0.0
  0
LINE
  5
B8
  8
PATTERN_FILL
  6
CONTINUOUS
 62
     7
 10
114.2096468112335
 20
402.5
 30
0.0
 11
85.790353188766389
 21
402.5
 31
0.0
  0
LINE
  5
B9
  8
PATTERN_FILL
  6
CONTINUOUS
 62
     7
 10
111.07467550314681
 20
403.5
 30
0.0
 11
88.925324496853165
 21
403.5
 31
0.0
  0
LINE
  5
BA
  8
PATTERN_FILL
  6
CONTINUOUS
 62
     7
 10
106.43294741934049
 20
404.49999999999989
 30
0.0
 11
93.56705258065945
 21
404.49999999999989
 31
0.0
  0
LINE
  5
BB
  8
PATTERN_FILL
  6
CONTINUOUS
 62
     7
 10
175.49999999999989
 20
344.5
 30
0.0
 11
196.5
 21
344.5
 31
0.0
  0
LINE
  5
BC
  8
PATTERN_FILL
  6
CONTINUOUS
 62
     7
 10
203.5
 20
344.5
 30
0.0
 11
224.5
 21
344.5
 31
0.0
  0
LINE
  5
BD
  8
PATTERN_FILL
  6
CONTINUOUS
 62
     7
 10
175.49999999999989
 20
345.5
 30
0.0
 11
196.5
 21
345.5
 31
0.0
  0
LINE
  5
BE
  8
PATTERN_FILL
  6
CONTINUOUS
 62
     7
 10
203.5
 20
345.5
 30
0.0
 11
224.5
 21
345.5
 31
0.0
  0
LINE
  5
BF
  8
PATTERN_FILL
  6
CONTINUOUS
 62
     7
 10
175.49999999999989
 20
346.5
 30
0.0
 11
196.5
 21
346.5
 31
0.0
  0
LINE
  5
C0
  8
PATTERN_FILL
  6
CONTINUOUS
 62
     7
 10
203.5
 20
346.5
 30
0.0
 11
224.5
 21
346.5
 31
0.0
  0
LINE
  5
C1
  8
PATTERN_FILL
  6
CONTINUOUS
 62
     7
 10
175.49999999999989
 20
347.5
 30
0.0
 11
196.5
 21
347.5
 31
0.0
  0
LINE
  5
C2
  8
PATTERN_FILL
  6
CONTINUOUS
 62
     7
 10
203.5
 20
347.5
 30
0.0
 11
224.5
 21
347.5
 31
0.0
  0
LINE
  5
C3
  8
PATTERN_FILL
  6
CONTINUOUS
 62
     7
 10
175.49999999999989
 20
348.5
 30
0.0
 11
196.5
 21
348.5
 31
0.0
  0
LINE
  5
C4
  8
PATTERN_FILL
  6
CONTINUOUS
 62
     7
 10
203.5
 20
348.5
 30
0.0
 11
224.5
 21
348.5
 31
0.0
  0
LINE
  5
C5
  8
PATTERN_FILL
  6
CONTINUOUS
 62
     7
 10
175.51036899544579
 20
349.5
 30
0.0
 11
196.5
 21
349.5
 31
0.0
  0
LINE
  5
C6
  8
PATTERN_FILL
  6
CONTINUOUS
 62
     7
 10
203.5
 20
349.5
 30
0.0
 11
224.4896310045541
 21
349.5
 31
0.0
  0
LINE
  5
C7
  8
PATTERN_FILL
  6
CONTINUOUS
 62
     7
 10
175.52839524636869
 20
350.5
 30
0.0
 11
196.5
 21
350.5
 31
0.0
  0
LINE
  5
C8
  8
PATTERN_FILL
  6
CONTINUOUS
 62
     7
 10
203.5
 20
350.5
 30
0.0
 11
224.47160475363131
 21
350.5
 31
0.0
  0
LINE
  5
C9
  8
PATTERN_FILL
  6
CONTINUOUS
 62
     7
 10
175.55408192397411
 20
351.5
 30
0.0
 11
196.5
 21
351.5
 31
0.0
  0
LINE
  5
CA
  8
PATTERN_FILL
  6
CONTINUOUS
 62
     7
 10
203.5
 20
351.5
 30
0.0
 11
224.44591807602569
 21
351.5
 31
0.0
  0
LINE
  5
CB
  8
PATTERN_FILL
  6
CONTINUOUS
 62
     7
 10
175.5874335501282
 20
352.5
 30
0.0
 11
196.5
 21
352.5
 31
0.0
  0
LINE
  5
CC
  8
PATTERN_FILL
  6
CONTINUOUS
 62
     7
 10
203.5
 20
352.5
 30
0.0
 11
224.41256644987169
 21
352.5
 31
0.0
  0
LINE
  5
CD
  8
PATTERN_FILL
  6
CONTINUOUS
 62
     7
 10
175.62845600134139
 20
353.5
 30
0.0
 11
196.5
 21
353.5
 31
0.0
  0
LINE
  5
CE
  8
PATTERN_FILL
  6
CONTINUOUS
 62
     7
 10
203.5
 20
353.5
 30
0.0
 11
224.37154399865841
 21
353.5
 31
0.0
  0
LINE
  5
CF
  8
PATTERN_FILL
  6
CONTINUOUS
 62
     7
 10
175.67715651395559
 20
354.5
 30
0.0
 11
196.5
 21
354.5
 31
0.0
  0
LINE
  5
D0
  8
PATTERN_FILL
  6
CONTINUOUS
 62
     7
 10
203.5
 20
354.5
 30
0.0
 11
224.32284348604421
 21
354.5
 31
0.0
  0
LINE
  5
D1
  8
PATTERN_FILL
  6
CONTINUOUS
 62
     7
 10
175.7335436905409
 20
355.5
 30
0.0
 11
196.5
 21
355.5
 31
0.0
  0
LINE
  5
D2
  8
PATTERN_FILL
  6
CONTINUOUS
 62
     7
 10
203.5
 20
355.5
 30
0.0
 11
224.26645630945899
 21
355.5
 31
0.0
  0
LINE
  5
D3
  8
PATTERN_FILL
  6
CONTINUOUS
 62
     7
 10
175.7976275075201
 20
356.5
 30
0.0
 11
196.5
 21
356.5
 31
0.0
  0
LINE
  5
D4
  8
PATTERN_FILL
  6
CONTINUOUS
 62
     7
 10
203.5
 20
356.5
 30
0.0
 11
224.2023724924797
 21
356.5
 31
0.0
  0
LINE
  5
D5
  8
PATTERN_FILL
  6
CONTINUOUS
 62
     7
 10
175.8694193240334
 20
357.5
 30
0.0
 11
196.5
 21
357.5
 31
0.0
  0
LINE
  5
D6
  8
PATTERN_FILL
  6
CONTINUOUS
 62
     7
 10
203.5
 20
357.5
 30
0.0
 11
224.1305806759664
 21
357.5
 31
0.0
  0
LINE
  5
D7
  8
PATTERN_FILL
  6
CONTINUOUS
 62
     7
 10
175.94893189206209
 20
358.5
 30
0.0
 11
196.5
 21
358.5
 31
0.0
  0
LINE
  5
D8
  8
PATTERN_FILL
  6
CONTINUOUS
 62
     7
 10
203.5
 20
358.5
 30
0.0
 11
224.05106810793771
 21
358.5
 31
0.0
  0
LINE
  5
D9
  8
PATTERN_FILL
  6
CONTINUOUS
 62
     7
 10
176.0361793678349
 20
359.5
 30
0.0
 11
196.5
 21
359.5
 31
0.0
  0
LINE
  5
DA
  8
PATTERN_FILL
  6
CONTINUOUS
 62
     7
 10
203.5
 20
359.5
 30
0.0
 11
223.96382063216501
 21
359.5
 31
0.0
  0
LINE
  5
DB
  8
PATTERN_FILL
  6
CONTINUOUS
 62
     7
 10
176.13117732453671
 20
360.5
 30
0.0
 11
196.5
 21
360.5
 31
0.0
  0
LINE
  5
DC
  8
PATTERN_FILL
  6
CONTINUOUS
 62
     7
 10
203.5
 20
360.5
 30
0.0
 11
223.86882267546321
 21
360.5
 31
0.0
  0
LINE
  5
DD
  8
PATTERN_FILL
  6
CONTINUOUS
 62
     7
 10
176.2339427663519
 20
361.5
 30
0.0
 11
196.5
 21
361.5
 31
0.0
  0
LINE
  5
DE
  8
PATTERN_FILL
  6
CONTINUOUS
 62
     7
 10
203.5
 20
361.5
 30
0.0
 11
223.7660572336479
 21
361.5
 31
0.0
  0
LINE
  5
DF
  8
PATTERN_FILL
  6
CONTINUOUS
 62
     7
 10
176.3444941438664
 20
362.5
 30
0.0
 11
196.5
 21
362.5
 31
0.0
  0
LINE
  5
E0
  8
PATTERN_FILL
  6
CONTINUOUS
 62
     7
 10
203.5
 20
362.5
 30
0.0
 11
223.6555058561334
 21
362.5
 31
0.0
  0
LINE
  5
E1
  8
PATTERN_FILL
  6
CONTINUOUS
 62
     7
 10
176.46285137086619
 20
363.5
 30
0.0
 11
196.5
 21
363.5
 31
0.0
  0
LINE
  5
E2
  8
PATTERN_FILL
  6
CONTINUOUS
 62
     7
 10
203.5
 20
363.5
 30
0.0
 11
223.5371486291337
 21
363.5
 31
0.0
  0
LINE
  5
E3
  8
PATTERN_FILL
  6
CONTINUOUS
 62
     7
 10
176.58903584256521
 20
364.5
 30
0.0
 11
196.5
 21
364.5
 31
0.0
  0
LINE
  5
E4
  8
PATTERN_FILL
  6
CONTINUOUS
 62
     7
 10
203.5
 20
364.5
 30
0.0
 11
223.41096415743459
 21
364.5
 31
0.0
  0
LINE
  5
E5
  8
PATTERN_FILL
  6
CONTINUOUS
 62
     7
 10
176.72307045530479
 20
365.5
 30
0.0
 11
196.5
 21
365.5
 31
0.0
  0
LINE
  5
E6
  8
PATTERN_FILL
  6
CONTINUOUS
 62
     7
 10
203.5
 20
365.5
 30
0.0
 11
223.27692954469509
 21
365.5
 31
0.0
  0
LINE
  5
E7
  8
PATTERN_FILL
  6
CONTINUOUS
 62
     7
 10
176.8649796277646
 20
366.5
 30
0.0
 11
196.5
 21
366.5
 31
0.0
  0
LINE
  5
E8
  8
PATTERN_FILL
  6
CONTINUOUS
 62
     7
 10
203.5
 20
366.5
 30
0.0
 11
223.13502037223529
 21
366.5
 31
0.0
  0
LINE
  5
E9
  8
PATTERN_FILL
  6
CONTINUOUS
 62
     7
 10
177.01478932373541
 20
367.5
 30
0.0
 11
196.5
 21
367.5
 31
0.0
  0
LINE
  5
EA
  8
PATTERN_FILL
  6
CONTINUOUS
 62
     7
 10
203.5
 20
367.5
 30
0.0
 11
222.98521067626459
 21
367.5
 31
0.0
  0
LINE
  5
EB
  8
PATTERN_FILL
  6
CONTINUOUS
 62
     7
 10
177.1725270765015
 20
368.5
 30
0.0
 11
196.5
 21
368.5
 31
0.0
  0
LINE
  5
EC
  8
PATTERN_FILL
  6
CONTINUOUS
 62
     7
 10
203.5
 20
368.5
 30
0.0
 11
222.82747292349839
 21
368.5
 31
0.0
  0
LINE
  5
ED
  8
PATTERN_FILL
  6
CONTINUOUS
 62
     7
 10
177.33822201488931
 20
369.5
 30
0.0
 11
196.5
 21
369.5
 31
0.0
  0
LINE
  5
EE
  8
PATTERN_FILL
  6
CONTINUOUS
 62
     7
 10
203.5
 20
369.5
 30
0.0
 11
222.6617779851106
 21
369.5
 31
0.0
  0
LINE
  5
EF
  8
PATTERN_FILL
  6
CONTINUOUS
 62
     7
 10
177.51190489103999
 20
370.5
 30
0.0
 11
196.5
 21
370.5
 31
0.0
  0
LINE
  5
F0
  8
PATTERN_FILL
  6
CONTINUOUS
 62
     7
 10
203.5
 20
370.5
 30
0.0
 11
222.4880951089599
 21
370.5
 31
0.0
  0
LINE
  5
F1
  8
PATTERN_FILL
  6
CONTINUOUS
 62
     7
 10
177.69360810997119
 20
371.5
 30
0.0
 11
196.5
 21
371.5
 31
0.0
  0
LINE
  5
F2
  8
PATTERN_FILL
  6
CONTINUOUS
 62
     7
 10
203.5
 20
371.5
 30
0.0
 11
222.30639189002861
 21
371.5
 31
0.0
  0
LINE
  5
F3
  8
PATTERN_FILL
  6
CONTINUOUS
 62
     7
 10
177.88336576099499
 20
372.5
 30
0.0
 11
196.5
 21
372.5
 31
0.0
  0
LINE
  5
F4
  8
PATTERN_FILL
  6
CONTINUOUS
 62
     7
 10
203.5
 20
372.5
 30
0.0
 11
222.11663423900481
 21
372.5
 31
0.0
  0
LINE
  5
F5
  8
PATTERN_FILL
  6
CONTINUOUS
 62
     7
 10
178.08121365106629
 20
373.5
 30
0.0
 11
196.5
 21
373.5
 31
0.0
  0
LINE
  5
F6
  8
PATTERN_FILL
  6
CONTINUOUS
 62
     7
 10
203.5
 20
373.5
 30
0.0
 11
221.91878634893351
 21
373.5
 31
0.0
  0
LINE
  5
F7
  8
PATTERN_FILL
  6
CONTINUOUS
 62
     7
 10
178.28718934014211
 20
374.5
 30
0.0
 11
196.5
 21
374.5
 31
0.0
  0
LINE
  5
F8
  8
PATTERN_FILL
  6
CONTINUOUS
 62
     7
 10
203.5
 20
374.5
 30
0.0
 11
221.71281065985789
 21
374.5
 31
0.0
  0
LINE
  5
F9
  8
PATTERN_FILL
  6
CONTINUOUS
 62
     7
 10
178.50133217863331
 20
375.5
 30
0.0
 11
196.5
 21
375.5
 31
0.0
  0
LINE
  5
FA
  8
PATTERN_FILL
  6
CONTINUOUS
 62
     7
 10
203.5
 20
375.5
 30
0.0
 11
221.49866782136661
 21
375.5
 31
0.0
  0
LINE
  5
FB
  8
PATTERN_FILL
  6
CONTINUOUS
 62
     7
 10
178.7236833470443
 20
376.5
 30
0.0
 11
196.5
 21
376.5
 31
0.0
  0
LINE
  5
FC
  8
PATTERN_FILL
  6
CONTINUOUS
 62
     7
 10
203.5
 20
376.5
 30
0.0
 11
221.27631665295559
 21
376.5
 31
0.0
  0
LINE
  5
FD
  8
PATTERN_FILL
  6
CONTINUOUS
 62
     7
 10
178.95428589789509
 20
377.5
 30
0.0
 11
196.5
 21
377.5
 31
0.0
  0
LINE
  5
FE
  8
PATTERN_FILL
  6
CONTINUOUS
 62
     7
 10
203.5
 20
377.5
 30
0.0
 11
221.0457141021048
 21
377.5
 31
0.0
  0
LINE
  5
FF
  8
PATTERN_FILL
  6
CONTINUOUS
 62
     7
 10
179.1931848000311
 20
378.5
 30
0.0
 11
196.5
 21
378.5
 31
0.0
  0
LINE
  5
100
  8
PATTERN_FILL
  6
CONTINUOUS
 62
     7
 10
203.5
 20
378.5
 30
0.0
 11
220.8068151999687
 21
378.5
 31
0.0
  0
LINE
  5
101
  8
PATTERN_FILL
  6
CONTINUOUS
 62
     7
 10
179.4404269854347
 20
379.5
 30
0.0
 11
196.5
 21
379.5
 31
0.0
  0
LINE
  5
102
  8
PATTERN_FILL
  6
CONTINUOUS
 62
     7
 10
203.5
 20
379.5
 30
0.0
 11
220.55957301456519
 21
379.5
 31
0.0
  0
LINE
  5
103
  8
PATTERN_FILL
  6
CONTINUOUS
 62
     7
 10
179.69606139865689
 20
380.5
 30
0.0
 11
196.5
 21
380.5
 31
0.0
  0
LINE
  5
104
  8
PATTERN_FILL
  6
CONTINUOUS
 62
     7
 10
203.5
 20
380.5
 30
0.0
 11
220.30393860134291
 21
380.5
 31
0.0
  0
LINE
  5
105
  8
PATTERN_FILL
  6
CONTINUOUS
 62
     7
 10
179.9601390490003
 20
381.5
 30
0.0
 11
196.5
 21
381.5
 31
0.0
  0
LINE
  5
106
  8
PATTERN_FILL
  6
CONTINUOUS
 62
     7
 10
203.5
 20
381.5
 30
0.0
 11
220.03986095099961
 21
381.5
 31
0.0
  0
LINE
  5
107
  8
PATTERN_FILL
  6
CONTINUOUS
 62
     7
 10
180.2327130655888
 20
382.5
 30
0.0
 11
196.5
 21
382.5
 31
0.0
  0
LINE
  5
108
  8
PATTERN_FILL
  6
CONTINUOUS
 62
     7
 10
203.5
 20
382.5
 30
0.0
 11
219.76728693441109
 21
382.5
 31
0.0
  0
LINE
  5
109
  8
PATTERN_FILL
  6
CONTINUOUS
 62
     7
 10
180.51383875547569
 20
383.5
 30
0.0
 11
196.5
 21
383.5
 31
0.0
  0
LINE
  5
10A
  8
PATTERN_FILL
  6
CONTINUOUS
 62
     7
 10
203.5
 20
383.5
 30
0.0
 11
219.48616124452411
 21
383.5
 31
0.0
  0
LINE
  5
10B
  8
PATTERN_FILL
  6
CONTINUOUS
 62
     7
 10
180.80357366494829
 20
384.5
 30
0.0
 11
196.5
 21
384.5
 31
0.0
  0
LINE
  5
10C
  8
PATTERN_FILL
  6
CONTINUOUS
 62
     7
 10
203.5
 20
384.5
 30
0.0
 11
219.1964263350516
 21
384.5
 31
0.0
  0
LINE
  5
10D
  8
PATTERN_FILL
  6
CONTINUOUS
 62
     7
 10
181.10197764419721
 20
385.5
 30
0.0
 11
196.5
 21
385.5
 31
0.0
  0
LINE
  5
10E
  8
PATTERN_FILL
  6
CONTINUOUS
 62
     7
 10
203.5
 20
385.5
 30
0.0
 11
218.8980223558026
 21
385.5
 31
0.0
  0
LINE
  5
10F
  8
PATTERN_FILL
  6
CONTINUOUS
 62
     7
 10
181.40911291553911
 20
386.5
 30
0.0
 11
196.5
 21
386.5
 31
0.0
  0
LINE
  5
110
  8
PATTERN_FILL
  6
CONTINUOUS
 62
     7
 10
203.5
 20
386.5
 30
0.0
 11
218.59088708446069
 21
386.5
 31
0.0
  0
LINE
  5
111
  8
PATTERN_FILL
  6
CONTINUOUS
 62
     7
 10
181.72504414538321
 20
387.5
 30
0.0
 11
196.5
 21
387.5
 31
0.0
  0
LINE
  5
112
  8
PATTERN_FILL
  6
CONTINUOUS
 62
     7
 10
203.5
 20
387.5
 30
0.0
 11
218.27495585461659
 21
387.5
 31
0.0
  0
LINE
  5
113
  8
PATTERN_FILL
  6
CONTINUOUS
 62
     7
 10
182.04983852015889
 20
388.5
 30
0.0
 11
196.5
 21
388.5
 31
0.0
  0
LINE
  5
114
  8
PATTERN_FILL
  6
CONTINUOUS
 62
     7
 10
203.5
 20
388.5
 30
0.0
 11
217.95016147984089
 21
388.5
 31
0.0
  0
LINE
  5
115
  8
PATTERN_FILL
  6
CONTINUOUS
 62
     7
 10
182.3835658264272
 20
389.5
 30
0.0
 11
196.5
 21
389.5
 31
0.0
  0
LINE
  5
116
  8
PATTERN_FILL
  6
CONTINUOUS
 62
     7
 10
203.5
 20
389.5
 30
0.0
 11
217.6164341735726
 21
389.5
 31
0.0
  0
LINE
  5
117
  8
PATTERN_FILL
  6
CONTINUOUS
 62
     7
 10
182.7262985354225
 20
390.5
 30
0.0
 11
196.5
 21
390.5
 31
0.0
  0
LINE
  5
118
  8
PATTERN_FILL
  6
CONTINUOUS
 62
     7
 10
203.5
 20
390.5
 30
0.0
 11
217.27370146457741
 21
390.5
 31
0.0
  0
LINE
  5
119
  8
PATTERN_FILL
  6
CONTINUOUS
 62
     7
 10
183.0781118922873
 20
391.5
 30
0.0
 11
196.5
 21
391.5
 31
0.0
  0
LINE
  5
11A
  8
PATTERN_FILL
  6
CONTINUOUS
 62
     7
 10
203.5
 20
391.5
 30
0.0
 11
216.92188810771259
 21
391.5
 31
0.0
  0
LINE
  5
11B
  8
PATTERN_FILL
  6
CONTINUOUS
 62
     7
 10
183.43908401028139
 20
392.5
 30
0.0
 11
196.5
 21
392.5
 31
0.0
  0
LINE
  5
11C
  8
PATTERN_FILL
  6
CONTINUOUS
 62
     7
 10
203.5
 20
392.5
 30
0.0
 11
216.56091598971841
 21
392.5
 31
0.0
  0
LINE
  5
11D
  8
PATTERN_FILL
  6
CONTINUOUS
 62
     7
 10
183.8092959702723
 20
393.5
 30
0.0
 11
196.5
 21
393.5
 31
0.0
  0
LINE
  5
11E
  8
PATTERN_FILL
  6
CONTINUOUS
 62
     7
 10
203.5
 20
393.5
 30
0.0
 11
216.19070402972761
 21
393.5
 31
0.0
  0
LINE
  5
11F
  8
PATTERN_FILL
  6
CONTINUOUS
 62
     7
 10
184.1888319258328
 20
394.5
 30
0.0
 11
196.5
 21
394.5
 31
0.0
  0
LINE
  5
120
  8
PATTERN_FILL
  6
CONTINUOUS
 62
     7
 10
203.5
 20
394.5
 30
0.0
 11
215.81116807416711
 21
394.5
 31
0.0
  0
LINE
  5
121
  8
PATTERN_FILL
  6
CONTINUOUS
 62
     7
 10
184.5777792143025
 20
395.5
 30
0.0
 11
196.5
 21
395.5
 31
0.0
  0
LINE
  5
122
  8
PATTERN_FILL
  6
CONTINUOUS
 62
     7
 10
203.5
 20
395.5
 30
0.0
 11
215.42222078569731
 21
395.5
 31
0.0
  0
LINE
  5
123
  8
PATTERN_FILL
  6
CONTINUOUS
 62
     7
 10
184.9762284741937
 20
396.5
 30
0.0
 11
196.5
 21
396.5
 31
0.0
  0
LINE
  5
124
  8
PATTERN_FILL
  6
CONTINUOUS
 62
     7
 10
203.5
 20
396.5
 30
0.0
 11
215.0237715258061
 21
396.5
 31
0.0
  0
LINE
  5
125
  8
PATTERN_FILL
  6
CONTINUOUS
 62
     7
 10
185.3842737693559
 20
397.5
 30
0.0
 11
196.5
 21
397.5
 31
0.0
  0
LINE
  5
126
  8
PATTERN_FILL
  6
CONTINUOUS
 62
     7
 10
203.5
 20
397.5
 30
0.0
 11
214.61572623064399
 21
397.5
 31
0.0
  0
LINE
  5
127
  8
PATTERN_FILL
  6
CONTINUOUS
 62
     7
 10
185.8080222297643
 20
398.5
 30
0.0
 11
196.5
 21
398.5
 31
0.0
  0
LINE
  5
128
  8
PATTERN_FILL
  6
CONTINUOUS
 62
     7
 10
203.5
 20
398.5
 30
0.0
 11
214.1919777702355
 21
398.5
 31
0.0
  0
LINE
  5
129
  8
PATTERN_FILL
  6
CONTINUOUS
 62
     7
 10
186.45213864421899
 20
399.5
 30
0.0
 11
196.5
 21
399.5
 31
0.0
  0
LINE
  5
12A
  8
PATTERN_FILL
  6
CONTINUOUS
 62
     7
 10
203.5
 20
399.5
 30
0.0
 11
213.54786135578081
 21
399.5
 31
0.0
  0
LINE
  5
12B
  8
PATTERN_FILL
  6
CONTINUOUS
 62
     7
 10
187.57277518180439
 20
400.49999999999989
 30
0.0
 11
196.5
 21
400.49999999999989
 31
0.0
  0
LINE
  5
12C
  8
PATTERN_FILL
  6
CONTINUOUS
 62
     7
 10
203.5
 20
400.49999999999989
 30
0.0
 11
212.42722481819561
 21
400.49999999999989
 31
0.0
  0
LINE
  5
12D
  8
PATTERN_FILL
  6
CONTINUOUS
 62
     7
 10
189.0135439794594
 20
401.49999999999989
 30
0.0
 11
196.5
 21
401.49999999999989
 31
0.0
  0
LINE
  5
12E
  8
PATTERN_FILL
  6
CONTINUOUS
 62
     7
 10
203.5
 20
401.49999999999989
 30
0.0
 11
210.9864560205406
 21
401.49999999999989
 31
0.0
  0
LINE
  5
12F
  8
PATTERN_FILL
  6
CONTINUOUS
 62
     7
 10
190.5810898457535
 20
402.5
 30
0.0
 11
196.5
 21
402.5
 31
0.0
  0
LINE
  5
130
  8
PATTERN_FILL
  6
CONTINUOUS
 62
     7
 10
203.5
 20
402.5
 30
0.0
 11
209.41891015424639
 21
402.5
 31
0.0
  0
LINE
  5
131
  8
PATTERN_FILL
  6
CONTINUOUS
 62
     7
 10
192.6020596720262
 20
403.5
 30
0.0
 11
196.5
 21
403.5
 31
0.0
  0
LINE
  5
132
  8
PATTERN_FILL
  6
CONTINUOUS
 62
     7
 10
203.5
 20
403.5
 30
0.0
 11
207.39794032797371
 21
403.5
 31
0.0
  0
LINE
  5
133
  8
PATTERN_FILL
  6
CONTINUOUS
 62
     7
 10
195.67066128620621
 20
404.49999999999989
 30
0.0
 11
196.5
 21
404.49999999999989
 31
0.0
  0
LINE
  5
134
  8
PATTERN_FILL
  6
CONTINUOUS
 62
     7
 10
203.5
 20
404.49999999999989
 30
0.0
 11
204.3293387137937
 21
404.49999999999989
 31
0.0
  0
LINE
  5
135
  8
PATTERN_FILL
  6
CONTINUOUS
 62
     7
 10
204.0
 20
404.57401906566338
 30
0.0
 11
204.0
 21
343.5
 31
0.0
  0
LINE
  5
136
  8
PATTERN_FILL
  6
CONTINUOUS
 62
     7
 10
205.0
 20
404.33005328644259
 30
0.0
 11
205.0
 21
343.5
 31
0.0
  0
LINE
  5
137
  8
PATTERN_FILL
  6
CONTINUOUS
 62
     7
 10
206.0
 20
404.02738808913261
 30
0.0
 11
206.0
 21
343.5
 31
0.0
  0
LINE
  5
138
  8
PATTERN_FILL
  6
CONTINUOUS
 62
     7
 10
207.0
 20
403.66300502573341
 30
0.0
 11
207.0
 21
343.5
 31
0.0
  0
LINE
  5
139
  8
PATTERN_FILL
  6
CONTINUOUS
 62
     7
 10
208.0
 20
403.23298800811023
 30
0.0
 11
208.0
 21
343.5
 31
0.0
  0
LINE
  5
13A
  8
PATTERN_FILL
  6
CONTINUOUS
 62
     7
 10
209.0
 20
402.73227538792332
 30
0.0
 11
209.0
 21
343.5
 31
0.0
  0
LINE
  5
13B
  8
PATTERN_FILL
  6
CONTINUOUS
 62
     7
 10
210.0
 20
402.154291958464
 30
0.0
 11
210.0
 21
343.5
 31
0.0
  0
LINE
  5
13C
  8
PATTERN_FILL
  6
CONTINUOUS
 62
     7
 10
211.0
 20
401.49038684625748
 30
0.0
 11
211.0
 21
343.5
 31
0.0
  0
LINE
  5
13D
  8
PATTERN_FILL
  6
CONTINUOUS
 62
     7
 10
212.0
 20
400.74935544842828
 30
0.0
 11
212.0
 21
343.5
 31
0.0
  0
LINE
  5
13E
  8
PATTERN_FILL
  6
CONTINUOUS
 62
     7
 10
213.0
 20
400.0647466345082
 30
0.0
 11
213.0
 21
343.5
 31
0.0
  0
LINE
  5
13F
  8
PATTERN_FILL
  6
CONTINUOUS
 62
     7
 10
214.0
 20
398.85688025305598
 30
0.0
 11
214.0
 21
343.5
 31
0.0
  0
LINE
  5
140
  8
PATTERN_FILL
  6
CONTINUOUS
 62
     7
 10
215.0
 20
396.55891127712022
 30
0.0
 11
215.0
 21
343.5
 31
0.0
  0
LINE
  5
141
  8
PATTERN_FILL
  6
CONTINUOUS
 62
     7
 10
216.0
 20
394.00555101529051
 30
0.0
 11
216.0
 21
343.5
 31
0.0
  0
LINE
  5
142
  8
PATTERN_FILL
  6
CONTINUOUS
 62
     7
 10
217.0
 20
391.28019780888491
 30
0.0
 11
217.0
 21
343.5
 31
0.0
  0
LINE
  5
143
  8
PATTERN_FILL
  6
CONTINUOUS
 62
     7
 10
218.0
 20
388.3483177160922
 30
0.0
 11
218.0
 21
343.5
 31
0.0
  0
LINE
  5
144
  8
PATTERN_FILL
  6
CONTINUOUS
 62
     7
 10
219.0
 20
385.16152164814628
 30
0.0
 11
219.0
 21
343.5
 31
0.0
  0
LINE
  5
145
  8
PATTERN_FILL
  6
CONTINUOUS
 62
     7
 10
220.0
 20
381.64821138841728
 30
0.0
 11
220.0
 21
343.5
 31
0.0
  0
LINE
  5
146
  8
PATTERN_FILL
  6
CONTINUOUS
 62
     7
 10
221.0
 20
377.69407519621927
 30
0.0
 11
221.0
 21
343.5
 31
0.0
  0
LINE
  5
147
  8
PATTERN_FILL
  6
CONTINUOUS
 62
     7
 10
222.0
 20
373.09445564567523
 30
0.0
 11
222.0
 21
343.5
 31
0.0
  0
LINE
  5
148
  8
PATTERN_FILL
  6
CONTINUOUS
 62
     7
 10
223.0
 20
367.4035815396532
 30
0.0
 11
223.0
 21
343.5
 31
0.0
  0
LINE
  5
149
  8
PATTERN_FILL
  6
CONTINUOUS
 62
     7
 10
224.0
 20
359.09600907848687
 30
0.0
 11
224.0
 21
343.5
 31
0.0
  0
LINE
  5
14A
  8
PATTERN_FILL
  6
CONTINUOUS
 62
     7
 10
195.99999999999989
 20
404.57401906566338
 30
0.0
 11
195.99999999999989
 21
343.5
 31
0.0
  0
LINE
  5
14B
  8
PATTERN_FILL
  6
CONTINUOUS
 62
     7
 10
195.0
 20
404.33005328644248
 30
0.0
 11
195.0
 21
343.5
 31
0.0
  0
LINE
  5
14C
  8
PATTERN_FILL
  6
CONTINUOUS
 62
     7
 10
193.99999999999989
 20
404.0273880891325
 30
0.0
 11
193.99999999999989
 21
343.5
 31
0.0
  0
LINE
  5
14D
  8
PATTERN_FILL
  6
CONTINUOUS
 62
     7
 10
192.99999999999989
 20
403.66300502573318
 30
0.0
 11
192.99999999999989
 21
343.5
 31
0.0
  0
LINE
  5
14E
  8
PATTERN_FILL
  6
CONTINUOUS
 62
     7
 10
191.99999999999989
 20
403.23298800811023
 30
0.0
 11
191.99999999999989
 21
343.5
 31
0.0
  0
LINE
  5
14F
  8
PATTERN_FILL
  6
CONTINUOUS
 62
     7
 10
190.99999999999989
 20
402.73227538792321
 30
0.0
 11
190.99999999999989
 21
343.5
 31
0.0
  0
LINE
  5
150
  8
PATTERN_FILL
  6
CONTINUOUS
 62
     7
 10
190.0
 20
402.15429195846389
 30
0.0
 11
190.0
 21
343.5
 31
0.0
  0
LINE
  5
151
  8
PATTERN_FILL
  6
CONTINUOUS
 62
     7
 10
188.99999999999989
 20
401.49038684625742
 30
0.0
 11
188.99999999999989
 21
343.5
 31
0.0
  0
LINE
  5
152
  8
PATTERN_FILL
  6
CONTINUOUS
 62
     7
 10
187.99999999999989
 20
400.74935544842822
 30
0.0
 11
187.99999999999989
 21
343.5
 31
0.0
  0
LINE
  5
153
  8
PATTERN_FILL
  6
CONTINUOUS
 62
     7
 10
186.99999999999989
 20
400.0647466345078
 30
0.0
 11
186.99999999999989
 21
343.5
 31
0.0
  0
LINE
  5
154
  8
PATTERN_FILL
  6
CONTINUOUS
 62
     7
 10
185.99999999999989
 20
398.85688025305598
 30
0.0
 11
185.99999999999989
 21
343.5
 31
0.0
  0
LINE
  5
155
  8
PATTERN_FILL
  6
CONTINUOUS
 62
     7
 10
184.99999999999989
 20
396.55891127712022
 30
0.0
 11
184.99999999999989
 21
343.5
 31
0.0
  0
LINE
  5
156
  8
PATTERN_FILL
  6
CONTINUOUS
 62
     7
 10
184.0
 20
394.00555101529051
 30
0.0
 11
184.0
 21
343.5
 31
0.0
  0
LINE
  5
157
  8
PATTERN_FILL
  6
CONTINUOUS
 62
     7
 10
183.0
 20
391.28019780888491
 30
0.0
 11
183.0
 21
343.5
 31
0.0
  0
LINE
  5
158
  8
PATTERN_FILL
  6
CONTINUOUS
 62
     7
 10
182.0
 20
388.3483177160922
 30
0.0
 11
182.0
 21
343.5
 31
0.0
  0
LINE
  5
159
  8
PATTERN_FILL
  6
CONTINUOUS
 62
     7
 10
181.0
 20
385.16152164814628
 30
0.0
 11
181.0
 21
343.5
 31
0.0
  0
LINE
  5
15A
  8
PATTERN_FILL
  6
CONTINUOUS
 62
     7
 10
179.99999999999989
 20
381.64821138841728
 30
0.0
 11
179.99999999999989
 21
343.5
 31
0.0
  0
LINE
  5
15B
  8
PATTERN_FILL
  6
CONTINUOUS
 62
     7
 10
178.99999999999989
 20
377.69407519621927
 30
0.0
 11
178.99999999999989
 21
343.5
 31
0.0
  0
LINE
  5
15C
  8
PATTERN_FILL
  6
CONTINUOUS
 62
     7
 10
177.99999999999989
 20
373.09445564567523
 30
0.0
 11
177.99999999999989
 21
343.5
 31
0.0
  0
LINE
  5
15D
  8
PATTERN_FILL
  6
CONTINUOUS
 62
     7
 10
176.99999999999989
 20
367.4035815396532
 30
0.0
 11
176.99999999999989
 21
343.5
 31
0.0
  0
LINE
  5
15E
  8
PATTERN_FILL
  6
CONTINUOUS
 62
     7
 10
175.99999999999989
 20
359.09600907848687
 30
0.0
 11
175.99999999999989
 21
343.5
 31
0.0
  0
LINE
  5
15F
  8
PATTERN_FILL
  6
CONTINUOUS
 62
     7
 10
325.18188288798677
 20
344.5
 30
0.0
 11
274.81811711201323
 21
344.5
 31
0.0
  0
LINE
  5
160
  8
PATTERN_FILL
  6
CONTINUOUS
 62
     7
 10
325.10688288798679
 20
345.5
 30
0.0
 11
274.89311711201321
 21
345.5
 31
0.0
  0
LINE
  5
161
  8
PATTERN_FILL
  6
CONTINUOUS
 62
     7
 10
325.0318828879868
 20
346.5
 30
0.0
 11
274.9681171120132
 21
346.5
 31
0.0
  0
LINE
  5
162
  8
PATTERN_FILL
  6
CONTINUOUS
 62
     7
 10
324.95688288798681
 20
347.5
 30
0.0
 11
275.04311711201319
 21
347.5
 31
0.0
  0
LINE
  5
163
  8
PATTERN_FILL
  6
CONTINUOUS
 62
     7
 10
324.88188288798688
 20
348.5
 30
0.0
 11
275.11811711201312
 21
348.5
 31
0.0
  0
LINE
  5
164
  8
PATTERN_FILL
  6
CONTINUOUS
 62
     7
 10
324.80688288798677
 20
349.5
 30
0.0
 11
275.19311711201323
 21
349.5
 31
0.0
  0
LINE
  5
165
  8
PATTERN_FILL
  6
CONTINUOUS
 62
     7
 10
324.73188288798679
 20
350.5
 30
0.0
 11
275.26811711201321
 21
350.5
 31
0.0
  0
LINE
  5
166
  8
PATTERN_FILL
  6
CONTINUOUS
 62
     7
 10
324.6568828879868
 20
351.5
 30
0.0
 11
275.34311711201309
 21
351.5
 31
0.0
  0
LINE
  5
167
  8
PATTERN_FILL
  6
CONTINUOUS
 62
     7
 10
324.58188288798681
 20
352.5
 30
0.0
 11
275.41811711201319
 21
352.5
 31
0.0
  0
LINE
  5
168
  8
PATTERN_FILL
  6
CONTINUOUS
 62
     7
 10
324.50688288798688
 20
353.5
 30
0.0
 11
275.49311711201312
 21
353.5
 31
0.0
  0
LINE
  5
169
  8
PATTERN_FILL
  6
CONTINUOUS
 62
     7
 10
324.43188288798677
 20
354.5
 30
0.0
 11
275.56811711201323
 21
354.5
 31
0.0
  0
LINE
  5
16A
  8
PATTERN_FILL
  6
CONTINUOUS
 62
     7
 10
324.35688288798679
 20
355.5
 30
0.0
 11
275.64311711201321
 21
355.5
 31
0.0
  0
LINE
  5
16B
  8
PATTERN_FILL
  6
CONTINUOUS
 62
     7
 10
324.2818828879868
 20
356.5
 30
0.0
 11
275.71811711201309
 21
356.5
 31
0.0
  0
LINE
  5
16C
  8
PATTERN_FILL
  6
CONTINUOUS
 62
     7
 10
324.20688288798681
 20
357.5
 30
0.0
 11
275.79311711201319
 21
357.5
 31
0.0
  0
LINE
  5
16D
  8
PATTERN_FILL
  6
CONTINUOUS
 62
     7
 10
324.13188288798688
 20
358.5
 30
0.0
 11
275.86811711201312
 21
358.5
 31
0.0
  0
LINE
  5
16E
  8
PATTERN_FILL
  6
CONTINUOUS
 62
     7
 10
324.05688288798677
 20
359.5
 30
0.0
 11
275.94311711201323
 21
359.5
 31
0.0
  0
LINE
  5
16F
  8
PATTERN_FILL
  6
CONTINUOUS
 62
     7
 10
323.98188288798679
 20
360.5
 30
0.0
 11
276.01811711201321
 21
360.5
 31
0.0
  0
LINE
  5
170
  8
PATTERN_FILL
  6
CONTINUOUS
 62
     7
 10
323.9068828879868
 20
361.5
 30
0.0
 11
276.0931171120132
 21
361.5
 31
0.0
  0
LINE
  5
171
  8
PATTERN_FILL
  6
CONTINUOUS
 62
     7
 10
323.83188288798681
 20
362.5
 30
0.0
 11
276.16811711201319
 21
362.5
 31
0.0
  0
LINE
  5
172
  8
PATTERN_FILL
  6
CONTINUOUS
 62
     7
 10
323.75688288798688
 20
363.5
 30
0.0
 11
276.24311711201312
 21
363.5
 31
0.0
  0
LINE
  5
173
  8
PATTERN_FILL
  6
CONTINUOUS
 62
     7
 10
323.68188288798677
 20
364.5
 30
0.0
 11
276.31811711201323
 21
364.5
 31
0.0
  0
LINE
  5
174
  8
PATTERN_FILL
  6
CONTINUOUS
 62
     7
 10
323.60688288798679
 20
365.5
 30
0.0
 11
276.39311711201321
 21
365.5
 31
0.0
  0
LINE
  5
175
  8
PATTERN_FILL
  6
CONTINUOUS
 62
     7
 10
323.5318828879868
 20
366.5
 30
0.0
 11
276.46811711201309
 21
366.5
 31
0.0
  0
LINE
  5
176
  8
PATTERN_FILL
  6
CONTINUOUS
 62
     7
 10
323.45688288798681
 20
367.5
 30
0.0
 11
276.54311711201319
 21
367.5
 31
0.0
  0
LINE
  5
177
  8
PATTERN_FILL
  6
CONTINUOUS
 62
     7
 10
323.38188288798688
 20
368.5
 30
0.0
 11
276.61811711201312
 21
368.5
 31
0.0
  0
LINE
  5
178
  8
PATTERN_FILL
  6
CONTINUOUS
 62
     7
 10
323.30688288798677
 20
369.5
 30
0.0
 11
276.69311711201323
 21
369.5
 31
0.0
  0
LINE
  5
179
  8
PATTERN_FILL
  6
CONTINUOUS
 62
     7
 10
323.23188288798679
 20
370.5
 30
0.0
 11
276.76811711201321
 21
370.5
 31
0.0
  0
LINE
  5
17A
  8
PATTERN_FILL
  6
CONTINUOUS
 62
     7
 10
323.1568828879868
 20
371.5
 30
0.0
 11
276.84311711201309
 21
371.5
 31
0.0
  0
LINE
  5
17B
  8
PATTERN_FILL
  6
CONTINUOUS
 62
     7
 10
323.08188288798681
 20
372.5
 30
0.0
 11
276.91811711201319
 21
372.5
 31
0.0
  0
LINE
  5
17C
  8
PATTERN_FILL
  6
CONTINUOUS
 62
     7
 10
323.00688288798688
 20
373.5
 30
0.0
 11
276.99311711201312
 21
373.5
 31
0.0
  0
LINE
  5
17D
  8
PATTERN_FILL
  6
CONTINUOUS
 62
     7
 10
322.93188288798677
 20
374.5
 30
0.0
 11
277.06811711201323
 21
374.5
 31
0.0
  0
LINE
  5
17E
  8
PATTERN_FILL
  6
CONTINUOUS
 62
     7
 10
322.85688288798679
 20
375.5
 30
0.0
 11
277.14311711201321
 21
375.5
 31
0.0
  0
LINE
  5
17F
  8
PATTERN_FILL
  6
CONTINUOUS
 62
     7
 10
322.7818828879868
 20
376.5
 30
0.0
 11
277.2181171120132
 21
376.5
 31
0.0
  0
LINE
  5
180
  8
PATTERN_FILL
  6
CONTINUOUS
 62
     7
 10
322.70688288798681
 20
377.5
 30
0.0
 11
277.29311711201319
 21
377.5
 31
0.0
  0
LINE
  5
181
  8
PATTERN_FILL
  6
CONTINUOUS
 62
     7
 10
322.63188288798688
 20
378.5
 30
0.0
 11
277.36811711201312
 21
378.5
 31
0.0
  0
LINE
  5
182
  8
PATTERN_FILL
  6
CONTINUOUS
 62
     7
 10
322.55688288798677
 20
379.5
 30
0.0
 11
277.44311711201323
 21
379.5
 31
0.0
  0
LINE
  5
183
  8
PATTERN_FILL
  6
CONTINUOUS
 62
     7
 10
322.48188288798679
 20
380.5
 30
0.0
 11
277.51811711201321
 21
380.5
 31
0.0
  0
LINE
  5
184
  8
PATTERN_FILL
  6
CONTINUOUS
 62
     7
 10
322.4068828879868
 20
381.5
 30
0.0
 11
277.59311711201309
 21
381.5
 31
0.0
  0
LINE
  5
185
  8
PATTERN_FILL
  6
CONTINUOUS
 62
     7
 10
322.33188288798681
 20
382.5
 30
0.0
 11
277.66811711201319
 21
382.5
 31
0.0
  0
LINE
  5
186
  8
PATTERN_FILL
  6
CONTINUOUS
 62
     7
 10
322.25688288798688
 20
383.5
 30
0.0
 11
277.74311711201312
 21
383.5
 31
0.0
  0
LINE
  5
187
  8
PATTERN_FILL
  6
CONTINUOUS
 62
     7
 10
322.18188288798677
 20
384.5
 30
0.0
 11
277.81811711201323
 21
384.5
 31
0.0
  0
LINE
  5
188
  8
PATTERN_FILL
  6
CONTINUOUS
 62
     7
 10
322.10688288798679
 20
385.5
 30
0.0
 11
277.89311711201321
 21
385.5
 31
0.0
  0
LINE
  5
189
  8
PATTERN_FILL
  6
CONTINUOUS
 62
     7
 10
322.0318828879868
 20
386.5
 30
0.0
 11
277.96811711201309
 21
386.5
 31
0.0
  0
LINE
  5
18A
  8
PATTERN_FILL
  6
CONTINUOUS
 62
     7
 10
321.95688288798681
 20
387.5
 30
0.0
 11
278.04311711201319
 21
387.5
 31
0.0
  0
LINE
  5
18B
  8
PATTERN_FILL
  6
CONTINUOUS
 62
     7
 10
321.88188288798688
 20
388.5
 30
0.0
 11
278.11811711201312
 21
388.5
 31
0.0
  0
LINE
  5
18C
  8
PATTERN_FILL
  6
CONTINUOUS
 62
     7
 10
321.80688288798677
 20
389.5
 30
0.0
 11
278.19311711201323
 21
389.5
 31
0.0
  0
LINE
  5
18D
  8
PATTERN_FILL
  6
CONTINUOUS
 62
     7
 10
321.73188288798679
 20
390.5
 30
0.0
 11
278.26811711201321
 21
390.5
 31
0.0
  0
LINE
  5
18E
  8
PATTERN_FILL
  6
CONTINUOUS
 62
     7
 10
321.6568828879868
 20
391.5
 30
0.0
 11
278.3431171120132
 21
391.5
 31
0.0
  0
LINE
  5
18F
  8
PATTERN_FILL
  6
CONTINUOUS
 62
     7
 10
321.58188288798681
 20
392.5
 30
0.0
 11
278.41811711201319
 21
392.5
 31
0.0
  0
LINE
  5
190
  8
PATTERN_FILL
  6
CONTINUOUS
 62
     7
 10
321.50688288798688
 20
393.5
 30
0.0
 11
278.49311711201312
 21
393.5
 31
0.0
  0
LINE
  5
191
  8
PATTERN_FILL
  6
CONTINUOUS
 62
     7
 10
321.43188288798677
 20
394.5
 30
0.0
 11
278.56811711201323
 21
394.5
 31
0.0
  0
LINE
  5
192
  8
PATTERN_FILL
  6
CONTINUOUS
 62
     7
 10
321.35688288798679
 20
395.5
 30
0.0
 11
278.64311711201321
 21
395.5
 31
0.0
  0
LINE
  5
193
  8
PATTERN_FILL
  6
CONTINUOUS
 62
     7
 10
321.2818828879868
 20
396.5
 30
0.0
 11
278.71811711201309
 21
396.5
 31
0.0
  0
LINE
  5
194
  8
PATTERN_FILL
  6
CONTINUOUS
 62
     7
 10
321.05378378238652
 20
397.5
 30
0.0
 11
278.94621621761348
 21
397.5
 31
0.0
  0
LINE
  5
195
  8
PATTERN_FILL
  6
CONTINUOUS
 62
     7
 10
320.57881432817749
 20
398.5
 30
0.0
 11
279.42118567182268
 21
398.5
 31
0.0
  0
LINE
  5
196
  8
PATTERN_FILL
  6
CONTINUOUS
 62
     7
 10
319.84962706532139
 20
399.5
 30
0.0
 11
280.1503729346785
 21
399.5
 31
0.0
  0
LINE
  5
197
  8
PATTERN_FILL
  6
CONTINUOUS
 62
     7
 10
318.71319103844411
 20
400.49999999999989
 30
0.0
 11
281.28680896155601
 21
400.49999999999989
 31
0.0
  0
LINE
  5
198
  8
PATTERN_FILL
  6
CONTINUOUS
 62
     7
 10
316.70867102734383
 20
401.49999999999989
 30
0.0
 11
283.29132897265617
 21
401.49999999999989
 31
0.0
  0
LINE
  5
199
  8
PATTERN_FILL
  6
CONTINUOUS
 62
     7
 10
314.2096468112336
 20
402.5
 30
0.0
 11
285.79035318876629
 21
402.5
 31
0.0
  0
LINE
  5
19A
  8
PATTERN_FILL
  6
CONTINUOUS
 62
     7
 10
311.07467550314681
 20
403.5
 30
0.0
 11
288.92532449685319
 21
403.5
 31
0.0
  0
LINE
  5
19B
  8
PATTERN_FILL
  6
CONTINUOUS
 62
     7
 10
306.43294741934051
 20
404.49999999999989
 30
0.0
 11
293.56705258065949
 21
404.49999999999989
 31
0.0
  0
LINE
  5
19C
  8
PATTERN_FILL
  6
CONTINUOUS
 62
     7
 10
300.0
 20
405.0
 30
0.0
 11
300.0
 21
343.5
 31
0.0
  0
LINE
  5
19D
  8
PATTERN_FILL
  6
CONTINUOUS
 62
     7
 10
301.0
 20
404.98798850935282
 30
0.0
 11
301.0
 21
343.5
 31
0.0
  0
LINE
  5
19E
  8
PATTERN_FILL
  6
CONTINUOUS
 62
     7
 10
302.0
 20
404.95193322075852
 30
0.0
 11
302.0
 21
343.5
 31
0.0
  0
LINE
  5
19F
  8
PATTERN_FILL
  6
CONTINUOUS
 62
     7
 10
303.0
 20
404.89177150345688
 30
0.0
 11
303.0
 21
343.5
 31
0.0
  0
LINE
  5
1A0
  8
PATTERN_FILL
  6
CONTINUOUS
 62
     7
 10
304.0
 20
404.80739836650213
 30
0.0
 11
304.0
 21
343.5
 31
0.0
  0
LINE
  5
1A1
  8
PATTERN_FILL
  6
CONTINUOUS
 62
     7
 10
305.0
 20
404.6986655362395
 30
0.0
 11
305.0
 21
343.5
 31
0.0
  0
LINE
  5
1A2
  8
PATTERN_FILL
  6
CONTINUOUS
 62
     7
 10
306.0
 20
404.56538013827191
 30
0.0
 11
306.0
 21
343.5
 31
0.0
  0
LINE
  5
1A3
  8
PATTERN_FILL
  6
CONTINUOUS
 62
     7
 10
307.0
 20
404.40730295622342
 30
0.0
 11
307.0
 21
343.5
 31
0.0
  0
LINE
  5
1A4
  8
PATTERN_FILL
  6
CONTINUOUS
 62
     7
 10
308.0
 20
404.22414622994171
 30
0.0
 11
308.0
 21
343.5
 31
0.0
  0
LINE
  5
1A5
  8
PATTERN_FILL
  6
CONTINUOUS
 62
     7
 10
309.0
 20
404.01557094461128
 30
0.0
 11
309.0
 21
343.5
 31
0.0
  0
LINE
  5
1A6
  8
PATTERN_FILL
  6
CONTINUOUS
 62
     7
 10
310.0
 20
403.78118354914318
 30
0.0
 11
310.0
 21
343.5
 31
0.0
  0
LINE
  5
1A7
  8
PATTERN_FILL
  6
CONTINUOUS
 62
     7
 10
311.0
 20
403.52053202645448
 30
0.0
 11
311.0
 21
343.5
 31
0.0
  0
LINE
  5
1A8
  8
PATTERN_FILL
  6
CONTINUOUS
 62
     7
 10
312.0
 20
403.23310121911788
 30
0.0
 11
312.0
 21
343.5
 31
0.0
  0
LINE
  5
1A9
  8
PATTERN_FILL
  6
CONTINUOUS
 62
     7
 10
313.0
 20
402.91830729021768
 30
0.0
 11
313.0
 21
343.5
 31
0.0
  0
LINE
  5
1AA
  8
PATTERN_FILL
  6
CONTINUOUS
 62
     7
 10
314.0
 20
402.57549116976048
 30
0.0
 11
314.0
 21
343.5
 31
0.0
  0
LINE
  5
1AB
  8
PATTERN_FILL
  6
CONTINUOUS
 62
     7
 10
315.0
 20
402.20391079973462
 30
0.0
 11
315.0
 21
343.5
 31
0.0
  0
LINE
  5
1AC
  8
PATTERN_FILL
  6
CONTINUOUS
 62
     7
 10
316.0
 20
401.80273194339452
 30
0.0
 11
316.0
 21
343.5
 31
0.0
  0
LINE
  5
1AD
  8
PATTERN_FILL
  6
CONTINUOUS
 62
     7
 10
317.0
 20
401.37101726306668
 30
0.0
 11
317.0
 21
343.5
 31
0.0
  0
LINE
  5
1AE
  8
PATTERN_FILL
  6
CONTINUOUS
 62
     7
 10
318.0
 20
400.92275200568872
 30
0.0
 11
318.0
 21
343.5
 31
0.0
  0
LINE
  5
1AF
  8
PATTERN_FILL
  6
CONTINUOUS
 62
     7
 10
319.0
 20
400.29122637370313
 30
0.0
 11
319.0
 21
343.5
 31
0.0
  0
LINE
  5
1B0
  8
PATTERN_FILL
  6
CONTINUOUS
 62
     7
 10
320.0
 20
399.32513658364519
 30
0.0
 11
320.0
 21
343.5
 31
0.0
  0
LINE
  5
1B1
  8
PATTERN_FILL
  6
CONTINUOUS
 62
     7
 10
321.0
 20
397.63981496338641
 30
0.0
 11
321.0
 21
343.5
 31
0.0
  0
LINE
  5
1B2
  8
PATTERN_FILL
  6
CONTINUOUS
 62
     7
 10
322.0
 20
386.9251051731577
 30
0.0
 11
322.0
 21
343.5
 31
0.0
  0
LINE
  5
1B3
  8
PATTERN_FILL
  6
CONTINUOUS
 62
     7
 10
323.0
 20
373.59177183982462
 30
0.0
 11
323.0
 21
343.5
 31
0.0
  0
LINE
  5
1B4
  8
PATTERN_FILL
  6
CONTINUOUS
 62
     7
 10
324.0
 20
360.25843850649119
 30
0.0
 11
324.0
 21
343.5
 31
0.0
  0
LINE
  5
1B5
  8
PATTERN_FILL
  6
CONTINUOUS
 62
     7
 10
325.0
 20
346.92510517315782
 30
0.0
 11
325.0
 21
343.5
 31
0.0
  0
LINE
  5
1B6
  8
PATTERN_FILL
  6
CONTINUOUS
 62
     7
 10
299.0
 20
404.98798850935282
 30
0.0
 11
299.0
 21
343.5
 31
0.0
  0
LINE
  5
1B7
  8
PATTERN_FILL
  6
CONTINUOUS
 62
     7
 10
298.0
 20
404.95193322075852
 30
0.0
 11
298.0
 21
343.5
 31
0.0
  0
LINE
  5
1B8
  8
PATTERN_FILL
  6
CONTINUOUS
 62
     7
 10
297.0
 20
404.89177150345688
 30
0.0
 11
297.0
 21
343.5
 31
0.0
  0
LINE
  5
1B9
  8
PATTERN_FILL
  6
CONTINUOUS
 62
     7
 10
296.0
 20
404.80739836650213
 30
0.0
 11
296.0
 21
343.5
 31
0.0
  0
LINE
  5
1BA
  8
PATTERN_FILL
  6
CONTINUOUS
 62
     7
 10
295.0
 20
404.6986655362395
 30
0.0
 11
295.0
 21
343.5
 31
0.0
  0
LINE
  5
1BB
  8
PATTERN_FILL
  6
CONTINUOUS
 62
     7
 10
294.0
 20
404.56538013827191
 30
0.0
 11
294.0
 21
343.5
 31
0.0
  0
LINE
  5
1BC
  8
PATTERN_FILL
  6
CONTINUOUS
 62
     7
 10
293.0
 20
404.40730295622342
 30
0.0
 11
293.0
 21
343.5
 31
0.0
  0
LINE
  5
1BD
  8
PATTERN_FILL
  6
CONTINUOUS
 62
     7
 10
292.0
 20
404.22414622994171
 30
0.0
 11
292.0
 21
343.5
 31
0.0
  0
LINE
  5
1BE
  8
PATTERN_FILL
  6
CONTINUOUS
 62
     7
 10
291.0
 20
404.01557094461128
 30
0.0
 11
291.0
 21
343.5
 31
0.0
  0
LINE
  5
1BF
  8
PATTERN_FILL
  6
CONTINUOUS
 62
     7
 10
290.0
 20
403.78118354914318
 30
0.0
 11
290.0
 21
343.5
 31
0.0
  0
LINE
  5
1C0
  8
PATTERN_FILL
  6
CONTINUOUS
 62
     7
 10
289.0
 20
403.52053202645448
 30
0.0
 11
289.0
 21
343.5
 31
0.0
  0
LINE
  5
1C1
  8
PATTERN_FILL
  6
CONTINUOUS
 62
     7
 10
288.0
 20
403.23310121911788
 30
0.0
 11
288.0
 21
343.5
 31
0.0
  0
LINE
  5
1C2
  8
PATTERN_FILL
  6
CONTINUOUS
 62
     7
 10
287.0
 20
402.91830729021768
 30
0.0
 11
287.0
 21
343.5
 31
0.0
  0
LINE
  5
1C3
  8
PATTERN_FILL
  6
CONTINUOUS
 62
     7
 10
286.0
 20
402.57549116976048
 30
0.0
 11
286.0
 21
343.5
 31
0.0
  0
LINE
  5
1C4
  8
PATTERN_FILL
  6
CONTINUOUS
 62
     7
 10
285.0
 20
402.20391079973462
 30
0.0
 11
285.0
 21
343.5
 31
0.0
  0
LINE
  5
1C5
  8
PATTERN_FILL
  6
CONTINUOUS
 62
     7
 10
284.0
 20
401.80273194339452
 30
0.0
 11
284.0
 21
343.5
 31
0.0
  0
LINE
  5
1C6
  8
PATTERN_FILL
  6
CONTINUOUS
 62
     7
 10
283.0
 20
401.37101726306668
 30
0.0
 11
283.0
 21
343.5
 31
0.0
  0
LINE
  5
1C7
  8
PATTERN_FILL
  6
CONTINUOUS
 62
     7
 10
282.0
 20
400.92275200568889
 30
0.0
 11
282.0
 21
343.5
 31
0.0
  0
LINE
  5
1C8
  8
PATTERN_FILL
  6
CONTINUOUS
 62
     7
 10
281.0
 20
400.29122637370313
 30
0.0
 11
281.0
 21
343.5
 31
0.0
  0
LINE
  5
1C9
  8
PATTERN_FILL
  6
CONTINUOUS
 62
     7
 10
280.0
 20
399.3251365836453
 30
0.0
 11
280.0
 21
343.5
 31
0.0
  0
LINE
  5
1CA
  8
PATTERN_FILL
  6
CONTINUOUS
 62
     7
 10
279.0
 20
397.63981496338641
 30
0.0
 11
279.0
 21
343.5
 31
0.0
  0
LINE
  5
1CB
  8
PATTERN_FILL
  6
CONTINUOUS
 62
     7
 10
278.0
 20
386.92510517315787
 30
0.0
 11
278.0
 21
343.5
 31
0.0
  0
LINE
  5
1CC
  8
PATTERN_FILL
  6
CONTINUOUS
 62
     7
 10
277.0
 20
373.59177183982467
 30
0.0
 11
277.0
 21
343.5
 31
0.0
  0
LINE
  5
1CD
  8
PATTERN_FILL
  6
CONTINUOUS
 62
     7
 10
276.0
 20
360.25843850649142
 30
0.0
 11
276.0
 21
343.5
 31
0.0
  0
LINE
  5
1CE
  8
PATTERN_FILL
  6
CONTINUOUS
 62
     7
 10
275.0
 20
346.9251051731581
 30
0.0
 11
275.0
 21
343.5
 31
0.0
  0
LINE
  5
1CF
  8
SPEC
  6
CONTINUOUS
 62
     7
 10
-22.499985000000041
 20
617.29773
 30
0.0
 11
400.0
 21
617.29773
 31
0.0
  0
LINE
  5
1D0
  8
SPEC
  6
CONTINUOUS
 62
     7
 10
-22.499985000000041
 20
606.04773
 30
0.0
 11
400.0
 21
606.04773
 31
0.0
  0
LINE
  5
1D1
  8
SPEC
  6
CONTINUOUS
 62
     7
 10
-22.499985000000041
 20
561.04773
 30
0.0
 11
400.0
 21
561.04773
 31
0.0
  0
LINE
  5
1D2
  8
SPEC
  6
CONTINUOUS
 62
     7
 10
-22.499985000000041
 20
572.29773
 30
0.0
 11
400.0
 21
572.29773
 31
0.0
  0
LINE
  5
1D3
  8
SPEC
  6
CONTINUOUS
 62
     7
 10
-22.499985000000041
 20
583.54772999999989
 30
0.0
 11
400.0
 21
583.54772999999989
 31
0.0
  0
LINE
  5
1D4
  8
SPEC
  6
CONTINUOUS
 62
     7
 10
-22.499985000000041
 20
594.79772999999989
 30
0.0
 11
400.0
 21
594.79772999999989
 31
0.0
  0
TEXT
  5
1D5
  8
SPEC
 62
     7
 10
70.200015000000008
 20
608.41146833333323
 30
0.0
 40
5.7009440104166673
  1
パーマネント・バイアス・コンデンサ型 
 41
0.8
 11
70.200015000000008
 21
614.11241234374995
 31
0.0
 73
     3
  0
LINE
  5
1D6
  8
SPEC
  6
CONTINUOUS
 62
     7
 10
-22.499985000000041
 20
617.29773
 30
0.0
 11
-22.499985000000041
 21
448.54773
 31
0.0
  0
TEXT
  5
1D7
  8
SPEC
 62
     7
 10
-18.749985000000031
 20
621.47752500000001
 30
0.0
 40
7.3297851562500007
  1
仕様
 41
0.8
 11
-18.749985000000031
 21
628.80731015624986
 31
0.0
 73
     3
  0
LINE
  5
1D8
  8
SPEC
  6
CONTINUOUS
 62
     7
 10
60.000014999999962
 20
617.29773
 30
0.0
 11
60.000014999999962
 21
448.54773
 31
0.0
  0
LINE
  5
1D9
  8
SPEC
  6
CONTINUOUS
 62
     7
 10
400.0
 20
617.29773
 30
0.0
 11
400.0
 21
448.54773
 31
0.0
  0
TEXT
  5
1DA
  8
SPEC
 62
     7
 10
-19.799984999999989
 20
563.41148333333297
 30
0.0
 40
5.7009440104166673
  1
インピーダンス
 41
0.8
 11
-19.799984999999989
 21
569.11242734374969
 31
0.0
 73
     3
  0
TEXT
  5
1DB
  8
SPEC
 62
     7
 10
-19.799984999999989
 20
608.41146833333323
 30
0.0
 40
5.7009440104166673
  1
形式
 41
0.8
 11
-19.799984999999989
 21
614.11241234374995
 31
0.0
 73
     3
  0
TEXT
  5
1DC
  8
SPEC
 62
     7
 10
-19.799984999999989
 20
574.66148333333308
 30
0.0
 40
5.7009440104166673
  1
開回路感度(@1kHz)
 41
0.8
 11
-19.799984999999989
 21
580.3624273437498
 31
0.0
 73
     3
  0
TEXT
  5
1DD
  8
SPEC
 62
     7
 10
-19.799984999999989
 20
552.16148333333308
 30
0.0
 40
5.7009440104166673
  1
外装
 41
0.8
 11
-19.799984999999989
 21
557.8624273437498
 31
0.0
 73
     3
  0
TEXT
  5
1DE
  8
SPEC
 62
     7
 10
-19.799984999999989
 20
597.16148333333297
 30
0.0
 40
5.7009440104166673
  1
周波数特性
 41
0.8
 11
-19.799984999999989
 21
602.8624273437498
 31
0.0
 73
     3
  0
TEXT
  5
1DF
  8
SPEC
 62
     7
 10
-19.799984999999989
 20
585.91148333333308
 30
0.0
 40
5.7009440104166673
  1
指向特性
 41
0.8
 11
-19.799984999999989
 21
591.6124273437498
 31
0.0
 73
     3
  0
TEXT
  5
1E0
  8
SPEC
 62
     7
 10
70.200015000000008
 20
563.41148333333297
 30
0.0
 40
5.7009440104166673
  1
150Ω
 41
0.8
 11
70.200015000000008
 21
569.11242734374969
 31
0.0
 73
     3
  0
TEXT
  5
1E1
  8
SPEC
 62
     7
 10
70.200015000000008
 20
574.66148333333308
 30
0.0
 40
5.7009440104166673
  1
-36dB re 1V/Pa
 41
0.8
 11
70.200015000000008
 21
580.3624273437498
 31
0.0
 73
     3
  0
TEXT
  5
1E2
  8
SPEC
 62
     7
 10
70.200015000000008
 20
552.16148333333308
 30
0.0
 40
5.7009440104166673
  1
ダイキャストメタル、スチールメッシュグリル
 41
0.8
 11
70.200015000000008
 21
557.8624273437498
 31
0.0
 73
     3
  0
TEXT
  5
1E3
  8
SPEC
 62
     7
 10
70.200015000000008
 20
585.91148333333308
 30
0.0
 40
5.7009440104166673
  1
カーディオイド
 41
0.8
 11
70.200015000000008
 21
591.6124273437498
 31
0.0
 73
     3
  0
TEXT
  5
1E4
  8
SPEC
 62
     7
 10
70.200015000000008
 20
597.16148333333297
 30
0.0
 40
5.7009440104166673
  1
20Hz～20kHz
 41
0.8
 11
70.200015000000008
 21
602.8624273437498
 31
0.0
 73
     3
  0
LINE
  5
1E5
  8
SPEC
  6
CONTINUOUS
 62
     7
 10
-22.499985000000041
 20
516.04773
 30
0.0
 11
400.0
 21
516.04773
 31
0.0
  0
LINE
  5
1E6
  8
SPEC
  6
CONTINUOUS
 62
     7
 10
-22.499985000000041
 20
527.29772999999989
 30
0.0
 11
400.0
 21
527.29772999999989
 31
0.0
  0
TEXT
  5
1E7
  8
SPEC
 62
     7
 10
70.200015000000008
 20
495.91148333333331
 30
0.0
 40
5.7009440104166673
  1
φ56×187mm
 41
0.8
 11
70.200015000000008
 21
501.61242734375003
 31
0.0
 73
     3
  0
TEXT
  5
1E8
  8
SPEC
 62
     7
 10
-19.799984999999989
 20
496.2348833333333
 30
0.0
 40
5.7009440104166673
  1
寸法
 41
0.8
 11
-19.799984999999989
 21
501.93582734375002
 31
0.0
 73
     3
  0
TEXT
  5
1E9
  8
SPEC
 62
     7
 10
70.200015000000008
 20
518.41148333333319
 30
0.0
 40
5.7009440104166673
  1
XLR3ピン オス
 41
0.8
 11
70.200015000000008
 21
524.11242734374991
 31
0.0
 73
     3
  0
TEXT
  5
1EA
  8
SPEC
 62
     7
 10
-19.799984999999989
 20
518.73488333333319
 30
0.0
 40
5.7009440104166673
  1
出力コネクター
 41
0.8
 11
-19.799984999999989
 21
524.43582734374991
 31
0.0
 73
     3
  0
LINE
  5
1EB
  8
SPEC
  6
CONTINUOUS
 62
     7
 10
-22.499985000000041
 20
504.79773
 30
0.0
 11
400.0
 21
504.79773
 31
0.0
  0
TEXT
  5
1EC
  8
SPEC
 62
     7
 10
-19.799984999999989
 20
484.51146833333331
 30
0.0
 40
5.7009440104166673
  1
重量
 41
0.8
 11
-19.799984999999989
 21
490.21241234374992
 31
0.0
 73
     3
  0
TEXT
  5
1ED
  8
SPEC
 62
     7
 10
70.200015000000008
 20
484.51146833333331
 30
0.0
 40
5.7009440104166673
  1
約490g
 41
0.8
 11
70.200015000000008
 21
490.21241234374992
 31
0.0
 73
     3
  0
TEXT
  5
1EE
  8
SPEC
 62
     7
 10
70.200015000000008
 20
540.91148333333308
 30
0.0
 40
5.7009440104166673
  1
色：KSM32/SL(シャンパンゴールド)
 41
0.8
 11
70.200015000000008
 21
546.61242734374991
 31
0.0
 73
     3
  0
TEXT
  5
1EF
  8
SPEC
 62
     7
 10
70.200015000000008
 20
529.66148333333319
 30
0.0
 40
5.7009440104166673
  1
　　KSM32/CG(チャコールグレー)
 41
0.8
 11
70.200015000000008
 21
535.36242734374991
 31
0.0
 73
     3
  0
TEXT
  5
1F0
  8
SPEC
 62
     7
 10
70.200015000000008
 20
507.16148333333319
 30
0.0
 40
5.7009440104166673
  1
DC48V ±4V / 4.65mA
 41
0.8
 11
70.200015000000008
 21
512.86242734374991
 31
0.0
 73
     3
  0
TEXT
  5
1F1
  8
SPEC
 62
     7
 10
-19.799984999999989
 20
507.48488333333319
 30
0.0
 40
5.7009440104166673
  1
ファンタム電源
 41
0.8
 11
-19.799984999999989
 21
513.18582734374991
 31
0.0
 73
     3
  0
TEXT
  5
1F2
  8
SPEC
 62
     7
 10
70.200015000000008
 20
473.41148333333331
 30
0.0
 40
5.7009440104166673
  1
KSM32/SL: サスペンション・ショックマウント、マイクホルダ、キャリングケース
 41
0.8
 11
70.200015000000008
 21
479.11242734375003
 31
0.0
 73
     3
  0
TEXT
  5
1F3
  8
SPEC
 62
     7
 10
-19.799984999999989
 20
473.7348833333333
 30
0.0
 40
5.7009440104166673
  1
付属品
 41
0.8
 11
-19.799984999999989
 21
479.43582734375002
 31
0.0
 73
     3
  0
TEXT
  5
1F4
  8
SPEC
 62
     7
 10
70.200015000000008
 20
450.91148333333342
 30
0.0
 40
5.7009440104166673
  1
KSM32/CG: マイクホルダ、マイクポーチ、3/8"→5/8"変換ネジ
 41
0.8
 11
70.200015000000008
 21
456.61242734375003
 31
0.0
 73
     3
  0
LINE
  5
1F5
  8
SPEC
  6
CONTINUOUS
 62
     7
 10
-22.499985000000041
 20
493.54773
 30
0.0
 11
400.0
 21
493.54773
 31
0.0
  0
LINE
  5
1F6
  8
SPEC
  6
CONTINUOUS
 62
     7
 10
-22.499985000000041
 20
482.29772999999989
 30
0.0
 11
400.0
 21
482.29772999999989
 31
0.0
  0
LINE
  5
1F7
  8
SPEC
  6
CONTINUOUS
 62
     7
 10
-22.499985000000041
 20
448.54773
 30
0.0
 11
400.0
 21
448.54773
 31
0.0
  0
TEXT
  5
1F8
  8
SPEC
 62
     7
 10
70.200015000000008
 20
462.16148333333342
 30
0.0
 40
5.7009440104166673
  1
　　　　　マイクポーチ、3/8"→5/8"変換ネジ
 41
0.8
 11
70.200015000000008
 21
467.86242734375003
 31
0.0
 73
     3
  0
TEXT
  5
1F9
  8
DIMNSIONS
 62
     7
 10
165.0
 20
-95.893785000000022
 30
0.0
 40
7.3297851562500007
  1
(単位：mm)
 41
0.8
 11
165.0
 21
-88.563999843750025
 31
0.0
 73
     3
  0
LINE
  5
1FA
  8
DIMNSIONS
  6
CONTINUOUS
 62
     7
 10
94.000000022351742
 20
407.0
 30
0.0
 11
34.000000022351749
 21
407.0
 31
0.0
  0
LINE
  5
1FB
  8
DIMNSIONS
  6
CONTINUOUS
 62
     7
 10
94.000000022351742
 20
220.0
 30
0.0
 11
34.000000022351749
 21
220.0
 31
0.0
  0
LINE
  5
1FC
  8
DIMNSIONS
  6
CONTINUOUS
 62
     7
 10
40.0
 20
407.0
 30
0.0
 11
40.0
 21
220.0
 31
0.0
  0
LINE
  5
1FD
  8
DIMNSIONS
  6
CONTINUOUS
 62
     7
 10
40.0
 20
407.0
 30
0.0
 11
42.552216057906442
 21
397.47500000000002
 31
0.0
  0
LINE
  5
1FE
  8
DIMNSIONS
  6
CONTINUOUS
 62
     7
 10
40.0
 20
407.0
 30
0.0
 11
37.447783942093572
 21
397.47500000000002
 31
0.0
  0
LINE
  5
1FF
  8
DIMNSIONS
  6
CONTINUOUS
 62
     7
 10
40.0
 20
220.0
 30
0.0
 11
37.447783942093572
 21
229.52500000000001
 31
0.0
  0
LINE
  5
200
  8
DIMNSIONS
  6
CONTINUOUS
 62
     7
 10
40.0
 20
220.0
 30
0.0
 11
42.552216057906442
 21
229.52500000000001
 31
0.0
  0
TEXT
  5
201
  8
DIMNSIONS
 62
     7
 10
35.518333344509223
 20
305.5625
 30
0.0
 40
8.1442057291666661
  1
187
 50
90.0
 41
0.8
 11
27.374127615342559
 21
305.5625
 31
0.0
 73
     3
  0
LINE
  5
202
  8
DIMNSIONS
  6
CONTINUOUS
 62
     7
 10
72.000044642892902
 20
134.00000002235171
 30
0.0
 11
72.000044642892902
 21
74.000000022351728
 31
0.0
  0
LINE
  5
203
  8
DIMNSIONS
  6
CONTINUOUS
 62
     7
 10
127.9999553571071
 20
134.00000002235171
 30
0.0
 11
127.9999553571071
 21
74.000000022351728
 31
0.0
  0
LINE
  5
204
  8
DIMNSIONS
  6
CONTINUOUS
 62
     7
 10
72.000044642892902
 20
80.0
 30
0.0
 11
127.9999553571071
 21
80.0
 31
0.0
  0
LINE
  5
205
  8
DIMNSIONS
  6
CONTINUOUS
 62
     7
 10
72.000044642892902
 20
80.0
 30
0.0
 11
81.525044642892908
 21
82.552216057906435
 31
0.0
  0
LINE
  5
206
  8
DIMNSIONS
  6
CONTINUOUS
 62
     7
 10
72.000044642892902
 20
80.0
 30
0.0
 11
81.525044642892908
 21
77.447783942093565
 31
0.0
  0
LINE
  5
207
  8
DIMNSIONS
  6
CONTINUOUS
 62
     7
 10
127.9999553571071
 20
80.0
 30
0.0
 11
118.47495535710711
 21
77.447783942093565
 31
0.0
  0
LINE
  5
208
  8
DIMNSIONS
  6
CONTINUOUS
 62
     7
 10
127.9999553571071
 20
80.0
 30
0.0
 11
118.47495535710711
 21
82.552216057906435
 31
0.0
  0
TEXT
  5
209
  8
DIMNSIONS
 62
     7
 10
94.708333333333357
 20
84.481666655490812
 30
0.0
 40
8.1442057291666661
  1
56
 41
0.8
 11
94.708333333333357
 21
92.625872384657484
 31
0.0
 73
     3
  0
LINE
  5
20A
  8
DIMNSIONS
  6
CONTINUOUS
 62
     7
 10
90.25
 20
214.00000002235171
 30
0.0
 11
90.25
 21
184.25000002235171
 31
0.0
  0
LINE
  5
20B
  8
DIMNSIONS
  6
CONTINUOUS
 62
     7
 10
109.75
 20
214.00000002235171
 30
0.0
 11
109.75
 21
184.25000002235171
 31
0.0
  0
LINE
  5
20C
  8
DIMNSIONS
  6
CONTINUOUS
 62
     7
 10
109.75
 20
190.25
 30
0.0
 11
90.25
 21
190.25
 31
0.0
  0
LINE
  5
20D
  8
DIMNSIONS
  6
CONTINUOUS
 62
     7
 10
90.25
 20
190.25
 30
0.0
 11
75.249999984912563
 21
190.25
 31
0.0
  0
LINE
  5
20E
  8
DIMNSIONS
  6
CONTINUOUS
 62
     7
 10
90.25
 20
190.25
 30
0.0
 11
80.72499999999998
 21
187.69778394209359
 31
0.0
  0
LINE
  5
20F
  8
DIMNSIONS
  6
CONTINUOUS
 62
     7
 10
90.25
 20
190.25
 30
0.0
 11
80.72499999999998
 21
192.80221605790641
 31
0.0
  0
LINE
  5
210
  8
DIMNSIONS
  6
CONTINUOUS
 62
     7
 10
109.75
 20
190.25
 30
0.0
 11
147.1666666666666
 21
190.25
 31
0.0
  0
LINE
  5
211
  8
DIMNSIONS
  6
CONTINUOUS
 62
     7
 10
109.75
 20
190.25
 30
0.0
 11
119.27500000000001
 21
192.80221605790641
 31
0.0
  0
LINE
  5
212
  8
DIMNSIONS
  6
CONTINUOUS
 62
     7
 10
109.75
 20
190.25
 30
0.0
 11
119.27500000000001
 21
187.69778394209359
 31
0.0
  0
TEXT
  5
213
  8
DIMNSIONS
 62
     7
 10
126.0
 20
194.73166665549081
 30
0.0
 40
8.1442057291666661
  1
19.5
 41
0.8
 11
126.0
 21
202.87587238465741
 31
0.0
 73
     3
  0
LINE
  5
214
  8
DIMNSIONS
  6
CONTINUOUS
 62
     7
 10
300.50000000000011
 20
45.506975031394148
 30
0.0
 11
300.50000000000011
 21
185.9999999776482
 31
0.0
  0
LINE
  5
215
  8
DIMNSIONS
  6
CONTINUOUS
 62
     7
 10
460.0
 20
45.506975031394148
 30
0.0
 11
460.0
 21
185.9999999776482
 31
0.0
  0
LINE
  5
216
  8
DIMNSIONS
  6
CONTINUOUS
 62
     7
 10
300.50000000000011
 20
180.0
 30
0.0
 11
460.0
 21
180.0
 31
0.0
  0
LINE
  5
217
  8
DIMNSIONS
  6
CONTINUOUS
 62
     7
 10
300.50000000000011
 20
180.0
 30
0.0
 11
310.02500000000009
 21
182.55221605790641
 31
0.0
  0
LINE
  5
218
  8
DIMNSIONS
  6
CONTINUOUS
 62
     7
 10
300.50000000000011
 20
180.0
 30
0.0
 11
310.02500000000009
 21
177.44778394209351
 31
0.0
  0
LINE
  5
219
  8
DIMNSIONS
  6
CONTINUOUS
 62
     7
 10
460.0
 20
180.0
 30
0.0
 11
450.47500000000002
 21
177.44778394209351
 31
0.0
  0
LINE
  5
21A
  8
DIMNSIONS
  6
CONTINUOUS
 62
     7
 10
460.0
 20
180.0
 30
0.0
 11
450.47500000000002
 21
182.55221605790641
 31
0.0
  0
TEXT
  5
21B
  8
DIMNSIONS
 62
     7
 10
372.3125
 20
184.48166665549081
 30
0.0
 40
8.1442057291666661
  1
160
 41
0.8
 11
372.3125
 21
192.62587238465741
 31
0.0
 73
     3
  0
LINE
  5
21C
  8
DIMNSIONS
  6
CONTINUOUS
 62
     7
 10
348.03933400545742
 20
166.99999999999989
 30
0.0
 11
254.00000002235171
 21
166.99999999999989
 31
0.0
  0
LINE
  5
21D
  8
DIMNSIONS
  6
CONTINUOUS
 62
     7
 10
348.03933400545742
 20
-20.0
 30
0.0
 11
254.00000002235171
 21
-20.0
 31
0.0
  0
LINE
  5
21E
  8
DIMNSIONS
  6
CONTINUOUS
 62
     7
 10
260.0
 20
166.99999999999989
 30
0.0
 11
260.0
 21
-20.0
 31
0.0
  0
LINE
  5
21F
  8
DIMNSIONS
  6
CONTINUOUS
 62
     7
 10
260.0
 20
166.99999999999989
 30
0.0
 11
262.55221605790638
 21
157.47499999999991
 31
0.0
  0
LINE
  5
220
  8
DIMNSIONS
  6
CONTINUOUS
 62
     7
 10
260.0
 20
166.99999999999989
 30
0.0
 11
257.44778394209362
 21
157.47499999999991
 31
0.0
  0
LINE
  5
221
  8
DIMNSIONS
  6
CONTINUOUS
 62
     7
 10
260.0
 20
-20.0
 30
0.0
 11
257.44778394209362
 21
-10.475000000000019
 31
0.0
  0
LINE
  5
222
  8
DIMNSIONS
  6
CONTINUOUS
 62
     7
 10
260.0
 20
-20.0
 30
0.0
 11
262.55221605790638
 21
-10.475000000000019
 31
0.0
  0
TEXT
  5
223
  8
DIMNSIONS
 62
     7
 10
255.51833334450919
 20
65.5625
 30
0.0
 40
8.1442057291666661
  1
187
 50
90.0
 41
0.8
 11
247.3741276153425
 21
65.5625
 31
0.0
 73
     3
  0
TEXT
  5
224
  8
DATA
 62
     7
 10
360.0
 20
-77.559599999999975
 30
0.0
 40
7.3297851562500007
  1
SHURE
 41
0.8
 11
360.0
 21
-70.229814843749978
 31
0.0
 73
     3
  0
TEXT
  5
225
  8
DATA
 62
     7
 10
360.0
 20
-86.190460000000016
 30
0.0
 40
4.8865234375000002
  1
コンデンサ型カーディオイド・マイクロホン
 41
0.8
 11
360.0
 21
-81.303936562500027
 31
0.0
 73
     3
  0
TEXT
  5
226
  8
DATA
 62
     7
 10
360.0
 20
-98.54376000000002
 30
0.0
 40
7.3297851562500007
  1
KSM32
 41
0.8
 11
360.0
 21
-91.213974843750023
 31
0.0
 73
     3
  0
CIRCLE
  5
227
  8
DATA
  6
CONTINUOUS
 62
     7
 10
100.0000000000001
 20
139.99999999999989
 30
0.0
 40
9.7500000000000568
  0
CIRCLE
  5
228
  8
DATA
  6
CONTINUOUS
 62
     7
 10
100.0
 20
139.9499999999999
 30
0.0
 40
16.25
  0
CIRCLE
  5
229
  8
DATA
  6
CONTINUOUS
 62
     7
 10
100.0000000000001
 20
139.99999999999989
 30
0.0
 40
16.75000000000005
  0
ARC
  5
22A
  8
DATA
  6
CONTINUOUS
 62
     7
 10
99.999999999999943
 20
140.0000000000002
 30
0.0
 40
14.00000000000029
 50
333.96754018424798
 51
146.0327340508295
  0
ARC
  5
22B
  8
DATA
  6
CONTINUOUS
 62
     7
 10
99.999999999999943
 20
140.0000000000002
 30
0.0
 40
14.000000000000259
 50
154.32169223275241
 51
325.67803353217062
  0
CIRCLE
  5
22C
  8
DATA
  6
CONTINUOUS
 62
     7
 10
100.0
 20
135.9499999999999
 30
0.0
 40
1.25
  0
CIRCLE
  5
22D
  8
DATA
  6
CONTINUOUS
 62
     7
 10
104.0000000000001
 20
139.9499999999999
 30
0.0
 40
1.25
  0
CIRCLE
  5
22E
  8
DATA
  6
CONTINUOUS
 62
     7
 10
96.000000000000128
 20
139.9499999999999
 30
0.0
 40
1.25
  0
ARC
  5
22F
  8
DATA
  6
CONTINUOUS
 62
     7
 10
105.6568542494924
 20
145.6068542494923
 30
0.0
 40
0.9999999999999965
 50
311.41667830152858
 51
138.58332169847131
  0
ARC
  5
230
  8
DATA
  6
CONTINUOUS
 62
     7
 10
100.0000000000001
 20
139.99999999999989
 30
0.0
 40
7.9999999999999822
 50
52.166643396943861
 51
37.83335660305616
  0
ARC
  5
231
  8
DATA
  6
CONTINUOUS
 62
     7
 10
100.0
 20
139.99999999999989
 30
0.0
 40
26.499999999999929
 50
190.17435372870889
 51
349.59793214935081
  0
ARC
  5
232
  8
DATA
  6
CONTINUOUS
 62
     7
 10
100.0
 20
139.99999999999989
 30
0.0
 40
26.500000000000028
 50
10.08347301796932
 51
169.82564627129119
  0
ARC
  5
233
  8
DATA
  6
CONTINUOUS
 62
     7
 10
100.0
 20
139.94999999999999
 30
0.0
 40
27.999999999999929
 50
172.71610975822389
 51
187.07764470503341
  0
ARC
  5
234
  8
DATA
  6
CONTINUOUS
 62
     7
 10
100.0
 20
139.94999999999999
 30
0.0
 40
27.999999999999911
 50
352.92235529496662
 51
7.283890241775965
  0
ARC
  5
235
  8
DATA
  6
CONTINUOUS
 62
     7
 10
100.0000000000001
 20
139.99999999999989
 30
0.0
 40
20.942273490399639
 50
220.23383725806761
 51
314.99793720041617
  0
ARC
  5
236
  8
DATA
  6
CONTINUOUS
 62
     7
 10
32.625540002964442
 20
201.99071886946999
 30
0.0
 40
70.635381854168841
 50
304.09947778529317
 51
318.08944150069209
  0
ARC
  5
237
  8
DATA
  6
CONTINUOUS
 62
     7
 10
32.625540002964442
 20
78.0092811305297
 30
0.0
 40
70.635381854168912
 50
41.910558499308038
 51
55.900522214706861
  0
ARC
  5
238
  8
DATA
  6
CONTINUOUS
 62
     7
 10
167.27626431745341
 20
77.848540793077703
 30
0.0
 40
70.635381854168841
 50
123.9626832956147
 51
137.9526470110136
  0
ARC
  5
239
  8
DATA
  6
CONTINUOUS
 62
     7
 10
100.0000000000001
 20
139.99999999999989
 30
0.0
 40
20.942273490399611
 50
45.00206279958352
 51
139.76616274193239
  0
ARC
  5
23A
  8
DATA
  6
CONTINUOUS
 62
     7
 10
167.27626431745341
 20
202.15145920692211
 30
0.0
 40
70.635381854168841
 50
222.04735298898649
 51
236.0373167043852
  0
ARC
  5
23B
  8
DATA
  6
CONTINUOUS
 62
     7
 10
112.10264702497621
 20
132.96253348222291
 30
0.0
 40
1.0125334822230769
 50
237.75041019520381
 51
61.895163521217022
  0
ARC
  5
23C
  8
DATA
  6
CONTINUOUS
 62
     7
 10
87.854051704834802
 20
146.96246651777679
 30
0.0
 40
1.01246651777701
 50
58.104973596355258
 51
242.2494526872282
  0
CIRCLE
  5
23D
  8
DATA
  6
CONTINUOUS
 62
     7
 10
100.0
 20
139.94999999999999
 30
0.0
 40
10.00000000000005
  0
LINE
  5
23E
  8
DATA
  6
CONTINUOUS
 62
     7
 10
72.0
 20
327.0
 30
0.0
 11
128.0
 21
327.0
 31
0.0
  0
LINE
  5
23F
  8
DATA
  6
CONTINUOUS
 62
     7
 10
83.250000000000014
 20
230.0
 30
0.0
 11
116.75
 21
230.0
 31
0.0
  0
LINE
  5
240
  8
DATA
  6
CONTINUOUS
 62
     7
 10
83.75
 20
229.0
 30
0.0
 11
116.25
 21
229.0
 31
0.0
  0
LINE
  5
241
  8
DATA
  6
CONTINUOUS
 62
     7
 10
90.25
 20
220.0
 30
0.0
 11
109.75
 21
220.0
 31
0.0
  0
LINE
  5
242
  8
DATA
  6
CONTINUOUS
 62
     7
 10
109.75
 20
220.0
 30
0.0
 11
109.75
 21
229.0
 31
0.0
  0
LINE
  5
243
  8
DATA
  6
CONTINUOUS
 62
     7
 10
90.25
 20
220.0
 30
0.0
 11
90.25
 21
229.0
 31
0.0
  0
LINE
  5
244
  8
DATA
  6
CONTINUOUS
 62
     7
 10
76.75
 20
397.0
 30
0.0
 11
72.737499999999955
 21
343.5
 31
0.0
  0
LINE
  5
245
  8
DATA
  6
CONTINUOUS
 62
     7
 10
123.25
 20
397.0
 30
0.0
 11
127.2625
 21
343.5
 31
0.0
  0
ARC
  5
246
  8
DATA
  6
CONTINUOUS
 62
     7
 10
100.0
 20
363.3671875
 30
0.0
 40
43.632812499999993
 50
65.2750151685714
 51
114.7249848314286
  0
LINE
  5
247
  8
DATA
  6
CONTINUOUS
 62
     7
 10
121.2556013802231
 20
396.85042010351691
 30
0.0
 11
125.25688288798681
 21
343.5
 31
0.0
  0
LINE
  5
248
  8
DATA
  6
CONTINUOUS
 62
     7
 10
78.744398619776902
 20
396.85042010351691
 30
0.0
 11
74.743117112013124
 21
343.5
 31
0.0
  0
ARC
  5
249
  8
DATA
  6
CONTINUOUS
 62
     7
 10
517.66499999999985
 20
331.34500000000008
 30
0.0
 40
446.0798148874257
 50
183.12849643699101
 51
193.13170827132089
  0
ARC
  5
24A
  8
DATA
  6
CONTINUOUS
 62
     7
 10
-317.66500000000002
 20
331.34500000000008
 30
0.0
 40
446.0798148874257
 50
346.8682917286792
 51
356.8715035630089
  0
LINE
  5
24B
  8
DATA
  6
CONTINUOUS
 62
     7
 10
116.25
 20
229.0
 30
0.0
 11
116.25
 21
230.0
 31
0.0
  0
LINE
  5
24C
  8
DATA
  6
CONTINUOUS
 62
     7
 10
83.75
 20
229.0
 30
0.0
 11
83.75
 21
230.0
 31
0.0
  0
LINE
  5
24D
  8
DATA
  6
CONTINUOUS
 62
     7
 10
110.0
 20
338.5
 30
0.0
 11
90.0
 21
338.5
 31
0.0
  0
LINE
  5
24E
  8
DATA
  6
CONTINUOUS
 62
     7
 10
90.0
 20
338.5
 30
0.0
 11
90.0
 21
333.5
 31
0.0
  0
LINE
  5
24F
  8
DATA
  6
CONTINUOUS
 62
     7
 10
90.0
 20
333.5
 30
0.0
 11
110.0
 21
333.5
 31
0.0
  0
LINE
  5
250
  8
DATA
  6
CONTINUOUS
 62
     7
 10
110.0
 20
333.5
 30
0.0
 11
110.0
 21
338.5
 31
0.0
  0
ARC
  5
251
  8
DATA
  6
CONTINUOUS
 62
     7
 10
-317.66500000000002
 20
331.34499999999991
 30
0.0
 40
444.07981488742558
 50
354.26899635836082
 51
356.87150356300901
  0
ARC
  5
252
  8
DATA
  6
CONTINUOUS
 62
     7
 10
517.66499999999985
 20
331.34500000000008
 30
0.0
 40
444.0798148874257
 50
183.1284964369911
 51
185.73100364163901
  0
LINE
  5
253
  8
DATA
  6
CONTINUOUS
 62
     7
 10
101.5
 20
221.0
 30
0.0
 11
98.500000000000014
 21
221.0
 31
0.0
  0
LINE
  5
254
  8
DATA
  6
CONTINUOUS
 62
     7
 10
101.5
 20
223.0
 30
0.0
 11
98.500000000000014
 21
223.0
 31
0.0
  0
ARC
  5
255
  8
DATA
  6
CONTINUOUS
 62
     7
 10
101.5
 20
222.0
 30
0.0
 40
1.0
 50
270.0
 51
90.0
  0
ARC
  5
256
  8
DATA
  6
CONTINUOUS
 62
     7
 10
98.500000000000014
 20
222.0
 30
0.0
 40
1.0
 50
90.0
 51
270.0
  0
TEXT
  5
257
  8
DATA
 62
     7
 10
92.297222222222231
 20
235.48583333333329
 30
0.0
 40
4.6171875
  1
KSM32
 41
0.8
 11
92.297222222222231
 21
240.1030208333334
 31
0.0
 73
     3
  0
LINE
  5
258
  8
DATA
  6
CONTINUOUS
 62
     7
 10
128.0
 20
327.0
 30
0.0
 11
127.75
 21
307.0
 31
0.0
  0
LINE
  5
259
  8
DATA
  6
CONTINUOUS
 62
     7
 10
127.2625
 20
343.5
 30
0.0
 11
128.0
 21
327.0
 31
0.0
  0
LINE
  5
25A
  8
DATA
  6
CONTINUOUS
 62
     7
 10
125.25688288798681
 20
343.5
 30
0.0
 11
126.00199483061419
 21
326.9106952234896
 31
0.0
  0
LINE
  5
25B
  8
DATA
  6
CONTINUOUS
 62
     7
 10
125.9979836887123
 20
327.0
 30
0.0
 11
125.7529806992616
 21
307.10915087025921
 31
0.0
  0
LINE
  5
25C
  8
DATA
  6
CONTINUOUS
 62
     7
 10
72.25
 20
307.0
 30
0.0
 11
72.0
 21
327.0
 31
0.0
  0
LINE
  5
25D
  8
DATA
  6
CONTINUOUS
 62
     7
 10
72.0
 20
327.0
 30
0.0
 11
72.737499999999955
 21
343.5
 31
0.0
  0
LINE
  5
25E
  8
DATA
  6
CONTINUOUS
 62
     7
 10
74.743117112013124
 20
343.5
 30
0.0
 11
73.998005169385792
 21
326.9106952234896
 31
0.0
  0
LINE
  5
25F
  8
DATA
  6
CONTINUOUS
 62
     7
 10
74.002016311287662
 20
327.0
 30
0.0
 11
74.247019300738373
 21
307.10915087025921
 31
0.0
  0
ARC
  5
260
  8
DATA
  6
CONTINUOUS
 62
     7
 10
100.0
 20
298.29999999999887
 30
0.0
 40
46.24999999999897
 50
260.6675818161869
 51
279.33241818381322
  0
ARC
  5
261
  8
DATA
  6
CONTINUOUS
 62
     7
 10
103.6783155564312
 20
270.76662423775718
 30
0.0
 40
18.503429984132449
 50
281.91961979630969
 51
331.89547562847662
  0
ARC
  5
262
  8
DATA
  6
CONTINUOUS
 62
     7
 10
96.321684443568728
 20
270.76662423775718
 30
0.0
 40
18.503429984132449
 50
208.1045243715233
 51
258.08038020369031
  0
ARC
  5
263
  8
DATA
  6
CONTINUOUS
 62
     7
 10
6.1193578280261809
 20
294.02590027146312
 30
0.0
 40
118.2846518347655
 50
344.3160900858021
 51
356.59472708133308
  0
ARC
  5
264
  8
DATA
  6
CONTINUOUS
 62
     7
 10
193.88064217197379
 20
294.02590027146317
 30
0.0
 40
118.2846518347655
 50
183.40527291866681
 51
195.68390991419801
  0
LINE
  5
265
  8
DATA
  6
CONTINUOUS
 62
     7
 10
173.49999999999989
 20
327.0
 30
0.0
 11
226.5
 21
327.0
 31
0.0
  0
LINE
  5
266
  8
DATA
  6
CONTINUOUS
 62
     7
 10
202.5
 20
407.0
 30
0.0
 11
197.5
 21
407.0
 31
0.0
  0
LINE
  5
267
  8
DATA
  6
CONTINUOUS
 62
     7
 10
196.5
 20
406.0
 30
0.0
 11
196.5
 21
327.0
 31
0.0
  0
LINE
  5
268
  8
DATA
  6
CONTINUOUS
 62
     7
 10
203.5
 20
406.0
 30
0.0
 11
203.5
 21
327.0
 31
0.0
  0
LINE
  5
269
  8
DATA
  6
CONTINUOUS
 62
     7
 10
226.5
 20
343.5
 30
0.0
 11
226.5
 21
327.0
 31
0.0
  0
LINE
  5
26A
  8
DATA
  6
CONTINUOUS
 62
     7
 10
173.49999999999989
 20
343.5
 30
0.0
 11
173.49999999999989
 21
327.0
 31
0.0
  0
LINE
  5
26B
  8
DATA
  6
CONTINUOUS
 62
     7
 10
183.24999999999989
 20
230.0
 30
0.0
 11
216.75
 21
230.0
 31
0.0
  0
ARC
  5
26C
  8
DATA
  6
CONTINUOUS
 62
     7
 10
-171.16634576179041
 20
324.6446790196166
 30
0.0
 40
397.67332081553627
 50
349.77153966327421
 51
0.3393507522590085
  0
ARC
  5
26D
  8
DATA
  6
CONTINUOUS
 62
     7
 10
69.834790862691335
 20
269.7918585833437
 30
0.0
 40
152.20864195365499
 50
344.84508799388402
 51
353.10387333228653
  0
LINE
  5
26E
  8
DATA
  6
CONTINUOUS
 62
     7
 10
220.74096277499061
 20
252.25903722500931
 30
0.0
 11
220.0
 21
253.0
 31
0.0
  0
ARC
  5
26F
  8
DATA
  6
CONTINUOUS
 62
     7
 10
-8.2500000000000568
 20
322.37499999999989
 30
0.0
 40
204.82786217944081
 50
350.0548111786498
 51
355.69515612354672
  0
ARC
  5
270
  8
DATA
  6
CONTINUOUS
 62
     7
 10
-14.25000000000002
 20
313.0499999999999
 30
0.0
 40
209.37684924556481
 50
347.29458762927618
 51
352.85292135742043
  0
ARC
  5
271
  8
DATA
  6
CONTINUOUS
 62
     7
 10
408.25
 20
322.37499999999989
 30
0.0
 40
204.82786217944081
 50
184.3048438764533
 51
189.9451888213502
  0
ARC
  5
272
  8
DATA
  6
CONTINUOUS
 62
     7
 10
414.25
 20
313.0499999999999
 30
0.0
 40
209.37684924556481
 50
187.1470786425796
 51
192.70541237072379
  0
ARC
  5
273
  8
DATA
  6
CONTINUOUS
 62
     7
 10
233.72972972972971
 20
273.37837837837839
 30
0.0
 40
24.572012204615788
 50
195.04508302210439
 51
236.0302725618447
  0
ARC
  5
274
  8
DATA
  6
CONTINUOUS
 62
     7
 10
403.7500000000008
 20
322.0
 30
0.0
 40
200.31241224647161
 50
178.56969095805289
 51
184.29450141027641
  0
ARC
  5
275
  8
DATA
  6
CONTINUOUS
 62
     7
 10
-3.7500000000009659
 20
321.99999999999989
 30
0.0
 40
200.3124122464715
 50
355.70549858972362
 51
1.4303090419471109
  0
ARC
  5
276
  8
DATA
  6
CONTINUOUS
 62
     7
 10
166.27027027027009
 20
273.37837837837839
 30
0.0
 40
24.57201220461581
 50
303.96972743815542
 51
344.95491697789561
  0
ARC
  5
277
  8
DATA
  6
CONTINUOUS
 62
     7
 10
571.16634576179035
 20
324.64467901961677
 30
0.0
 40
397.67332081553627
 50
179.66064924774099
 51
190.2284603367257
  0
ARC
  5
278
  8
DATA
  6
CONTINUOUS
 62
     7
 10
330.16520913730852
 20
269.7918585833437
 30
0.0
 40
152.20864195365499
 50
186.8961266677135
 51
195.15491200611601
  0
LINE
  5
279
  8
DATA
  6
CONTINUOUS
 62
     7
 10
179.99999999999989
 20
253.0
 30
0.0
 11
179.25903722500931
 21
252.25903722500939
 31
0.0
  0
ARC
  5
27A
  8
DATA
  6
CONTINUOUS
 62
     7
 10
219.94950802919971
 20
251.6362784084271
 30
0.0
 40
1.000000000000054
 50
353.10387333228812
 51
45.0
  0
ARC
  5
27B
  8
DATA
  6
CONTINUOUS
 62
     7
 10
180.05049197080021
 20
251.6362784084271
 30
0.0
 40
1.000000000000048
 50
135.0
 51
186.8961266677118
  0
LINE
  5
27C
  8
DATA
  6
CONTINUOUS
 62
     7
 10
183.75
 20
229.0
 30
0.0
 11
216.25
 21
229.0
 31
0.0
  0
ARC
  5
27D
  8
DATA
  6
CONTINUOUS
 62
     7
 10
222.15517633736371
 20
253.67325078738239
 30
0.0
 40
2.0000000000000262
 50
169.77153966327509
 51
224.9999999999996
  0
ARC
  5
27E
  8
DATA
  6
CONTINUOUS
 62
     7
 10
177.84482366263629
 20
253.67325078738239
 30
0.0
 40
1.999999999999855
 50
315.0
 51
10.228460336729141
  0
LINE
  5
27F
  8
DATA
  6
CONTINUOUS
 62
     7
 10
216.25
 20
229.0
 30
0.0
 11
216.25
 21
230.0
 31
0.0
  0
LINE
  5
280
  8
DATA
  6
CONTINUOUS
 62
     7
 10
183.75
 20
229.0
 30
0.0
 11
183.75
 21
230.0
 31
0.0
  0
LINE
  5
281
  8
DATA
  6
CONTINUOUS
 62
     7
 10
190.25
 20
220.0
 30
0.0
 11
209.75
 21
220.0
 31
0.0
  0
LINE
  5
282
  8
DATA
  6
CONTINUOUS
 62
     7
 10
209.75
 20
220.0
 30
0.0
 11
209.75
 21
229.0
 31
0.0
  0
LINE
  5
283
  8
DATA
  6
CONTINUOUS
 62
     7
 10
190.25
 20
220.0
 30
0.0
 11
190.25
 21
229.0
 31
0.0
  0
ARC
  5
284
  8
DATA
  6
CONTINUOUS
 62
     7
 10
202.5
 20
406.0
 30
0.0
 40
1.0
 50
0.0
 51
90.0
  0
ARC
  5
285
  8
DATA
  6
CONTINUOUS
 62
     7
 10
197.5
 20
406.0
 30
0.0
 40
1.0
 50
90.0
 51
180.0
  0
LINE
  5
286
  8
DATA
  6
CONTINUOUS
 62
     7
 10
214.0
 20
327.0
 30
0.0
 11
214.0
 21
327.99999999999989
 31
0.0
  0
LINE
  5
287
  8
DATA
  6
CONTINUOUS
 62
     7
 10
214.0
 20
329.50000000000011
 30
0.0
 11
214.0
 21
330.5
 31
0.0
  0
LINE
  5
288
  8
DATA
  6
CONTINUOUS
 62
     7
 10
214.0
 20
330.5
 30
0.0
 11
218.0
 21
330.5
 31
0.0
  0
LINE
  5
289
  8
DATA
  6
CONTINUOUS
 62
     7
 10
218.0
 20
330.5
 30
0.0
 11
218.0
 21
327.0
 31
0.0
  0
CIRCLE
  5
28A
  8
DATA
  6
CONTINUOUS
 62
     7
 10
215.0
 20
328.75
 30
0.0
 40
1.2500000000000171
  0
LINE
  5
28B
  8
DATA
  6
CONTINUOUS
 62
     7
 10
212.0
 20
325.0
 30
0.0
 11
214.0
 21
325.0
 31
0.0
  0
LINE
  5
28C
  8
DATA
  6
CONTINUOUS
 62
     7
 10
216.0
 20
325.0
 30
0.0
 11
217.0
 21
325.0
 31
0.0
  0
LINE
  5
28D
  8
DATA
  6
CONTINUOUS
 62
     7
 10
216.0
 20
325.0
 30
0.0
 11
215.0
 21
324.0
 31
0.0
  0
LINE
  5
28E
  8
DATA
  6
CONTINUOUS
 62
     7
 10
220.0
 20
325.0
 30
0.0
 11
219.0
 21
325.0
 31
0.0
  0
LINE
  5
28F
  8
DATA
  6
CONTINUOUS
 62
     7
 10
219.0
 20
325.0
 30
0.0
 11
218.0
 21
324.42264973081029
 31
0.0
  0
LINE
  5
290
  8
DATA
  6
CONTINUOUS
 62
     7
 10
215.0
 20
330.0
 30
0.0
 11
216.0
 21
330.0
 31
0.0
  0
LINE
  5
291
  8
DATA
  6
CONTINUOUS
 62
     7
 10
215.0
 20
327.5
 30
0.0
 11
216.0
 21
327.5
 31
0.0
  0
LINE
  5
292
  8
DATA
  6
CONTINUOUS
 62
     7
 10
272.0
 20
327.0
 30
0.0
 11
328.0
 21
327.0
 31
0.0
  0
LINE
  5
293
  8
DATA
  6
CONTINUOUS
 62
     7
 10
283.25
 20
230.0
 30
0.0
 11
316.75
 21
230.0
 31
0.0
  0
LINE
  5
294
  8
DATA
  6
CONTINUOUS
 62
     7
 10
283.75
 20
229.0
 30
0.0
 11
316.25
 21
229.0
 31
0.0
  0
LINE
  5
295
  8
DATA
  6
CONTINUOUS
 62
     7
 10
290.25
 20
220.0
 30
0.0
 11
309.75
 21
220.0
 31
0.0
  0
LINE
  5
296
  8
DATA
  6
CONTINUOUS
 62
     7
 10
309.75
 20
220.0
 30
0.0
 11
309.75
 21
229.0
 31
0.0
  0
LINE
  5
297
  8
DATA
  6
CONTINUOUS
 62
     7
 10
290.25
 20
220.0
 30
0.0
 11
290.25
 21
229.0
 31
0.0
  0
ARC
  5
298
  8
DATA
  6
CONTINUOUS
 62
     7
 10
717.66500000000019
 20
331.34500000000008
 30
0.0
 40
446.0798148874257
 50
183.12849643699101
 51
193.13170827132089
  0
ARC
  5
299
  8
DATA
  6
CONTINUOUS
 62
     7
 10
-117.66499999999991
 20
331.34500000000008
 30
0.0
 40
446.0798148874257
 50
346.8682917286792
 51
356.8715035630089
  0
LINE
  5
29A
  8
DATA
  6
CONTINUOUS
 62
     7
 10
316.25
 20
229.0
 30
0.0
 11
316.25
 21
230.0
 31
0.0
  0
LINE
  5
29B
  8
DATA
  6
CONTINUOUS
 62
     7
 10
283.75
 20
229.0
 30
0.0
 11
283.75
 21
230.0
 31
0.0
  0
ARC
  5
29C
  8
DATA
  6
CONTINUOUS
 62
     7
 10
-117.66499999999991
 20
331.34500000000003
 30
0.0
 40
444.07981488742558
 50
354.26899635836082
 51
356.8715035630089
  0
ARC
  5
29D
  8
DATA
  6
CONTINUOUS
 62
     7
 10
717.66499999999985
 20
331.34500000000008
 30
0.0
 40
444.0798148874257
 50
183.1284964369911
 51
185.73100364163901
  0
TEXT
  5
29E
  8
DATA
 62
     7
 10
291.97165635152697
 20
243.79607249141179
 30
0.0
 40
2.1717881944444448
  1
PHM 48 VDC
 41
0.8
 72
     1
 11
299.96383690708262
 21
245.96786068585629
 31
0.0
 73
     3
  0
TEXT
  5
29F
  8
DATA
 62
     7
 10
291.68208459226781
 20
240.9738502691896
 30
0.0
 40
2.1717881944444448
  1
MADE IN USA
 41
0.8
 72
     1
 11
299.96383690708262
 21
243.1456384636341
 31
0.0
 73
     3
  0
LINE
  5
2A0
  8
DATA
  6
CONTINUOUS
 62
     7
 10
328.0
 20
327.0
 30
0.0
 11
327.75
 21
307.0
 31
0.0
  0
LINE
  5
2A1
  8
DATA
  6
CONTINUOUS
 62
     7
 10
327.2625000000001
 20
343.5
 30
0.0
 11
328.0
 21
327.0
 31
0.0
  0
LINE
  5
2A2
  8
DATA
  6
CONTINUOUS
 62
     7
 10
325.25688288798688
 20
343.5
 30
0.0
 11
326.00199483061419
 21
326.9106952234896
 31
0.0
  0
LINE
  5
2A3
  8
DATA
  6
CONTINUOUS
 62
     7
 10
325.9979836887124
 20
327.0
 30
0.0
 11
325.75298069926163
 21
307.10915087025921
 31
0.0
  0
LINE
  5
2A4
  8
DATA
  6
CONTINUOUS
 62
     7
 10
272.25
 20
307.0
 30
0.0
 11
272.0
 21
327.0
 31
0.0
  0
LINE
  5
2A5
  8
DATA
  6
CONTINUOUS
 62
     7
 10
272.0
 20
327.0
 30
0.0
 11
272.73750000000001
 21
343.5
 31
0.0
  0
LINE
  5
2A6
  8
DATA
  6
CONTINUOUS
 62
     7
 10
274.74311711201318
 20
343.5
 30
0.0
 11
273.99800516938581
 21
326.9106952234896
 31
0.0
  0
LINE
  5
2A7
  8
DATA
  6
CONTINUOUS
 62
     7
 10
274.00201631128772
 20
327.0
 30
0.0
 11
274.24701930073837
 21
307.10915087025921
 31
0.0
  0
ARC
  5
2A8
  8
DATA
  6
CONTINUOUS
 62
     7
 10
300.0
 20
298.29999999999887
 30
0.0
 40
46.24999999999897
 50
260.6675818161869
 51
279.33241818381322
  0
ARC
  5
2A9
  8
DATA
  6
CONTINUOUS
 62
     7
 10
303.67831555643119
 20
270.76662423775718
 30
0.0
 40
18.503429984132449
 50
281.91961979630969
 51
331.89547562847662
  0
ARC
  5
2AA
  8
DATA
  6
CONTINUOUS
 62
     7
 10
296.32168444356881
 20
270.76662423775718
 30
0.0
 40
18.503429984132449
 50
208.1045243715233
 51
258.08038020369031
  0
ARC
  5
2AB
  8
DATA
  6
CONTINUOUS
 62
     7
 10
206.11935782802621
 20
294.02590027146317
 30
0.0
 40
118.2846518347655
 50
344.3160900858021
 51
356.59472708133308
  0
ARC
  5
2AC
  8
DATA
  6
CONTINUOUS
 62
     7
 10
393.8806421719737
 20
294.02590027146317
 30
0.0
 40
118.2846518347655
 50
183.40527291866681
 51
195.68390991419801
  0
LINE
  5
2AD
  8
DATA
  6
CONTINUOUS
 62
     7
 10
282.0
 20
330.5
 30
0.0
 11
289.0
 21
330.5
 31
0.0
  0
LINE
  5
2AE
  8
DATA
  6
CONTINUOUS
 62
     7
 10
282.0
 20
330.5
 30
0.0
 11
282.0
 21
329.50000000000011
 31
0.0
  0
LINE
  5
2AF
  8
DATA
  6
CONTINUOUS
 62
     7
 10
282.0
 20
327.99999999999989
 30
0.0
 11
282.0
 21
327.0
 31
0.0
  0
LINE
  5
2B0
  8
DATA
  6
CONTINUOUS
 62
     7
 10
289.0
 20
330.5
 30
0.0
 11
289.0
 21
327.0
 31
0.0
  0
CIRCLE
  5
2B1
  8
DATA
  6
CONTINUOUS
 62
     7
 10
300.0
 20
335.0
 30
0.0
 40
5.0
  0
LINE
  5
2B2
  8
DATA
  6
CONTINUOUS
 62
     7
 10
281.0
 20
325.0
 30
0.0
 11
283.0
 21
325.0
 31
0.0
  0
LINE
  5
2B3
  8
DATA
  6
CONTINUOUS
 62
     7
 10
285.0
 20
325.0
 30
0.0
 11
286.0
 21
325.0
 31
0.0
  0
LINE
  5
2B4
  8
DATA
  6
CONTINUOUS
 62
     7
 10
285.0
 20
325.0
 30
0.0
 11
284.0
 21
324.0
 31
0.0
  0
LINE
  5
2B5
  8
DATA
  6
CONTINUOUS
 62
     7
 10
290.5
 20
325.0
 30
0.0
 11
289.0
 21
325.0
 31
0.0
  0
LINE
  5
2B6
  8
DATA
  6
CONTINUOUS
 62
     7
 10
289.0
 20
325.0
 30
0.0
 11
288.0
 21
324.42264973081029
 31
0.0
  0
LINE
  5
2B7
  8
DATA
  6
CONTINUOUS
 62
     7
 10
283.0
 20
330.0
 30
0.0
 11
285.0
 21
330.0
 31
0.0
  0
LINE
  5
2B8
  8
DATA
  6
CONTINUOUS
 62
     7
 10
283.0
 20
327.5
 30
0.0
 11
285.0
 21
327.5
 31
0.0
  0
LINE
  5
2B9
  8
DATA
  6
CONTINUOUS
 62
     7
 10
311.25
 20
330.5
 30
0.0
 11
318.25
 21
330.5
 31
0.0
  0
LINE
  5
2BA
  8
DATA
  6
CONTINUOUS
 62
     7
 10
311.25
 20
330.5
 30
0.0
 11
311.25
 21
327.0
 31
0.0
  0
LINE
  5
2BB
  8
DATA
  6
CONTINUOUS
 62
     7
 10
318.25
 20
330.5
 30
0.0
 11
318.25
 21
327.0
 31
0.0
  0
LINE
  5
2BC
  8
DATA
  6
CONTINUOUS
 62
     7
 10
313.0
 20
330.0
 30
0.0
 11
314.25
 21
330.0
 31
0.0
  0
LINE
  5
2BD
  8
DATA
  6
CONTINUOUS
 62
     7
 10
313.0
 20
327.5
 30
0.0
 11
314.25
 21
327.5
 31
0.0
  0
CIRCLE
  5
2BE
  8
DATA
  6
CONTINUOUS
 62
     7
 10
313.0
 20
328.75
 30
0.0
 40
1.25
  0
TEXT
  5
2BF
  8
DATA
 62
     7
 10
308.52518193632233
 20
323.01166666666683
 30
0.0
 40
2.30859375
  1
0dB -15dB
 41
0.8
 11
308.52518193632233
 21
325.32026041666683
 31
0.0
 73
     3
  0
CIRCLE
  5
2C0
  8
DATA
  6
CONTINUOUS
 62
     7
 10
283.0
 20
328.75
 30
0.0
 40
1.25
  0
CIRCLE
  5
2C1
  8
DATA
  6
CONTINUOUS
 62
     7
 10
300.0
 20
235.0
 30
0.0
 40
1.25
  0
ARC
  5
2C2
  8
DATA
  6
CONTINUOUS
 62
     7
 10
429.0
 20
39.50697505374589
 30
0.0
 40
9.0
 50
270.0
 51
279.9958000228595
  0
ARC
  5
2C3
  8
DATA
  6
CONTINUOUS
 62
     7
 10
429.0
 20
39.50697505374589
 30
0.0
 40
8.9999999999999911
 50
80.004199977140487
 51
90.0
  0
ARC
  5
2C4
  8
DATA
  6
CONTINUOUS
 62
     7
 10
304.0
 20
39.50697505374589
 30
0.0
 40
3.5
 50
90.0
 51
270.0
  0
ARC
  5
2C5
  8
DATA
  6
CONTINUOUS
 62
     7
 10
407.0
 20
39.50697505374589
 30
0.0
 40
3.5
 50
270.0
 51
90.0
  0
LINE
  5
2C6
  8
DATA
  6
CONTINUOUS
 62
     7
 10
322.5
 20
77.50697505374589
 30
0.0
 11
327.74064911318601
 21
77.50697505374589
 31
0.0
  0
LINE
  5
2C7
  8
DATA
  6
CONTINUOUS
 62
     7
 10
332.88579844304439
 20
77.50697505374589
 30
0.0
 11
375.11420155695572
 21
77.50697505374589
 31
0.0
  0
LINE
  5
2C8
  8
DATA
  6
CONTINUOUS
 62
     7
 10
380.2593508868141
 20
77.50697505374589
 30
0.0
 11
385.50000000000011
 21
77.50697505374589
 31
0.0
  0
LINE
  5
2C9
  8
DATA
  6
CONTINUOUS
 62
     7
 10
311.22227190753432
 20
92.203240011816433
 30
0.0
 11
316.20324539799287
 21
92.63901872555472
 31
0.0
  0
LINE
  5
2CA
  8
DATA
  6
CONTINUOUS
 62
     7
 10
310.31323295218999
 20
91.119889570977037
 30
0.0
 11
311.18479037966659
 21
81.157942590059591
 31
0.0
  0
LINE
  5
2CB
  8
DATA
  6
CONTINUOUS
 62
     7
 10
312.76623816955208
 20
80.292481506089345
 30
0.0
 11
316.75101696191888
 21
80.641104477079935
 31
0.0
  0
LINE
  5
2CC
  8
DATA
  6
CONTINUOUS
 62
     7
 10
318.15815326630889
 20
81.768032789293187
 30
0.0
 11
317.91392121040559
 21
84.559617962278182
 31
0.0
  0
LINE
  5
2CD
  8
DATA
  6
CONTINUOUS
 62
     7
 10
317.56920944839487
 20
88.499691431438109
 30
0.0
 11
317.2865958388324
 21
91.729979770210647
 31
0.0
  0
LINE
  5
2CE
  8
DATA
  6
CONTINUOUS
 62
     7
 10
312.76623816955208
 20
80.292481506089345
 30
0.0
 11
316.02829729795479
 21
43.006975053745883
 31
0.0
  0
LINE
  5
2CF
  8
DATA
  6
CONTINUOUS
 62
     7
 10
316.75101696191888
 20
80.641104477079935
 30
0.0
 11
320.04357664812812
 21
43.006975053745883
 31
0.0
  0
LINE
  5
2D0
  8
DATA
  6
CONTINUOUS
 62
     7
 10
311.18479037966659
 20
81.157942590059591
 30
0.0
 11
318.15815326630889
 21
81.768032789293187
 31
0.0
  0
LINE
  5
2D1
  8
DATA
  6
CONTINUOUS
 62
     7
 10
311.18479037966659
 20
81.157942590059591
 30
0.0
 11
312.76623816955208
 21
80.292481506089345
 31
0.0
  0
LINE
  5
2D2
  8
DATA
  6
CONTINUOUS
 62
     7
 10
318.15815326630889
 20
81.768032789293187
 30
0.0
 11
316.75101696191888
 21
80.641104477079935
 31
0.0
  0
ARC
  5
2D3
  8
DATA
  6
CONTINUOUS
 62
     7
 10
311.30942765028192
 20
91.207045313724706
 30
0.0
 40
1.0000000000000091
 50
94.999999999999758
 51
184.99999999999969
  0
ARC
  5
2D4
  8
DATA
  6
CONTINUOUS
 62
     7
 10
316.29040114074058
 20
91.642824027462979
 30
0.0
 40
0.9999999999999536
 50
5.0000000000000284
 51
95.000000000006509
  0
LINE
  5
2D5
  8
DATA
  6
CONTINUOUS
 62
     7
 10
335.0
 20
-19.993024946254081
 30
0.0
 11
373.0
 21
-19.993024946254081
 31
0.0
  0
LINE
  5
2D6
  8
DATA
  6
CONTINUOUS
 62
     7
 10
335.0
 20
-19.993024946254081
 30
0.0
 11
331.0
 21
0.0069750537459186
 31
0.0
  0
LINE
  5
2D7
  8
DATA
  6
CONTINUOUS
 62
     7
 10
323.0
 20
65.50697505374589
 30
0.0
 11
325.74809160305358
 21
43.006975053745883
 31
0.0
  0
LINE
  5
2D8
  8
DATA
  6
CONTINUOUS
 62
     7
 10
326.60305343511448
 20
36.00697505374589
 30
0.0
 11
330.56887703637091
 21
3.5367943184595561
 31
0.0
  0
LINE
  5
2D9
  8
DATA
  6
CONTINUOUS
 62
     7
 10
330.98354193047157
 20
0.1417254980101461
 30
0.0
 11
331.0
 21
0.0069750537459186
 31
0.0
  0
LINE
  5
2DA
  8
DATA
  6
CONTINUOUS
 62
     7
 10
322.5
 20
77.50697505374589
 30
0.0
 11
323.0
 21
65.50697505374589
 31
0.0
  0
LINE
  5
2DB
  8
DATA
  6
CONTINUOUS
 62
     7
 10
385.50000000000011
 20
77.50697505374589
 30
0.0
 11
385.50000000000011
 21
65.50697505374589
 31
0.0
  0
LINE
  5
2DC
  8
DATA
  6
CONTINUOUS
 62
     7
 10
385.50000000000011
 20
65.50697505374589
 30
0.0
 11
382.58015267175591
 21
43.006975053745883
 31
0.0
  0
LINE
  5
2DD
  8
DATA
  6
CONTINUOUS
 62
     7
 10
381.67175572519091
 20
36.00697505374589
 30
0.0
 11
377.45577238449351
 21
3.5191034283710669
 31
0.0
  0
LINE
  5
2DE
  8
DATA
  6
CONTINUOUS
 62
     7
 10
377.01739905833358
 20
0.141050150316687
 30
0.0
 11
377.0
 21
0.0069750537459186
 31
0.0
  0
LINE
  5
2DF
  8
DATA
  6
CONTINUOUS
 62
     7
 10
377.0
 20
0.0069750537459186
 30
0.0
 11
373.0
 21
-19.993024946254081
 31
0.0
  0
LINE
  5
2E0
  8
DATA
  6
CONTINUOUS
 62
     7
 10
333.80000000000013
 20
-13.99302494625408
 30
0.0
 11
374.2000000000001
 21
-13.99302494625408
 31
0.0
  0
LINE
  5
2E1
  8
DATA
  6
CONTINUOUS
 62
     7
 10
311.22227190753432
 20
-13.189289904324591
 30
0.0
 11
316.20324539799287
 21
-13.62506861806286
 31
0.0
  0
LINE
  5
2E2
  8
DATA
  6
CONTINUOUS
 62
     7
 10
310.31323295218999
 20
-12.105939463485241
 30
0.0
 11
311.18479037966659
 21
-2.1439924825677958
 31
0.0
  0
LINE
  5
2E3
  8
DATA
  6
CONTINUOUS
 62
     7
 10
312.76623816955208
 20
-1.2785313985974649
 30
0.0
 11
316.75101696191888
 21
-1.6271543695881969
 31
0.0
  0
LINE
  5
2E4
  8
DATA
  6
CONTINUOUS
 62
     7
 10
318.15815326630889
 20
-2.7540826818013779
 30
0.0
 11
317.91392121040559
 21
-5.5456678547864149
 31
0.0
  0
LINE
  5
2E5
  8
DATA
  6
CONTINUOUS
 62
     7
 10
317.56920944839487
 20
-9.4857413239462822
 30
0.0
 11
317.2865958388324
 21
-12.716029662718819
 31
0.0
  0
LINE
  5
2E6
  8
DATA
  6
CONTINUOUS
 62
     7
 10
312.76623816955208
 20
-1.2785313985974649
 30
0.0
 11
316.02829729795479
 21
36.00697505374589
 31
0.0
  0
LINE
  5
2E7
  8
DATA
  6
CONTINUOUS
 62
     7
 10
316.75101696191888
 20
-1.6271543695881969
 30
0.0
 11
320.04357664812812
 21
36.00697505374589
 31
0.0
  0
LINE
  5
2E8
  8
DATA
  6
CONTINUOUS
 62
     7
 10
311.18479037966659
 20
-2.1439924825677958
 30
0.0
 11
318.15815326630889
 21
-2.7540826818013779
 31
0.0
  0
LINE
  5
2E9
  8
DATA
  6
CONTINUOUS
 62
     7
 10
311.18479037966659
 20
-2.1439924825677958
 30
0.0
 11
312.76623816955208
 21
-1.2785313985974649
 31
0.0
  0
LINE
  5
2EA
  8
DATA
  6
CONTINUOUS
 62
     7
 10
318.15815326630889
 20
-2.7540826818013779
 30
0.0
 11
316.75101696191888
 21
-1.6271543695881969
 31
0.0
  0
ARC
  5
2EB
  8
DATA
  6
CONTINUOUS
 62
     7
 10
311.30942765028192
 20
-12.19309520623289
 30
0.0
 40
1.0000000000000659
 50
175.00000000000051
 51
265.00000000000051
  0
ARC
  5
2EC
  8
DATA
  6
CONTINUOUS
 62
     7
 10
316.29040114074058
 20
-12.62887391997117
 30
0.0
 40
0.9999999999999634
 50
264.99999999999352
 51
355.0
  0
LINE
  5
2ED
  8
DATA
  6
CONTINUOUS
 62
     7
 10
396.77772809246602
 20
-13.189289904324591
 30
0.0
 11
391.7967546020073
 21
-13.62506861806286
 31
0.0
  0
LINE
  5
2EE
  8
DATA
  6
CONTINUOUS
 62
     7
 10
397.68676704781001
 20
-12.105939463485241
 30
0.0
 11
396.81520962033341
 21
-2.1439924825677958
 31
0.0
  0
LINE
  5
2EF
  8
DATA
  6
CONTINUOUS
 62
     7
 10
395.23376183044809
 20
-1.2785313985974649
 30
0.0
 11
391.24898303808118
 21
-1.6271543695881969
 31
0.0
  0
LINE
  5
2F0
  8
DATA
  6
CONTINUOUS
 62
     7
 10
389.84184673369123
 20
-2.7540826818013779
 30
0.0
 11
390.08607878959452
 21
-5.5456678547864149
 31
0.0
  0
LINE
  5
2F1
  8
DATA
  6
CONTINUOUS
 62
     7
 10
390.43079055160518
 20
-9.4857413239462822
 30
0.0
 11
390.71340416116789
 21
-12.716029662718819
 31
0.0
  0
LINE
  5
2F2
  8
DATA
  6
CONTINUOUS
 62
     7
 10
395.23376183044809
 20
-1.2785313985974649
 30
0.0
 11
391.97170270204549
 21
36.00697505374589
 31
0.0
  0
LINE
  5
2F3
  8
DATA
  6
CONTINUOUS
 62
     7
 10
391.24898303808129
 20
-1.6271543695881969
 30
0.0
 11
387.9564233518721
 21
36.00697505374589
 31
0.0
  0
LINE
  5
2F4
  8
DATA
  6
CONTINUOUS
 62
     7
 10
396.81520962033341
 20
-2.1439924825677958
 30
0.0
 11
389.84184673369123
 21
-2.7540826818013779
 31
0.0
  0
LINE
  5
2F5
  8
DATA
  6
CONTINUOUS
 62
     7
 10
396.81520962033341
 20
-2.1439924825677958
 30
0.0
 11
395.23376183044809
 21
-1.2785313985974649
 31
0.0
  0
LINE
  5
2F6
  8
DATA
  6
CONTINUOUS
 62
     7
 10
389.84184673369123
 20
-2.7540826818013779
 30
0.0
 11
391.24898303808129
 21
-1.6271543695881969
 31
0.0
  0
ARC
  5
2F7
  8
DATA
  6
CONTINUOUS
 62
     7
 10
396.69057234971831
 20
-12.19309520623289
 30
0.0
 40
0.9999999999999536
 50
275.0
 51
4.9999999999997717
  0
ARC
  5
2F8
  8
DATA
  6
CONTINUOUS
 62
     7
 10
391.70959885925959
 20
-12.62887391997117
 30
0.0
 40
0.9999999999999536
 50
185.0
 51
275.0
  0
LINE
  5
2F9
  8
DATA
  6
CONTINUOUS
 62
     7
 10
396.77772809246602
 20
92.203240011816433
 30
0.0
 11
391.7967546020073
 21
92.63901872555472
 31
0.0
  0
LINE
  5
2FA
  8
DATA
  6
CONTINUOUS
 62
     7
 10
397.68676704781001
 20
91.119889570977037
 30
0.0
 11
396.81520962033341
 21
81.157942590059591
 31
0.0
  0
LINE
  5
2FB
  8
DATA
  6
CONTINUOUS
 62
     7
 10
395.23376183044809
 20
80.292481506089345
 30
0.0
 11
391.24898303808118
 21
80.641104477079935
 31
0.0
  0
LINE
  5
2FC
  8
DATA
  6
CONTINUOUS
 62
     7
 10
389.84184673369123
 20
81.768032789293187
 30
0.0
 11
390.08607878959452
 21
84.559617962278182
 31
0.0
  0
LINE
  5
2FD
  8
DATA
  6
CONTINUOUS
 62
     7
 10
390.43079055160518
 20
88.499691431438109
 30
0.0
 11
390.71340416116789
 21
91.729979770210647
 31
0.0
  0
LINE
  5
2FE
  8
DATA
  6
CONTINUOUS
 62
     7
 10
395.23376183044809
 20
80.292481506089345
 30
0.0
 11
391.97170270204549
 21
43.006975053745883
 31
0.0
  0
LINE
  5
2FF
  8
DATA
  6
CONTINUOUS
 62
     7
 10
391.24898303808129
 20
80.641104477079935
 30
0.0
 11
387.9564233518721
 21
43.006975053745883
 31
0.0
  0
LINE
  5
300
  8
DATA
  6
CONTINUOUS
 62
     7
 10
396.81520962033341
 20
81.157942590059591
 30
0.0
 11
389.84184673369123
 21
81.768032789293187
 31
0.0
  0
LINE
  5
301
  8
DATA
  6
CONTINUOUS
 62
     7
 10
396.81520962033341
 20
81.157942590059591
 30
0.0
 11
395.23376183044809
 21
80.292481506089345
 31
0.0
  0
LINE
  5
302
  8
DATA
  6
CONTINUOUS
 62
     7
 10
389.84184673369123
 20
81.768032789293187
 30
0.0
 11
391.24898303808129
 21
80.641104477079935
 31
0.0
  0
ARC
  5
303
  8
DATA
  6
CONTINUOUS
 62
     7
 10
396.69057234971831
 20
91.207045313724763
 30
0.0
 40
1.0000000000000659
 50
355.00000000000051
 51
85.000000000000597
  0
ARC
  5
304
  8
DATA
  6
CONTINUOUS
 62
     7
 10
391.70959885925959
 20
91.64282402746305
 30
0.0
 40
0.9999999999999536
 50
85.0
 51
175.0
  0
LINE
  5
305
  8
DATA
  6
CONTINUOUS
 62
     7
 10
314.5873688363564
 20
90.639758527517586
 30
0.0
 11
314.60721350064489
 21
90.625516011366685
 31
0.0
  0
LINE
  5
306
  8
DATA
  6
CONTINUOUS
 62
     7
 10
316.73614808809009
 20
89.097579594543006
 30
0.0
 11
352.0
 21
63.788712026967929
 31
0.0
  0
LINE
  5
307
  8
DATA
  6
CONTINUOUS
 62
     7
 10
314.95192526265572
 20
86.685442542206729
 30
0.0
 11
352.0
 21
60.096038199671028
 31
0.0
  0
LINE
  5
308
  8
DATA
  6
CONTINUOUS
 62
     7
 10
352.0
 20
59.00697505374589
 30
0.0
 11
356.0
 21
59.00697505374589
 31
0.0
  0
LINE
  5
309
  8
DATA
  6
CONTINUOUS
 62
     7
 10
352.0
 20
59.00697505374589
 30
0.0
 11
352.0
 21
64.00697505374589
 31
0.0
  0
LINE
  5
30A
  8
DATA
  6
CONTINUOUS
 62
     7
 10
356.0
 20
59.00697505374589
 30
0.0
 11
356.0
 21
64.00697505374589
 31
0.0
  0
LINE
  5
30B
  8
DATA
  6
CONTINUOUS
 62
     7
 10
356.0
 20
64.00697505374589
 30
0.0
 11
352.0
 21
64.00697505374589
 31
0.0
  0
LINE
  5
30C
  8
DATA
  6
CONTINUOUS
 62
     7
 10
356.0
 20
64.00697505374589
 30
0.0
 11
356.0
 21
68.50697505374589
 31
0.0
  0
LINE
  5
30D
  8
DATA
  6
CONTINUOUS
 62
     7
 10
356.0
 20
68.50697505374589
 30
0.0
 11
355.00000000000011
 21
68.50697505374589
 31
0.0
  0
LINE
  5
30E
  8
DATA
  6
CONTINUOUS
 62
     7
 10
355.00000000000011
 20
68.50697505374589
 30
0.0
 11
355.00000000000011
 21
64.00697505374589
 31
0.0
  0
LINE
  5
30F
  8
DATA
  6
CONTINUOUS
 62
     7
 10
316.73614808809009
 20
89.097579594543006
 30
0.0
 11
316.4267970238264
 21
92.633478438994203
 31
0.0
  0
LINE
  5
310
  8
DATA
  6
CONTINUOUS
 62
     7
 10
314.95192526265572
 20
86.685442542206729
 30
0.0
 11
314.4445166175143
 21
92.485149895046078
 31
0.0
  0
ARC
  5
311
  8
DATA
  6
CONTINUOUS
 62
     7
 10
316.21163978091568
 20
87.831380548591994
 30
0.0
 40
1.3705360222417831
 50
67.498783769926135
 51
193.6918367457088
  0
LINE
  5
312
  8
DATA
  6
CONTINUOUS
 62
     7
 10
396.77772809246602
 20
92.203240011816433
 30
0.0
 11
391.7967546020073
 21
92.63901872555472
 31
0.0
  0
ARC
  5
313
  8
DATA
  6
CONTINUOUS
 62
     7
 10
391.70959885925959
 20
91.64282402746305
 30
0.0
 40
0.9999999999999536
 50
85.0
 51
175.0
  0
LINE
  5
314
  8
DATA
  6
CONTINUOUS
 62
     7
 10
393.41263116364382
 20
90.639758527517586
 30
0.0
 11
393.39278649935522
 21
90.625516011366685
 31
0.0
  0
LINE
  5
315
  8
DATA
  6
CONTINUOUS
 62
     7
 10
391.26385191190991
 20
89.097579594543006
 30
0.0
 11
356.0
 21
63.788712026967929
 31
0.0
  0
LINE
  5
316
  8
DATA
  6
CONTINUOUS
 62
     7
 10
393.04807473734451
 20
86.685442542206729
 30
0.0
 11
356.0
 21
60.096038199671028
 31
0.0
  0
LINE
  5
317
  8
DATA
  6
CONTINUOUS
 62
     7
 10
391.26385191190991
 20
89.097579594543006
 30
0.0
 11
391.57320297617377
 21
92.633478438994203
 31
0.0
  0
LINE
  5
318
  8
DATA
  6
CONTINUOUS
 62
     7
 10
393.04807473734451
 20
86.685442542206729
 30
0.0
 11
393.55548338248582
 21
92.485149895046078
 31
0.0
  0
ARC
  5
319
  8
DATA
  6
CONTINUOUS
 62
     7
 10
391.7883602190845
 20
87.831380548591994
 30
0.0
 40
1.3705360222417879
 50
346.30816325429362
 51
112.5012162300776
  0
ARC
  5
31A
  8
DATA
  6
CONTINUOUS
 62
     7
 10
316.29040114074058
 20
-12.62887391997117
 30
0.0
 40
0.9999999999999634
 50
264.99999999999352
 51
355.0
  0
LINE
  5
31B
  8
DATA
  6
CONTINUOUS
 62
     7
 10
314.5873688363564
 20
-11.6258084200258
 30
0.0
 11
314.60721350064489
 21
-11.61156590387486
 31
0.0
  0
LINE
  5
31C
  8
DATA
  6
CONTINUOUS
 62
     7
 10
316.73614808809009
 20
-10.08362948705121
 30
0.0
 11
352.0
 21
15.2252380805238
 31
0.0
  0
LINE
  5
31D
  8
DATA
  6
CONTINUOUS
 62
     7
 10
314.95192526265572
 20
-7.6714924347148781
 30
0.0
 11
352.0
 21
18.91791190782078
 31
0.0
  0
LINE
  5
31E
  8
DATA
  6
CONTINUOUS
 62
     7
 10
316.73614808809009
 20
-10.08362948705121
 30
0.0
 11
316.4267970238264
 21
-13.61952833150235
 31
0.0
  0
LINE
  5
31F
  8
DATA
  6
CONTINUOUS
 62
     7
 10
314.95192526265572
 20
-7.6714924347148781
 30
0.0
 11
314.4445166175143
 21
-13.47119978755426
 31
0.0
  0
ARC
  5
320
  8
DATA
  6
CONTINUOUS
 62
     7
 10
316.21163978091568
 20
-8.8174304411000985
 30
0.0
 40
1.3705360222417879
 50
166.3081632542935
 51
292.50121623007288
  0
ARC
  5
321
  8
DATA
  6
CONTINUOUS
 62
     7
 10
391.70959885925959
 20
-12.62887391997117
 30
0.0
 40
0.9999999999999536
 50
185.0
 51
275.0
  0
LINE
  5
322
  8
DATA
  6
CONTINUOUS
 62
     7
 10
393.41263116364382
 20
-11.6258084200258
 30
0.0
 11
393.39278649935522
 21
-11.61156590387486
 31
0.0
  0
LINE
  5
323
  8
DATA
  6
CONTINUOUS
 62
     7
 10
391.26385191190991
 20
-10.08362948705121
 30
0.0
 11
356.0
 21
15.2252380805238
 31
0.0
  0
LINE
  5
324
  8
DATA
  6
CONTINUOUS
 62
     7
 10
393.04807473734451
 20
-7.6714924347148781
 30
0.0
 11
356.0
 21
18.91791190782078
 31
0.0
  0
LINE
  5
325
  8
DATA
  6
CONTINUOUS
 62
     7
 10
391.26385191190991
 20
-10.08362948705121
 30
0.0
 11
391.57320297617377
 21
-13.61952833150235
 31
0.0
  0
LINE
  5
326
  8
DATA
  6
CONTINUOUS
 62
     7
 10
393.04807473734451
 20
-7.6714924347148781
 30
0.0
 11
393.55548338248582
 21
-13.47119978755426
 31
0.0
  0
ARC
  5
327
  8
DATA
  6
CONTINUOUS
 62
     7
 10
391.7883602190845
 20
-8.8174304411000985
 30
0.0
 40
1.3705360222418801
 50
247.4987837699226
 51
13.69183674570618
  0
LINE
  5
328
  8
DATA
  6
CONTINUOUS
 62
     7
 10
352.0
 20
20.00697505374589
 30
0.0
 11
356.0
 21
20.00697505374589
 31
0.0
  0
LINE
  5
329
  8
DATA
  6
CONTINUOUS
 62
     7
 10
352.0
 20
20.00697505374589
 30
0.0
 11
352.0
 21
15.00697505374592
 31
0.0
  0
LINE
  5
32A
  8
DATA
  6
CONTINUOUS
 62
     7
 10
356.0
 20
20.00697505374589
 30
0.0
 11
356.0
 21
15.00697505374592
 31
0.0
  0
LINE
  5
32B
  8
DATA
  6
CONTINUOUS
 62
     7
 10
356.0
 20
15.00697505374592
 30
0.0
 11
352.0
 21
15.00697505374592
 31
0.0
  0
LINE
  5
32C
  8
DATA
  6
CONTINUOUS
 62
     7
 10
356.0
 20
15.00697505374592
 30
0.0
 11
356.0
 21
10.50697505374592
 31
0.0
  0
LINE
  5
32D
  8
DATA
  6
CONTINUOUS
 62
     7
 10
356.0
 20
10.50697505374592
 30
0.0
 11
355.00000000000011
 21
10.50697505374592
 31
0.0
  0
LINE
  5
32E
  8
DATA
  6
CONTINUOUS
 62
     7
 10
355.00000000000011
 20
10.50697505374592
 30
0.0
 11
355.00000000000011
 21
15.00697505374592
 31
0.0
  0
LINE
  5
32F
  8
DATA
  6
CONTINUOUS
 62
     7
 10
354.0
 20
-13.99302494625408
 30
0.0
 11
354.0
 21
-19.993024946254081
 31
0.0
  0
LINE
  5
330
  8
DATA
  6
CONTINUOUS
 62
     7
 10
352.97382039350492
 20
-13.993139177061609
 30
0.0
 11
353.0261796064953
 21
-19.992910715446669
 31
0.0
  0
LINE
  5
331
  8
DATA
  6
CONTINUOUS
 62
     7
 10
351.94764278068823
 20
-13.99348186078498
 30
0.0
 11
352.05235721931189
 21
-19.992568031723291
 31
0.0
  0
LINE
  5
332
  8
DATA
  6
CONTINUOUS
 62
     7
 10
350.92146915507652
 20
-13.99405297132739
 30
0.0
 11
351.0785308449237
 21
-19.99199692118076
 31
0.0
  0
LINE
  5
333
  8
DATA
  6
CONTINUOUS
 62
     7
 10
349.8953015098927
 20
-13.9948524651968
 30
0.0
 11
350.10469849010758
 21
-19.991197427311359
 31
0.0
  0
LINE
  5
334
  8
DATA
  6
CONTINUOUS
 62
     7
 10
348.86914183790412
 20
-13.99588028150856
 30
0.0
 11
349.1308581620961
 21
-19.990169610999711
 31
0.0
  0
LINE
  5
335
  8
DATA
  6
CONTINUOUS
 62
     7
 10
347.84299213127127
 20
-13.99713634199043
 30
0.0
 11
348.15700786872878
 21
-19.98891355051785
 31
0.0
  0
LINE
  5
336
  8
DATA
  6
CONTINUOUS
 62
     7
 10
346.8168543813955
 20
-13.99862055098856
 30
0.0
 11
347.18314561860473
 21
-19.987429341519711
 31
0.0
  0
LINE
  5
337
  8
DATA
  6
CONTINUOUS
 62
     7
 10
345.79073057876769
 20
-14.0003327954746
 30
0.0
 11
346.20926942123242
 21
-19.98571709703355
 31
0.0
  0
LINE
  5
338
  8
DATA
  6
CONTINUOUS
 62
     7
 10
344.76462271281662
 20
-14.002272945054751
 30
0.0
 11
345.23537728718361
 21
-19.983776947453521
 31
0.0
  0
LINE
  5
339
  8
DATA
  6
CONTINUOUS
 62
     7
 10
343.73853277175721
 20
-14.00444085197887
 30
0.0
 11
344.26146722824302
 21
-19.981609040529399
 31
0.0
  0
LINE
  5
33A
  8
DATA
  6
CONTINUOUS
 62
     7
 10
342.71246274243953
 20
-14.00683635115262
 30
0.0
 11
343.28753725756081
 21
-19.979213541355652
 31
0.0
  0
LINE
  5
33B
  8
DATA
  6
CONTINUOUS
 62
     7
 10
341.68641461019718
 20
-14.00945926014924
 30
0.0
 11
342.31358538980311
 21
-19.976590632358921
 31
0.0
  0
LINE
  5
33C
  8
DATA
  6
CONTINUOUS
 62
     7
 10
340.6603903586963
 20
-14.012309379224339
 30
0.0
 11
341.33960964130381
 21
-19.973740513283921
 31
0.0
  0
LINE
  5
33D
  8
DATA
  6
CONTINUOUS
 62
     7
 10
339.6343919697847
 20
-14.01538649133011
 30
0.0
 11
340.36560803021558
 21
-19.970663401178051
 31
0.0
  0
LINE
  5
33E
  8
DATA
  6
CONTINUOUS
 62
     7
 10
338.60842142333991
 20
-14.0186903621327
 30
0.0
 11
339.39157857666021
 21
-19.967359530375571
 31
0.0
  0
LINE
  5
33F
  8
DATA
  6
CONTINUOUS
 62
     7
 10
337.58248069711988
 20
-14.022220740029409
 30
0.0
 11
338.41751930288029
 21
-19.963829152478858
 31
0.0
  0
LINE
  5
340
  8
DATA
  6
CONTINUOUS
 62
     7
 10
336.55657176661123
 20
-14.02597735616837
 30
0.0
 11
337.44342823338889
 21
-19.960072536339901
 31
0.0
  0
LINE
  5
341
  8
DATA
  6
CONTINUOUS
 62
     7
 10
335.53069660487938
 20
-14.029959924468701
 30
0.0
 11
336.46930339512079
 21
-19.956089968039571
 31
0.0
  0
LINE
  5
342
  8
DATA
  6
CONTINUOUS
 62
     7
 10
334.50485718241811
 20
-14.03416814164245
 30
0.0
 11
335.49514281758218
 21
-19.951881750865819
 31
0.0
  0
LINE
  5
343
  8
DATA
  6
CONTINUOUS
 62
     7
 10
355.0261796064953
 20
-13.993139177061609
 30
0.0
 11
354.97382039350492
 21
-19.992910715446669
 31
0.0
  0
LINE
  5
344
  8
DATA
  6
CONTINUOUS
 62
     7
 10
356.05235721931189
 20
-13.99348186078498
 30
0.0
 11
355.94764278068823
 21
-19.992568031723291
 31
0.0
  0
LINE
  5
345
  8
DATA
  6
CONTINUOUS
 62
     7
 10
357.07853084492382
 20
-13.99405297132739
 30
0.0
 11
356.92146915507652
 21
-19.99199692118076
 31
0.0
  0
LINE
  5
346
  8
DATA
  6
CONTINUOUS
 62
     7
 10
358.10469849010758
 20
-13.9948524651968
 30
0.0
 11
357.89530150989248
 21
-19.991197427311359
 31
0.0
  0
LINE
  5
347
  8
DATA
  6
CONTINUOUS
 62
     7
 10
359.13085816209622
 20
-13.99588028150856
 30
0.0
 11
358.86914183790412
 21
-19.990169610999711
 31
0.0
  0
LINE
  5
348
  8
DATA
  6
CONTINUOUS
 62
     7
 10
360.15700786872878
 20
-13.99713634199043
 30
0.0
 11
359.84299213127122
 21
-19.98891355051785
 31
0.0
  0
LINE
  5
349
  8
DATA
  6
CONTINUOUS
 62
     7
 10
361.18314561860473
 20
-13.99862055098856
 30
0.0
 11
360.8168543813955
 21
-19.987429341519711
 31
0.0
  0
LINE
  5
34A
  8
DATA
  6
CONTINUOUS
 62
     7
 10
362.20926942123231
 20
-14.0003327954746
 30
0.0
 11
361.79073057876769
 21
-19.98571709703355
 31
0.0
  0
LINE
  5
34B
  8
DATA
  6
CONTINUOUS
 62
     7
 10
363.23537728718361
 20
-14.002272945054751
 30
0.0
 11
362.76462271281662
 21
-19.983776947453521
 31
0.0
  0
LINE
  5
34C
  8
DATA
  6
CONTINUOUS
 62
     7
 10
364.26146722824308
 20
-14.00444085197887
 30
0.0
 11
363.73853277175721
 21
-19.981609040529399
 31
0.0
  0
LINE
  5
34D
  8
DATA
  6
CONTINUOUS
 62
     7
 10
365.28753725756081
 20
-14.00683635115262
 30
0.0
 11
364.71246274243941
 21
-19.979213541355652
 31
0.0
  0
LINE
  5
34E
  8
DATA
  6
CONTINUOUS
 62
     7
 10
366.31358538980322
 20
-14.00945926014924
 30
0.0
 11
365.68641461019718
 21
-19.976590632358921
 31
0.0
  0
LINE
  5
34F
  8
DATA
  6
CONTINUOUS
 62
     7
 10
367.33960964130381
 20
-14.012309379224339
 30
0.0
 11
366.66039035869642
 21
-19.973740513283921
 31
0.0
  0
LINE
  5
350
  8
DATA
  6
CONTINUOUS
 62
     7
 10
368.36560803021553
 20
-14.01538649133011
 30
0.0
 11
367.6343919697847
 21
-19.970663401178051
 31
0.0
  0
LINE
  5
351
  8
DATA
  6
CONTINUOUS
 62
     7
 10
369.39157857666021
 20
-14.0186903621327
 30
0.0
 11
368.60842142333991
 21
-19.967359530375571
 31
0.0
  0
LINE
  5
352
  8
DATA
  6
CONTINUOUS
 62
     7
 10
370.41751930288041
 20
-14.022220740029409
 30
0.0
 11
369.58248069711988
 21
-19.963829152478858
 31
0.0
  0
LINE
  5
353
  8
DATA
  6
CONTINUOUS
 62
     7
 10
371.44342823338889
 20
-14.02597735616837
 30
0.0
 11
370.55657176661123
 21
-19.960072536339901
 31
0.0
  0
LINE
  5
354
  8
DATA
  6
CONTINUOUS
 62
     7
 10
372.46930339512079
 20
-14.029959924468701
 30
0.0
 11
371.53069660487938
 21
-19.956089968039571
 31
0.0
  0
LINE
  5
355
  8
DATA
  6
CONTINUOUS
 62
     7
 10
373.49514281758218
 20
-14.03416814164245
 30
0.0
 11
372.50485718241811
 21
-19.951881750865819
 31
0.0
  0
LINE
  5
356
  8
DATA
  6
CONTINUOUS
 62
     7
 10
328.96332105846489
 20
62.544110874751851
 30
0.0
 11
328.72146000130817
 21
43.006975053745883
 31
0.0
  0
LINE
  5
357
  8
DATA
  6
CONTINUOUS
 62
     7
 10
329.62534692026429
 20
36.00697505374589
 30
0.0
 11
332.31896826845048
 21
13.952950265471831
 31
0.0
  0
LINE
  5
358
  8
DATA
  6
CONTINUOUS
 62
     7
 10
344.00000000000011
 20
59.00697505374589
 30
0.0
 11
348.1025641025642
 21
43.006975053745883
 31
0.0
  0
LINE
  5
359
  8
DATA
  6
CONTINUOUS
 62
     7
 10
348.87931034482767
 20
36.00697505374589
 30
0.0
 11
348.19588706508182
 21
16.187699941117561
 31
0.0
  0
LINE
  5
35A
  8
DATA
  6
CONTINUOUS
 62
     7
 10
346.82249649002227
 20
7.4073907730377178
 30
0.0
 11
344.74608891337789
 21
1.9415894141678789
 31
0.0
  0
LINE
  5
35B
  8
DATA
  6
CONTINUOUS
 62
     7
 10
342.65161306261172
 20
63.389232600258453
 30
0.0
 11
344.00000000000011
 21
59.00697505374589
 31
0.0
  0
LINE
  5
35C
  8
DATA
  6
CONTINUOUS
 62
     7
 10
341.94163648215681
 20
0.0069750537459186
 30
0.0
 11
339.86188965114309
 21
0.0069750537459186
 31
0.0
  0
LINE
  5
35D
  8
DATA
  6
CONTINUOUS
 62
     7
 10
334.29742179006871
 20
7.4044181039002988
 30
0.0
 11
334.73720562931078
 21
6.528403873773641
 31
0.0
  0
LINE
  5
35E
  8
DATA
  6
CONTINUOUS
 62
     7
 10
336.10000697083211
 20
3.813812609879959
 30
0.0
 11
337.18078672005561
 21
1.6609857993629471
 31
0.0
  0
LINE
  5
35F
  8
DATA
  6
CONTINUOUS
 62
     7
 10
331.96309120479248
 20
65.50697505374589
 30
0.0
 11
339.78427603644582
 21
65.50697505374589
 31
0.0
  0
ARC
  5
360
  8
DATA
  6
CONTINUOUS
 62
     7
 10
339.78427603644582
 20
62.50697505374589
 30
0.0
 40
3.0000000000000062
 50
17.102728969053331
 51
90.0
  0
ARC
  5
361
  8
DATA
  6
CONTINUOUS
 62
     7
 10
331.96309120479248
 20
62.50697505374589
 30
0.0
 40
3.0
 50
90.0
 51
179.29073994843949
  0
ARC
  5
362
  8
DATA
  6
CONTINUOUS
 62
     7
 10
339.86188965114309
 20
3.0069750537459181
 30
0.0
 40
3.0000000000000502
 50
206.65794116372479
 51
270.0
  0
ARC
  5
363
  8
DATA
  6
CONTINUOUS
 62
     7
 10
341.94163648215681
 20
3.0069750537459181
 30
0.0
 40
3.0
 50
270.0
 51
339.19867709636839
  0
ARC
  5
364
  8
DATA
  6
CONTINUOUS
 62
     7
 10
352.17144133065148
 20
16.377679799786499
 30
0.0
 40
19.999999999999911
 50
186.9634685264881
 51
206.65794116372419
  0
ARC
  5
365
  8
DATA
  6
CONTINUOUS
 62
     7
 10
328.1261469485496
 20
14.50996170355813
 30
0.0
 40
19.999999999999979
 50
339.19867709636833
 51
353.8345003496521
  0
LINE
  5
366
  8
DATA
  6
CONTINUOUS
 62
     7
 10
377.01645806952848
 20
0.1417254980101461
 30
0.0
 11
377.0
 21
0.0069750537459186
 31
0.0
  0
LINE
  5
367
  8
DATA
  6
CONTINUOUS
 62
     7
 10
379.03667894153517
 20
62.544110874751851
 30
0.0
 11
379.278539998692
 21
43.006975053745883
 31
0.0
  0
LINE
  5
368
  8
DATA
  6
CONTINUOUS
 62
     7
 10
378.37465307973611
 20
36.00697505374589
 30
0.0
 11
375.68103173154981
 21
13.952950265471831
 31
0.0
  0
LINE
  5
369
  8
DATA
  6
CONTINUOUS
 62
     7
 10
364.00000000000011
 20
59.00697505374589
 30
0.0
 11
359.89743589743608
 21
43.006975053745883
 31
0.0
  0
LINE
  5
36A
  8
DATA
  6
CONTINUOUS
 62
     7
 10
359.1206896551725
 20
36.00697505374589
 30
0.0
 11
359.80411293491818
 21
16.187699941117561
 31
0.0
  0
LINE
  5
36B
  8
DATA
  6
CONTINUOUS
 62
     7
 10
361.1775035099779
 20
7.4073907730377178
 30
0.0
 11
363.2539110866224
 21
1.9415894141678789
 31
0.0
  0
LINE
  5
36C
  8
DATA
  6
CONTINUOUS
 62
     7
 10
365.34838693738851
 20
63.389232600258453
 30
0.0
 11
364.00000000000011
 21
59.00697505374589
 31
0.0
  0
LINE
  5
36D
  8
DATA
  6
CONTINUOUS
 62
     7
 10
366.0583635178433
 20
0.0069750537459186
 30
0.0
 11
368.13811034885708
 21
0.0069750537459186
 31
0.0
  0
LINE
  5
36E
  8
DATA
  6
CONTINUOUS
 62
     7
 10
373.70257820993157
 20
7.4044181039002988
 30
0.0
 11
373.26279437068951
 21
6.528403873773641
 31
0.0
  0
LINE
  5
36F
  8
DATA
  6
CONTINUOUS
 62
     7
 10
371.89999302916817
 20
3.813812609879959
 30
0.0
 11
370.81921327994462
 21
1.6609857993629471
 31
0.0
  0
LINE
  5
370
  8
DATA
  6
CONTINUOUS
 62
     7
 10
376.03690879520769
 20
65.50697505374589
 30
0.0
 11
368.21572396355441
 21
65.50697505374589
 31
0.0
  0
ARC
  5
371
  8
DATA
  6
CONTINUOUS
 62
     7
 10
368.21572396355441
 20
62.50697505374589
 30
0.0
 40
3.0
 50
90.0
 51
162.89727103094671
  0
ARC
  5
372
  8
DATA
  6
CONTINUOUS
 62
     7
 10
376.03690879520769
 20
62.50697505374589
 30
0.0
 40
3.000000000000008
 50
0.7092600515605314
 51
90.000000000000028
  0
ARC
  5
373
  8
DATA
  6
CONTINUOUS
 62
     7
 10
368.13811034885708
 20
3.0069750537459181
 30
0.0
 40
3.0
 50
270.0
 51
333.34205883627482
  0
ARC
  5
374
  8
DATA
  6
CONTINUOUS
 62
     7
 10
366.0583635178433
 20
3.0069750537459181
 30
0.0
 40
3.0000000000000488
 50
200.80132290363119
 51
270.0
  0
ARC
  5
375
  8
DATA
  6
CONTINUOUS
 62
     7
 10
355.82855866934852
 20
16.377679799786499
 30
0.0
 40
20.000000000000028
 50
333.34205883627612
 51
353.0365314735119
  0
ARC
  5
376
  8
DATA
  6
CONTINUOUS
 62
     7
 10
379.87385305145062
 20
14.50996170355813
 30
0.0
 40
20.0
 50
186.1654996503479
 51
200.8013229036317
  0
LINE
  5
377
  8
DATA
  6
CONTINUOUS
 62
     7
 10
330.9631678226832
 20
62.519353660747903
 30
0.0
 11
330.72130676552661
 21
42.982217839741928
 31
0.0
  0
LINE
  5
378
  8
DATA
  6
CONTINUOUS
 62
     7
 10
331.64020924369743
 20
36.00697505374589
 30
0.0
 11
334.30421557467048
 21
14.19542321890321
 31
0.0
  0
ARC
  5
379
  8
DATA
  6
CONTINUOUS
 62
     7
 10
352.17144133065148
 20
16.377679799786499
 30
0.0
 40
17.999999999999911
 50
186.96346852648799
 51
208.8738273220543
  0
LINE
  5
37A
  8
DATA
  6
CONTINUOUS
 62
     7
 10
337.88740892489028
 20
4.7111387794685688
 30
0.0
 11
339.28803899425958
 21
1.6609857993629471
 31
0.0
  0
ARC
  5
37B
  8
DATA
  6
CONTINUOUS
 62
     7
 10
341.96914192534712
 20
3.0069750537459181
 30
0.0
 40
3.0000000000000502
 50
206.65794116372479
 51
270.0
  0
ARC
  5
37C
  8
DATA
  6
CONTINUOUS
 62
     7
 10
333.89684282922389
 20
62.50697505374589
 30
0.0
 40
3.0
 50
90.0
 51
179.29073994843949
  0
LINE
  5
37D
  8
DATA
  6
CONTINUOUS
 62
     7
 10
377.03683217731691
 20
62.519353660747903
 30
0.0
 11
377.27869323447351
 21
42.982217839741928
 31
0.0
  0
LINE
  5
37E
  8
DATA
  6
CONTINUOUS
 62
     7
 10
376.3597907563028
 20
36.00697505374589
 30
0.0
 11
373.69578442532958
 21
14.19542321890321
 31
0.0
  0
ARC
  5
37F
  8
DATA
  6
CONTINUOUS
 62
     7
 10
355.82855866934852
 20
16.377679799786499
 30
0.0
 40
17.999999999999972
 50
331.1261726779457
 51
353.0365314735119
  0
LINE
  5
380
  8
DATA
  6
CONTINUOUS
 62
     7
 10
370.11259107510978
 20
4.7111387794685688
 30
0.0
 11
368.71196100574059
 21
1.6609857993629471
 31
0.0
  0
ARC
  5
381
  8
DATA
  6
CONTINUOUS
 62
     7
 10
366.03085807465311
 20
3.0069750537459181
 30
0.0
 40
3.0
 50
270.0
 51
333.3420588362772
  0
ARC
  5
382
  8
DATA
  6
CONTINUOUS
 62
     7
 10
374.10315717077623
 20
62.50697505374589
 30
0.0
 40
3.000000000000008
 50
0.7092600515605314
 51
90.000000000000028
  0
LINE
  5
383
  8
DATA
  6
CONTINUOUS
 62
     7
 10
352.0
 20
64.00697505374589
 30
0.0
 11
352.0
 21
68.50697505374589
 31
0.0
  0
LINE
  5
384
  8
DATA
  6
CONTINUOUS
 62
     7
 10
352.0
 20
68.50697505374589
 30
0.0
 11
353.00000000000011
 21
68.50697505374589
 31
0.0
  0
LINE
  5
385
  8
DATA
  6
CONTINUOUS
 62
     7
 10
353.00000000000011
 20
68.50697505374589
 30
0.0
 11
353.00000000000011
 21
64.00697505374589
 31
0.0
  0
LINE
  5
386
  8
DATA
  6
CONTINUOUS
 62
     7
 10
352.0
 20
15.00697505374592
 30
0.0
 11
352.0
 21
10.50697505374592
 31
0.0
  0
LINE
  5
387
  8
DATA
  6
CONTINUOUS
 62
     7
 10
352.0
 20
10.50697505374592
 30
0.0
 11
353.00000000000011
 21
10.50697505374592
 31
0.0
  0
LINE
  5
388
  8
DATA
  6
CONTINUOUS
 62
     7
 10
353.00000000000011
 20
10.50697505374592
 30
0.0
 11
353.00000000000011
 21
15.00697505374592
 31
0.0
  0
LINE
  5
389
  8
DATA
  6
CONTINUOUS
 62
     7
 10
407.0
 20
45.00697505374589
 30
0.0
 11
421.94819364913332
 21
47.385096770653519
 31
0.0
  0
LINE
  5
38A
  8
DATA
  6
CONTINUOUS
 62
     7
 10
426.1101694915256
 20
48.047229291034022
 30
0.0
 11
429.0
 21
48.50697505374589
 31
0.0
  0
LINE
  5
38B
  8
DATA
  6
CONTINUOUS
 62
     7
 10
407.0
 20
34.00697505374589
 30
0.0
 11
421.94819364913332
 21
31.628853336838318
 31
0.0
  0
LINE
  5
38C
  8
DATA
  6
CONTINUOUS
 62
     7
 10
426.1101694915256
 20
30.966720816457752
 30
0.0
 11
429.0
 21
30.50697505374589
 31
0.0
  0
ARC
  5
38D
  8
DATA
  6
CONTINUOUS
 62
     7
 10
407.0
 20
39.50697505374589
 30
0.0
 40
5.4999999999999378
 50
219.52119635864281
 51
270.0
  0
ARC
  5
38E
  8
DATA
  6
CONTINUOUS
 62
     7
 10
407.0
 20
39.50697505374589
 30
0.0
 40
5.5
 50
90.0
 51
140.47880364135679
  0
LINE
  5
38F
  8
DATA
  6
CONTINUOUS
 62
     7
 10
304.0
 20
43.006975053745883
 30
0.0
 11
407.0
 21
43.006975053745883
 31
0.0
  0
LINE
  5
390
  8
DATA
  6
CONTINUOUS
 62
     7
 10
304.0
 20
36.00697505374589
 30
0.0
 11
407.0
 21
36.00697505374589
 31
0.0
  0
LINE
  5
391
  8
DATA
  6
CONTINUOUS
 62
     7
 10
460.0
 20
28.50697505374589
 30
0.0
 11
460.0
 21
50.50697505374589
 31
0.0
  0
LINE
  5
392
  8
DATA
  6
CONTINUOUS
 62
     7
 10
422.29869752451418
 20
47.770590196654183
 30
0.0
 11
460.0
 21
50.50697505374589
 31
0.0
  0
LINE
  5
393
  8
DATA
  6
CONTINUOUS
 62
     7
 10
422.29869752451418
 20
31.243359910837651
 30
0.0
 11
460.0
 21
28.50697505374589
 31
0.0
  0
LINE
  5
394
  8
DATA
  6
CONTINUOUS
 62
     7
 10
453.0
 20
44.00697505374589
 30
0.0
 11
453.0
 21
35.00697505374589
 31
0.0
  0
LINE
  5
395
  8
DATA
  6
CONTINUOUS
 62
     7
 10
453.0
 20
35.00697505374589
 30
0.0
 11
449.0
 21
35.00697505374589
 31
0.0
  0
LINE
  5
396
  8
DATA
  6
CONTINUOUS
 62
     7
 10
449.0
 20
35.00697505374589
 30
0.0
 11
449.0
 21
44.00697505374589
 31
0.0
  0
LINE
  5
397
  8
DATA
  6
CONTINUOUS
 62
     7
 10
449.0
 20
44.00697505374589
 30
0.0
 11
453.0
 21
44.00697505374589
 31
0.0
  0
ARC
  5
398
  8
DATA
  6
CONTINUOUS
 62
     7
 10
427.41666666666669
 20
39.50697505374589
 30
0.0
 40
17.083333333333261
 50
335.81048584597568
 51
24.189514154024319
  0
ARC
  5
399
  8
DATA
  6
CONTINUOUS
 62
     7
 10
431.0
 20
39.50697505374589
 30
0.0
 40
11.99999999999995
 50
136.47787779780191
 51
223.52212220219809
  0
ARC
  5
39A
  8
DATA
  6
CONTINUOUS
 62
     7
 10
431.0
 20
39.50697505374589
 30
0.0
 40
10.0
 50
143.13010235415589
 51
216.86989764584399
  0
CIRCLE
  5
39B
  8
DATA
  6
CONTINUOUS
 62
     7
 10
429.0
 20
39.50697505374589
 30
0.0
 40
6.0
  0
CIRCLE
  5
39C
  8
DATA
  6
CONTINUOUS
 62
     7
 10
429.0
 20
39.50697505374589
 30
0.0
 40
2.5
  0
LINE
  5
39D
  8
DATA
  6
CONTINUOUS
 62
     7
 10
423.0
 20
45.506975053745883
 30
0.0
 11
443.0
 21
46.50697505374589
 31
0.0
  0
LINE
  5
39E
  8
DATA
  6
CONTINUOUS
 62
     7
 10
423.0
 20
33.50697505374589
 30
0.0
 11
443.0
 21
32.50697505374589
 31
0.0
  0
LINE
  5
39F
  8
DATA
  6
STYLE_01
 62
     7
 10
423.02201221250289
 20
71.856082504897373
 30
0.0
 11
403.96945332924503
 21
60.85608250489738
 31
0.0
  0
LINE
  5
3A0
  8
DATA
  6
STYLE_01
 62
     7
 10
425.1898833677605
 20
29.573989233911359
 30
0.0
 11
403.96945332924503
 21
60.85608250489738
 31
0.0
  0
LINE
  5
3A1
  8
DATA
  6
STYLE_01
 62
     7
 10
439.50288464947317
 20
37.837604376819527
 30
0.0
 11
423.02201221250289
 21
71.856082504897373
 31
0.0
  0
ARC
  5
3A2
  8
DATA
  6
STYLE_01
 62
     7
 10
427.9957327708741
 20
41.241345795148654
 30
0.0
 40
11.999999999999931
 50
256.47787779780219
 51
343.52212220219752
  0
LINE
  5
3A3
  8
DATA
  6
STYLE_01
 62
     7
 10
423.02201221250289
 20
7.1578676025943651
 30
0.0
 11
403.96945332924503
 21
18.157867602594362
 31
0.0
  0
LINE
  5
3A4
  8
DATA
  6
STYLE_01
 62
     7
 10
425.1898833677605
 20
49.439960873580482
 30
0.0
 11
403.96945332924503
 21
18.157867602594362
 31
0.0
  0
LINE
  5
3A5
  8
DATA
  6
STYLE_01
 62
     7
 10
439.50288464947317
 20
41.176345730672232
 30
0.0
 11
423.02201221250289
 21
7.1578676025943651
 31
0.0
  0
ARC
  5
3A6
  8
DATA
  6
STYLE_01
 62
     7
 10
427.9957327708741
 20
37.772604312343141
 30
0.0
 40
11.999999999999799
 50
16.477877797802659
 51
103.52212220219791
  0
LINE
  5
3A7
  8
DATA
  6
CONTINUOUS
 62
     7
 10
427.23519091339011
 20
54.50697505374589
 30
0.0
 11
430.69615969567337
 21
54.50697505374589
 31
0.0
  0
LINE
  5
3A8
  8
DATA
  6
CONTINUOUS
 62
     7
 10
422.75
 20
39.50697505374589
 30
0.0
 11
435.25
 21
39.50697505374589
 31
0.0
  0
LINE
  5
3A9
  8
DATA
  6
CONTINUOUS
 62
     7
 10
426.2807109353551
 20
53.805250046881859
 30
0.0
 11
424.44352759154202
 21
47.926263346680358
 31
0.0
  0
LINE
  5
3AA
  8
DATA
  6
CONTINUOUS
 62
     7
 10
431.64897726168192
 20
53.810518602360467
 30
0.0
 11
433.33454177391133
 21
48.519562878797359
 31
0.0
  0
LINE
  5
3AB
  8
DATA
  6
CONTINUOUS
 62
     7
 10
427.23519091339011
 20
24.50697505374589
 30
0.0
 11
430.69615969567337
 21
24.50697505374589
 31
0.0
  0
LINE
  5
3AC
  8
DATA
  6
CONTINUOUS
 62
     7
 10
426.2807109353551
 20
25.208700060609921
 30
0.0
 11
424.44352759154202
 21
31.087686760811408
 31
0.0
  0
LINE
  5
3AD
  8
DATA
  6
CONTINUOUS
 62
     7
 10
431.64897726168192
 20
25.203431505131309
 30
0.0
 11
433.33454177391133
 21
30.49438722869402
 31
0.0
  0
ARC
  5
3AE
  8
DATA
  6
CONTINUOUS
 62
     7
 10
427.23519091339011
 20
25.50697505374589
 30
0.0
 40
1.000000000000081
 50
197.3540246362582
 51
270.0
  0
ARC
  5
3AF
  8
DATA
  6
CONTINUOUS
 62
     7
 10
430.69615969567337
 20
25.50697505374589
 30
0.0
 40
1.0
 50
270.0
 51
342.32943825476087
  0
ARC
  5
3B0
  8
DATA
  6
CONTINUOUS
 62
     7
 10
427.23519091339011
 20
53.50697505374589
 30
0.0
 40
1.0
 50
90.0
 51
162.6459753637393
  0
ARC
  5
3B1
  8
DATA
  6
CONTINUOUS
 62
     7
 10
430.69615969567337
 20
53.50697505374589
 30
0.0
 40
0.9999999999999939
 50
17.670561745239009
 51
89.999999999999986
  0
LINE
  5
3B2
  8
DATA
  6
CONTINUOUS
 62
     7
 10
327.53933398310562
 20
86.999999999999943
 30
0.0
 11
380.53933398310562
 21
86.999999999999943
 31
0.0
  0
LINE
  5
3B3
  8
DATA
  6
CONTINUOUS
 62
     7
 10
356.53933398310562
 20
166.99999999999989
 30
0.0
 11
351.53933398310562
 21
166.99999999999989
 31
0.0
  0
LINE
  5
3B4
  8
DATA
  6
CONTINUOUS
 62
     7
 10
350.53933398310562
 20
165.99999999999989
 30
0.0
 11
350.53933398310562
 21
86.999999999999943
 31
0.0
  0
LINE
  5
3B5
  8
DATA
  6
CONTINUOUS
 62
     7
 10
357.53933398310562
 20
165.99999999999989
 30
0.0
 11
357.53933398310562
 21
86.999999999999943
 31
0.0
  0
LINE
  5
3B6
  8
DATA
  6
CONTINUOUS
 62
     7
 10
380.53933398310562
 20
103.4999999999999
 30
0.0
 11
380.53933398310562
 21
86.999999999999943
 31
0.0
  0
LINE
  5
3B7
  8
DATA
  6
CONTINUOUS
 62
     7
 10
327.53933398310562
 20
103.4999999999999
 30
0.0
 11
327.53933398310562
 21
86.999999999999943
 31
0.0
  0
ARC
  5
3B8
  8
DATA
  6
CONTINUOUS
 62
     7
 10
363.73561381424361
 20
156.3116901406822
 30
0.0
 40
4.9999999999992957
 50
24.357316255904749
 51
63.434948822921868
  0
ARC
  5
3B9
  8
DATA
  6
CONTINUOUS
 62
     7
 10
344.3430541519682
 20
156.31169014068149
 30
0.0
 40
5.0000000000002389
 50
116.5650511770786
 51
155.6426837440896
  0
LINE
  5
3BA
  8
DATA
  6
CONTINUOUS
 62
     7
 10
378.53933398310562
 20
103.4999999999999
 30
0.0
 11
378.53933398310562
 21
108.4999999999999
 31
0.0
  0
ARC
  5
3BB
  8
DATA
  6
CONTINUOUS
 62
     7
 10
247.9056321375185
 20
107.64551349852201
 30
0.0
 40
130.636496451271
 50
0.3747713742237611
 51
22.84978711310756
  0
LINE
  5
3BC
  8
DATA
  6
CONTINUOUS
 62
     7
 10
329.53933398310562
 20
103.4999999999999
 30
0.0
 11
329.53933398310562
 21
108.4999999999999
 31
0.0
  0
ARC
  5
3BD
  8
DATA
  6
CONTINUOUS
 62
     7
 10
460.17303582869278
 20
107.64551349852201
 30
0.0
 40
130.63649645127111
 50
157.15021288689249
 51
179.6252286257762
  0
ARC
  5
3BE
  8
DATA
  6
CONTINUOUS
 62
     7
 10
-17.127011778684668
 20
84.644679019616675
 30
0.0
 40
397.67332081553627
 50
355.23525415745382
 51
0.3393507522590085
  0
ARC
  5
3BF
  8
DATA
  6
CONTINUOUS
 62
     7
 10
139.78933398310571
 20
73.049999999999869
 30
0.0
 40
209.37684924556481
 50
347.29458762927618
 51
349.8095701178741
  0
ARC
  5
3C0
  8
DATA
  6
CONTINUOUS
 62
     7
 10
139.78933398310571
 20
73.049999999999869
 30
0.0
 40
209.37684924556481
 50
351.75027876022727
 51
352.52260528231841
  0
ARC
  5
3C1
  8
DATA
  6
CONTINUOUS
 62
     7
 10
568.28933398310562
 20
73.049999999999869
 30
0.0
 40
209.3768492455649
 50
187.42131853893829
 51
188.24972123977241
  0
ARC
  5
3C2
  8
DATA
  6
CONTINUOUS
 62
     7
 10
568.28933398310562
 20
73.049999999999869
 30
0.0
 40
209.3768492455649
 50
190.1904298821261
 51
192.70541237072359
  0
ARC
  5
3C3
  8
DATA
  6
CONTINUOUS
 62
     7
 10
387.7690637128353
 20
33.378378378378407
 30
0.0
 40
24.572012204615831
 50
195.04508302210439
 51
234.69425025671961
  0
ARC
  5
3C4
  8
DATA
  6
CONTINUOUS
 62
     7
 10
557.78933398310653
 20
81.999999999999901
 30
0.0
 40
200.31241224647169
 50
178.56969095805289
 51
181.28525713742559
  0
ARC
  5
3C5
  8
DATA
  6
CONTINUOUS
 62
     7
 10
150.28933398310471
 20
81.999999999999901
 30
0.0
 40
200.3124122464715
 50
358.7147428625745
 51
1.4303090419472251
  0
ARC
  5
3C6
  8
DATA
  6
CONTINUOUS
 62
     7
 10
320.30960425337582
 20
33.378378378378407
 30
0.0
 40
24.572012204615859
 50
305.1057350090303
 51
344.95491697789561
  0
ARC
  5
3C7
  8
DATA
  6
CONTINUOUS
 62
     7
 10
725.20567974489586
 20
84.644679019616746
 30
0.0
 40
397.67332081553621
 50
179.66064924774099
 51
184.64462562899649
  0
LINE
  5
3C8
  8
DATA
  6
CONTINUOUS
 62
     7
 10
344.28933398310562
 20
-20.0
 30
0.0
 11
363.78933398310562
 21
-20.0
 31
0.0
  0
ARC
  5
3C9
  8
DATA
  6
CONTINUOUS
 62
     7
 10
356.53933398310562
 20
165.99999999999989
 30
0.0
 40
1.0
 50
0.0
 51
90.0
  0
ARC
  5
3CA
  8
DATA
  6
CONTINUOUS
 62
     7
 10
351.53933398310562
 20
165.99999999999989
 30
0.0
 40
1.0
 50
90.0
 51
180.0
  0
ARC
  5
3CB
  8
DATA
  6
CONTINUOUS
 62
     7
 10
354.03933398310579
 20
146.0068263012466
 30
0.0
 40
18.99317369875325
 50
51.079311944329788
 51
79.381032709945018
  0
ARC
  5
3CC
  8
DATA
  6
CONTINUOUS
 62
     7
 10
354.03933398310579
 20
146.0068263012466
 30
0.0
 40
18.993173698753289
 50
100.61896729005559
 51
128.9206880556701
  0
LINE
  5
3CD
  8
DATA
  6
CONTINUOUS
 62
     7
 10
368.03933398310562
 20
86.999999999999943
 30
0.0
 11
368.03933398310562
 21
87.999999999999886
 31
0.0
  0
LINE
  5
3CE
  8
DATA
  6
CONTINUOUS
 62
     7
 10
368.03933398310562
 20
89.500000000000043
 30
0.0
 11
368.03933398310562
 21
90.499999999999943
 31
0.0
  0
LINE
  5
3CF
  8
DATA
  6
CONTINUOUS
 62
     7
 10
368.03933398310562
 20
90.499999999999943
 30
0.0
 11
372.03933398310562
 21
90.499999999999943
 31
0.0
  0
LINE
  5
3D0
  8
DATA
  6
CONTINUOUS
 62
     7
 10
372.03933398310562
 20
90.499999999999943
 30
0.0
 11
372.03933398310562
 21
86.999999999999943
 31
0.0
  0
CIRCLE
  5
3D1
  8
DATA
  6
CONTINUOUS
 62
     7
 10
369.03933398310562
 20
88.749999999999957
 30
0.0
 40
1.249999999999992
  0
LINE
  5
3D2
  8
DATA
  6
CONTINUOUS
 62
     7
 10
366.03933398310562
 20
84.999999999999986
 30
0.0
 11
368.03933398310562
 21
84.999999999999986
 31
0.0
  0
LINE
  5
3D3
  8
DATA
  6
CONTINUOUS
 62
     7
 10
370.03933398310562
 20
84.999999999999986
 30
0.0
 11
371.03933398310562
 21
84.999999999999986
 31
0.0
  0
LINE
  5
3D4
  8
DATA
  6
CONTINUOUS
 62
     7
 10
370.03933398310562
 20
84.999999999999986
 30
0.0
 11
369.03933398310562
 21
83.999999999999957
 31
0.0
  0
LINE
  5
3D5
  8
DATA
  6
CONTINUOUS
 62
     7
 10
374.03933398310562
 20
84.999999999999986
 30
0.0
 11
373.03933398310562
 21
84.999999999999986
 31
0.0
  0
LINE
  5
3D6
  8
DATA
  6
CONTINUOUS
 62
     7
 10
373.03933398310562
 20
84.999999999999986
 30
0.0
 11
372.03933398310562
 21
84.422649730810306
 31
0.0
  0
LINE
  5
3D7
  8
DATA
  6
CONTINUOUS
 62
     7
 10
327.53933398310562
 20
103.4999999999999
 30
0.0
 11
350.53933398310562
 21
103.4999999999999
 31
0.0
  0
LINE
  5
3D8
  8
DATA
  6
CONTINUOUS
 62
     7
 10
357.53933398310562
 20
103.4999999999999
 30
0.0
 11
380.53933398310562
 21
103.4999999999999
 31
0.0
  0
LINE
  5
3D9
  8
DATA
  6
CONTINUOUS
 62
     7
 10
369.03933398310562
 20
89.999999999999957
 30
0.0
 11
370.03933398310562
 21
89.999999999999957
 31
0.0
  0
LINE
  5
3DA
  8
DATA
  6
CONTINUOUS
 62
     7
 10
369.03933398310562
 20
87.499999999999957
 30
0.0
 11
370.03933398310562
 21
87.499999999999957
 31
0.0
  0
ARC
  5
3DB
  8
DATA
  6
CONTINUOUS
 62
     7
 10
115.1556890534001
 20
395.31138315691572
 30
0.0
 40
6.291070268080686
 50
14.160461379861051
 51
68.968129667069903
  0
ARC
  5
3DC
  8
DATA
  6
CONTINUOUS
 62
     7
 10
83.922131147540952
 20
396.10655737704923
 30
0.0
 40
7.2275656287600007
 50
107.489695330733
 51
172.89916248473659
  0
ARC
  5
3DD
  8
DATA
  6
CONTINUOUS
 62
     7
 10
116.07786885245901
 20
396.10655737704923
 30
0.0
 40
7.2275656287600007
 50
7.1008375152634047
 51
72.510304669266986
  0
ARC
  5
3DE
  8
DATA
  6
CONTINUOUS
 62
     7
 10
100.0
 20
363.3671875
 30
0.0
 40
41.632812499999979
 50
65.2750151685714
 51
114.7249848314286
  0
ARC
  5
3DF
  8
DATA
  6
CONTINUOUS
 62
     7
 10
84.844310946599734
 20
395.31138315691572
 30
0.0
 40
6.2910702680806017
 50
111.0318703329296
 51
165.8395386201388
  0
LINE
  5
3E0
  8
DATA
  6
CONTINUOUS
 62
     7
 10
173.49999999999989
 20
343.5
 30
0.0
 11
196.5
 21
343.5
 31
0.0
  0
LINE
  5
3E1
  8
DATA
  6
CONTINUOUS
 62
     7
 10
203.5
 20
343.5
 30
0.0
 11
226.5
 21
343.5
 31
0.0
  0
ARC
  5
3E2
  8
DATA
  6
CONTINUOUS
 62
     7
 10
209.69627983113801
 20
396.31169014068217
 30
0.0
 40
4.9999999999993507
 50
24.357316255903761
 51
63.434948822921733
  0
ARC
  5
3E3
  8
DATA
  6
CONTINUOUS
 62
     7
 10
200.0
 20
386.0068263012468
 30
0.0
 40
18.99317369875321
 50
51.079311944329383
 51
79.381032709944805
  0
ARC
  5
3E4
  8
DATA
  6
CONTINUOUS
 62
     7
 10
93.86629815441276
 20
347.64551349852201
 30
0.0
 40
130.63649645127111
 50
0.3747713742237608
 51
22.84978711310757
  0
ARC
  5
3E5
  8
DATA
  6
CONTINUOUS
 62
     7
 10
190.3037201688625
 20
396.31169014068161
 30
0.0
 40
5.0000000000001634
 50
116.5650511770783
 51
155.64268374408991
  0
ARC
  5
3E6
  8
DATA
  6
CONTINUOUS
 62
     7
 10
200.0
 20
386.0068263012468
 30
0.0
 40
18.99317369875321
 50
100.61896729005549
 51
128.9206880556701
  0
ARC
  5
3E7
  8
DATA
  6
CONTINUOUS
 62
     7
 10
306.1337018455871
 20
347.64551349852201
 30
0.0
 40
130.63649645127111
 50
157.15021288689249
 51
179.6252286257762
  0
LINE
  5
3E8
  8
DATA
  6
CONTINUOUS
 62
     7
 10
224.5
 20
343.5
 30
0.0
 11
224.5
 21
348.5
 31
0.0
  0
LINE
  5
3E9
  8
DATA
  6
CONTINUOUS
 62
     7
 10
175.49999999999989
 20
343.5
 30
0.0
 11
175.49999999999989
 21
348.5
 31
0.0
  0
LINE
  5
3EA
  8
DATA
  6
CONTINUOUS
 62
     7
 10
323.25
 20
397.0
 30
0.0
 11
327.2625000000001
 21
343.5
 31
0.0
  0
ARC
  5
3EB
  8
DATA
  6
CONTINUOUS
 62
     7
 10
316.07786885245901
 20
396.10655737704923
 30
0.0
 40
7.2275656287599741
 50
7.1008375152634331
 51
72.5103046692672
  0
ARC
  5
3EC
  8
DATA
  6
CONTINUOUS
 62
     7
 10
300.0
 20
363.3671875
 30
0.0
 40
43.632812499999993
 50
65.2750151685714
 51
114.7249848314286
  0
ARC
  5
3ED
  8
DATA
  6
CONTINUOUS
 62
     7
 10
283.92213114754088
 20
396.10655737704923
 30
0.0
 40
7.2275656287600007
 50
107.489695330733
 51
172.89916248473659
  0
LINE
  5
3EE
  8
DATA
  6
CONTINUOUS
 62
     7
 10
276.75
 20
397.0
 30
0.0
 11
272.73750000000001
 21
343.5
 31
0.0
  0
LINE
  5
3EF
  8
DATA
  6
CONTINUOUS
 62
     7
 10
325.25688288798688
 20
343.5
 30
0.0
 11
274.74311711201312
 21
343.5
 31
0.0
  0
LINE
  5
3F0
  8
DATA
  6
CONTINUOUS
 62
     7
 10
278.7443986197768
 20
396.85042010351691
 30
0.0
 11
274.74311711201312
 21
343.5
 31
0.0
  0
ARC
  5
3F1
  8
DATA
  6
CONTINUOUS
 62
     7
 10
300.0
 20
363.3671875
 30
0.0
 40
41.632812499999979
 50
65.2750151685714
 51
114.7249848314286
  0
ARC
  5
3F2
  8
DATA
  6
CONTINUOUS
 62
     7
 10
284.84431094659982
 20
395.31138315691572
 30
0.0
 40
6.2910702680806221
 50
111.0318703329301
 51
165.8395386201388
  0
ARC
  5
3F3
  8
DATA
  6
CONTINUOUS
 62
     7
 10
315.15568905340018
 20
395.31138315691572
 30
0.0
 40
6.2910702680806594
 50
14.16046137986112
 51
68.968129667069874
  0
LINE
  5
3F4
  8
DATA
  6
CONTINUOUS
 62
     7
 10
321.25560138022303
 20
396.85042010351691
 30
0.0
 11
325.25688288798688
 21
343.5
 31
0.0
  0
TEXT
  5
3F5
  8
DATA
 62
     7
 10
284.82334771798293
 20
-33.775450204593881
 30
0.0
 40
5.7009440104166647
  1
サスペンション・ショックマウント装着時
 41
0.8
 11
284.82334771798293
 21
-28.074506194177221
 31
0.0
 73
     3
  0
ENDSEC
  0
EOF
