  0
SECTION
  2
HEADER
  9
$ACADVER
  1
AC1009
  9
$INSBASE
 10
0.0
 20
0.0
 30
0.0
  9
$EXTMIN
 10
-80.000855175362176
 20
-133.12566149858
 30
-0.0015258207003583
  9
$EXTMAX
 10
280.0008571302339
 20
403.56218684362619
 30
0.0000000349246037
  9
$LIMMIN
 10
0.0
 20
0.0
  9
$LIMMAX
 10
0.0
 20
0.0
  9
$ORTHOMODE
 70
     0
  9
$REGENMODE
 70
     1
  9
$FILLMODE
 70
     1
  9
$QTEXTMODE
 70
     0
  9
$MIRRTEXT
 70
     1
  9
$DRAGMODE
 70
     2
  9
$LTSCALE
 40
10.16
  9
$OSMODE
 70
    37
  9
$ATTMODE
 70
     1
  9
$TEXTSIZE
 40
0.0
  9
$TRACEWID
 40
1.0
  9
$TEXTSTYLE
  7
STANDARD
  9
$CLAYER
  8
0
  9
$CELTYPE
  6
CONTINUOUS
  9
$CECOLOR
 62
   256
  9
$DIMSCALE
 40
1.0
  9
$DIMASZ
 40
0.18
  9
$DIMEXO
 40
0.0625
  9
$DIMDLI
 40
0.38
  9
$DIMRND
 40
0.0
  9
$DIMDLE
 40
0.0
  9
$DIMEXE
 40
0.18
  9
$DIMTP
 40
0.0
  9
$DIMTM
 40
0.0
  9
$DIMTXT
 40
0.18
  9
$DIMCEN
 40
0.09
  9
$DIMTSZ
 40
0.0
  9
$DIMTOL
 70
     0
  9
$DIMLIM
 70
     0
  9
$DIMTIH
 70
     1
  9
$DIMTOH
 70
     1
  9
$DIMSE1
 70
     0
  9
$DIMSE2
 70
     0
  9
$DIMTAD
 70
     0
  9
$DIMZIN
 70
     0
  9
$DIMBLK
  1

  9
$DIMASO
 70
     1
  9
$DIMSHO
 70
     1
  9
$DIMPOST
  1

  9
$DIMAPOST
  1

  9
$DIMALT
 70
     0
  9
$DIMALTD
 70
     2
  9
$DIMALTF
 40
25.399999999999999
  9
$DIMLFAC
 40
1.0
  9
$DIMTOFL
 70
     0
  9
$DIMTVP
 40
0.0
  9
$DIMTIX
 70
     0
  9
$DIMSOXD
 70
     0
  9
$DIMSAH
 70
     0
  9
$DIMBLK1
  1

  9
$DIMBLK2
  1

  9
$DIMSTYLE
  2
STANDARD
  9
$DIMCLRD
 70
     0
  9
$DIMCLRE
 70
     0
  9
$DIMCLRT
 70
     0
  9
$DIMTFAC
 40
1.0
  9
$DIMGAP
 40
0.09
  9
$LUNITS
 70
     2
  9
$LUPREC
 70
     4
  9
$SKETCHINC
 40
0.1
  9
$FILLETRAD
 40
0.0
  9
$AUNITS
 70
     0
  9
$AUPREC
 70
     0
  9
$MENU
  1
acad
  9
$ELEVATION
 40
0.0
  9
$PELEVATION
 40
0.0
  9
$THICKNESS
 40
0.0
  9
$LIMCHECK
 70
     0
  9
$BLIPMODE
 70
     0
  9
$CHAMFERA
 40
0.0
  9
$CHAMFERB
 40
0.0
  9
$SKPOLY
 70
     0
  9
$TDCREATE
 40
2452305.7908564811
  9
$TDUPDATE
 40
2452305.8068490741
  9
$TDINDWG
 40
0.0021913194
  9
$TDUSRTIMER
 40
0.0021913194
  9
$USRTIMER
 70
     1
  9
$ANGBASE
 50
0.0
  9
$ANGDIR
 70
     0
  9
$PDMODE
 70
     1
  9
$PDSIZE
 40
-2.0
  9
$PLINEWID
 40
0.0
  9
$COORDS
 70
     1
  9
$SPLFRAME
 70
     0
  9
$SPLINETYPE
 70
     6
  9
$SPLINESEGS
 70
     8
  9
$ATTDIA
 70
     0
  9
$ATTREQ
 70
     1
  9
$HANDLING
 70
 22529
  9
$HANDSEED
  5
200
  9
$SURFTAB1
 70
     6
  9
$SURFTAB2
 70
     6
  9
$SURFTYPE
 70
     6
  9
$SURFU
 70
     6
  9
$SURFV
 70
     6
  9
$UCSNAME
  2

  9
$UCSORG
 10
0.0
 20
0.0
 30
0.0
  9
$UCSXDIR
 10
1.0
 20
0.0
 30
0.0
  9
$UCSYDIR
 10
0.0
 20
1.0
 30
0.0
  9
$PUCSNAME
  2

  9
$PUCSORG
 10
0.0
 20
0.0
 30
0.0
  9
$PUCSXDIR
 10
1.0
 20
0.0
 30
0.0
  9
$PUCSYDIR
 10
0.0
 20
1.0
 30
0.0
  9
$USERI1
 70
     0
  9
$USERI2
 70
     0
  9
$USERI3
 70
     0
  9
$USERI4
 70
     0
  9
$USERI5
 70
     0
  9
$USERR1
 40
0.0
  9
$USERR2
 40
0.0
  9
$USERR3
 40
0.0
  9
$USERR4
 40
0.0
  9
$USERR5
 40
0.0
  9
$WORLDVIEW
 70
     1
  9
$SHADEDGE
 70
     3
  9
$SHADEDIF
 70
    70
  9
$TILEMODE
 70
     1
  9
$MAXACTVP
 70
    64
  9
$PLIMCHECK
 70
     0
  9
$PEXTMIN
 10
1.0000000000000000E+020
 20
1.0000000000000000E+020
 30
1.0000000000000000E+020
  9
$PEXTMAX
 10
-1.0000000000000000E+020
 20
-1.0000000000000000E+020
 30
-1.0000000000000000E+020
  9
$PLIMMIN
 10
0.0
 20
0.0
  9
$PLIMMAX
 10
12.0
 20
9.0
  9
$UNITMODE
 70
     0
  9
$VISRETAIN
 70
     1
  9
$PLINEGEN
 70
     0
  9
$PSLTSCALE
 70
     0
  0
ENDSEC
  0
SECTION
  2
TABLES
  0
TABLE
  2
VPORT
 70
     2
  0
VPORT
  2
*ACTIVE
 70
     0
 10
0.0
 20
0.0
 11
1.0
 21
1.0
 12
100.0000009774359
 22
135.21826267252311
 13
0.0
 23
0.0
 14
1.0
 24
1.0
 15
0.0
 25
0.0
 16
0.0
 26
0.0
 36
1.0
 17
0.0
 27
0.0
 37
0.0
 40
542.32730033879693
 41
1.268421052631578
 42
50.0
 43
0.0
 44
0.0
 50
0.0
 51
0.0
 71
     0
 72
   100
 73
     1
 74
     1
 75
     0
 76
     0
 77
     0
 78
     0
  0
ENDTAB
  0
TABLE
  2
LTYPE
 70
    11
  0
LTYPE
  2
CONTINUOUS
 70
     0
  3
Solid line
 72
    65
 73
     0
 40
0.0
  0
LTYPE
  2
STYLE_01
 70
     0
  3

 72
    65
 73
     2
 40
0.4166412353515625
 49
0.208282470703125
 49
-0.2083587646484375
  0
LTYPE
  2
STYLE_02
 70
     0
  3

 72
    65
 73
     2
 40
0.694427490234375
 49
0.4860687255859375
 49
-0.2083587646484375
  0
LTYPE
  2
STYLE_03
 70
     0
  3

 72
    65
 73
     2
 40
1.25
 49
1.0416412353515621
 49
-0.2083587646484375
  0
LTYPE
  2
STYLE_04
 70
     0
  3

 72
    65
 73
     2
 40
1.5277099609375
 49
1.319427490234375
 49
-0.208282470703125
  0
LTYPE
  2
STYLE_05
 70
     0
  3

 72
    65
 73
     2
 40
0.208282470703125
 49
0.069427490234375
 49
-0.13885498046875
  0
LTYPE
  2
STYLE_06
 70
     0
  3

 72
    65
 73
     4
 40
1.0416412353515621
 49
0.625
 49
-0.208282470703125
 49
0.069427490234375
 49
-0.1389312744140625
  0
LTYPE
  2
STYLE_07
 70
     0
  3

 72
    65
 73
     6
 40
1.875
 49
0.625
 49
-0.208282470703125
 49
0.625
 49
-0.2083587646484375
 49
0.069427490234375
 49
-0.1389312744140625
  0
LTYPE
  2
STYLE_08
 70
     0
  3

 72
    65
 73
     6
 40
1.25
 49
0.625
 49
-0.208282470703125
 49
0.069427490234375
 49
-0.1389312744140625
 49
0.069427490234375
 49
-0.1389312744140625
  0
LTYPE
  2
STYLE_09
 70
     0
  3

 72
    65
 73
     4
 40
5.0
 49
3.75
 49
-0.2777862548828125
 49
0.694427490234375
 49
-0.2777862548828125
  0
LTYPE
  2
STYLE_10
 70
     0
  3

 72
    65
 73
     6
 40
5.9375
 49
3.75
 49
-0.2777862548828125
 49
0.694427490234375
 49
-0.2777862548828125
 49
0.625
 49
-0.3125
  0
ENDTAB
  0
TABLE
  2
LAYER
 70
     6
  0
LAYER
  2
0
 70
     0
 62
     7
  6
CONTINUOUS
  0
LAYER
  2
HIBINO-BASE
 70
     0
 62
     7
  6
CONTINUOUS
  0
LAYER
  2
PATTERN_FILL
 70
     0
 62
     7
  6
CONTINUOUS
  0
LAYER
  2
SPEC
 70
     0
 62
     7
  6
CONTINUOUS
  0
LAYER
  2
DIMNSIONS
 70
     0
 62
     7
  6
CONTINUOUS
  0
LAYER
  2
DATA
 70
     0
 62
     7
  6
CONTINUOUS
  0
ENDTAB
  0
TABLE
  2
STYLE
 70
     2
  0
STYLE
  2
STANDARD
 70
     0
 40
0.0
 41
1.0
 50
0.0
 71
     0
 42
0.0
  3
txt
  4
BIGFONT.SHX
  0
ENDTAB
  0
TABLE
  2
VIEW
 70
     0
  0
ENDTAB
  0
TABLE
  2
UCS
 70
     0
  0
ENDTAB
  0
TABLE
  2
APPID
 70
     1
  0
APPID
  2
ACAD
 70
     0
  0
ENDTAB
  0
TABLE
  2
DIMSTYLE
 70
     1
  0
DIMSTYLE
  2
STANDARD
 70
     0
  3

  4

  5

  6

  7

 40
1.0
 41
0.18
 42
0.0625
 43
0.38
 44
0.18
 45
0.0
 46
0.0
 47
0.0
 48
0.0
140
0.18
141
0.09
142
0.0
143
25.399999999999999
144
1.0
145
0.0
146
1.0
147
0.09
 71
     0
 72
     0
 73
     1
 74
     1
 75
     0
 76
     0
 77
     0
 78
     0
170
     0
171
     2
172
     0
173
     0
174
     0
175
     0
176
     0
177
     0
178
     0
  0
ENDTAB
  0
ENDSEC
  0
SECTION
  2
BLOCKS
  0
BLOCK
  8
0
  2
$MODEL_SPACE
 70
     0
 10
0.0
 20
0.0
 30
0.0
  3
$MODEL_SPACE
  1

  0
ENDBLK
  5
1E6
  8
0
  0
BLOCK
 67
     1
  8
0
  2
$PAPER_SPACE
 70
     0
 10
0.0
 20
0.0
 30
0.0
  3
$PAPER_SPACE
  1

  0
ENDBLK
  5
1E4
 67
     1
  8
0
  0
ENDSEC
  0
SECTION
  2
ENTITIES
  0
LINE
  5
2D
  8
HIBINO-BASE
  6
CONTINUOUS
 62
     7
 10
-79.999990000000011
 20
403.53179999999998
 30
0.0
 11
279.99998999999991
 21
403.53179999999998
 31
0.0
  0
LINE
  5
2E
  8
HIBINO-BASE
  6
CONTINUOUS
 62
     7
 10
279.99998999999991
 20
-116.4681699999999
 30
0.0
 11
-79.999990000000011
 21
-116.4681699999999
 31
0.0
  0
LINE
  5
2F
  8
HIBINO-BASE
  6
CONTINUOUS
 62
     7
 10
-79.999990000000011
 20
-116.4681699999999
 30
0.0
 11
-79.999990000000011
 21
403.53179999999998
 31
0.0
  0
TEXT
  5
30
  8
HIBINO-BASE
 62
     7
 10
-65.631980000000013
 20
-130.59540999999999
 30
0.0
 40
7.4851519999999994
  1
Hibino Corporation
 41
0.75
  0
LINE
  5
31
  8
HIBINO-BASE
  6
CONTINUOUS
 62
     7
 10
279.99998999999991
 20
403.53179999999998
 30
0.0
 11
279.99998999999991
 21
-116.4681699999999
 31
0.0
  0
LINE
  5
32
  8
HIBINO-BASE
  6
CONTINUOUS
 62
     7
 10
100.0
 20
-71.46817999999999
 30
0.0
 11
279.99998999999991
 21
-71.46817999999999
 31
0.0
  0
LINE
  5
33
  8
HIBINO-BASE
  6
CONTINUOUS
 62
     7
 10
100.0
 20
-116.4681699999999
 30
0.0
 11
100.0
 21
-71.46817999999999
 31
0.0
  0
TEXT
  5
34
  8
HIBINO-BASE
 62
     7
 10
101.79997999999991
 20
-77.523139999999984
 30
0.0
 40
3.7425920000000001
  1
NOTE
 41
0.75
  0
LINE
  5
35
  8
HIBINO-BASE
  6
CONTINUOUS
 62
     7
 10
170.0
 20
-116.4681699999999
 30
0.0
 11
170.0
 21
-71.46817999999999
 31
0.0
  0
TEXT
  5
36
  8
HIBINO-BASE
 62
     7
 10
171.7999999999999
 20
-77.523139999999984
 30
0.0
 40
3.7425920000000001
  1
TITLE
 41
0.75
  0
TEXT
  5
37
  8
HIBINO-BASE
 62
     7
 10
200.13676000000001
 20
-130.59540999999999
 30
0.0
 40
7.4851519999999994
  1
ヒビノ株式会社
 41
0.75
  0
LINE
  5
38
  8
HIBINO-BASE
  6
CONTINUOUS
 62
     7
 10
100.0
 20
-96.46817999999999
 30
0.0
 11
279.99998999999991
 21
-96.46817999999999
 31
0.0
  0
TEXT
  5
39
  8
HIBINO-BASE
 62
     7
 10
196.7999999999999
 20
-102.4104899999999
 30
0.0
 40
3.7425920000000001
  1
DRAWN
 41
0.75
  0
TEXT
  5
3A
  8
HIBINO-BASE
 62
     7
 10
146.7999999999999
 20
-102.4104899999999
 30
0.0
 40
3.7425920000000001
  1
DATE
 41
0.75
  0
TEXT
  5
3B
  8
HIBINO-BASE
 62
     7
 10
102.1999799999999
 20
-102.2997299999999
 30
0.0
 40
3.3866559999999999
  1
図面サイズ
 41
0.75
  0
TEXT
  5
3C
  8
HIBINO-BASE
 62
     7
 10
126.79997999999991
 20
-102.4104899999999
 30
0.0
 40
3.7425920000000001
  1
SCALE
 41
0.75
  0
TEXT
  5
3D
  8
HIBINO-BASE
 62
     7
 10
171.7999999999999
 20
-102.4104899999999
 30
0.0
 40
3.7425920000000001
  1
DESIGN
 41
0.75
  0
TEXT
  5
3E
  8
HIBINO-BASE
 62
     7
 10
246.79997999999989
 20
-102.4104899999999
 30
0.0
 40
3.7425920000000001
  1
DRAWING NO.
 41
0.75
  0
TEXT
  5
3F
  8
HIBINO-BASE
 62
     7
 10
221.79998999999989
 20
-102.4104899999999
 30
0.0
 40
3.7425920000000001
  1
CHECK
 41
0.75
  0
LINE
  5
40
  8
HIBINO-BASE
  6
CONTINUOUS
 62
     7
 10
128.74997999999991
 20
-113.9681799999999
 30
0.0
 11
136.25
 21
-106.46818
 31
0.0
  0
TEXT
  5
41
  8
HIBINO-BASE
 62
     7
 10
127.49997999999989
 20
-110.6898299999999
 30
0.0
 40
4.5155519999999987
  1
1
 41
0.75
  0
LINE
  5
42
  8
HIBINO-BASE
  6
CONTINUOUS
 62
     7
 10
124.99997999999989
 20
-116.4681699999999
 30
0.0
 11
124.99997999999989
 21
-96.46817999999999
 31
0.0
  0
LINE
  5
43
  8
HIBINO-BASE
  6
CONTINUOUS
 62
     7
 10
144.99998999999991
 20
-116.4681699999999
 30
0.0
 11
144.99998999999991
 21
-96.46817999999999
 31
0.0
  0
LINE
  5
44
  8
HIBINO-BASE
  6
CONTINUOUS
 62
     7
 10
194.99998999999991
 20
-96.46817999999999
 30
0.0
 11
194.99998999999991
 21
-116.4681699999999
 31
0.0
  0
LINE
  5
45
  8
HIBINO-BASE
  6
CONTINUOUS
 62
     7
 10
245.0
 20
-96.46817999999999
 30
0.0
 11
245.0
 21
-116.4681699999999
 31
0.0
  0
LINE
  5
46
  8
HIBINO-BASE
  6
CONTINUOUS
 62
     7
 10
219.99997999999999
 20
-116.4681699999999
 30
0.0
 11
219.99997999999999
 21
-96.46817999999999
 31
0.0
  0
TEXT
  5
47
  8
HIBINO-BASE
 62
     7
 10
107.82178
 20
-112.65657999999991
 30
0.0
 40
6.77332
  1
A4
 41
0.75
  0
TEXT
  5
48
  8
HIBINO-BASE
 62
     7
 10
146.71307999999991
 20
-111.77844999999991
 30
0.0
 40
3.7425920000000001
  1
'01.08.
 41
0.75
  0
TEXT
  5
49
  8
HIBINO-BASE
 62
     7
 10
135.0
 20
-114.4398299999999
 30
0.0
 40
4.5155519999999987
  1
2
 41
0.75
  0
LINE
  5
4A
  8
PATTERN_FILL
  6
CONTINUOUS
 62
     7
 10
151.59801999999991
 20
182.0201999999999
 30
0.0
 11
151.35134999999991
 21
182.26683
 31
0.0
  0
LINE
  5
4B
  8
PATTERN_FILL
  6
CONTINUOUS
 62
     7
 10
151.43203
 20
182.5201999999999
 30
0.0
 11
151.30203999999989
 21
182.39012999999991
 31
0.0
  0
LINE
  5
4C
  8
PATTERN_FILL
  6
CONTINUOUS
 62
     7
 10
152.03204999999991
 20
182.5201999999999
 30
0.0
 11
151.53204999999991
 21
182.0201999999999
 31
0.0
  0
LINE
  5
4D
  8
PATTERN_FILL
  6
CONTINUOUS
 62
     7
 10
152.6320399999999
 20
182.5201999999999
 30
0.0
 11
152.13203999999999
 21
182.0201999999999
 31
0.0
  0
LINE
  5
4E
  8
PATTERN_FILL
  6
CONTINUOUS
 62
     7
 10
153.23201999999989
 20
182.5201999999999
 30
0.0
 11
152.73201999999989
 21
182.0201999999999
 31
0.0
  0
LINE
  5
4F
  8
PATTERN_FILL
  6
CONTINUOUS
 62
     7
 10
153.83202999999989
 20
182.5201999999999
 30
0.0
 11
153.33202999999989
 21
182.0201999999999
 31
0.0
  0
LINE
  5
50
  8
PATTERN_FILL
  6
CONTINUOUS
 62
     7
 10
154.43203
 20
182.5201999999999
 30
0.0
 11
153.93202999999991
 21
182.0201999999999
 31
0.0
  0
LINE
  5
51
  8
PATTERN_FILL
  6
CONTINUOUS
 62
     7
 10
155.03204999999991
 20
182.5201999999999
 30
0.0
 11
154.53204999999991
 21
182.0201999999999
 31
0.0
  0
LINE
  5
52
  8
PATTERN_FILL
  6
CONTINUOUS
 62
     7
 10
155.6320199999999
 20
182.5201999999999
 30
0.0
 11
155.1320199999999
 21
182.0201999999999
 31
0.0
  0
LINE
  5
53
  8
PATTERN_FILL
  6
CONTINUOUS
 62
     7
 10
156.23201999999989
 20
182.5201999999999
 30
0.0
 11
155.73201999999989
 21
182.0201999999999
 31
0.0
  0
LINE
  5
54
  8
PATTERN_FILL
  6
CONTINUOUS
 62
     7
 10
156.83202999999989
 20
182.5201999999999
 30
0.0
 11
156.33202999999989
 21
182.0201999999999
 31
0.0
  0
LINE
  5
55
  8
PATTERN_FILL
  6
CONTINUOUS
 62
     7
 10
157.1286399999999
 20
182.2168199999999
 30
0.0
 11
156.93203
 21
182.0201999999999
 31
0.0
  0
LINE
  5
56
  8
PATTERN_FILL
  6
CONTINUOUS
 62
     7
 10
152.1980299999999
 20
182.0201999999999
 30
0.0
 11
151.6980299999999
 21
182.5201999999999
 31
0.0
  0
LINE
  5
57
  8
PATTERN_FILL
  6
CONTINUOUS
 62
     7
 10
152.7980499999999
 20
182.0201999999999
 30
0.0
 11
152.2980499999999
 21
182.5201999999999
 31
0.0
  0
LINE
  5
58
  8
PATTERN_FILL
  6
CONTINUOUS
 62
     7
 10
153.39802999999989
 20
182.0201999999999
 30
0.0
 11
152.89802999999989
 21
182.5201999999999
 31
0.0
  0
LINE
  5
59
  8
PATTERN_FILL
  6
CONTINUOUS
 62
     7
 10
153.99803999999989
 20
182.0201999999999
 30
0.0
 11
153.49803999999989
 21
182.5201999999999
 31
0.0
  0
LINE
  5
5A
  8
PATTERN_FILL
  6
CONTINUOUS
 62
     7
 10
154.59801999999991
 20
182.0201999999999
 30
0.0
 11
154.09801999999991
 21
182.5201999999999
 31
0.0
  0
LINE
  5
5B
  8
PATTERN_FILL
  6
CONTINUOUS
 62
     7
 10
155.1980299999999
 20
182.0201999999999
 30
0.0
 11
154.6980299999999
 21
182.5201999999999
 31
0.0
  0
LINE
  5
5C
  8
PATTERN_FILL
  6
CONTINUOUS
 62
     7
 10
155.7980299999999
 20
182.0201999999999
 30
0.0
 11
155.2980299999999
 21
182.5201999999999
 31
0.0
  0
LINE
  5
5D
  8
PATTERN_FILL
  6
CONTINUOUS
 62
     7
 10
156.39802999999989
 20
182.0201999999999
 30
0.0
 11
155.89802999999989
 21
182.5201999999999
 31
0.0
  0
LINE
  5
5E
  8
PATTERN_FILL
  6
CONTINUOUS
 62
     7
 10
156.99803999999989
 20
182.0201999999999
 30
0.0
 11
156.49803999999989
 21
182.5201999999999
 31
0.0
  0
LINE
  5
5F
  8
PATTERN_FILL
  6
CONTINUOUS
 62
     7
 10
157.2065399999999
 20
182.41161999999991
 30
0.0
 11
157.09803999999991
 21
182.5201999999999
 31
0.0
  0
LINE
  5
60
  8
PATTERN_FILL
  6
CONTINUOUS
 62
     7
 10
157.57036999999991
 20
162.20388
 30
0.0
 11
154.87038000000001
 21
159.50398000000001
 31
0.0
  0
LINE
  5
61
  8
PATTERN_FILL
  6
CONTINUOUS
 62
     7
 10
157.3453999999999
 20
163.6789
 30
0.0
 11
153.39549999999991
 21
159.7289999999999
 31
0.0
  0
LINE
  5
62
  8
PATTERN_FILL
  6
CONTINUOUS
 62
     7
 10
156.64549999999991
 20
164.6789
 30
0.0
 11
152.39549999999991
 21
160.42889
 31
0.0
  0
LINE
  5
63
  8
PATTERN_FILL
  6
CONTINUOUS
 62
     7
 10
155.5953999999999
 20
165.32888999999989
 30
0.0
 11
151.77049999999991
 21
161.4789999999999
 31
0.0
  0
LINE
  5
64
  8
PATTERN_FILL
  6
CONTINUOUS
 62
     7
 10
154.02049999999991
 20
165.45389
 30
0.0
 11
151.6203999999999
 21
163.05389999999991
 31
0.0
  0
LINE
  5
65
  8
PATTERN_FILL
  6
CONTINUOUS
 62
     7
 10
154.9205199999999
 20
165.47900000000001
 30
0.0
 11
157.5455199999999
 21
162.8539999999999
 31
0.0
  0
LINE
  5
66
  8
PATTERN_FILL
  6
CONTINUOUS
 62
     7
 10
153.4454199999999
 20
165.27888999999999
 30
0.0
 11
157.3453999999999
 21
161.3539999999999
 31
0.0
  0
LINE
  5
67
  8
PATTERN_FILL
  6
CONTINUOUS
 62
     7
 10
152.4205199999999
 20
164.5789
 30
0.0
 11
156.67049999999989
 21
160.3539999999999
 31
0.0
  0
LINE
  5
68
  8
PATTERN_FILL
  6
CONTINUOUS
 62
     7
 10
151.77049999999991
 20
163.5539
 30
0.0
 11
155.6203799999999
 21
159.67888999999991
 31
0.0
  0
LINE
  5
69
  8
PATTERN_FILL
  6
CONTINUOUS
 62
     7
 10
151.6203999999999
 20
162.00399999999991
 30
0.0
 11
154.0953999999999
 21
159.5288899999999
 31
0.0
  0
LINE
  5
6A
  8
SPEC
  6
CONTINUOUS
 62
     7
 10
-64.999990000000011
 20
383.53179999999998
 30
0.0
 11
237.5
 21
383.53179999999998
 31
0.0
  0
LINE
  5
6B
  8
SPEC
  6
CONTINUOUS
 62
     7
 10
-64.999990000000011
 20
376.03179999999992
 30
0.0
 11
237.5
 21
376.03179999999992
 31
0.0
  0
LINE
  5
6C
  8
SPEC
  6
CONTINUOUS
 62
     7
 10
-64.999990000000011
 20
368.53179999999992
 30
0.0
 11
237.5
 21
368.53179999999992
 31
0.0
  0
LINE
  5
6D
  8
SPEC
  6
CONTINUOUS
 62
     7
 10
-64.999990000000011
 20
383.53179999999998
 30
0.0
 11
-64.999990000000011
 21
256.03180999999989
 31
0.0
  0
TEXT
  5
6E
  8
SPEC
 62
     7
 10
-62.499990000000011
 20
385.42934000000002
 30
0.0
 40
5.0800000000000001
  1
仕様
 41
0.75
  0
TEXT
  5
6F
  8
SPEC
 62
     7
 10
-63.199979999999996
 20
316.91620999999992
 30
0.0
 40
3.9504000000000001
  1
出力インピーダンス
 41
0.75
  0
TEXT
  5
70
  8
SPEC
 62
     7
 10
-63.199979999999996
 20
376.9162
 30
0.0
 40
3.9504000000000001
  1
形式
 41
0.75
  0
TEXT
  5
71
  8
SPEC
 62
     7
 10
-63.199979999999996
 20
369.41619999999989
 30
0.0
 40
3.9504000000000001
  1
周波数特性
 41
0.75
  0
TEXT
  5
72
  8
SPEC
 62
     7
 10
-63.199979999999996
 20
361.9162
 30
0.0
 40
3.9504000000000001
  1
指向特性
 41
0.75
  0
LINE
  5
73
  8
SPEC
  6
CONTINUOUS
 62
     7
 10
-64.999990000000011
 20
323.53179999999992
 30
0.0
 11
237.5
 21
323.53179999999992
 31
0.0
  0
LINE
  5
74
  8
SPEC
  6
CONTINUOUS
 62
     7
 10
-64.999990000000011
 20
346.03179999999998
 30
0.0
 11
237.5
 21
346.03179999999998
 31
0.0
  0
TEXT
  5
75
  8
SPEC
 62
     7
 10
-63.199979999999996
 20
332.41620999999992
 30
0.0
 40
3.9504000000000001
  1
＊ 1 Pascal=94dB SPL
 41
0.75
  0
TEXT
  5
76
  8
SPEC
 62
     7
 10
-63.199979999999996
 20
301.91620999999992
 30
0.0
 40
3.9504000000000001
  1
出力コネクター
 41
0.75
  0
TEXT
  5
77
  8
SPEC
 62
     7
 10
-63.199979999999996
 20
309.41620999999992
 30
0.0
 40
3.9504000000000001
  1
外装色
 41
0.75
  0
LINE
  5
78
  8
SPEC
  6
CONTINUOUS
 62
     7
 10
-64.999990000000011
 20
308.53179999999998
 30
0.0
 11
237.5
 21
308.53179999999998
 31
0.0
  0
LINE
  5
79
  8
SPEC
  6
CONTINUOUS
 62
     7
 10
-64.999990000000011
 20
316.03179999999992
 30
0.0
 11
237.5
 21
316.03179999999992
 31
0.0
  0
TEXT
  5
7A
  8
SPEC
 62
     7
 10
-63.199979999999996
 20
294.41620999999992
 30
0.0
 40
3.9504000000000001
  1
電源
 41
0.75
  0
LINE
  5
7B
  8
SPEC
  6
CONTINUOUS
 62
     7
 10
-64.999990000000011
 20
301.03179999999992
 30
0.0
 11
237.5
 21
301.03179999999992
 31
0.0
  0
TEXT
  5
7C
  8
SPEC
 62
     7
 10
-63.199979999999996
 20
286.91620999999998
 30
0.0
 40
3.9504000000000001
  1
寸法
 41
0.75
  0
TEXT
  5
7D
  8
SPEC
 62
     7
 10
-63.199979999999996
 20
279.41620999999992
 30
0.0
 40
3.9504000000000001
  1
重量
 41
0.75
  0
TEXT
  5
7E
  8
SPEC
 62
     7
 10
-63.199979999999996
 20
271.91620999999992
 30
0.0
 40
3.9504000000000001
  1
付属品 
 41
0.75
  0
LINE
  5
7F
  8
SPEC
  6
CONTINUOUS
 62
     7
 10
-64.999990000000011
 20
286.03179999999992
 30
0.0
 11
237.5
 21
286.03179999999992
 31
0.0
  0
LINE
  5
80
  8
SPEC
  6
CONTINUOUS
 62
     7
 10
-64.999990000000011
 20
293.53179999999992
 30
0.0
 11
237.5
 21
293.53179999999992
 31
0.0
  0
LINE
  5
81
  8
SPEC
  6
CONTINUOUS
 62
     7
 10
-64.999990000000011
 20
278.53179999999992
 30
0.0
 11
237.5
 21
278.53179999999992
 31
0.0
  0
LINE
  5
82
  8
SPEC
  6
CONTINUOUS
 62
     7
 10
-64.999990000000011
 20
256.03180999999989
 30
0.0
 11
237.5
 21
256.03180999999989
 31
0.0
  0
LINE
  5
83
  8
SPEC
  6
CONTINUOUS
 62
     7
 10
18.750009999999989
 20
383.53179999999998
 30
0.0
 11
18.750009999999989
 21
256.03180999999989
 31
0.0
  0
LINE
  5
84
  8
SPEC
  6
CONTINUOUS
 62
     7
 10
237.5
 20
383.53179999999998
 30
0.0
 11
237.5
 21
256.03180999999989
 31
0.0
  0
TEXT
  5
85
  8
SPEC
 62
     7
 10
20.550009999999979
 20
376.9162
 30
0.0
 40
3.9504000000000001
  1
エレクトレット・コンデンサー型
 41
0.75
  0
TEXT
  5
86
  8
SPEC
 62
     7
 10
20.550009999999979
 20
369.41619999999989
 30
0.0
 40
3.9504000000000001
  1
50～17,000Hz
 41
0.75
  0
TEXT
  5
87
  8
SPEC
 62
     7
 10
20.550009999999979
 20
361.9162
 30
0.0
 40
3.9504000000000001
  1
MX183:無指向性
 41
0.75
  0
TEXT
  5
88
  8
SPEC
 62
     7
 10
20.550009999999979
 20
316.91620999999992
 30
0.0
 40
3.9504000000000001
  1
150Ω(180Ω実行)
 41
0.75
  0
TEXT
  5
89
  8
SPEC
 62
     7
 10
20.550009999999979
 20
339.41620999999992
 30
0.0
 40
3.9504000000000001
  1
MX183:-27.5dB(42.2mV）
 41
0.75
  0
TEXT
  5
8A
  8
SPEC
 62
     7
 10
20.550009999999979
 20
332.41620999999992
 30
0.0
 40
3.9504000000000001
  1
MX184:-33.5dB(21.1mV）
 41
0.75
  0
TEXT
  5
8B
  8
SPEC
 62
     7
 10
20.550009999999979
 20
325.41620999999992
 30
0.0
 40
3.9504000000000001
  1
MX185:-35.0dB(17.0mV）
 41
0.75
  0
TEXT
  5
8C
  8
SPEC
 62
     7
 10
20.550009999999979
 20
354.91620999999992
 30
0.0
 40
3.9504000000000001
  1
MX184:スーパー・カーディオイド
 41
0.75
  0
TEXT
  5
8D
  8
SPEC
 62
     7
 10
20.550009999999979
 20
347.91620999999992
 30
0.0
 40
3.9504000000000001
  1
MX185:単一指向性
 41
0.75
  0
TEXT
  5
8E
  8
SPEC
 62
     7
 10
20.550009999999979
 20
301.91620999999992
 30
0.0
 40
3.9504000000000001
  1
XLR3ピン　オス型
 41
0.75
  0
TEXT
  5
8F
  8
SPEC
 62
     7
 10
20.550009999999979
 20
309.41620999999992
 30
0.0
 40
3.9504000000000001
  1
マイク（黒）、プリアンプ（黒）、TA4Fコネクター（黒及シルバー）
 41
0.75
  0
TEXT
  5
90
  8
SPEC
 62
     7
 10
20.550009999999979
 20
294.41620999999992
 30
0.0
 40
3.9504000000000001
  1
ファンタム DC11～52V,2mA
 41
0.75
  0
TEXT
  5
91
  8
SPEC
 62
     7
 10
20.550009999999979
 20
286.91620999999998
 30
0.0
 40
3.9504000000000001
  1
マイク：φ12×22mm、プリアンプ：φ20×99mm、TA4Fコネクター：φ10.5×48mm(突起部含まず）
 41
0.75
  0
TEXT
  5
92
  8
SPEC
 62
     7
 10
20.550009999999979
 20
279.41620999999992
 30
0.0
 40
3.9504000000000001
  1
約136g(マイク＋付属プリアンプ)
 41
0.75
  0
TEXT
  5
93
  8
SPEC
 62
     7
 10
20.550009999999979
 20
271.91620999999992
 30
0.0
 40
3.9504000000000001
  1
ベルトクリップ付プリアンプ　1個、デュアル・タイクリップ（黒）　1個
 41
0.75
  0
TEXT
  5
94
  8
SPEC
 62
     7
 10
20.550009999999979
 20
257.91998999999993
 30
0.0
 40
3.9504000000000001
  1
取扱説明書　1部 
 41
0.75
  0
TEXT
  5
95
  8
SPEC
 62
     7
 10
20.550009999999979
 20
264.91620999999992
 30
0.0
 40
3.9504000000000001
  1
シングル・タイクリップ（黒）　1個、フォーム・ウインドスクリーン(黒）　大・小　各1個
 41
0.75
  0
TEXT
  5
96
  8
SPEC
 62
     7
 10
-63.199979999999996
 20
339.4162199999999
 30
0.0
 40
3.9510959999999988
  1
感度(at 1kHz, ref. 1V/Pascal *)
 41
0.75
  0
TEXT
  5
97
  8
DIMNSIONS
 62
     7
 10
59.999999999999993
 20
-92.818189999999987
 30
0.0
 40
5.0800000000000001
  1
(単位：mm)
 41
0.75
  0
TEXT
  5
98
  8
DIMNSIONS
 62
     7
 10
67.944459999999992
 20
213.6518899999999
 30
0.0
 40
5.6444320000000001
  1
1200
 41
0.75
  0
LINE
  5
9A
  8
DIMNSIONS
 62
     7
 10
148.24998999999991
 20
212.5
 30
0.0
 11
141.89998999999989
 21
210.7985226280623
 31
0.0
  0
LINE
  5
9B
  8
DIMNSIONS
 62
     7
 10
148.24998999999991
 20
212.5
 30
0.0
 11
141.89998999999989
 21
214.20147737193761
 31
0.0
  0
LINE
  5
99
  8
DIMNSIONS
  6
CONTINUOUS
 62
     7
 10
-7.499990000000011
 20
212.5
 30
0.0
 11
148.24998999999991
 21
212.5
 31
0.0
  0
LINE
  5
9C
  8
DIMNSIONS
  6
CONTINUOUS
 62
     7
 10
148.24998999999991
 20
207.22
 30
0.0
 11
148.24998999999991
 21
216.5
 31
0.0
  0
LINE
  5
9E
  8
DIMNSIONS
 62
     7
 10
-12.499990000000009
 20
125.00001
 30
0.0
 11
-14.20146737193763
 21
131.35000999999991
 31
0.0
  0
LINE
  5
9F
  8
DIMNSIONS
 62
     7
 10
-12.499990000000009
 20
125.00001
 30
0.0
 11
-10.79851262806238
 21
131.35000999999991
 31
0.0
  0
LINE
  5
9D
  8
DIMNSIONS
  6
CONTINUOUS
 62
     7
 10
-12.499990000000009
 20
125.00001
 30
0.0
 11
-12.499990000000009
 21
207.5
 31
0.0
  0
LINE
  5
A0
  8
DIMNSIONS
  6
CONTINUOUS
 62
     7
 10
17.000009999999978
 20
125.00001
 30
0.0
 11
-16.499990000000011
 21
125.00001
 31
0.0
  0
LINE
  5
A1
  8
DIMNSIONS
  6
CONTINUOUS
 62
     7
 10
11.500010014901139
 20
-12.5
 30
0.0
 11
-3.9999699850988431
 21
-12.5
 31
0.0
  0
LINE
  5
A2
  8
DIMNSIONS
  6
CONTINUOUS
 62
     7
 10
13.50001001490115
 20
86.499899999999997
 30
0.0
 11
-3.9999699850988431
 21
86.499899999999997
 31
0.0
  0
LINE
  5
A4
  8
DIMNSIONS
 62
     7
 10
0.0000299999999953
 20
-12.5
 30
0.0
 11
-1.701447371937632
 21
-6.1500000000000048
 31
0.0
  0
LINE
  5
A5
  8
DIMNSIONS
 62
     7
 10
0.0000299999999953
 20
-12.5
 30
0.0
 11
1.701507371937623
 21
-6.1500000000000048
 31
0.0
  0
LINE
  5
A6
  8
DIMNSIONS
 62
     7
 10
0.0000299999999953
 20
86.499899999999997
 30
0.0
 11
1.701507371937623
 21
80.149900000000002
 31
0.0
  0
LINE
  5
A7
  8
DIMNSIONS
 62
     7
 10
0.0000299999999953
 20
86.499899999999997
 30
0.0
 11
-1.701447371937632
 21
80.149900000000002
 31
0.0
  0
LINE
  5
A3
  8
DIMNSIONS
  6
CONTINUOUS
 62
     7
 10
0.0000299999999953
 20
-12.5
 30
0.0
 11
0.0000299999999953
 21
86.499899999999997
 31
0.0
  0
TEXT
  5
A8
  8
DIMNSIONS
 62
     7
 10
-1.999849999999995
 20
37.703422674255357
 30
0.0
 40
5.6444320000000001
  1
99
 50
90.0
 41
0.75
  0
LINE
  5
A9
  8
DIMNSIONS
  6
CONTINUOUS
 62
     7
 10
15.000009999999991
 20
75.785009985098839
 30
0.0
 11
15.000009999999991
 21
103.99998998509879
 31
0.0
  0
LINE
  5
AA
  8
DIMNSIONS
  6
CONTINUOUS
 62
     7
 10
34.999999999999979
 20
75.785009985098839
 30
0.0
 11
34.999999999999979
 21
103.99998998509879
 31
0.0
  0
LINE
  5
AB
  8
DIMNSIONS
  6
CONTINUOUS
 62
     7
 10
34.999999999999979
 20
99.999989999999997
 30
0.0
 11
44.555539999999979
 21
99.999989999999997
 31
0.0
  0
LINE
  5
AD
  8
DIMNSIONS
 62
     7
 10
15.000009999999991
 20
99.999989999999997
 30
0.0
 11
21.35000999999998
 21
101.7014673719376
 31
0.0
  0
LINE
  5
AE
  8
DIMNSIONS
 62
     7
 10
15.000009999999991
 20
99.999989999999997
 30
0.0
 11
21.35000999999998
 21
98.298512628062355
 31
0.0
  0
LINE
  5
AF
  8
DIMNSIONS
 62
     7
 10
34.999999999999979
 20
99.999989999999997
 30
0.0
 11
28.649999999999991
 21
98.298512628062355
 31
0.0
  0
LINE
  5
B0
  8
DIMNSIONS
 62
     7
 10
34.999999999999979
 20
99.999989999999997
 30
0.0
 11
28.649999999999991
 21
101.7014673719376
 31
0.0
  0
LINE
  5
AC
  8
DIMNSIONS
  6
CONTINUOUS
 62
     7
 10
15.000009999999991
 20
99.999989999999997
 30
0.0
 11
34.999999999999979
 21
99.999989999999997
 31
0.0
  0
TEXT
  5
B1
  8
DIMNSIONS
 62
     7
 10
37.499999999999993
 20
101.9998699999999
 30
0.0
 40
5.6444320000000001
  1
20
 41
0.75
  0
LINE
  5
B2
  8
DIMNSIONS
  6
CONTINUOUS
 62
     7
 10
17.000070014901151
 20
125.00001
 30
0.0
 11
-3.9279899850988471
 21
125.00001
 31
0.0
  0
LINE
  5
B3
  8
DIMNSIONS
  6
CONTINUOUS
 62
     7
 10
18.500070014901151
 20
173.49979999999999
 30
0.0
 11
-3.9279899850988471
 21
173.49979999999999
 31
0.0
  0
LINE
  5
B5
  8
DIMNSIONS
 62
     7
 10
0.0720099999999917
 20
125.00001
 30
0.0
 11
-1.629467371937636
 21
131.35000999999991
 31
0.0
  0
LINE
  5
B6
  8
DIMNSIONS
 62
     7
 10
0.0720099999999917
 20
125.00001
 30
0.0
 11
1.773487371937619
 21
131.35000999999991
 31
0.0
  0
LINE
  5
B7
  8
DIMNSIONS
 62
     7
 10
0.0720099999999917
 20
173.49979999999999
 30
0.0
 11
1.773487371937619
 21
167.14979999999991
 31
0.0
  0
LINE
  5
B8
  8
DIMNSIONS
 62
     7
 10
0.0720099999999917
 20
173.49979999999999
 30
0.0
 11
-1.629467371937636
 21
167.14979999999991
 31
0.0
  0
LINE
  5
B4
  8
DIMNSIONS
  6
CONTINUOUS
 62
     7
 10
0.0720099999999917
 20
125.00001
 30
0.0
 11
0.0720099999999917
 21
173.49979999999999
 31
0.0
  0
TEXT
  5
B9
  8
DIMNSIONS
 62
     7
 10
-1.927869999999998
 20
145.72213500000001
 30
0.0
 40
5.6444320000000001
  1
48
 50
90.0
 41
0.75
  0
LINE
  5
BA
  8
DIMNSIONS
  6
CONTINUOUS
 62
     7
 10
164.04992998509869
 20
204.02019000000001
 30
0.0
 11
179.07191998509879
 21
204.02019000000001
 31
0.0
  0
LINE
  5
BB
  8
DIMNSIONS
  6
CONTINUOUS
 62
     7
 10
161.0499299850988
 20
182.0201999999999
 30
0.0
 11
179.07191998509879
 21
182.0201999999999
 31
0.0
  0
LINE
  5
BD
  8
DIMNSIONS
 62
     7
 10
175.07191999999989
 20
204.02019000000001
 30
0.0
 11
176.77339737193759
 21
197.67018999999991
 31
0.0
  0
LINE
  5
BE
  8
DIMNSIONS
 62
     7
 10
175.07191999999989
 20
204.02019000000001
 30
0.0
 11
173.37044262806231
 21
197.67018999999991
 31
0.0
  0
LINE
  5
BF
  8
DIMNSIONS
 62
     7
 10
175.07191999999989
 20
182.0201999999999
 30
0.0
 11
173.37044262806231
 21
188.37020000000001
 31
0.0
  0
LINE
  5
C0
  8
DIMNSIONS
 62
     7
 10
175.07191999999989
 20
182.0201999999999
 30
0.0
 11
176.77339737193759
 21
188.37020000000001
 31
0.0
  0
LINE
  5
BC
  8
DIMNSIONS
  6
CONTINUOUS
 62
     7
 10
175.07191999999989
 20
204.02019000000001
 30
0.0
 11
175.07191999999989
 21
182.0201999999999
 31
0.0
  0
TEXT
  5
C1
  8
DIMNSIONS
 62
     7
 10
173.0720399999999
 20
189.492425
 30
0.0
 40
5.6444320000000001
  1
22
 50
90.0
 41
0.75
  0
ARC
  5
C2
  8
DIMNSIONS
  6
CONTINUOUS
 62
     7
 10
-7.499990000000011
 20
207.5
 30
0.0
 40
5.0
 50
90.0
 51
180.0
  0
LINE
  5
C4
  8
DIMNSIONS
 62
     7
 10
157.7574899999999
 20
157.44039000000001
 30
0.0
 11
162.56541197380579
 21
152.9569302264533
 31
0.0
  0
LINE
  5
C5
  8
DIMNSIONS
 62
     7
 10
157.7574899999999
 20
157.44039000000001
 30
0.0
 11
159.67954268195581
 21
151.15363895236001
 31
0.0
  0
LINE
  5
C3
  8
DIMNSIONS
  6
CONTINUOUS
 62
     7
 10
157.7574899999999
 20
157.44039000000001
 30
0.0
 11
162.49998215104659
 21
150.00000082245859
 31
0.0
  0
LINE
  5
C6
  8
DIMNSIONS
  6
CONTINUOUS
 62
     7
 10
162.49998215104659
 20
150.00000082245859
 30
0.0
 11
188.61105215104661
 21
150.00000082245859
 31
0.0
  0
TEXT
  5
C7
  8
DIMNSIONS
 62
     7
 10
174.49997215104659
 20
151.99999082245861
 30
0.0
 40
5.6444320000000001
  1
φ12
 41
0.75
  0
LINE
  5
C8
  8
DIMNSIONS
  6
CONTINUOUS
 62
     7
 10
15.500009999999991
 20
-16.499999985098832
 30
0.0
 11
15.500009999999991
 21
-28.999989985098829
 31
0.0
  0
LINE
  5
C9
  8
DIMNSIONS
  6
CONTINUOUS
 62
     7
 10
34.499999999999979
 20
-16.499999985098832
 30
0.0
 11
34.499999999999979
 21
-28.999989985098829
 31
0.0
  0
LINE
  5
CA
  8
DIMNSIONS
  6
CONTINUOUS
 62
     7
 10
34.499999999999979
 20
-24.99998999999999
 30
0.0
 11
44.555529999999983
 21
-24.99998999999999
 31
0.0
  0
LINE
  5
CC
  8
DIMNSIONS
 62
     7
 10
15.500009999999991
 20
-24.99998999999999
 30
0.0
 11
21.85000999999998
 21
-23.298512628062351
 31
0.0
  0
LINE
  5
CD
  8
DIMNSIONS
 62
     7
 10
15.500009999999991
 20
-24.99998999999999
 30
0.0
 11
21.85000999999998
 21
-26.701467371937639
 31
0.0
  0
LINE
  5
CE
  8
DIMNSIONS
 62
     7
 10
34.499999999999979
 20
-24.99998999999999
 30
0.0
 11
28.149999999999991
 21
-26.701467371937639
 31
0.0
  0
LINE
  5
CF
  8
DIMNSIONS
 62
     7
 10
34.499999999999979
 20
-24.99998999999999
 30
0.0
 11
28.149999999999991
 21
-23.298512628062351
 31
0.0
  0
LINE
  5
CB
  8
DIMNSIONS
  6
CONTINUOUS
 62
     7
 10
15.500009999999991
 20
-24.99998999999999
 30
0.0
 11
34.499999999999979
 21
-24.99998999999999
 31
0.0
  0
TEXT
  5
D0
  8
DIMNSIONS
 62
     7
 10
37.499989999999983
 20
-23.0
 30
0.0
 40
5.6444320000000001
  1
19
 41
0.75
  0
LINE
  5
D2
  8
DIMNSIONS
 62
     7
 10
29.108569999999979
 20
116.1996699999999
 30
0.0
 11
32.494432233587368
 21
121.8346910454249
 31
0.0
  0
LINE
  5
D3
  8
DIMNSIONS
 62
     7
 10
29.108569999999979
 20
116.1996699999999
 30
0.0
 11
34.858323230713459
 21
119.3868102594042
 31
0.0
  0
LINE
  5
D1
  8
DIMNSIONS
  6
CONTINUOUS
 62
     7
 10
29.108569999999979
 20
116.1996699999999
 30
0.0
 11
37.89630918337965
 21
124.9873951322699
 31
0.0
  0
LINE
  5
D4
  8
DIMNSIONS
  6
CONTINUOUS
 62
     7
 10
37.89630918337965
 20
124.9873951322699
 30
0.0
 11
71.062919183379648
 21
124.9873951322699
 31
0.0
  0
TEXT
  5
D5
  8
DIMNSIONS
 62
     7
 10
49.896299183379647
 20
126.98738513226991
 30
0.0
 40
5.6444320000000001
  1
φ10.5
 41
0.75
  0
TEXT
  5
D6
  8
DATA
 62
     7
 10
199.99998999999991
 20
-95.095399999999984
 30
0.0
 40
5.0800000000000001
  1
MX183 & MX184 & MX185
 41
0.75
  0
TEXT
  5
D7
  8
DATA
 62
     7
 10
199.99998999999991
 20
-80.595399999999984
 30
0.0
 40
5.0800000000000001
  1
SHURE
 41
0.75
  0
TEXT
  5
D8
  8
DATA
 62
     7
 10
194.99998999999991
 20
-87.25294999999997
 30
0.0
 40
3.3866559999999999
  1
ラベリアマイクロフォン
 41
0.75
  0
LINE
  5
D9
  8
DATA
  6
CONTINUOUS
 62
     7
 10
34.499999999999979
 20
-12.5
 30
0.0
 11
15.500009999999991
 21
-12.5
 31
0.0
  0
LINE
  5
DA
  8
DATA
  6
CONTINUOUS
 62
     7
 10
15.500009999999991
 20
-12.5
 30
0.0
 11
15.500009999999991
 21
0.9999099999999999
 31
0.0
  0
LINE
  5
DB
  8
DATA
  6
CONTINUOUS
 62
     7
 10
15.500009999999991
 20
0.9999099999999999
 30
0.0
 11
15.000009999999991
 21
1.499909999999999
 31
0.0
  0
LINE
  5
DC
  8
DATA
  6
CONTINUOUS
 62
     7
 10
32.499999999999979
 20
86.499899999999997
 30
0.0
 11
17.500009999999989
 21
86.499899999999997
 31
0.0
  0
LINE
  5
DD
  8
DATA
  6
CONTINUOUS
 62
     7
 10
34.999999999999979
 20
61.0
 30
0.0
 11
34.499999999999979
 21
61.0
 31
0.0
  0
LINE
  5
DE
  8
DATA
  6
CONTINUOUS
 62
     7
 10
34.499999999999979
 20
61.0
 30
0.0
 11
34.499999999999979
 21
60.5
 31
0.0
  0
LINE
  5
DF
  8
DATA
  6
CONTINUOUS
 62
     7
 10
15.000009999999991
 20
61.0
 30
0.0
 11
15.500009999999991
 21
61.0
 31
0.0
  0
LINE
  5
E0
  8
DATA
  6
CONTINUOUS
 62
     7
 10
15.500009999999991
 20
61.0
 30
0.0
 11
15.500009999999991
 21
60.5
 31
0.0
  0
LINE
  5
E1
  8
DATA
  6
CONTINUOUS
 62
     7
 10
34.499999999999979
 20
61.0
 30
0.0
 11
15.500009999999991
 21
61.0
 31
0.0
  0
LINE
  5
E2
  8
DATA
  6
CONTINUOUS
 62
     7
 10
30.999999999999979
 20
86.499899999999997
 30
0.0
 11
30.249999999999979
 21
87.300000000000026
 31
0.0
  0
LINE
  5
E3
  8
DATA
  6
CONTINUOUS
 62
     7
 10
18.999999999999979
 20
86.499899999999997
 30
0.0
 11
19.749999999999979
 21
87.300000000000026
 31
0.0
  0
LINE
  5
E4
  8
DATA
  6
CONTINUOUS
 62
     7
 10
30.249999999999979
 20
87.300000000000026
 30
0.0
 11
19.749999999999979
 21
87.300000000000026
 31
0.0
  0
LINE
  5
E5
  8
DATA
  6
CONTINUOUS
 62
     7
 10
34.499999999999979
 20
-12.5
 30
0.0
 11
34.499999999999979
 21
0.7929000000000031
 31
0.0
  0
LINE
  5
E6
  8
DATA
  6
CONTINUOUS
 62
     7
 10
34.999999999999979
 20
1.9140399999999991
 30
0.0
 11
34.999999999999979
 21
1.499909999999999
 31
0.0
  0
LINE
  5
E7
  8
DATA
  6
CONTINUOUS
 62
     7
 10
34.499999999999979
 20
0.7929000000000031
 30
0.0
 11
34.499999999999979
 21
0.9999099999999999
 31
0.0
  0
LINE
  5
E8
  8
DATA
  6
CONTINUOUS
 62
     7
 10
34.999999999999979
 20
1.499909999999999
 30
0.0
 11
34.499999999999979
 21
0.9999099999999999
 31
0.0
  0
LINE
  5
E9
  8
DATA
  6
CONTINUOUS
 62
     7
 10
34.499999999999979
 20
0.9999099999999999
 30
0.0
 11
15.500009999999991
 21
0.9999099999999999
 31
0.0
  0
LINE
  5
EA
  8
DATA
  6
CONTINUOUS
 62
     7
 10
15.000009999999991
 20
1.499909999999999
 30
0.0
 11
34.999999999999979
 21
1.499909999999999
 31
0.0
  0
CIRCLE
  5
EB
  8
DATA
  6
CONTINUOUS
 62
     7
 10
24.999999999999979
 20
4.499909999999999
 30
0.0
 40
1.75
  0
LINE
  5
EC
  8
DATA
  6
CONTINUOUS
 62
     7
 10
26.349129999999992
 20
3.715900000000004
 30
0.0
 11
24.216119999999989
 21
5.8490299999999991
 31
0.0
  0
LINE
  5
ED
  8
DATA
  6
CONTINUOUS
 62
     7
 10
23.651109999999981
 20
5.2840199999999982
 30
0.0
 11
25.78412999999999
 21
3.15097
 31
0.0
  0
ARC
  5
EE
  8
DATA
  6
CONTINUOUS
 62
     7
 10
24.999999999999979
 20
4.499909999999999
 30
0.0
 40
1.5603920779727121
 50
329.83815869799088
 51
120.15774407944239
  0
ARC
  5
EF
  8
DATA
  6
CONTINUOUS
 62
     7
 10
24.999999999999979
 20
4.499909999999999
 30
0.0
 40
1.5602348298253019
 50
149.83055538586839
 51
300.16844054981999
  0
ARC
  5
F0
  8
DATA
  6
CONTINUOUS
 62
     7
 10
19.999999999999979
 20
72.071010000000001
 30
0.0
 40
15.0
 50
0.0
 51
10.88657011760591
  0
LINE
  5
F1
  8
DATA
  6
CONTINUOUS
 62
     7
 10
32.499999999999979
 20
86.499899999999997
 30
0.0
 11
34.676049999999982
 21
75.184010000000001
 31
0.0
  0
LINE
  5
F2
  8
DATA
  6
CONTINUOUS
 62
     7
 10
34.999999999999979
 20
71.78501
 30
0.0
 11
34.999999999999979
 21
61.0
 31
0.0
  0
LINE
  5
F3
  8
DATA
  6
CONTINUOUS
 62
     7
 10
34.999999999999979
 20
71.78501
 30
0.0
 11
34.999999999999979
 21
72.071010000000001
 31
0.0
  0
LINE
  5
F4
  8
DATA
  6
CONTINUOUS
 62
     7
 10
34.730129999999988
 20
74.90401
 30
0.0
 11
34.676049999999982
 21
75.184010000000001
 31
0.0
  0
LINE
  5
F5
  8
DATA
  6
CONTINUOUS
 62
     7
 10
15.32401999999999
 20
75.184010000000001
 30
0.0
 11
17.500009999999989
 21
86.499899999999997
 31
0.0
  0
LINE
  5
F6
  8
DATA
  6
CONTINUOUS
 62
     7
 10
15.000009999999991
 20
71.78501
 30
0.0
 11
15.000009999999991
 21
61.0
 31
0.0
  0
ARC
  5
F7
  8
DATA
  6
CONTINUOUS
 62
     7
 10
32.999999999999979
 20
71.78501
 30
0.0
 40
17.99981860909714
 50
169.11518227399941
 51
180.0
  0
LINE
  5
F8
  8
DATA
  6
CONTINUOUS
 62
     7
 10
35.499999999999979
 20
60.0
 30
0.0
 11
35.499999999999979
 21
59.5
 31
0.0
  0
LINE
  5
F9
  8
DATA
  6
CONTINUOUS
 62
     7
 10
34.999999999999979
 20
59.0
 30
0.0
 11
35.499999999999979
 21
59.5
 31
0.0
  0
LINE
  5
FA
  8
DATA
  6
CONTINUOUS
 62
     7
 10
35.499999999999979
 20
60.0
 30
0.0
 11
34.999999999999979
 21
60.5
 31
0.0
  0
LINE
  5
FB
  8
DATA
  6
CONTINUOUS
 62
     7
 10
15.000009999999991
 20
59.0
 30
0.0
 11
14.50000999999998
 21
59.5
 31
0.0
  0
LINE
  5
FC
  8
DATA
  6
CONTINUOUS
 62
     7
 10
14.50000999999998
 20
60.0
 30
0.0
 11
14.50000999999998
 21
59.5
 31
0.0
  0
LINE
  5
FD
  8
DATA
  6
CONTINUOUS
 62
     7
 10
14.50000999999998
 20
60.0
 30
0.0
 11
15.000009999999991
 21
60.5
 31
0.0
  0
LINE
  5
FE
  8
DATA
  6
CONTINUOUS
 62
     7
 10
34.999999999999979
 20
60.5
 30
0.0
 11
15.000009999999991
 21
60.5
 31
0.0
  0
LINE
  5
FF
  8
DATA
  6
CONTINUOUS
 62
     7
 10
15.000009999999991
 20
59.0
 30
0.0
 11
34.999999999999979
 21
59.0
 31
0.0
  0
LINE
  5
100
  8
DATA
  6
CONTINUOUS
 62
     7
 10
35.90011999999998
 20
47.911000000000001
 30
0.0
 11
14.10011999999999
 21
47.911000000000001
 31
0.0
  0
LINE
  5
101
  8
DATA
  6
CONTINUOUS
 62
     7
 10
14.10011999999999
 20
47.911000000000001
 30
0.0
 11
14.10011999999999
 21
35.911009999999997
 31
0.0
  0
LINE
  5
102
  8
DATA
  6
CONTINUOUS
 62
     7
 10
35.90011999999998
 20
47.911000000000001
 30
0.0
 11
35.90011999999998
 21
39.104010000000002
 31
0.0
  0
LINE
  5
103
  8
DATA
  6
CONTINUOUS
 62
     7
 10
34.999999999999979
 20
1.9140399999999991
 30
0.0
 11
34.999999999999979
 21
35.911009999999997
 31
0.0
  0
LINE
  5
104
  8
DATA
  6
CONTINUOUS
 62
     7
 10
34.999999999999979
 20
47.911000000000001
 30
0.0
 11
34.999999999999979
 21
59.0
 31
0.0
  0
LINE
  5
105
  8
DATA
  6
CONTINUOUS
 62
     7
 10
34.40311999999998
 20
35.911009999999997
 30
0.0
 11
14.10011999999999
 21
35.911009999999997
 31
0.0
  0
LINE
  5
106
  8
DATA
  6
CONTINUOUS
 62
     7
 10
35.90011999999998
 20
35.911009999999997
 30
0.0
 11
34.40311999999998
 21
35.911009999999997
 31
0.0
  0
LINE
  5
107
  8
DATA
  6
CONTINUOUS
 62
     7
 10
35.90011999999998
 20
37.153930000000003
 30
0.0
 11
35.90011999999998
 21
39.104010000000002
 31
0.0
  0
LINE
  5
108
  8
DATA
  6
CONTINUOUS
 62
     7
 10
38.963119999999989
 20
32.993000000000009
 30
0.0
 11
35.90011999999998
 21
35.911009999999997
 31
0.0
  0
ARC
  5
109
  8
DATA
  6
CONTINUOUS
 62
     7
 10
36.89412999999999
 20
30.820900000000002
 30
0.0
 40
3.0005944172780161
 50
351.16480178201272
 51
46.392604859588353
  0
LINE
  5
10A
  8
DATA
  6
CONTINUOUS
 62
     7
 10
39.958019999999991
 20
32.981910000000013
 30
0.0
 11
35.90011999999998
 21
37.153930000000003
 31
0.0
  0
ARC
  5
10B
  8
DATA
  6
CONTINUOUS
 62
     7
 10
37.80704999999999
 20
30.89004000000001
 30
0.0
 40
3.0009260867272269
 50
351.2575538105371
 51
44.202223428140137
  0
LINE
  5
10C
  8
DATA
  6
CONTINUOUS
 62
     7
 10
40.773109999999988
 20
30.433920000000011
 30
0.0
 11
35.730129999999988
 21
-2.3099899999999991
 31
0.0
  0
ARC
  5
10D
  8
DATA
  6
CONTINUOUS
 62
     7
 10
38.695119999999982
 20
-2.7670999999999988
 30
0.0
 40
3.0000192086385038
 50
171.2357599654722
 51
224.98487475509111
  0
LINE
  5
10E
  8
DATA
  6
CONTINUOUS
 62
     7
 10
39.85911999999999
 20
30.360029999999998
 30
0.0
 11
34.516119999999987
 21
-3.9889900000000011
 31
0.0
  0
ARC
  5
10F
  8
DATA
  6
CONTINUOUS
 62
     7
 10
34.713119999999989
 20
-4.0189799999999991
 30
0.0
 40
0.1992696667834845
 50
171.34412128540811
 51
225.0
  0
LINE
  5
110
  8
DATA
  6
CONTINUOUS
 62
     7
 10
15.000009999999991
 20
1.499909999999999
 30
0.0
 11
15.000009999999991
 21
35.911009999999997
 31
0.0
  0
LINE
  5
111
  8
DATA
  6
CONTINUOUS
 62
     7
 10
15.000009999999991
 20
47.911000000000001
 30
0.0
 11
15.000009999999991
 21
59.0
 31
0.0
  0
LINE
  5
112
  8
DATA
  6
CONTINUOUS
 62
     7
 10
39.192119999999989
 20
-8.7800000000000011
 30
0.0
 11
39.83001999999999
 21
-8.1420999999999992
 31
0.0
  0
LINE
  5
113
  8
DATA
  6
CONTINUOUS
 62
     7
 10
39.83001999999999
 20
-8.1420999999999992
 30
0.0
 11
36.573119999999989
 21
-4.8869999999999996
 31
0.0
  0
LINE
  5
114
  8
DATA
  6
CONTINUOUS
 62
     7
 10
39.192119999999989
 20
-8.7800000000000011
 30
0.0
 11
34.572039999999987
 21
-4.1610000000000014
 31
0.0
  0
CIRCLE
  5
115
  8
DATA
  6
CONTINUOUS
 62
     7
 10
24.999999999999979
 20
-49.994989999999973
 30
0.0
 40
9.5
  0
LINE
  5
116
  8
DATA
  6
CONTINUOUS
 62
     7
 10
38.012009999999982
 20
-44.994989999999973
 30
0.0
 11
34.499999999999979
 21
-44.994989999999973
 31
0.0
  0
LINE
  5
117
  8
DATA
  6
CONTINUOUS
 62
     7
 10
38.012009999999982
 20
-54.994989999999973
 30
0.0
 11
34.499999999999979
 21
-54.994989999999973
 31
0.0
  0
LINE
  5
118
  8
DATA
  6
CONTINUOUS
 62
     7
 10
34.499999999999979
 20
-44.994989999999973
 30
0.0
 11
34.499999999999979
 21
-54.994989999999973
 31
0.0
  0
ARC
  5
119
  8
DATA
  6
CONTINUOUS
 62
     7
 10
31.64300999999999
 20
-45.631989999999973
 30
0.0
 40
1.0062627673227329
 50
296.95439837582478
 51
129.63162285671919
  0
ARC
  5
11A
  8
DATA
  6
CONTINUOUS
 62
     7
 10
24.999999999999979
 20
-49.994989999999973
 30
0.0
 40
7.900262444969786
 50
40.570041751113408
 51
26.02382258567172
  0
ARC
  5
11B
  8
DATA
  6
CONTINUOUS
 62
     7
 10
28.86510999999998
 20
-49.994989999999973
 30
0.0
 40
10.964440447209331
 50
332.86944221916389
 51
27.130557780836
  0
LINE
  5
11C
  8
DATA
  6
CONTINUOUS
 62
     7
 10
38.623129999999982
 20
-44.994989999999973
 30
0.0
 11
38.012009999999982
 21
-44.994989999999973
 31
0.0
  0
LINE
  5
11D
  8
DATA
  6
CONTINUOUS
 62
     7
 10
38.012009999999982
 20
-54.994989999999973
 30
0.0
 11
38.623129999999982
 21
-54.994989999999973
 31
0.0
  0
CIRCLE
  5
11E
  8
DATA
  6
CONTINUOUS
 62
     7
 10
28.999999999999979
 20
-49.994989999999973
 30
0.0
 40
1.199950000000001
  0
CIRCLE
  5
11F
  8
DATA
  6
CONTINUOUS
 62
     7
 10
24.999999999999979
 20
-53.994989999999973
 30
0.0
 40
1.199950000000001
  0
CIRCLE
  5
120
  8
DATA
  6
CONTINUOUS
 62
     7
 10
20.999999999999979
 20
-49.994989999999973
 30
0.0
 40
1.199950000000001
  0
ARC
  5
121
  8
DATA
  6
CONTINUOUS
 62
     7
 10
24.995129999999978
 20
-49.989979999999967
 30
0.0
 40
9.9951620836532662
 50
18.020283531503399
 51
180.02797387753739
  0
ARC
  5
122
  8
DATA
  6
CONTINUOUS
 62
     7
 10
24.995129999999978
 20
-49.99998999999999
 30
0.0
 40
9.9951212506102198
 50
179.9713381256382
 51
341.98575415619712
  0
ARC
  5
123
  8
DATA
  6
CONTINUOUS
 62
     7
 10
24.999999999999979
 20
-49.994989999999973
 30
0.0
 40
10.90050093593868
 50
27.302899036330139
 51
161.27031326900371
  0
ARC
  5
124
  8
DATA
  6
CONTINUOUS
 62
     7
 10
24.99969999999999
 20
-50.000349999999997
 30
0.0
 40
10.89838889477705
 50
198.70813102599581
 51
332.71830840459791
  0
LINE
  5
125
  8
DATA
  6
CONTINUOUS
 62
     7
 10
14.677129999999989
 20
-46.494989999999973
 30
0.0
 11
15.52212999999999
 21
-46.80299999999999
 31
0.0
  0
LINE
  5
126
  8
DATA
  6
CONTINUOUS
 62
     7
 10
14.677129999999989
 20
-53.49498999999998
 30
0.0
 11
15.52212999999999
 21
-53.187869999999968
 31
0.0
  0
TEXT
  5
127
  8
DATA
 62
     7
 10
16.762009999999979
 20
50.351910000000011
 30
0.0
 40
2.657519999999999
  1
MICROFLEX
 41
0.75
  0
TEXT
  5
128
  8
DATA
 62
     7
 10
17.772129999999979
 20
54.184010000000001
 30
0.0
 40
3.9511120000000002
  1
SHURE
 41
0.75
  0
LINE
  5
129
  8
DATA
  6
CONTINUOUS
 62
     7
 10
29.49995999999998
 20
160.49974
 30
0.0
 11
30.24995999999998
 21
147.49981999999989
 31
0.0
  0
LINE
  5
12A
  8
DATA
  6
CONTINUOUS
 62
     7
 10
20.50006999999999
 20
160.49974
 30
0.0
 11
19.75006999999999
 21
147.49981999999989
 31
0.0
  0
LINE
  5
12B
  8
DATA
  6
CONTINUOUS
 62
     7
 10
29.49995999999998
 20
160.49974
 30
0.0
 11
20.50006999999999
 21
160.49974
 31
0.0
  0
LINE
  5
12C
  8
DATA
  6
CONTINUOUS
 62
     7
 10
30.24995999999998
 20
147.49981999999989
 30
0.0
 11
30.24995999999998
 21
140.99977000000001
 31
0.0
  0
LINE
  5
12D
  8
DATA
  6
CONTINUOUS
 62
     7
 10
19.75006999999999
 20
147.49981999999989
 30
0.0
 11
19.75006999999999
 21
140.99977000000001
 31
0.0
  0
LINE
  5
12E
  8
DATA
  6
CONTINUOUS
 62
     7
 10
30.24995999999998
 20
140.99977000000001
 30
0.0
 11
19.75006999999999
 21
140.99977000000001
 31
0.0
  0
LINE
  5
12F
  8
DATA
  6
CONTINUOUS
 62
     7
 10
30.24995999999998
 20
140.99977000000001
 30
0.0
 11
30.24995999999998
 21
133.49998999999991
 31
0.0
  0
LINE
  5
130
  8
DATA
  6
CONTINUOUS
 62
     7
 10
19.75006999999999
 20
133.49998999999991
 30
0.0
 11
19.75006999999999
 21
140.99977000000001
 31
0.0
  0
LINE
  5
131
  8
DATA
  6
CONTINUOUS
 62
     7
 10
30.24995999999998
 20
133.49998999999991
 30
0.0
 11
19.75006999999999
 21
133.49998999999991
 31
0.0
  0
LINE
  5
132
  8
DATA
  6
CONTINUOUS
 62
     7
 10
21.00006999999999
 20
133.49998999999991
 30
0.0
 11
21.00006999999999
 21
125.00001
 31
0.0
  0
LINE
  5
133
  8
DATA
  6
CONTINUOUS
 62
     7
 10
21.00006999999999
 20
125.00001
 30
0.0
 11
28.99995999999998
 21
125.00001
 31
0.0
  0
LINE
  5
134
  8
DATA
  6
CONTINUOUS
 62
     7
 10
30.24995999999998
 20
140.8998499999999
 30
0.0
 11
19.75006999999999
 21
140.8998499999999
 31
0.0
  0
LINE
  5
135
  8
DATA
  6
CONTINUOUS
 62
     7
 10
30.040079999999978
 20
125.5000099999999
 30
0.0
 11
28.99995999999998
 21
125.5000099999999
 31
0.0
  0
LINE
  5
136
  8
DATA
  6
CONTINUOUS
 62
     7
 10
28.99995999999998
 20
125.6998899999999
 30
0.0
 11
29.800149999999981
 21
125.6998899999999
 31
0.0
  0
POLYLINE
  5
137
  8
DATA
  6
CONTINUOUS
 62
     7
 66
     1
 10
0.0
 20
0.0
 30
0.0
 70
   129
  0
VERTEX
  5
1F0
  8
DATA
  6
CONTINUOUS
 62
     7
 10
29.211049999999979
 20
130.02498
 30
0.0
  0
VERTEX
  5
1F1
  8
DATA
  6
CONTINUOUS
 62
     7
 10
29.210632468649742
 20
130.02361725320611
 30
0.0
 42
0.051521518344716
  0
VERTEX
  5
1F2
  8
DATA
  6
CONTINUOUS
 62
     7
 10
29.20595999999999
 20
129.99987999999999
 30
0.0
  0
SEQEND
  5
1F3
  8
DATA
  6
CONTINUOUS
 62
     7
  0
LINE
  5
13C
  8
DATA
  6
CONTINUOUS
 62
     7
 10
29.800149999999981
 20
125.6998899999999
 30
0.0
 11
29.00398999999998
 21
129.97589999999991
 31
0.0
  0
POLYLINE
  5
13D
  8
DATA
  6
CONTINUOUS
 62
     7
 66
     1
 10
0.0
 20
0.0
 30
0.0
 70
   129
  0
VERTEX
  5
1F4
  8
DATA
  6
CONTINUOUS
 62
     7
 10
29.211049999999979
 20
130.02498
 30
0.0
  0
VERTEX
  5
1F5
  8
DATA
  6
CONTINUOUS
 62
     7
 10
29.210632468649742
 20
130.02361725320611
 30
0.0
 42
0.051521518344716
  0
VERTEX
  5
1F6
  8
DATA
  6
CONTINUOUS
 62
     7
 10
29.20595999999999
 20
129.99987999999999
 30
0.0
  0
SEQEND
  5
1F7
  8
DATA
  6
CONTINUOUS
 62
     7
  0
LINE
  5
142
  8
DATA
  6
CONTINUOUS
 62
     7
 10
29.577059999999989
 20
132.75189
 30
0.0
 11
29.717059999999989
 21
132.89899
 31
0.0
  0
LINE
  5
143
  8
DATA
  6
CONTINUOUS
 62
     7
 10
30.009859999999989
 20
132.50128000000001
 30
0.0
 11
29.717059999999989
 21
132.89899
 31
0.0
  0
LINE
  5
144
  8
DATA
  6
CONTINUOUS
 62
     7
 10
29.788349999999991
 20
132.4636999999999
 30
0.0
 11
29.577059999999989
 21
132.75189
 31
0.0
  0
LINE
  5
145
  8
DATA
  6
CONTINUOUS
 62
     7
 10
29.788349999999991
 20
132.4636999999999
 30
0.0
 11
29.006989999999991
 21
130.02389999999991
 31
0.0
  0
LINE
  5
146
  8
DATA
  6
CONTINUOUS
 62
     7
 10
29.211049999999979
 20
130.02498
 30
0.0
 11
30.009859999999989
 21
132.50128000000001
 31
0.0
  0
LINE
  5
147
  8
DATA
  6
CONTINUOUS
 62
     7
 10
29.208059999999978
 20
129.97589999999991
 30
0.0
 11
30.040079999999978
 21
125.5000099999999
 31
0.0
  0
POLYLINE
  5
148
  8
DATA
  6
CONTINUOUS
 62
     7
 66
     1
 10
0.0
 20
0.0
 30
0.0
 70
   129
  0
VERTEX
  5
1F8
  8
DATA
  6
CONTINUOUS
 62
     7
 10
29.211049999999979
 20
130.02498
 30
0.0
  0
VERTEX
  5
1F9
  8
DATA
  6
CONTINUOUS
 62
     7
 10
29.210632468649742
 20
130.02361725320611
 30
0.0
 42
0.051521518344716
  0
VERTEX
  5
1FA
  8
DATA
  6
CONTINUOUS
 62
     7
 10
29.20595999999999
 20
129.99987999999999
 30
0.0
  0
SEQEND
  5
1FB
  8
DATA
  6
CONTINUOUS
 62
     7
  0
LINE
  5
14D
  8
DATA
  6
CONTINUOUS
 62
     7
 10
27.49995999999998
 20
132.99996999999991
 30
0.0
 11
27.49995999999998
 21
130.49992
 31
0.0
  0
LINE
  5
14E
  8
DATA
  6
CONTINUOUS
 62
     7
 10
27.49995999999998
 20
132.99996999999991
 30
0.0
 11
28.99995999999998
 21
132.99996999999991
 31
0.0
  0
LINE
  5
14F
  8
DATA
  6
CONTINUOUS
 62
     7
 10
27.49995999999998
 20
130.49992
 30
0.0
 11
28.99995999999998
 21
130.49992
 31
0.0
  0
LINE
  5
150
  8
DATA
  6
CONTINUOUS
 62
     7
 10
28.99995999999998
 20
132.99996999999991
 30
0.0
 11
28.99995999999998
 21
133.49998999999991
 31
0.0
  0
LINE
  5
151
  8
DATA
  6
CONTINUOUS
 62
     7
 10
28.99995999999998
 20
130.49992
 30
0.0
 11
28.99995999999998
 21
125.00001
 31
0.0
  0
LINE
  5
152
  8
DATA
  6
CONTINUOUS
 62
     7
 10
28.99096999999999
 20
130.51499000000001
 30
0.0
 11
28.99096999999999
 21
132.16787999999991
 31
0.0
  0
LINE
  5
153
  8
DATA
  6
CONTINUOUS
 62
     7
 10
28.99096999999999
 20
132.16787999999991
 30
0.0
 11
29.34296999999999
 21
132.16787999999991
 31
0.0
  0
LINE
  5
154
  8
DATA
  6
CONTINUOUS
 62
     7
 10
29.34296999999999
 20
132.16787999999991
 30
0.0
 11
28.99995999999998
 21
130.49992
 31
0.0
  0
LINE
  5
155
  8
DATA
  6
CONTINUOUS
 62
     7
 10
27.49995999999998
 20
173.49979999999999
 30
0.0
 11
28.499959999999991
 21
160.49974
 31
0.0
  0
LINE
  5
156
  8
DATA
  6
CONTINUOUS
 62
     7
 10
21.50006999999999
 20
160.49974
 30
0.0
 11
22.50006999999999
 21
173.49979999999999
 31
0.0
  0
LINE
  5
157
  8
DATA
  6
CONTINUOUS
 62
     7
 10
27.49995999999998
 20
173.49979999999999
 30
0.0
 11
22.50006999999999
 21
173.49979999999999
 31
0.0
  0
LINE
  5
158
  8
DATA
  6
CONTINUOUS
 62
     7
 10
26.49997999999999
 20
173.49979999999999
 30
0.0
 11
26.49997999999999
 21
180.49984000000001
 31
0.0
  0
LINE
  5
159
  8
DATA
  6
CONTINUOUS
 62
     7
 10
23.49997999999999
 20
180.49984000000001
 30
0.0
 11
23.49997999999999
 21
173.49979999999999
 31
0.0
  0
LINE
  5
15A
  8
DATA
  6
CONTINUOUS
 62
     7
 10
25.44995999999999
 20
147.49981999999989
 30
0.0
 11
24.99997999999999
 21
153.4996999999999
 31
0.0
  0
LINE
  5
15B
  8
DATA
  6
CONTINUOUS
 62
     7
 10
24.550059999999991
 20
147.49981999999989
 30
0.0
 11
24.99997999999999
 21
153.4996999999999
 31
0.0
  0
LINE
  5
15C
  8
DATA
  6
CONTINUOUS
 62
     7
 10
24.550059999999991
 20
147.49981999999989
 30
0.0
 11
25.44995999999999
 21
147.49981999999989
 31
0.0
  0
LINE
  5
15D
  8
DATA
  6
CONTINUOUS
 62
     7
 10
29.44995999999999
 20
147.49981999999989
 30
0.0
 11
28.99995999999998
 21
153.4996999999999
 31
0.0
  0
LINE
  5
15E
  8
DATA
  6
CONTINUOUS
 62
     7
 10
28.550059999999991
 20
147.49981999999989
 30
0.0
 11
28.99995999999998
 21
153.4996999999999
 31
0.0
  0
LINE
  5
15F
  8
DATA
  6
CONTINUOUS
 62
     7
 10
29.44995999999999
 20
147.49981999999989
 30
0.0
 11
28.550059999999991
 21
147.49981999999989
 31
0.0
  0
LINE
  5
160
  8
DATA
  6
CONTINUOUS
 62
     7
 10
27.44995999999999
 20
147.49981999999989
 30
0.0
 11
26.99995999999998
 21
153.4996999999999
 31
0.0
  0
LINE
  5
161
  8
DATA
  6
CONTINUOUS
 62
     7
 10
26.550059999999981
 20
147.49981999999989
 30
0.0
 11
26.99995999999998
 21
153.4996999999999
 31
0.0
  0
LINE
  5
162
  8
DATA
  6
CONTINUOUS
 62
     7
 10
27.44995999999999
 20
147.49981999999989
 30
0.0
 11
26.550059999999981
 21
147.49981999999989
 31
0.0
  0
LINE
  5
163
  8
DATA
  6
CONTINUOUS
 62
     7
 10
23.44995999999999
 20
147.49981999999989
 30
0.0
 11
23.00006999999999
 21
153.4996999999999
 31
0.0
  0
LINE
  5
164
  8
DATA
  6
CONTINUOUS
 62
     7
 10
22.550059999999981
 20
147.49981999999989
 30
0.0
 11
23.00006999999999
 21
153.4996999999999
 31
0.0
  0
LINE
  5
165
  8
DATA
  6
CONTINUOUS
 62
     7
 10
23.44995999999999
 20
147.49981999999989
 30
0.0
 11
22.550059999999981
 21
147.49981999999989
 31
0.0
  0
LINE
  5
166
  8
DATA
  6
CONTINUOUS
 62
     7
 10
21.44995999999999
 20
147.49981999999989
 30
0.0
 11
21.00006999999999
 21
153.4996999999999
 31
0.0
  0
LINE
  5
167
  8
DATA
  6
CONTINUOUS
 62
     7
 10
20.550079999999991
 20
147.49981999999989
 30
0.0
 11
21.00006999999999
 21
153.4996999999999
 31
0.0
  0
LINE
  5
168
  8
DATA
  6
CONTINUOUS
 62
     7
 10
21.44995999999999
 20
147.49981999999989
 30
0.0
 11
20.550079999999991
 21
147.49981999999989
 31
0.0
  0
LINE
  5
169
  8
DATA
  6
CONTINUOUS
 62
     7
 10
23.99997999999999
 20
180.49984000000001
 30
0.0
 11
23.99997999999999
 21
196.00001
 31
0.0
  0
LINE
  5
16A
  8
DATA
  6
CONTINUOUS
 62
     7
 10
25.99997999999999
 20
180.49984000000001
 30
0.0
 11
25.999959999999991
 21
196.0002199999999
 31
0.0
  0
LINE
  5
16B
  8
DATA
  6
CONTINUOUS
 62
     7
 10
23.49997999999999
 20
180.49984000000001
 30
0.0
 11
26.49997999999999
 21
180.49984000000001
 31
0.0
  0
CIRCLE
  5
16C
  8
DATA
  6
CONTINUOUS
 62
     7
 10
25.396309999999978
 20
112.48744000000001
 30
0.0
 40
0.5999000000000017
  0
CIRCLE
  5
16D
  8
DATA
  6
CONTINUOUS
 62
     7
 10
25.396309999999978
 20
114.48744000000001
 30
0.0
 40
0.6000200000000007
  0
CIRCLE
  5
16E
  8
DATA
  6
CONTINUOUS
 62
     7
 10
25.396309999999978
 20
110.48744000000001
 30
0.0
 40
0.5999300000000006
  0
CIRCLE
  5
16F
  8
DATA
  6
CONTINUOUS
 62
     7
 10
23.396309999999978
 20
112.48744000000001
 30
0.0
 40
0.5999000000000017
  0
LINE
  5
170
  8
DATA
  6
CONTINUOUS
 62
     7
 10
29.526199999999989
 20
113.48744000000001
 30
0.0
 11
28.750319999999991
 21
113.48744000000001
 31
0.0
  0
LINE
  5
171
  8
DATA
  6
CONTINUOUS
 62
     7
 10
29.526199999999989
 20
111.48744000000001
 30
0.0
 11
28.750319999999991
 21
111.48744000000001
 31
0.0
  0
LINE
  5
172
  8
DATA
  6
CONTINUOUS
 62
     7
 10
28.146309999999978
 20
114.65345000000001
 30
0.0
 11
28.146309999999978
 21
110.32256
 31
0.0
  0
ARC
  5
173
  8
DATA
  6
CONTINUOUS
 62
     7
 10
25.396309999999978
 20
112.48744000000001
 30
0.0
 40
3.4999118674760958
 50
16.601979754991831
 51
343.39802024500818
  0
ARC
  5
174
  8
DATA
  6
CONTINUOUS
 62
     7
 10
25.396309999999978
 20
112.48744000000001
 30
0.0
 40
4.249234214785063
 50
13.61146039991703
 51
346.40132609757842
  0
LINE
  5
175
  8
DATA
  6
CONTINUOUS
 62
     7
 10
28.471299999999982
 20
114.1584399999999
 30
0.0
 11
28.471299999999982
 21
110.81753999999999
 31
0.0
  0
LINE
  5
176
  8
DATA
  6
CONTINUOUS
 62
     7
 10
30.146309999999978
 20
113.3875399999999
 30
0.0
 11
30.146309999999978
 21
111.5875699999999
 31
0.0
  0
LINE
  5
177
  8
DATA
  6
CONTINUOUS
 62
     7
 10
30.146309999999978
 20
111.5875699999999
 30
0.0
 11
28.585199999999979
 21
111.5875699999999
 31
0.0
  0
LINE
  5
178
  8
DATA
  6
CONTINUOUS
 62
     7
 10
28.585199999999979
 20
111.5875699999999
 30
0.0
 11
28.585199999999979
 21
113.3875399999999
 31
0.0
  0
LINE
  5
179
  8
DATA
  6
CONTINUOUS
 62
     7
 10
28.585199999999979
 20
113.3875399999999
 30
0.0
 11
30.146309999999978
 21
113.3875399999999
 31
0.0
  0
CIRCLE
  5
17A
  8
DATA
  6
CONTINUOUS
 62
     7
 10
25.396309999999978
 20
112.48744000000001
 30
0.0
 40
5.2499100000000034
  0
LINE
  5
17B
  8
DATA
  6
CONTINUOUS
 62
     7
 10
30.427199999999981
 20
113.98744000000001
 30
0.0
 11
31.21731999999998
 21
113.98744000000001
 31
0.0
  0
LINE
  5
17C
  8
DATA
  6
CONTINUOUS
 62
     7
 10
31.21731999999998
 20
110.98744000000001
 30
0.0
 11
30.427199999999981
 21
110.98744000000001
 31
0.0
  0
ARC
  5
17D
  8
DATA
  6
CONTINUOUS
 62
     7
 10
30.47031999999998
 20
112.48744000000001
 30
0.0
 40
1.6757114906808981
 50
296.4733046109572
 51
63.5266953890428
  0
CIRCLE
  5
17E
  8
DATA
  6
CONTINUOUS
 62
     7
 10
25.396309999999978
 20
112.48744000000001
 30
0.0
 40
5.2499100000000034
  0
LINE
  5
17F
  8
DATA
  6
CONTINUOUS
 62
     7
 10
160.24989999999991
 20
187.60619
 30
0.0
 11
159.49989999999991
 21
182.5201999999999
 31
0.0
  0
LINE
  5
180
  8
DATA
  6
CONTINUOUS
 62
     7
 10
148.24992999999989
 20
187.60619
 30
0.0
 11
148.99992999999989
 21
182.5201999999999
 31
0.0
  0
LINE
  5
181
  8
DATA
  6
CONTINUOUS
 62
     7
 10
148.99992999999989
 20
182.5201999999999
 30
0.0
 11
159.49989999999991
 21
182.5201999999999
 31
0.0
  0
LINE
  5
182
  8
DATA
  6
CONTINUOUS
 62
     7
 10
160.24989999999991
 20
187.60619
 30
0.0
 11
160.24989999999991
 21
189.5201999999999
 31
0.0
  0
LINE
  5
183
  8
DATA
  6
CONTINUOUS
 62
     7
 10
148.24992999999989
 20
187.60619
 30
0.0
 11
148.24992999999989
 21
189.5201999999999
 31
0.0
  0
LINE
  5
184
  8
DATA
  6
CONTINUOUS
 62
     7
 10
148.24992999999989
 20
198.02019999999999
 30
0.0
 11
160.24989999999991
 21
198.02019999999999
 31
0.0
  0
LINE
  5
185
  8
DATA
  6
CONTINUOUS
 62
     7
 10
148.24992999999989
 20
196.5201999999999
 30
0.0
 11
160.24989999999991
 21
196.5201999999999
 31
0.0
  0
LINE
  5
186
  8
DATA
  6
CONTINUOUS
 62
     7
 10
160.24989999999991
 20
196.5201999999999
 30
0.0
 11
160.24989999999991
 21
193.5201999999999
 31
0.0
  0
LINE
  5
187
  8
DATA
  6
CONTINUOUS
 62
     7
 10
160.24989999999991
 20
193.5201999999999
 30
0.0
 11
148.24992999999989
 21
193.5201999999999
 31
0.0
  0
LINE
  5
188
  8
DATA
  6
CONTINUOUS
 62
     7
 10
148.24992999999989
 20
193.5201999999999
 30
0.0
 11
148.24992999999989
 21
196.5201999999999
 31
0.0
  0
LINE
  5
189
  8
DATA
  6
CONTINUOUS
 62
     7
 10
160.24989999999991
 20
192.0201999999999
 30
0.0
 11
148.24992999999989
 21
192.0201999999999
 31
0.0
  0
LINE
  5
18A
  8
DATA
  6
CONTINUOUS
 62
     7
 10
160.24989999999991
 20
189.5201999999999
 30
0.0
 11
148.24992999999989
 21
189.5201999999999
 31
0.0
  0
LINE
  5
18B
  8
DATA
  6
CONTINUOUS
 62
     7
 10
160.24989999999991
 20
192.0201999999999
 30
0.0
 11
160.24989999999991
 21
190.82012
 31
0.0
  0
LINE
  5
18C
  8
DATA
  6
CONTINUOUS
 62
     7
 10
148.24992999999989
 20
192.0201999999999
 30
0.0
 11
148.24992999999989
 21
190.82012
 31
0.0
  0
LINE
  5
18D
  8
DATA
  6
CONTINUOUS
 62
     7
 10
148.24992999999989
 20
190.82012
 30
0.0
 11
160.24989999999991
 21
190.82012
 31
0.0
  0
LINE
  5
18E
  8
DATA
  6
CONTINUOUS
 62
     7
 10
160.0499299999999
 20
198.02019999999999
 30
0.0
 11
160.0499299999999
 21
196.5201999999999
 31
0.0
  0
LINE
  5
18F
  8
DATA
  6
CONTINUOUS
 62
     7
 10
160.0499299999999
 20
193.5201999999999
 30
0.0
 11
160.0499299999999
 21
192.0201999999999
 31
0.0
  0
LINE
  5
190
  8
DATA
  6
CONTINUOUS
 62
     7
 10
160.24989999999991
 20
190.82012
 30
0.0
 11
160.0499299999999
 21
189.5201999999999
 31
0.0
  0
LINE
  5
191
  8
DATA
  6
CONTINUOUS
 62
     7
 10
148.44991999999991
 20
198.02019999999999
 30
0.0
 11
148.44991999999991
 21
196.5201999999999
 31
0.0
  0
LINE
  5
192
  8
DATA
  6
CONTINUOUS
 62
     7
 10
148.44991999999991
 20
193.5201999999999
 30
0.0
 11
148.44991999999991
 21
192.0201999999999
 31
0.0
  0
LINE
  5
193
  8
DATA
  6
CONTINUOUS
 62
     7
 10
148.24992999999989
 20
190.82012
 30
0.0
 11
148.44991999999991
 21
189.5201999999999
 31
0.0
  0
LINE
  5
194
  8
DATA
  6
CONTINUOUS
 62
     7
 10
160.24989999999991
 20
198.02019999999999
 30
0.0
 11
160.24989999999991
 21
203.2202199999999
 31
0.0
  0
LINE
  5
195
  8
DATA
  6
CONTINUOUS
 62
     7
 10
148.24992999999989
 20
198.02019999999999
 30
0.0
 11
148.24992999999989
 21
203.2202199999999
 31
0.0
  0
LINE
  5
196
  8
DATA
  6
CONTINUOUS
 62
     7
 10
160.24989999999991
 20
203.2202199999999
 30
0.0
 11
160.0499299999999
 21
204.02019000000001
 31
0.0
  0
LINE
  5
197
  8
DATA
  6
CONTINUOUS
 62
     7
 10
148.24992999999989
 20
203.2202199999999
 30
0.0
 11
148.44991999999991
 21
204.02019000000001
 31
0.0
  0
LINE
  5
198
  8
DATA
  6
CONTINUOUS
 62
     7
 10
160.0499299999999
 20
204.02019000000001
 30
0.0
 11
148.44991999999991
 21
204.02019000000001
 31
0.0
  0
LINE
  5
199
  8
DATA
  6
CONTINUOUS
 62
     7
 10
160.24989999999991
 20
203.2202199999999
 30
0.0
 11
148.24992999999989
 21
203.2202199999999
 31
0.0
  0
LINE
  5
19A
  8
DATA
  6
CONTINUOUS
 62
     7
 10
157.0499299999999
 20
182.0201999999999
 30
0.0
 11
151.45002999999991
 21
182.0201999999999
 31
0.0
  0
LINE
  5
19B
  8
DATA
  6
CONTINUOUS
 62
     7
 10
157.24989999999991
 20
182.5201999999999
 30
0.0
 11
157.0499299999999
 21
182.0201999999999
 31
0.0
  0
LINE
  5
19C
  8
DATA
  6
CONTINUOUS
 62
     7
 10
151.2499499999999
 20
182.5201999999999
 30
0.0
 11
151.45002999999991
 21
182.0201999999999
 31
0.0
  0
LINE
  5
19D
  8
DATA
  6
CONTINUOUS
 62
     7
 10
148.26984999999991
 20
200.99998999999991
 30
0.0
 11
113.31632
 21
200.99998999999991
 31
0.0
  0
LINE
  5
19E
  8
DATA
  6
CONTINUOUS
 62
     7
 10
148.26984999999991
 20
199.0002199999999
 30
0.0
 11
111.81649999999991
 21
199.0002199999999
 31
0.0
  0
CIRCLE
  5
19F
  8
DATA
  6
CONTINUOUS
 62
     7
 10
154.53249999999991
 20
162.49998999999991
 30
0.0
 40
5.9999899999999959
  0
CIRCLE
  5
1A0
  8
DATA
  6
CONTINUOUS
 62
     7
 10
154.53249999999991
 20
162.49998999999991
 30
0.0
 40
5.2499899999999959
  0
CIRCLE
  5
1A1
  8
DATA
  6
CONTINUOUS
 62
     7
 10
154.53249999999991
 20
162.49998999999991
 30
0.0
 40
2.9999899999999959
  0
ARC
  5
1A2
  8
DATA
  6
CONTINUOUS
 62
     7
 10
103.1969499999999
 20
196.8852
 30
0.0
 40
4.4194173824159213
 50
135.0
 51
225.0
  0
ARC
  5
1A3
  8
DATA
  6
CONTINUOUS
 62
     7
 10
96.946949999999987
 20
203.1352
 30
0.0
 40
4.4194173824159222
 50
315.0
 51
45.000275020181732
  0
LINE
  5
1A4
  8
DATA
  6
CONTINUOUS
 62
     7
 10
100.81631999999991
 20
200.99998999999991
 30
0.0
 11
28.99995999999998
 21
200.99998999999991
 31
0.0
  0
LINE
  5
1A5
  8
DATA
  6
CONTINUOUS
 62
     7
 10
99.316490000000002
 20
199.0002199999999
 30
0.0
 11
28.99995999999998
 21
199.0002199999999
 31
0.0
  0
ARC
  5
1A6
  8
DATA
  6
CONTINUOUS
 62
     7
 10
28.99995999999998
 20
196.00001
 30
0.0
 40
4.9999799999999999
 50
90.0
 51
180.0
  0
ARC
  5
1A7
  8
DATA
  6
CONTINUOUS
 62
     7
 10
28.99995999999998
 20
196.0002199999999
 30
0.0
 40
3.0
 50
90.0
 51
180.0
  0
ARC
  5
1A8
  8
DATA
  6
CONTINUOUS
 62
     7
 10
115.6969499999999
 20
196.8852
 30
0.0
 40
4.4194173824159222
 50
135.0
 51
225.0
  0
ARC
  5
1A9
  8
DATA
  6
CONTINUOUS
 62
     7
 10
109.4469399999999
 20
203.1352
 30
0.0
 40
4.4194244534893903
 50
315.00009167310048
 51
45.000091673100599
  0
ARC
  5
1AA
  8
DATA
  6
CONTINUOUS
 62
     7
 10
30.07401999999999
 20
137.03190000000001
 30
0.0
 40
1.6756891300297889
 50
296.47330338667592
 51
63.527001456074323
  0
LINE
  5
1AB
  8
DATA
  6
CONTINUOUS
 62
     7
 10
30.82100999999998
 20
138.53191000000001
 30
0.0
 11
30.24995999999998
 21
138.53191000000001
 31
0.0
  0
LINE
  5
1AC
  8
DATA
  6
CONTINUOUS
 62
     7
 10
30.82100999999998
 20
135.53192000000001
 30
0.0
 11
30.24995999999998
 21
135.53192000000001
 31
0.0
  0
TEXT
  5
1AD
  8
DATA
 62
     7
 10
57.361129999999989
 20
33.972239999999999
 30
0.0
 40
5.6444320000000001
  1
プリアンプ
 41
0.75
  0
LINE
  5
1AE
  8
DATA
  6
CONTINUOUS
 62
     7
 10
55.000009999999989
 20
30.00001
 30
0.0
 11
95.000020000000006
 21
30.00001
 31
0.0
  0
ENDSEC
  0
EOF
