  0
SECTION
  2
HEADER
  9
$ACADVER
  1
AC1009
  9
$INSBASE
 10
0.0
 20
0.0
 30
0.0
  9
$EXTMIN
 10
-80.010975489337284
 20
-131.22295908472481
 30
-0.0015258207003583
  9
$EXTMAX
 10
280.01097716571758
 20
403.5480915118805
 30
0.0000000349246037
  9
$LIMMIN
 10
0.0
 20
0.0
  9
$LIMMAX
 10
0.0
 20
0.0
  9
$ORTHOMODE
 70
     0
  9
$REGENMODE
 70
     1
  9
$FILLMODE
 70
     1
  9
$QTEXTMODE
 70
     0
  9
$MIRRTEXT
 70
     1
  9
$DRAGMODE
 70
     2
  9
$LTSCALE
 40
10.16
  9
$OSMODE
 70
   167
  9
$ATTMODE
 70
     1
  9
$TEXTSIZE
 40
9.7360672730168485
  9
$TRACEWID
 40
1.0
  9
$TEXTSTYLE
  7
STANDARD
  9
$CLAYER
  8
0
  9
$CELTYPE
  6
CONTINUOUS
  9
$CECOLOR
 62
   256
  9
$DIMSCALE
 40
1.0
  9
$DIMASZ
 40
0.18
  9
$DIMEXO
 40
0.0625
  9
$DIMDLI
 40
0.38
  9
$DIMRND
 40
0.0
  9
$DIMDLE
 40
0.0
  9
$DIMEXE
 40
0.18
  9
$DIMTP
 40
0.0
  9
$DIMTM
 40
0.0
  9
$DIMTXT
 40
0.18
  9
$DIMCEN
 40
0.09
  9
$DIMTSZ
 40
0.0
  9
$DIMTOL
 70
     0
  9
$DIMLIM
 70
     0
  9
$DIMTIH
 70
     1
  9
$DIMTOH
 70
     1
  9
$DIMSE1
 70
     0
  9
$DIMSE2
 70
     0
  9
$DIMTAD
 70
     0
  9
$DIMZIN
 70
     0
  9
$DIMBLK
  1

  9
$DIMASO
 70
     1
  9
$DIMSHO
 70
     1
  9
$DIMPOST
  1

  9
$DIMAPOST
  1

  9
$DIMALT
 70
     0
  9
$DIMALTD
 70
     2
  9
$DIMALTF
 40
25.399999999999999
  9
$DIMLFAC
 40
1.0
  9
$DIMTOFL
 70
     0
  9
$DIMTVP
 40
0.0
  9
$DIMTIX
 70
     0
  9
$DIMSOXD
 70
     0
  9
$DIMSAH
 70
     0
  9
$DIMBLK1
  1

  9
$DIMBLK2
  1

  9
$DIMSTYLE
  2
STANDARD
  9
$DIMCLRD
 70
     0
  9
$DIMCLRE
 70
     0
  9
$DIMCLRT
 70
     0
  9
$DIMTFAC
 40
1.0
  9
$DIMGAP
 40
0.09
  9
$LUNITS
 70
     2
  9
$LUPREC
 70
     4
  9
$SKETCHINC
 40
0.1
  9
$FILLETRAD
 40
0.0
  9
$AUNITS
 70
     0
  9
$AUPREC
 70
     0
  9
$MENU
  1
acad
  9
$ELEVATION
 40
0.0
  9
$PELEVATION
 40
0.0
  9
$THICKNESS
 40
0.0
  9
$LIMCHECK
 70
     0
  9
$BLIPMODE
 70
     0
  9
$CHAMFERA
 40
0.0
  9
$CHAMFERB
 40
0.0
  9
$SKPOLY
 70
     0
  9
$TDCREATE
 40
2452436.8725000001
  9
$TDUPDATE
 40
2452436.5009993049
  9
$TDINDWG
 40
0.0034359954
  9
$TDUSRTIMER
 40
0.0034359954
  9
$USRTIMER
 70
     1
  9
$ANGBASE
 50
0.0
  9
$ANGDIR
 70
     0
  9
$PDMODE
 70
     1
  9
$PDSIZE
 40
-2.0
  9
$PLINEWID
 40
0.0
  9
$COORDS
 70
     0
  9
$SPLFRAME
 70
     0
  9
$SPLINETYPE
 70
     6
  9
$SPLINESEGS
 70
     8
  9
$ATTDIA
 70
     0
  9
$ATTREQ
 70
     1
  9
$HANDLING
 70
 22529
  9
$HANDSEED
  5
6B0
  9
$SURFTAB1
 70
     6
  9
$SURFTAB2
 70
     6
  9
$SURFTYPE
 70
     6
  9
$SURFU
 70
     6
  9
$SURFV
 70
     6
  9
$UCSNAME
  2

  9
$UCSORG
 10
0.0
 20
0.0
 30
0.0
  9
$UCSXDIR
 10
1.0
 20
0.0
 30
0.0
  9
$UCSYDIR
 10
0.0
 20
1.0
 30
0.0
  9
$PUCSNAME
  2

  9
$PUCSORG
 10
0.0
 20
0.0
 30
0.0
  9
$PUCSXDIR
 10
1.0
 20
0.0
 30
0.0
  9
$PUCSYDIR
 10
0.0
 20
1.0
 30
0.0
  9
$USERI1
 70
     0
  9
$USERI2
 70
     0
  9
$USERI3
 70
     0
  9
$USERI4
 70
     0
  9
$USERI5
 70
     0
  9
$USERR1
 40
0.0
  9
$USERR2
 40
0.0
  9
$USERR3
 40
0.0
  9
$USERR4
 40
0.0
  9
$USERR5
 40
0.0
  9
$WORLDVIEW
 70
     1
  9
$SHADEDGE
 70
     3
  9
$SHADEDIF
 70
    70
  9
$TILEMODE
 70
     1
  9
$MAXACTVP
 70
    16
  9
$PLIMCHECK
 70
     0
  9
$PEXTMIN
 10
1.0000000000000000E+020
 20
1.0000000000000000E+020
 30
1.0000000000000000E+020
  9
$PEXTMAX
 10
-1.0000000000000000E+020
 20
-1.0000000000000000E+020
 30
-1.0000000000000000E+020
  9
$PLIMMIN
 10
0.0
 20
0.0
  9
$PLIMMAX
 10
12.0
 20
9.0
  9
$UNITMODE
 70
     0
  9
$VISRETAIN
 70
     0
  9
$PLINEGEN
 70
     1
  9
$PSLTSCALE
 70
     0
  0
ENDSEC
  0
SECTION
  2
TABLES
  0
TABLE
  2
VPORT
 70
     3
  0
VPORT
  2
*ACTIVE
 70
     0
 10
0.0
 20
0.0
 11
1.0
 21
1.0
 12
100.00000089259009
 22
136.16256559184271
 13
0.0
 23
0.0
 14
1.0
 24
1.0
 15
0.0
 25
0.0
 16
0.0
 26
0.0
 36
1.0
 17
0.0
 27
0.0
 37
0.0
 40
589.02549514395309
 41
1.664912280701754
 42
50.0
 43
0.0
 44
0.0
 50
0.0
 51
0.0
 71
     0
 72
   100
 73
     1
 74
     1
 75
     0
 76
     0
 77
     0
 78
     0
  0
ENDTAB
  0
TABLE
  2
LTYPE
 70
    11
  0
LTYPE
  2
CONTINUOUS
 70
     0
  3
Solid line
 72
    65
 73
     0
 40
0.0
  0
LTYPE
  2
STYLE_01
 70
     0
  3

 72
    65
 73
     2
 40
0.4166412353515625
 49
0.208282470703125
 49
-0.2083587646484375
  0
LTYPE
  2
STYLE_02
 70
     0
  3

 72
    65
 73
     2
 40
0.694427490234375
 49
0.4860687255859375
 49
-0.2083587646484375
  0
LTYPE
  2
STYLE_03
 70
     0
  3

 72
    65
 73
     2
 40
1.25
 49
1.0416412353515621
 49
-0.2083587646484375
  0
LTYPE
  2
STYLE_04
 70
     0
  3

 72
    65
 73
     2
 40
1.5277099609375
 49
1.319427490234375
 49
-0.208282470703125
  0
LTYPE
  2
STYLE_05
 70
     0
  3

 72
    65
 73
     2
 40
0.208282470703125
 49
0.069427490234375
 49
-0.13885498046875
  0
LTYPE
  2
STYLE_06
 70
     0
  3

 72
    65
 73
     4
 40
1.0416412353515621
 49
0.625
 49
-0.208282470703125
 49
0.069427490234375
 49
-0.1389312744140625
  0
LTYPE
  2
STYLE_07
 70
     0
  3

 72
    65
 73
     6
 40
1.875
 49
0.625
 49
-0.208282470703125
 49
0.625
 49
-0.2083587646484375
 49
0.069427490234375
 49
-0.1389312744140625
  0
LTYPE
  2
STYLE_08
 70
     0
  3

 72
    65
 73
     6
 40
1.25
 49
0.625
 49
-0.208282470703125
 49
0.069427490234375
 49
-0.1389312744140625
 49
0.069427490234375
 49
-0.1389312744140625
  0
LTYPE
  2
STYLE_09
 70
     0
  3

 72
    65
 73
     4
 40
5.0
 49
3.75
 49
-0.2777862548828125
 49
0.694427490234375
 49
-0.2777862548828125
  0
LTYPE
  2
STYLE_10
 70
     0
  3

 72
    65
 73
     6
 40
5.9375
 49
3.75
 49
-0.2777862548828125
 49
0.694427490234375
 49
-0.2777862548828125
 49
0.625
 49
-0.3125
  0
ENDTAB
  0
TABLE
  2
LAYER
 70
     5
  0
LAYER
  2
0
 70
     0
 62
     7
  6
CONTINUOUS
  0
LAYER
  2
HIBINO-BASE
 70
     0
 62
     7
  6
CONTINUOUS
  0
LAYER
  2
SPEC
 70
     0
 62
     7
  6
CONTINUOUS
  0
LAYER
  2
DIMNSIONS
 70
     0
 62
     7
  6
CONTINUOUS
  0
LAYER
  2
DATA
 70
     0
 62
     7
  6
CONTINUOUS
  0
ENDTAB
  0
TABLE
  2
STYLE
 70
     2
  0
STYLE
  2
STANDARD
 70
     0
 40
0.0
 41
1.0
 50
0.0
 71
     0
 42
9.7360672730168485
  3
txt
  4
BIGFONT.SHX
  0
ENDTAB
  0
TABLE
  2
VIEW
 70
     0
  0
ENDTAB
  0
TABLE
  2
UCS
 70
     0
  0
ENDTAB
  0
TABLE
  2
APPID
 70
     1
  0
APPID
  2
ACAD
 70
     0
  0
ENDTAB
  0
TABLE
  2
DIMSTYLE
 70
     1
  0
DIMSTYLE
  2
STANDARD
 70
     0
  3

  4

  5

  6

  7

 40
1.0
 41
0.18
 42
0.0625
 43
0.38
 44
0.18
 45
0.0
 46
0.0
 47
0.0
 48
0.0
140
0.18
141
0.09
142
0.0
143
25.399999999999999
144
1.0
145
0.0
146
1.0
147
0.09
 71
     0
 72
     0
 73
     1
 74
     1
 75
     0
 76
     0
 77
     0
 78
     0
170
     0
171
     2
172
     0
173
     0
174
     0
175
     0
176
     0
177
     0
178
     0
  0
ENDTAB
  0
ENDSEC
  0
SECTION
  2
BLOCKS
  0
BLOCK
  8
0
  2
$MODEL_SPACE
 70
     0
 10
0.0
 20
0.0
 30
0.0
  3
$MODEL_SPACE
  1

  0
ENDBLK
  5
E
  8
0
  0
BLOCK
 67
     1
  8
0
  2
$PAPER_SPACE
 70
     0
 10
0.0
 20
0.0
 30
0.0
  3
$PAPER_SPACE
  1

  0
ENDBLK
  5
10
 67
     1
  8
0
  0
ENDSEC
  0
SECTION
  2
ENTITIES
  0
LINE
  5
32
  8
HIBINO-BASE
  6
CONTINUOUS
 62
     7
 10
-79.999990000000011
 20
403.53178999999989
 30
0.0
 11
279.99998999999991
 21
403.53178999999989
 31
0.0
  0
LINE
  5
33
  8
HIBINO-BASE
  6
CONTINUOUS
 62
     7
 10
279.99998999999991
 20
-116.4681699999999
 30
0.0
 11
-79.999990000000011
 21
-116.4681699999999
 31
0.0
  0
LINE
  5
34
  8
HIBINO-BASE
  6
CONTINUOUS
 62
     7
 10
-79.999990000000011
 20
-116.4681699999999
 30
0.0
 11
-79.999990000000011
 21
403.53178999999989
 31
0.0
  0
TEXT
  5
35
  8
0
  6
CONTINUOUS
 62
     7
 10
-65.631980000000013
 20
-128.7241139999999
 30
0.0
 40
7.485144
  1
Hibino Corporation
  0
LINE
  5
36
  8
HIBINO-BASE
  6
CONTINUOUS
 62
     7
 10
279.99998999999991
 20
403.53178999999989
 30
0.0
 11
279.99998999999991
 21
-116.4681699999999
 31
0.0
  0
LINE
  5
37
  8
HIBINO-BASE
  6
CONTINUOUS
 62
     7
 10
100.0
 20
-71.46817999999999
 30
0.0
 11
279.99998999999991
 21
-71.46817999999999
 31
0.0
  0
LINE
  5
38
  8
HIBINO-BASE
  6
CONTINUOUS
 62
     7
 10
100.0
 20
-116.4681699999999
 30
0.0
 11
100.0
 21
-71.46817999999999
 31
0.0
  0
TEXT
  5
39
  8
0
  6
CONTINUOUS
 62
     7
 10
101.79997999999991
 20
-75.844899999999996
 30
0.0
 40
3.0
  1
NOTE
  0
LINE
  5
3A
  8
HIBINO-BASE
  6
CONTINUOUS
 62
     7
 10
170.0
 20
-116.4681699999999
 30
0.0
 11
170.0
 21
-71.46817999999999
 31
0.0
  0
TEXT
  5
3B
  8
0
  6
CONTINUOUS
 62
     7
 10
171.7999999999999
 20
-75.844899999999996
 30
0.0
 40
3.0
  1
TITLE
  0
TEXT
  5
3C
  8
0
  6
CONTINUOUS
 62
     7
 10
200.13676000000001
 20
-128.7241139999999
 30
0.0
 40
7.485144
  1
ヒビノ株式会社
  0
LINE
  5
3D
  8
HIBINO-BASE
  6
CONTINUOUS
 62
     7
 10
100.0
 20
-96.46817999999999
 30
0.0
 11
279.99998999999991
 21
-96.46817999999999
 31
0.0
  0
TEXT
  5
3E
  8
0
  6
CONTINUOUS
 62
     7
 10
196.7999999999999
 20
-100.7322399999999
 30
0.0
 40
3.0
  1
DRAWN
  0
TEXT
  5
3F
  8
0
  6
CONTINUOUS
 62
     7
 10
146.7999999999999
 20
-100.7322399999999
 30
0.0
 40
3.0
  1
DATE
  0
TEXT
  5
40
  8
0
  6
CONTINUOUS
 62
     7
 10
102.19996999999989
 20
-101.45306599999989
 30
0.0
 40
3.3866559999999999
  1
図面サイズ
  0
TEXT
  5
41
  8
0
  6
CONTINUOUS
 62
     7
 10
126.79997999999991
 20
-100.7322399999999
 30
0.0
 40
3.0
  1
SCALE
  0
TEXT
  5
42
  8
0
  6
CONTINUOUS
 62
     7
 10
171.7999999999999
 20
-100.7322399999999
 30
0.0
 40
3.0
  1
DESIGN
  0
TEXT
  5
43
  8
0
  6
CONTINUOUS
 62
     7
 10
246.79996999999989
 20
-100.7322399999999
 30
0.0
 40
3.0
  1
DRAWING NO.
  0
TEXT
  5
44
  8
0
  6
CONTINUOUS
 62
     7
 10
221.79998999999989
 20
-100.7322399999999
 30
0.0
 40
3.0
  1
CHECK
  0
LINE
  5
45
  8
HIBINO-BASE
  6
CONTINUOUS
 62
     7
 10
128.74996999999991
 20
-113.9681799999999
 30
0.0
 11
136.25
 21
-106.46818
 31
0.0
  0
TEXT
  5
46
  8
0
  6
CONTINUOUS
 62
     7
 10
127.49996999999991
 20
-109.56093199999989
 30
0.0
 40
4.5155519999999987
  1
1
  0
LINE
  5
47
  8
HIBINO-BASE
  6
CONTINUOUS
 62
     7
 10
124.99996999999991
 20
-116.4681699999999
 30
0.0
 11
124.99996999999991
 21
-96.46817999999999
 31
0.0
  0
LINE
  5
48
  8
HIBINO-BASE
  6
CONTINUOUS
 62
     7
 10
144.99998999999991
 20
-116.4681699999999
 30
0.0
 11
144.99998999999991
 21
-96.46817999999999
 31
0.0
  0
LINE
  5
49
  8
HIBINO-BASE
  6
CONTINUOUS
 62
     7
 10
194.99998999999991
 20
-96.46817999999999
 30
0.0
 11
194.99998999999991
 21
-116.4681699999999
 31
0.0
  0
LINE
  5
4A
  8
HIBINO-BASE
  6
CONTINUOUS
 62
     7
 10
245.0
 20
-96.46817999999999
 30
0.0
 11
245.0
 21
-116.4681699999999
 31
0.0
  0
LINE
  5
4B
  8
HIBINO-BASE
  6
CONTINUOUS
 62
     7
 10
219.99997999999999
 20
-116.4681699999999
 30
0.0
 11
219.99997999999999
 21
-96.46817999999999
 31
0.0
  0
TEXT
  5
4C
  8
0
  6
CONTINUOUS
 62
     7
 10
107.82178
 20
-110.9632399999999
 30
0.0
 40
6.77332
  1
A4
  0
TEXT
  5
4D
  8
0
  6
CONTINUOUS
 62
     7
 10
146.71307999999991
 20
-110.1001999999999
 30
0.0
 40
3.0
  1
'01.11.
  0
TEXT
  5
4E
  8
0
  6
CONTINUOUS
 62
     7
 10
135.0
 20
-113.31093199999989
 30
0.0
 40
4.5155519999999987
  1
2
  0
TEXT
  5
4F
  8
0
  6
CONTINUOUS
 62
     7
 10
198.01161999999991
 20
-110.1001999999999
 30
0.0
 40
3.0
  1
N.Sasaki
  0
TEXT
  5
50
  8
0
  6
CONTINUOUS
 62
     7
 10
26.800009999999979
 20
327.41137999999989
 30
0.0
 40
3.9504000000000001
  1
MX392/S:-26.5dBV/Pa(4.73mV）
  0
TEXT
  5
51
  8
0
  6
CONTINUOUS
 62
     7
 10
26.800009999999979
 20
333.90757999999988
 30
0.0
 40
3.9504000000000001
  1
MX392/O:-22.0dBV/Pa(7.94mV）
  0
TEXT
  5
52
  8
0
  6
CONTINUOUS
 62
     7
 10
26.800009999999979
 20
340.40380999999991
 30
0.0
 40
3.9504000000000001
  1
MX392/C:-27.5dBV/Pa(4.22mV）
  0
LINE
  5
53
  8
SPEC
  6
CONTINUOUS
 62
     7
 10
-64.999990000000011
 20
383.53179
 30
0.0
 11
230.0
 21
383.53179
 31
0.0
  0
LINE
  5
54
  8
SPEC
  6
CONTINUOUS
 62
     7
 10
-64.999990000000011
 20
376.03178999999989
 30
0.0
 11
230.0
 21
376.03178999999989
 31
0.0
  0
LINE
  5
55
  8
SPEC
  6
CONTINUOUS
 62
     7
 10
-64.999990000000011
 20
346.03179
 30
0.0
 11
230.0
 21
346.03179
 31
0.0
  0
LINE
  5
56
  8
SPEC
  6
CONTINUOUS
 62
     7
 10
-64.999990000000011
 20
323.53179
 30
0.0
 11
230.0
 21
323.53179
 31
0.0
  0
LINE
  5
57
  8
SPEC
  6
CONTINUOUS
 62
     7
 10
-64.999990000000011
 20
316.03178999999989
 30
0.0
 11
230.0
 21
316.03178999999989
 31
0.0
  0
LINE
  5
58
  8
SPEC
  6
CONTINUOUS
 62
     7
 10
-64.999990000000011
 20
308.53179
 30
0.0
 11
230.0
 21
308.53179
 31
0.0
  0
LINE
  5
59
  8
SPEC
  6
CONTINUOUS
 62
     7
 10
-64.999990000000011
 20
368.53179
 30
0.0
 11
230.0
 21
368.53179
 31
0.0
  0
LINE
  5
5A
  8
SPEC
  6
CONTINUOUS
 62
     7
 10
-64.999990000000011
 20
293.53179
 30
0.0
 11
230.0
 21
293.53179
 31
0.0
  0
LINE
  5
5B
  8
SPEC
  6
CONTINUOUS
 62
     7
 10
-64.999990000000011
 20
278.53178999999989
 30
0.0
 11
230.0
 21
278.53178999999989
 31
0.0
  0
LINE
  5
5C
  8
SPEC
  6
CONTINUOUS
 62
     7
 10
-64.999990000000011
 20
383.53179
 30
0.0
 11
-64.999990000000011
 21
271.03179
 31
0.0
  0
TEXT
  5
5D
  8
0
  6
CONTINUOUS
 62
     7
 10
-62.499990000000011
 20
386.69934000000001
 30
0.0
 40
5.0800000000000001
  1
仕様
  0
LINE
  5
5E
  8
SPEC
  6
CONTINUOUS
 62
     7
 10
25.000009999999989
 20
383.53179
 30
0.0
 11
25.000009999999989
 21
271.03179
 31
0.0
  0
LINE
  5
5F
  8
SPEC
  6
CONTINUOUS
 62
     7
 10
230.0
 20
383.53179
 30
0.0
 11
230.0
 21
271.03179
 31
0.0
  0
TEXT
  5
60
  8
0
  6
CONTINUOUS
 62
     7
 10
26.800009999999979
 20
377.90379999999988
 30
0.0
 40
3.9504000000000001
  1
エレクトレット・コンデンサー型
  0
TEXT
  5
61
  8
0
  6
CONTINUOUS
 62
     7
 10
-63.199969999999993
 20
317.90380999999991
 30
0.0
 40
3.9504000000000001
  1
出力インピーダンス
  0
TEXT
  5
62
  8
0
  6
CONTINUOUS
 62
     7
 10
-63.199969999999993
 20
377.90379999999988
 30
0.0
 40
3.9504000000000001
  1
形式
  0
TEXT
  5
63
  8
0
  6
CONTINUOUS
 62
     7
 10
-63.199969999999993
 20
370.40379999999999
 30
0.0
 40
3.9504000000000001
  1
周波数特性
  0
TEXT
  5
64
  8
0
  6
CONTINUOUS
 62
     7
 10
-63.199969999999993
 20
362.90379999999988
 30
0.0
 40
3.9504000000000001
  1
指向特性
  0
TEXT
  5
65
  8
0
  6
CONTINUOUS
 62
     7
 10
26.800009999999979
 20
370.40379999999999
 30
0.0
 40
3.9504000000000001
  1
50～17,000Hz
  0
TEXT
  5
66
  8
0
  6
CONTINUOUS
 62
     7
 10
26.800009999999979
 20
317.90380999999991
 30
0.0
 40
3.9504000000000001
  1
150Ω(180Ω実効 )
  0
TEXT
  5
67
  8
0
  6
CONTINUOUS
 62
     7
 10
26.800009999999979
 20
349.90757999999988
 30
0.0
 40
3.9504000000000001
  1
MX392/S:スーパー・カーディオイド
  0
TEXT
  5
68
  8
0
  6
CONTINUOUS
 62
     7
 10
-63.199969999999993
 20
302.90380999999991
 30
0.0
 40
3.9504000000000001
  1
出力
  0
TEXT
  5
69
  8
0
  6
CONTINUOUS
 62
     7
 10
-63.199969999999993
 20
310.40380999999991
 30
0.0
 40
3.9504000000000001
  1
外装色
  0
TEXT
  5
6A
  8
0
  6
CONTINUOUS
 62
     7
 10
26.800009999999979
 20
302.90380999999991
 30
0.0
 40
3.9504000000000001
  1
先バラ 
  0
TEXT
  5
6B
  8
0
  6
CONTINUOUS
 62
     7
 10
26.800009999999979
 20
310.40380999999991
 30
0.0
 40
3.9504000000000001
  1
黒
  0
TEXT
  5
6C
  8
0
  6
CONTINUOUS
 62
     7
 10
-63.199969999999993
 20
295.40380999999991
 30
0.0
 40
3.9504000000000001
  1
電源
  0
TEXT
  5
6D
  8
0
  6
CONTINUOUS
 62
     7
 10
26.800009999999979
 20
295.40380999999991
 30
0.0
 40
3.9504000000000001
  1
ファンタム DC11～52V,2mA
  0
TEXT
  5
6E
  8
0
  6
CONTINUOUS
 62
     7
 10
-63.199969999999993
 20
287.90380999999991
 30
0.0
 40
3.9504000000000001
  1
寸法
  0
TEXT
  5
6F
  8
0
  6
CONTINUOUS
 62
     7
 10
-63.199969999999993
 20
280.40380999999991
 30
0.0
 40
3.9504000000000001
  1
重量
  0
TEXT
  5
70
  8
0
  6
CONTINUOUS
 62
     7
 10
26.800009999999979
 20
287.90380999999991
 30
0.0
 40
3.9504000000000001
  1
76.2(W)×108.2(D)×22(H)mm(突起部含まず)
  0
TEXT
  5
71
  8
0
  6
CONTINUOUS
 62
     7
 10
26.800009999999979
 20
280.40380999999991
 30
0.0
 40
3.9504000000000001
  1
約226g
  0
TEXT
  5
72
  8
0
  6
CONTINUOUS
 62
     7
 10
-63.199969999999993
 20
272.90380999999991
 30
0.0
 40
3.9504000000000001
  1
付属品 
  0
TEXT
  5
73
  8
0
  6
CONTINUOUS
 62
     7
 10
26.800009999999979
 20
272.90380999999991
 30
0.0
 40
3.9504000000000001
  1
ペイント・マスク　1部,取扱説明書　1部
  0
LINE
  5
74
  8
SPEC
  6
CONTINUOUS
 62
     7
 10
-64.999990000000011
 20
301.03178999999989
 30
0.0
 11
230.0
 21
301.03178999999989
 31
0.0
  0
LINE
  5
75
  8
SPEC
  6
CONTINUOUS
 62
     7
 10
-64.999990000000011
 20
286.03179
 30
0.0
 11
230.0
 21
286.03179
 31
0.0
  0
LINE
  5
76
  8
SPEC
  6
CONTINUOUS
 62
     7
 10
-64.999990000000011
 20
271.03179
 30
0.0
 11
230.0
 21
271.03179
 31
0.0
  0
TEXT
  5
77
  8
0
  6
CONTINUOUS
 62
     7
 10
26.800009999999979
 20
362.90379999999988
 30
0.0
 40
3.9504000000000001
  1
MX392/C:単一指向性
  0
TEXT
  5
78
  8
0
  6
CONTINUOUS
 62
     7
 10
26.800009999999979
 20
356.40757999999988
 30
0.0
 40
3.9504000000000001
  1
MX392/O:無指向性
  0
TEXT
  5
79
  8
0
  6
CONTINUOUS
 62
     7
 10
-63.199969999999993
 20
332.90380999999991
 30
0.0
 40
3.9504000000000001
  1
＊ 1 Pascal=94dB SPL
  0
TEXT
  5
7A
  8
0
  6
CONTINUOUS
 62
     7
 10
-63.199969999999993
 20
340.40380999999991
 30
0.0
 40
3.9504000000000001
  1
感度(at 1kHz, ref. 1V/Pascal *)
  0
TEXT
  5
7B
  8
0
  6
CONTINUOUS
 62
     7
 10
59.999999999999993
 20
-91.548189999999991
 30
0.0
 40
5.0800000000000001
  1
(単位：mm)
  0
LINE
  5
7C
  8
DIMNSIONS
  6
CONTINUOUS
 62
     7
 10
124.99997999999989
 20
-3.9999999850988379
 30
0.0
 11
124.99997999999989
 21
-16.499979985098829
 31
0.0
  0
LINE
  5
7D
  8
DIMNSIONS
  6
CONTINUOUS
 62
     7
 10
102.99997999999989
 20
50.900000014901167
 30
0.0
 11
102.99997999999989
 21
-16.499979985098829
 31
0.0
  0
LINE
  5
7F
  8
DIMNSIONS
 62
     7
 10
124.99997999999989
 20
-12.49997999999999
 30
0.0
 11
118.6499799999999
 21
-14.20145737193763
 31
0.0
  0
LINE
  5
80
  8
DIMNSIONS
 62
     7
 10
124.99997999999989
 20
-12.49997999999999
 30
0.0
 11
118.6499799999999
 21
-10.79850262806235
 31
0.0
  0
LINE
  5
81
  8
DIMNSIONS
 62
     7
 10
102.99997999999989
 20
-12.49997999999999
 30
0.0
 11
109.3499799999999
 21
-10.79850262806235
 31
0.0
  0
LINE
  5
82
  8
DIMNSIONS
 62
     7
 10
102.99997999999989
 20
-12.49997999999999
 30
0.0
 11
109.3499799999999
 21
-14.20145737193763
 31
0.0
  0
LINE
  5
7E
  8
DIMNSIONS
  6
CONTINUOUS
 62
     7
 10
124.99997999999989
 20
-12.49997999999999
 30
0.0
 11
102.99997999999989
 21
-12.49997999999999
 31
0.0
  0
TEXT
  5
83
  8
0
  6
CONTINUOUS
 62
     7
 10
110.4722099999999
 20
-10.088881999999989
 30
0.0
 40
5.6444320000000001
  1
22
  0
LINE
  5
84
  8
DIMNSIONS
  6
CONTINUOUS
 62
     7
 10
128.9999799850988
 20
108.2000199999999
 30
0.0
 11
153.9999599850988
 21
108.2000199999999
 31
0.0
  0
LINE
  5
85
  8
DIMNSIONS
  6
CONTINUOUS
 62
     7
 10
128.9999799850988
 20
0.0
 30
0.0
 11
153.9999599850988
 21
0.0
 31
0.0
  0
LINE
  5
87
  8
DIMNSIONS
 62
     7
 10
149.9999599999999
 20
108.2000199999999
 30
0.0
 11
151.70143737193749
 21
101.85002
 31
0.0
  0
LINE
  5
88
  8
DIMNSIONS
 62
     7
 10
149.9999599999999
 20
108.2000199999999
 30
0.0
 11
148.29848262806229
 21
101.85002
 31
0.0
  0
LINE
  5
89
  8
DIMNSIONS
 62
     7
 10
149.9999599999999
 20
0.0
 30
0.0
 11
148.29848262806229
 21
6.3499999999999943
 31
0.0
  0
LINE
  5
8A
  8
DIMNSIONS
 62
     7
 10
149.9999599999999
 20
0.0
 30
0.0
 11
151.70143737193749
 21
6.3499999999999943
 31
0.0
  0
LINE
  5
86
  8
DIMNSIONS
  6
CONTINUOUS
 62
     7
 10
149.9999599999999
 20
108.2000199999999
 30
0.0
 11
149.9999599999999
 21
0.0
 31
0.0
  0
TEXT
  5
8B
  8
0
  6
CONTINUOUS
 62
     7
 10
147.58886199999989
 20
45.280585000000002
 30
0.0
 40
5.6444320000000001
  1
108.2
 50
90.0
  0
LINE
  5
8C
  8
DIMNSIONS
  6
CONTINUOUS
 62
     7
 10
-38.099989999999998
 20
-53.999989985098829
 30
0.0
 11
-38.099989999999998
 21
-78.999959985098826
 31
0.0
  0
LINE
  5
8D
  8
DIMNSIONS
  6
CONTINUOUS
 62
     7
 10
38.10000999999999
 20
-53.999989985098829
 30
0.0
 11
38.10000999999999
 21
-78.999959985098826
 31
0.0
  0
LINE
  5
8F
  8
DIMNSIONS
 62
     7
 10
-38.099989999999998
 20
-74.999959999999987
 30
0.0
 11
-31.749990000000011
 21
-73.298482628062345
 31
0.0
  0
LINE
  5
90
  8
DIMNSIONS
 62
     7
 10
-38.099989999999998
 20
-74.999959999999987
 30
0.0
 11
-31.749990000000011
 21
-76.701437371937629
 31
0.0
  0
LINE
  5
91
  8
DIMNSIONS
 62
     7
 10
38.10000999999999
 20
-74.999959999999987
 30
0.0
 11
31.750009999999989
 21
-76.701437371937629
 31
0.0
  0
LINE
  5
92
  8
DIMNSIONS
 62
     7
 10
38.10000999999999
 20
-74.999959999999987
 30
0.0
 11
31.750009999999989
 21
-73.298482628062345
 31
0.0
  0
LINE
  5
8E
  8
DIMNSIONS
  6
CONTINUOUS
 62
     7
 10
-38.099989999999998
 20
-74.999959999999987
 30
0.0
 11
38.10000999999999
 21
-74.999959999999987
 31
0.0
  0
TEXT
  5
93
  8
0
  6
CONTINUOUS
 62
     7
 10
-7.0555300000000036
 20
-72.588861999999978
 30
0.0
 40
5.6444320000000001
  1
76.2
  0
LINE
  5
94
  8
DIMNSIONS
  6
CONTINUOUS
 62
     7
 10
-42.099989985098837
 20
-49.99998999999999
 30
0.0
 11
-53.999979985098847
 21
-49.99998999999999
 31
0.0
  0
LINE
  5
95
  8
DIMNSIONS
  6
CONTINUOUS
 62
     7
 10
-3.999989985098849
 20
-27.999990799834109
 30
0.0
 11
-53.999979985098847
 21
-27.999990799834109
 31
0.0
  0
LINE
  5
97
  8
DIMNSIONS
 62
     7
 10
-49.999980000000008
 20
-49.99998999999999
 30
0.0
 11
-51.70145737193765
 21
-43.649990000000003
 31
0.0
  0
LINE
  5
98
  8
DIMNSIONS
 62
     7
 10
-49.999980000000008
 20
-49.99998999999999
 30
0.0
 11
-48.298502628062359
 21
-43.649990000000003
 31
0.0
  0
LINE
  5
99
  8
DIMNSIONS
 62
     7
 10
-49.999980000000008
 20
-27.999990799834109
 30
0.0
 11
-48.298502628062387
 21
-34.349990799834103
 31
0.0
  0
LINE
  5
9A
  8
DIMNSIONS
 62
     7
 10
-49.999980000000008
 20
-27.999990799834109
 30
0.0
 11
-51.70145737193765
 21
-34.349990799834103
 31
0.0
  0
LINE
  5
96
  8
DIMNSIONS
  6
CONTINUOUS
 62
     7
 10
-49.999980000000008
 20
-49.99998999999999
 30
0.0
 11
-49.999980000000008
 21
-27.999990799834109
 31
0.0
  0
TEXT
  5
9B
  8
0
  6
CONTINUOUS
 62
     7
 10
-52.41107800000001
 20
-42.527760399917071
 30
0.0
 40
5.6444320000000001
  1
22
 50
90.0
  0
LINE
  5
9C
  8
DIMNSIONS
  6
CONTINUOUS
 62
     7
 10
5.1214399850988306
 20
212.25
 30
0.0
 11
53.999919985098828
 21
212.25
 31
0.0
  0
LINE
  5
9D
  8
DIMNSIONS
  6
CONTINUOUS
 62
     7
 10
8.7105350312683782
 20
106.65000999999999
 30
0.0
 11
53.999919985098828
 21
106.65000999999999
 31
0.0
  0
LINE
  5
9F
  8
DIMNSIONS
 62
     7
 10
49.999919999999989
 20
212.25
 30
0.0
 11
51.701397371937617
 21
205.90000000000001
 31
0.0
  0
LINE
  5
A0
  8
DIMNSIONS
 62
     7
 10
49.999919999999989
 20
212.25
 30
0.0
 11
48.298442628062361
 21
205.90000000000001
 31
0.0
  0
LINE
  5
A1
  8
DIMNSIONS
 62
     7
 10
49.999919999999989
 20
106.65000999999999
 30
0.0
 11
48.298442628062361
 21
113.0000099999999
 31
0.0
  0
LINE
  5
A2
  8
DIMNSIONS
 62
     7
 10
49.999919999999989
 20
106.65000999999999
 30
0.0
 11
51.701397371937617
 21
113.0000099999999
 31
0.0
  0
LINE
  5
9E
  8
DIMNSIONS
  6
CONTINUOUS
 62
     7
 10
49.999919999999989
 20
212.25
 30
0.0
 11
49.999919999999989
 21
106.65000999999999
 31
0.0
  0
TEXT
  5
A3
  8
0
  6
CONTINUOUS
 62
     7
 10
47.588808892614182
 20
148.8666716666666
 30
0.0
 40
5.6444444444444439
  1
約3500
 50
90.0
  0
ARC
  5
A4
  8
DATA
  6
CONTINUOUS
 62
     7
 10
-117.28848000000001
 20
17.560009999999998
 30
0.0
 40
155.33040871153111
 50
358.65747816104272
 51
31.253772823722269
  0
TEXT
  5
A5
  8
0
  6
CONTINUOUS
 62
     7
 10
189.99998999999991
 20
-92.245399999999989
 30
0.0
 40
3.5
  1
MX392/C & MX392/O & MX392/S
  0
TEXT
  5
A6
  8
0
  6
CONTINUOUS
 62
     7
 10
199.99998999999991
 20
-79.325399999999988
 30
0.0
 40
5.0800000000000001
  1
SHURE
  0
TEXT
  5
A7
  8
0
  6
CONTINUOUS
 62
     7
 10
194.99998999999991
 20
-86.932779999999966
 30
0.0
 40
3.9131599999999991
  1
バウンダリー・マイクロフォン
  0
LINE
  5
A8
  8
DATA
  6
CONTINUOUS
 62
     7
 10
36.351639999999989
 20
8.7708900000000085
 30
0.0
 11
34.472599999999979
 21
6.3213900000000081
 31
0.0
  0
ARC
  5
A9
  8
DATA
  6
CONTINUOUS
 62
     7
 10
0.000009999999989
 20
96.365790000000004
 30
0.0
 40
96.417588459334524
 50
249.0511763229843
 51
290.94883690097862
  0
ARC
  5
AA
  8
DATA
  6
CONTINUOUS
 62
     7
 10
-119.75740999999999
 20
18.282389999999999
 30
0.0
 40
154.51597600562889
 50
0.4428790955858625
 51
30.17554899063051
  0
ARC
  5
AB
  8
DATA
  6
CONTINUOUS
 62
     7
 10
0.000009999999989
 20
95.949960000000004
 30
0.0
 40
83.999942962902665
 50
245.56014634293851
 51
294.43985365706141
  0
LINE
  5
AC
  8
DATA
  6
CONTINUOUS
 62
     7
 10
-13.819969999999991
 20
95.950000000000003
 30
0.0
 11
13.82002999999998
 21
95.950000000000003
 31
0.0
  0
LINE
  5
AD
  8
DATA
  6
CONTINUOUS
 62
     7
 10
-2.3270800000000089
 20
72.350790000000003
 30
0.0
 11
-6.0089000000000112
 21
54.350790000000003
 31
0.0
  0
LINE
  5
AE
  8
DATA
  6
CONTINUOUS
 62
     7
 10
2.3271199999999932
 20
72.350790000000003
 30
0.0
 11
6.0089599999999868
 21
54.350790000000003
 31
0.0
  0
LINE
  5
AF
  8
DATA
  6
CONTINUOUS
 62
     7
 10
-4.0494900000000049
 20
51.950000000000003
 30
0.0
 11
4.0494999999999939
 21
51.950000000000003
 31
0.0
  0
ARC
  5
B0
  8
DATA
  6
CONTINUOUS
 62
     7
 10
-0.3676500000000118
 20
71.950000000000003
 30
0.0
 40
2.0
 50
90.0
 51
168.43965870521441
  0
ARC
  5
B1
  8
DATA
  6
CONTINUOUS
 62
     7
 10
0.3677099999999882
 20
71.950000000000003
 30
0.0
 40
1.999980042950434
 50
11.56017544633549
 51
90.0
  0
ARC
  5
B2
  8
DATA
  6
CONTINUOUS
 62
     7
 10
-4.0494900000000049
 20
53.950000000000003
 30
0.0
 40
1.999980042950434
 50
168.43982455366449
 51
270.0
  0
ARC
  5
B3
  8
DATA
  6
CONTINUOUS
 62
     7
 10
4.0494999999999939
 20
53.950000000000003
 30
0.0
 40
2.0
 50
270.0
 51
11.56034129478552
  0
ARC
  5
B4
  8
DATA
  6
CONTINUOUS
 62
     7
 10
0.000009999999989
 20
106.10514999999999
 30
0.0
 40
5.1551335116076276
 50
194.09177319547101
 51
345.90822680452891
  0
LINE
  5
B5
  8
DATA
  6
CONTINUOUS
 62
     7
 10
-2.249990000000011
 20
121.9500199999999
 30
0.0
 11
2.2500099999999881
 21
121.9500199999999
 31
0.0
  0
LINE
  5
B6
  8
DATA
  6
CONTINUOUS
 62
     7
 10
-2.249990000000011
 20
121.9500199999999
 30
0.0
 11
-4.999990000000011
 21
104.84999999999989
 31
0.0
  0
LINE
  5
B7
  8
DATA
  6
CONTINUOUS
 62
     7
 10
2.2500099999999881
 20
121.9500199999999
 30
0.0
 11
5.0000099999999881
 21
104.84999999999989
 31
0.0
  0
LINE
  5
B8
  8
DATA
  6
CONTINUOUS
 62
     7
 10
-1.5379900000000071
 20
163.49964
 30
0.0
 11
-1.5379900000000071
 21
121.9500199999999
 31
0.0
  0
CIRCLE
  5
B9
  8
DATA
  6
CONTINUOUS
 62
     7
 10
0.000009999999989
 20
54.900000000000013
 30
0.0
 40
1.499975777737762
  0
TEXT
  5
BA
  8
0
  6
CONTINUOUS
 62
     7
 10
-6.1736100000000098
 20
5.6147600000000182
 30
0.0
 40
2.5
  1
P U S H
  0
ARC
  5
BB
  8
DATA
  6
CONTINUOUS
 62
     7
 10
-0.3129800000000102
 20
89.175599999999989
 30
0.0
 40
18.182152996501809
 50
29.576385442275221
 51
73.961185957345904
  0
TEXT
  5
BC
  8
0
  6
CONTINUOUS
 62
     7
 10
14.52117691669355
 20
6.7244569467872291
 30
0.0
 40
2.0
  1
MICROFLEX
 50
16.999999973215822
  0
TEXT
  5
BD
  8
0
  6
CONTINUOUS
 62
     7
 10
-28.984083384951081
 20
10.86249479923714
 30
0.0
 40
2.0
  1
SHURE
 50
347.99999990289388
  0
ARC
  5
BE
  8
DATA
  6
CONTINUOUS
 62
     7
 10
0.000009999999989
 20
95.420270000000002
 30
0.0
 40
84.470293636513418
 50
248.46971052307569
 51
291.53027489344282
  0
ARC
  5
BF
  8
DATA
  6
CONTINUOUS
 62
     7
 10
0.000009999999989
 20
95.420270000000002
 30
0.0
 40
84.470293636513418
 50
292.90770638997759
 51
292.90770999772769
  0
ARC
  5
C0
  8
DATA
  6
CONTINUOUS
 62
     7
 10
0.000009999999989
 20
98.670000000000002
 30
0.0
 40
96.418252529085493
 50
263.30969197899338
 51
276.6903205172253
  0
ARC
  5
C1
  8
DATA
  6
CONTINUOUS
 62
     7
 10
0.000009999999989
 20
94.920090000000016
 30
0.0
 40
84.470127868510417
 50
261.6614652680862
 51
278.3385347319138
  0
LINE
  5
C2
  8
DATA
  6
CONTINUOUS
 62
     7
 10
-1.44998000000001
 20
168.4646799999999
 30
0.0
 11
-1.44998000000001
 21
204.94999000000001
 31
0.0
  0
LINE
  5
C3
  8
DATA
  6
CONTINUOUS
 62
     7
 10
-1.44998000000001
 20
204.94999000000001
 30
0.0
 11
1.5500199999999891
 21
204.94999000000001
 31
0.0
  0
LINE
  5
C4
  8
DATA
  6
CONTINUOUS
 62
     7
 10
-1.02139000000001
 20
204.94999000000001
 30
0.0
 11
-1.02139000000001
 21
212.25
 31
0.0
  0
LINE
  5
C5
  8
DATA
  6
CONTINUOUS
 62
     7
 10
-0.5928400000000096
 20
204.94999000000001
 30
0.0
 11
-0.5928400000000096
 21
212.25
 31
0.0
  0
LINE
  5
C6
  8
DATA
  6
CONTINUOUS
 62
     7
 10
-0.1642500000000098
 20
204.94999000000001
 30
0.0
 11
-0.1642500000000098
 21
212.25
 31
0.0
  0
LINE
  5
C7
  8
DATA
  6
CONTINUOUS
 62
     7
 10
0.2642999999999915
 20
204.94999000000001
 30
0.0
 11
0.2642999999999915
 21
212.25
 31
0.0
  0
LINE
  5
C8
  8
DATA
  6
CONTINUOUS
 62
     7
 10
0.6928799999999882
 20
204.94999000000001
 30
0.0
 11
0.6928799999999882
 21
212.25
 31
0.0
  0
LINE
  5
C9
  8
DATA
  6
CONTINUOUS
 62
     7
 10
1.121439999999992
 20
204.94999000000001
 30
0.0
 11
1.121439999999992
 21
212.25
 31
0.0
  0
LINE
  5
CA
  8
DATA
  6
CONTINUOUS
 62
     7
 10
120.36677
 20
0.6722600000000228
 30
0.0
 11
103.9999999999999
 21
49.000010000000003
 31
0.0
  0
LINE
  5
CB
  8
DATA
  6
CONTINUOUS
 62
     7
 10
116.6640799999999
 20
11.95002000000002
 30
0.0
 11
118.2274399999999
 21
12.915620000000001
 31
0.0
  0
LINE
  5
CC
  8
DATA
  6
CONTINUOUS
 62
     7
 10
120.5999799999999
 20
17.169609999999999
 30
0.0
 11
120.5999799999999
 21
87.665570000000002
 31
0.0
  0
LINE
  5
CD
  8
DATA
  6
CONTINUOUS
 62
     7
 10
109.0856899999999
 20
95.950019999999995
 30
0.0
 11
111.09999999999989
 21
103.0
 31
0.0
  0
LINE
  5
CE
  8
DATA
  6
CONTINUOUS
 62
     7
 10
122.09999999999989
 20
107.43411999999999
 30
0.0
 11
122.09999999999989
 21
122.40002
 31
0.0
  0
LINE
  5
CF
  8
DATA
  6
CONTINUOUS
 62
     7
 10
122.09999999999989
 20
122.40002
 30
0.0
 11
119.0999799999999
 21
122.40002
 31
0.0
  0
LINE
  5
D0
  8
DATA
  6
CONTINUOUS
 62
     7
 10
109.0856899999999
 20
95.950019999999995
 30
0.0
 11
106.3650899999999
 21
72.629080000000002
 31
0.0
  0
LINE
  5
D1
  8
DATA
  6
CONTINUOUS
 62
     7
 10
106.3650899999999
 20
72.629080000000002
 30
0.0
 11
103.9999999999999
 21
49.000010000000003
 31
0.0
  0
LINE
  5
D2
  8
DATA
  6
CONTINUOUS
 62
     7
 10
117.0999799999999
 20
122.40002
 30
0.0
 11
111.09999999999989
 21
103.0
 31
0.0
  0
LINE
  5
D3
  8
DATA
  6
CONTINUOUS
 62
     7
 10
117.0999799999999
 20
122.40002
 30
0.0
 11
118.0999799999999
 21
122.40002
 31
0.0
  0
LINE
  5
D4
  8
DATA
  6
CONTINUOUS
 62
     7
 10
118.07997999999991
 20
122.40002
 30
0.0
 11
119.13997999999989
 21
122.40002
 31
0.0
  0
LINE
  5
D5
  8
DATA
  6
CONTINUOUS
 62
     7
 10
118.1199799999999
 20
163.5004099999999
 30
0.0
 11
118.1199799999999
 21
122.40002
 31
0.0
  0
LINE
  5
D6
  8
DATA
  6
CONTINUOUS
 62
     7
 10
121.1199899999999
 20
161.5312099999999
 30
0.0
 11
121.1199899999999
 21
122.40002
 31
0.0
  0
ARC
  5
D7
  8
DATA
  6
CONTINUOUS
 62
     7
 10
0.000009999999989
 20
237.8235
 30
0.0
 40
285.32349301949608
 50
263.97626148129461
 51
276.0237405157165
  0
LINE
  5
D8
  8
DATA
  6
CONTINUOUS
 62
     7
 10
-30.378840570565171
 20
-43.059634049296733
 30
0.0
 11
-30.804090000000009
 21
-44.675599999999967
 31
0.0
  0
LINE
  5
D9
  8
DATA
  6
CONTINUOUS
 62
     7
 10
-38.099989999999998
 20
-49.99998999999999
 30
0.0
 11
-38.099989999999998
 21
-49.499989999999997
 31
0.0
  0
LINE
  5
DA
  8
DATA
  6
CONTINUOUS
 62
     7
 10
38.10000999999999
 20
-49.99998999999999
 30
0.0
 11
-38.099989999999998
 21
-49.99998999999999
 31
0.0
  0
LINE
  5
DB
  8
DATA
  6
CONTINUOUS
 62
     7
 10
38.10000999999999
 20
-49.499989999999997
 30
0.0
 11
38.10000999999999
 21
-49.99998999999999
 31
0.0
  0
LINE
  5
DC
  8
DATA
  6
CONTINUOUS
 62
     7
 10
30.999999999999979
 20
-42.99998999999999
 30
0.0
 11
38.10000999999999
 21
-49.499989999999997
 31
0.0
  0
LINE
  5
DD
  8
DATA
  6
CONTINUOUS
 62
     7
 10
120.54997999999991
 20
0.0
 30
0.0
 11
124.99997999999989
 21
0.0
 31
0.0
  0
LINE
  5
DE
  8
DATA
  6
CONTINUOUS
 62
     7
 10
120.36677
 20
0.6722600000000228
 30
0.0
 11
120.54997999999991
 21
0.0
 31
0.0
  0
LINE
  5
DF
  8
DATA
  6
CONTINUOUS
 62
     7
 10
117.5935999999999
 20
92.250920000000008
 30
0.0
 11
109.0856899999999
 21
95.950019999999995
 31
0.0
  0
LINE
  5
E0
  8
DATA
  6
CONTINUOUS
 62
     7
 10
123.99997999999989
 20
108.2000199999999
 30
0.0
 11
111.09999999999989
 21
103.0
 31
0.0
  0
LINE
  5
E1
  8
DATA
  6
CONTINUOUS
 62
     7
 10
124.99997999999989
 20
0.0
 30
0.0
 11
124.99997999999989
 21
108.2000199999999
 31
0.0
  0
ARC
  5
E2
  8
DATA
  6
CONTINUOUS
 62
     7
 10
3.1250099999999881
 20
165.62497999999991
 30
0.0
 40
4.4194173824159222
 50
225.0
 51
315.0
  0
ARC
  5
E3
  8
DATA
  6
CONTINUOUS
 62
     7
 10
-3.124990000000011
 20
159.375
 30
0.0
 40
4.4194032403029233
 50
44.999816652918817
 51
135.0002750210617
  0
LINE
  5
E4
  8
DATA
  6
CONTINUOUS
 62
     7
 10
1.462009999999992
 20
121.9500199999999
 30
0.0
 11
1.462009999999992
 21
161.53038000000001
 31
0.0
  0
LINE
  5
E5
  8
DATA
  6
CONTINUOUS
 62
     7
 10
1.5500199999999891
 20
204.94999000000001
 30
0.0
 11
1.5500199999999891
 21
166.49574000000001
 31
0.0
  0
ARC
  5
E6
  8
DATA
  6
CONTINUOUS
 62
     7
 10
30.004209999999979
 20
13.64019
 30
0.0
 40
7.9999968809306408
 50
322.50712714980659
 51
2.009560091589321
  0
LINE
  5
E7
  8
DATA
  6
CONTINUOUS
 62
     7
 10
-36.351630000000007
 20
8.7708900000000085
 30
0.0
 11
-34.472549999999998
 21
6.3213900000000081
 31
0.0
  0
ARC
  5
E8
  8
DATA
  6
CONTINUOUS
 62
     7
 10
-30.004180000000002
 20
13.64019
 30
0.0
 40
8.0000104249744624
 50
177.99037084425819
 51
217.49277243274921
  0
ARC
  5
E9
  8
DATA
  6
CONTINUOUS
 62
     7
 10
117.2884899999999
 20
17.560009999999998
 30
0.0
 40
155.33038505299081
 50
148.7462245882879
 51
181.34252569942839
  0
ARC
  5
EA
  8
DATA
  6
CONTINUOUS
 62
     7
 10
0.3129999999999882
 20
89.175599999999989
 30
0.0
 40
18.182149408089781
 50
106.03875347167779
 51
150.42359900386671
  0
ARC
  5
EB
  8
DATA
  6
CONTINUOUS
 62
     7
 10
-10.999990000000009
 20
4.8947000000000003
 30
0.0
 40
2.0
 50
180.0
 51
263.3095605384039
  0
ARC
  5
EC
  8
DATA
  6
CONTINUOUS
 62
     7
 10
11.00000999999998
 20
4.8947000000000003
 30
0.0
 40
1.9999986260995251
 50
276.69015493339509
 51
0.0
  0
ARC
  5
ED
  8
DATA
  6
CONTINUOUS
 62
     7
 10
-3.7225900000000101
 20
7.0833700000000022
 30
0.0
 40
9.5320767592849354
 50
153.45715276866781
 51
193.2741772557205
  0
ARC
  5
EE
  8
DATA
  6
CONTINUOUS
 62
     7
 10
3.722619999999992
 20
7.0833700000000022
 30
0.0
 40
9.532063867861984
 50
346.72580894270641
 51
26.54287409181023
  0
CIRCLE
  5
EF
  8
DATA
  6
CONTINUOUS
 62
     7
 10
-9.499990000000011
 20
6.3508500000000083
 30
0.0
 40
0.25
  0
CIRCLE
  5
F0
  8
DATA
  6
CONTINUOUS
 62
     7
 10
9.5000099999999872
 20
6.3508500000000083
 30
0.0
 40
0.25
  0
ARC
  5
F1
  8
DATA
  6
CONTINUOUS
 62
     7
 10
119.7573899999999
 20
18.282389999999999
 30
0.0
 40
154.5159534450375
 50
149.8244422121582
 51
179.55711713911899
  0
LINE
  5
F2
  8
DATA
  6
CONTINUOUS
 62
     7
 10
-0.3676500000000118
 20
73.950000000000003
 30
0.0
 11
0.3677099999999882
 21
73.950000000000003
 31
0.0
  0
CIRCLE
  5
F3
  8
DATA
  6
CONTINUOUS
 62
     7
 10
1.7500099999999881
 20
78.400020000000012
 30
0.0
 40
1.2499899999999959
  0
CIRCLE
  5
F4
  8
DATA
  6
CONTINUOUS
 62
     7
 10
-1.749990000000011
 20
78.400020000000012
 30
0.0
 40
1.2499899999999959
  0
CIRCLE
  5
F5
  8
DATA
  6
CONTINUOUS
 62
     7
 10
1.7500099999999881
 20
74.900020000000012
 30
0.0
 40
1.249999999999992
  0
CIRCLE
  5
F6
  8
DATA
  6
CONTINUOUS
 62
     7
 10
-1.749990000000011
 20
74.900020000000012
 30
0.0
 40
1.249999999999992
  0
CIRCLE
  5
F7
  8
DATA
  6
CONTINUOUS
 62
     7
 10
5.2500099999999881
 20
78.400020000000012
 30
0.0
 40
1.2499899999999959
  0
CIRCLE
  5
F8
  8
DATA
  6
CONTINUOUS
 62
     7
 10
8.7500099999999872
 20
78.400020000000012
 30
0.0
 40
1.2499899999999959
  0
CIRCLE
  5
F9
  8
DATA
  6
CONTINUOUS
 62
     7
 10
12.25000999999998
 20
78.400020000000012
 30
0.0
 40
1.2499899999999959
  0
CIRCLE
  5
FA
  8
DATA
  6
CONTINUOUS
 62
     7
 10
15.75000999999998
 20
78.400020000000012
 30
0.0
 40
1.2499899999999959
  0
CIRCLE
  5
FB
  8
DATA
  6
CONTINUOUS
 62
     7
 10
19.250009999999989
 20
78.400020000000012
 30
0.0
 40
1.2499899999999959
  0
ARC
  5
FC
  8
DATA
  6
CONTINUOUS
 62
     7
 10
22.750009999999989
 20
78.400020000000012
 30
0.0
 40
1.2499924579772439
 50
120.13313803179609
 51
285.61226745283722
  0
CIRCLE
  5
FD
  8
DATA
  6
CONTINUOUS
 62
     7
 10
-5.249990000000011
 20
78.400020000000012
 30
0.0
 40
1.2499899999999959
  0
CIRCLE
  5
FE
  8
DATA
  6
CONTINUOUS
 62
     7
 10
-8.749990000000011
 20
78.400020000000012
 30
0.0
 40
1.2499899999999959
  0
CIRCLE
  5
FF
  8
DATA
  6
CONTINUOUS
 62
     7
 10
-12.249990000000009
 20
78.400020000000012
 30
0.0
 40
1.2499899999999959
  0
CIRCLE
  5
100
  8
DATA
  6
CONTINUOUS
 62
     7
 10
-15.749990000000009
 20
78.400020000000012
 30
0.0
 40
1.2499899999999959
  0
CIRCLE
  5
101
  8
DATA
  6
CONTINUOUS
 62
     7
 10
-19.249980000000001
 20
78.400020000000012
 30
0.0
 40
1.2499899999999959
  0
ARC
  5
102
  8
DATA
  6
CONTINUOUS
 62
     7
 10
-22.749980000000001
 20
78.400020000000012
 30
0.0
 40
1.2500091280466721
 50
254.38773254716281
 51
59.867092072905869
  0
CIRCLE
  5
103
  8
DATA
  6
CONTINUOUS
 62
     7
 10
1.7500099999999881
 20
81.900009999999995
 30
0.0
 40
1.25
  0
CIRCLE
  5
104
  8
DATA
  6
CONTINUOUS
 62
     7
 10
-1.749990000000011
 20
81.900009999999995
 30
0.0
 40
1.25
  0
CIRCLE
  5
105
  8
DATA
  6
CONTINUOUS
 62
     7
 10
5.2500099999999881
 20
81.900009999999995
 30
0.0
 40
1.25
  0
CIRCLE
  5
106
  8
DATA
  6
CONTINUOUS
 62
     7
 10
8.7500099999999872
 20
81.900009999999995
 30
0.0
 40
1.25
  0
CIRCLE
  5
107
  8
DATA
  6
CONTINUOUS
 62
     7
 10
12.25000999999998
 20
81.900009999999995
 30
0.0
 40
1.25
  0
CIRCLE
  5
108
  8
DATA
  6
CONTINUOUS
 62
     7
 10
15.75000999999998
 20
81.900009999999995
 30
0.0
 40
1.25
  0
CIRCLE
  5
109
  8
DATA
  6
CONTINUOUS
 62
     7
 10
19.250009999999989
 20
81.900009999999995
 30
0.0
 40
1.25
  0
CIRCLE
  5
10A
  8
DATA
  6
CONTINUOUS
 62
     7
 10
-5.249990000000011
 20
81.900009999999995
 30
0.0
 40
1.25
  0
CIRCLE
  5
10B
  8
DATA
  6
CONTINUOUS
 62
     7
 10
-8.749990000000011
 20
81.900009999999995
 30
0.0
 40
1.25
  0
CIRCLE
  5
10C
  8
DATA
  6
CONTINUOUS
 62
     7
 10
-12.249990000000009
 20
81.900009999999995
 30
0.0
 40
1.25
  0
CIRCLE
  5
10D
  8
DATA
  6
CONTINUOUS
 62
     7
 10
-15.749990000000009
 20
81.900009999999995
 30
0.0
 40
1.25
  0
CIRCLE
  5
10E
  8
DATA
  6
CONTINUOUS
 62
     7
 10
-19.249980000000001
 20
81.900009999999995
 30
0.0
 40
1.25
  0
CIRCLE
  5
10F
  8
DATA
  6
CONTINUOUS
 62
     7
 10
1.7500099999999881
 20
85.400010000000009
 30
0.0
 40
1.25
  0
CIRCLE
  5
110
  8
DATA
  6
CONTINUOUS
 62
     7
 10
-1.749990000000011
 20
85.400010000000009
 30
0.0
 40
1.25
  0
CIRCLE
  5
111
  8
DATA
  6
CONTINUOUS
 62
     7
 10
5.2500099999999881
 20
85.400010000000009
 30
0.0
 40
1.25
  0
CIRCLE
  5
112
  8
DATA
  6
CONTINUOUS
 62
     7
 10
8.7500099999999872
 20
85.400010000000009
 30
0.0
 40
1.25
  0
CIRCLE
  5
113
  8
DATA
  6
CONTINUOUS
 62
     7
 10
12.25000999999998
 20
85.400010000000009
 30
0.0
 40
1.25
  0
CIRCLE
  5
114
  8
DATA
  6
CONTINUOUS
 62
     7
 10
15.75000999999998
 20
85.400010000000009
 30
0.0
 40
1.25
  0
ARC
  5
115
  8
DATA
  6
CONTINUOUS
 62
     7
 10
19.250009999999989
 20
85.400010000000009
 30
0.0
 40
1.250012117701266
 50
108.95908349335809
 51
302.58755479288709
  0
CIRCLE
  5
116
  8
DATA
  6
CONTINUOUS
 62
     7
 10
-5.249990000000011
 20
85.400010000000009
 30
0.0
 40
1.25
  0
CIRCLE
  5
117
  8
DATA
  6
CONTINUOUS
 62
     7
 10
-8.749990000000011
 20
85.400010000000009
 30
0.0
 40
1.25
  0
CIRCLE
  5
118
  8
DATA
  6
CONTINUOUS
 62
     7
 10
-12.249990000000009
 20
85.400010000000009
 30
0.0
 40
1.25
  0
CIRCLE
  5
119
  8
DATA
  6
CONTINUOUS
 62
     7
 10
-15.749990000000009
 20
85.400010000000009
 30
0.0
 40
1.25
  0
ARC
  5
11A
  8
DATA
  6
CONTINUOUS
 62
     7
 10
-19.249980000000001
 20
85.400010000000009
 30
0.0
 40
1.249990588964573
 50
237.4129707513473
 51
71.041201087111887
  0
CIRCLE
  5
11B
  8
DATA
  6
CONTINUOUS
 62
     7
 10
1.7500099999999881
 20
88.900010000000009
 30
0.0
 40
1.25
  0
CIRCLE
  5
11C
  8
DATA
  6
CONTINUOUS
 62
     7
 10
-1.749990000000011
 20
88.900010000000009
 30
0.0
 40
1.25
  0
CIRCLE
  5
11D
  8
DATA
  6
CONTINUOUS
 62
     7
 10
5.2500099999999881
 20
88.900010000000009
 30
0.0
 40
1.25
  0
CIRCLE
  5
11E
  8
DATA
  6
CONTINUOUS
 62
     7
 10
8.7500099999999872
 20
88.900010000000009
 30
0.0
 40
1.25
  0
CIRCLE
  5
11F
  8
DATA
  6
CONTINUOUS
 62
     7
 10
12.25000999999998
 20
88.900010000000009
 30
0.0
 40
1.25
  0
CIRCLE
  5
120
  8
DATA
  6
CONTINUOUS
 62
     7
 10
15.75000999999998
 20
88.900010000000009
 30
0.0
 40
1.25
  0
CIRCLE
  5
121
  8
DATA
  6
CONTINUOUS
 62
     7
 10
-5.249990000000011
 20
88.900010000000009
 30
0.0
 40
1.25
  0
CIRCLE
  5
122
  8
DATA
  6
CONTINUOUS
 62
     7
 10
-8.749990000000011
 20
88.900010000000009
 30
0.0
 40
1.25
  0
CIRCLE
  5
123
  8
DATA
  6
CONTINUOUS
 62
     7
 10
-12.249990000000009
 20
88.900010000000009
 30
0.0
 40
1.25
  0
CIRCLE
  5
124
  8
DATA
  6
CONTINUOUS
 62
     7
 10
-15.749990000000009
 20
88.900010000000009
 30
0.0
 40
1.25
  0
CIRCLE
  5
125
  8
DATA
  6
CONTINUOUS
 62
     7
 10
1.7500099999999881
 20
92.400010000000009
 30
0.0
 40
1.25
  0
CIRCLE
  5
126
  8
DATA
  6
CONTINUOUS
 62
     7
 10
-1.749990000000011
 20
92.400010000000009
 30
0.0
 40
1.25
  0
CIRCLE
  5
127
  8
DATA
  6
CONTINUOUS
 62
     7
 10
5.2500099999999881
 20
92.400010000000009
 30
0.0
 40
1.25
  0
CIRCLE
  5
128
  8
DATA
  6
CONTINUOUS
 62
     7
 10
8.7500099999999872
 20
92.400010000000009
 30
0.0
 40
1.25
  0
CIRCLE
  5
129
  8
DATA
  6
CONTINUOUS
 62
     7
 10
12.25000999999998
 20
92.400010000000009
 30
0.0
 40
1.25
  0
ARC
  5
12A
  8
DATA
  6
CONTINUOUS
 62
     7
 10
15.75000999999998
 20
92.400010000000009
 30
0.0
 40
1.2500021301181861
 50
116.0130119362657
 51
301.34060909600902
  0
CIRCLE
  5
12B
  8
DATA
  6
CONTINUOUS
 62
     7
 10
-5.249990000000011
 20
92.400010000000009
 30
0.0
 40
1.25
  0
CIRCLE
  5
12C
  8
DATA
  6
CONTINUOUS
 62
     7
 10
-8.749990000000011
 20
92.400010000000009
 30
0.0
 40
1.25
  0
CIRCLE
  5
12D
  8
DATA
  6
CONTINUOUS
 62
     7
 10
-12.249990000000009
 20
92.400010000000009
 30
0.0
 40
1.25
  0
ARC
  5
12E
  8
DATA
  6
CONTINUOUS
 62
     7
 10
-15.749990000000009
 20
92.400010000000009
 30
0.0
 40
1.250008195973128
 50
238.65939090399081
 51
63.986164208517522
  0
ARC
  5
12F
  8
DATA
  6
CONTINUOUS
 62
     7
 10
1.7500099999999881
 20
95.900009999999995
 30
0.0
 40
1.2500000000399949
 50
177.70801595741361
 51
2.2924420419829228
  0
ARC
  5
130
  8
DATA
  6
CONTINUOUS
 62
     7
 10
-1.749990000000011
 20
95.900009999999995
 30
0.0
 40
1.2500000000399949
 50
177.70801595741361
 51
2.2924420419829228
  0
ARC
  5
131
  8
DATA
  6
CONTINUOUS
 62
     7
 10
5.2500099999999881
 20
95.900009999999995
 30
0.0
 40
1.2500000000399949
 50
177.70801595741361
 51
2.2924420419829228
  0
ARC
  5
132
  8
DATA
  6
CONTINUOUS
 62
     7
 10
8.7500099999999872
 20
95.900009999999995
 30
0.0
 40
1.2500000000399949
 50
177.70801595741361
 51
2.2924420419829228
  0
ARC
  5
133
  8
DATA
  6
CONTINUOUS
 62
     7
 10
12.25000999999998
 20
95.900009999999995
 30
0.0
 40
1.2500000000399949
 50
177.70801595741361
 51
2.2924420419829228
  0
ARC
  5
134
  8
DATA
  6
CONTINUOUS
 62
     7
 10
-5.249990000000011
 20
95.900009999999995
 30
0.0
 40
1.2500000000399949
 50
177.70801595741361
 51
2.2924420419829228
  0
ARC
  5
135
  8
DATA
  6
CONTINUOUS
 62
     7
 10
-8.749990000000011
 20
95.900009999999995
 30
0.0
 40
1.2500000000399949
 50
177.70801595741361
 51
2.2924420419829228
  0
ARC
  5
136
  8
DATA
  6
CONTINUOUS
 62
     7
 10
-12.249990000000009
 20
95.900009999999995
 30
0.0
 40
1.2500000000399949
 50
177.70801595741361
 51
2.2924420419829228
  0
CIRCLE
  5
137
  8
DATA
  6
CONTINUOUS
 62
     7
 10
5.2500099999999881
 20
74.900020000000012
 30
0.0
 40
1.249999999999992
  0
CIRCLE
  5
138
  8
DATA
  6
CONTINUOUS
 62
     7
 10
8.7500099999999872
 20
74.900020000000012
 30
0.0
 40
1.249999999999992
  0
CIRCLE
  5
139
  8
DATA
  6
CONTINUOUS
 62
     7
 10
12.25000999999998
 20
74.900020000000012
 30
0.0
 40
1.249999999999992
  0
CIRCLE
  5
13A
  8
DATA
  6
CONTINUOUS
 62
     7
 10
15.75000999999998
 20
74.900020000000012
 30
0.0
 40
1.249999999999992
  0
CIRCLE
  5
13B
  8
DATA
  6
CONTINUOUS
 62
     7
 10
19.250009999999989
 20
74.900020000000012
 30
0.0
 40
1.249999999999992
  0
CIRCLE
  5
13C
  8
DATA
  6
CONTINUOUS
 62
     7
 10
22.750009999999989
 20
74.900020000000012
 30
0.0
 40
1.249999999999992
  0
CIRCLE
  5
13D
  8
DATA
  6
CONTINUOUS
 62
     7
 10
-5.249990000000011
 20
74.900020000000012
 30
0.0
 40
1.249999999999992
  0
CIRCLE
  5
13E
  8
DATA
  6
CONTINUOUS
 62
     7
 10
-8.749990000000011
 20
74.900020000000012
 30
0.0
 40
1.249999999999992
  0
CIRCLE
  5
13F
  8
DATA
  6
CONTINUOUS
 62
     7
 10
-12.249990000000009
 20
74.900020000000012
 30
0.0
 40
1.249999999999992
  0
CIRCLE
  5
140
  8
DATA
  6
CONTINUOUS
 62
     7
 10
-15.749990000000009
 20
74.900020000000012
 30
0.0
 40
1.249999999999992
  0
CIRCLE
  5
141
  8
DATA
  6
CONTINUOUS
 62
     7
 10
-19.249980000000001
 20
74.900020000000012
 30
0.0
 40
1.249999999999992
  0
CIRCLE
  5
142
  8
DATA
  6
CONTINUOUS
 62
     7
 10
-22.749980000000001
 20
74.900020000000012
 30
0.0
 40
1.249999999999992
  0
CIRCLE
  5
143
  8
DATA
  6
CONTINUOUS
 62
     7
 10
5.2500099999999881
 20
71.400020000000012
 30
0.0
 40
1.25
  0
CIRCLE
  5
144
  8
DATA
  6
CONTINUOUS
 62
     7
 10
8.7500099999999872
 20
71.400020000000012
 30
0.0
 40
1.25
  0
CIRCLE
  5
145
  8
DATA
  6
CONTINUOUS
 62
     7
 10
12.25000999999998
 20
71.400020000000012
 30
0.0
 40
1.25
  0
CIRCLE
  5
146
  8
DATA
  6
CONTINUOUS
 62
     7
 10
15.75000999999998
 20
71.400020000000012
 30
0.0
 40
1.25
  0
CIRCLE
  5
147
  8
DATA
  6
CONTINUOUS
 62
     7
 10
19.250009999999989
 20
71.400020000000012
 30
0.0
 40
1.25
  0
CIRCLE
  5
148
  8
DATA
  6
CONTINUOUS
 62
     7
 10
22.750009999999989
 20
71.400020000000012
 30
0.0
 40
1.25
  0
CIRCLE
  5
149
  8
DATA
  6
CONTINUOUS
 62
     7
 10
-5.249990000000011
 20
71.400020000000012
 30
0.0
 40
1.25
  0
CIRCLE
  5
14A
  8
DATA
  6
CONTINUOUS
 62
     7
 10
-8.749990000000011
 20
71.400020000000012
 30
0.0
 40
1.25
  0
CIRCLE
  5
14B
  8
DATA
  6
CONTINUOUS
 62
     7
 10
-12.249990000000009
 20
71.400020000000012
 30
0.0
 40
1.25
  0
CIRCLE
  5
14C
  8
DATA
  6
CONTINUOUS
 62
     7
 10
-15.749990000000009
 20
71.400020000000012
 30
0.0
 40
1.25
  0
CIRCLE
  5
14D
  8
DATA
  6
CONTINUOUS
 62
     7
 10
-19.249980000000001
 20
71.400020000000012
 30
0.0
 40
1.25
  0
CIRCLE
  5
14E
  8
DATA
  6
CONTINUOUS
 62
     7
 10
-22.749980000000001
 20
71.400020000000012
 30
0.0
 40
1.25
  0
CIRCLE
  5
14F
  8
DATA
  6
CONTINUOUS
 62
     7
 10
5.2500099999999881
 20
67.900020000000012
 30
0.0
 40
1.25
  0
CIRCLE
  5
150
  8
DATA
  6
CONTINUOUS
 62
     7
 10
8.7500099999999872
 20
67.900020000000012
 30
0.0
 40
1.25
  0
CIRCLE
  5
151
  8
DATA
  6
CONTINUOUS
 62
     7
 10
12.25000999999998
 20
67.900020000000012
 30
0.0
 40
1.25
  0
CIRCLE
  5
152
  8
DATA
  6
CONTINUOUS
 62
     7
 10
15.75000999999998
 20
67.900020000000012
 30
0.0
 40
1.25
  0
CIRCLE
  5
153
  8
DATA
  6
CONTINUOUS
 62
     7
 10
19.250009999999989
 20
67.900020000000012
 30
0.0
 40
1.25
  0
CIRCLE
  5
154
  8
DATA
  6
CONTINUOUS
 62
     7
 10
22.750009999999989
 20
67.900020000000012
 30
0.0
 40
1.25
  0
CIRCLE
  5
155
  8
DATA
  6
CONTINUOUS
 62
     7
 10
-5.249990000000011
 20
67.900020000000012
 30
0.0
 40
1.25
  0
CIRCLE
  5
156
  8
DATA
  6
CONTINUOUS
 62
     7
 10
-8.749990000000011
 20
67.900020000000012
 30
0.0
 40
1.25
  0
CIRCLE
  5
157
  8
DATA
  6
CONTINUOUS
 62
     7
 10
-12.249990000000009
 20
67.900020000000012
 30
0.0
 40
1.25
  0
CIRCLE
  5
158
  8
DATA
  6
CONTINUOUS
 62
     7
 10
-15.749990000000009
 20
67.900020000000012
 30
0.0
 40
1.25
  0
CIRCLE
  5
159
  8
DATA
  6
CONTINUOUS
 62
     7
 10
-19.249980000000001
 20
67.900020000000012
 30
0.0
 40
1.25
  0
CIRCLE
  5
15A
  8
DATA
  6
CONTINUOUS
 62
     7
 10
-22.749980000000001
 20
67.900020000000012
 30
0.0
 40
1.25
  0
CIRCLE
  5
15B
  8
DATA
  6
CONTINUOUS
 62
     7
 10
5.2500099999999881
 20
64.400020000000012
 30
0.0
 40
1.25
  0
CIRCLE
  5
15C
  8
DATA
  6
CONTINUOUS
 62
     7
 10
8.7500099999999872
 20
64.400020000000012
 30
0.0
 40
1.25
  0
CIRCLE
  5
15D
  8
DATA
  6
CONTINUOUS
 62
     7
 10
12.25000999999998
 20
64.400020000000012
 30
0.0
 40
1.25
  0
CIRCLE
  5
15E
  8
DATA
  6
CONTINUOUS
 62
     7
 10
15.75000999999998
 20
64.400020000000012
 30
0.0
 40
1.25
  0
CIRCLE
  5
15F
  8
DATA
  6
CONTINUOUS
 62
     7
 10
19.250009999999989
 20
64.400020000000012
 30
0.0
 40
1.25
  0
CIRCLE
  5
160
  8
DATA
  6
CONTINUOUS
 62
     7
 10
22.750009999999989
 20
64.400020000000012
 30
0.0
 40
1.25
  0
CIRCLE
  5
161
  8
DATA
  6
CONTINUOUS
 62
     7
 10
-5.249990000000011
 20
64.400020000000012
 30
0.0
 40
1.25
  0
CIRCLE
  5
162
  8
DATA
  6
CONTINUOUS
 62
     7
 10
-8.749990000000011
 20
64.400020000000012
 30
0.0
 40
1.25
  0
CIRCLE
  5
163
  8
DATA
  6
CONTINUOUS
 62
     7
 10
-12.249990000000009
 20
64.400020000000012
 30
0.0
 40
1.25
  0
CIRCLE
  5
164
  8
DATA
  6
CONTINUOUS
 62
     7
 10
-15.749990000000009
 20
64.400020000000012
 30
0.0
 40
1.25
  0
CIRCLE
  5
165
  8
DATA
  6
CONTINUOUS
 62
     7
 10
-19.249980000000001
 20
64.400020000000012
 30
0.0
 40
1.25
  0
CIRCLE
  5
166
  8
DATA
  6
CONTINUOUS
 62
     7
 10
-22.749980000000001
 20
64.400020000000012
 30
0.0
 40
1.25
  0
ARC
  5
167
  8
DATA
  6
CONTINUOUS
 62
     7
 10
5.2500099999999881
 20
60.900020000000012
 30
0.0
 40
1.2499921526153781
 50
254.48791161203599
 51
128.6332500861644
  0
CIRCLE
  5
168
  8
DATA
  6
CONTINUOUS
 62
     7
 10
8.7500099999999872
 20
60.900020000000012
 30
0.0
 40
1.25
  0
CIRCLE
  5
169
  8
DATA
  6
CONTINUOUS
 62
     7
 10
12.25000999999998
 20
60.900020000000012
 30
0.0
 40
1.25
  0
CIRCLE
  5
16A
  8
DATA
  6
CONTINUOUS
 62
     7
 10
15.75000999999998
 20
60.900020000000012
 30
0.0
 40
1.25
  0
CIRCLE
  5
16B
  8
DATA
  6
CONTINUOUS
 62
     7
 10
19.250009999999989
 20
60.900020000000012
 30
0.0
 40
1.25
  0
CIRCLE
  5
16C
  8
DATA
  6
CONTINUOUS
 62
     7
 10
22.750009999999989
 20
60.900020000000012
 30
0.0
 40
1.25
  0
ARC
  5
16D
  8
DATA
  6
CONTINUOUS
 62
     7
 10
-5.249990000000011
 20
60.900020000000012
 30
0.0
 40
1.2500055598676281
 50
51.367322257648063
 51
285.51284913700499
  0
CIRCLE
  5
16E
  8
DATA
  6
CONTINUOUS
 62
     7
 10
-8.749990000000011
 20
60.900020000000012
 30
0.0
 40
1.25
  0
CIRCLE
  5
16F
  8
DATA
  6
CONTINUOUS
 62
     7
 10
-12.249990000000009
 20
60.900020000000012
 30
0.0
 40
1.25
  0
CIRCLE
  5
170
  8
DATA
  6
CONTINUOUS
 62
     7
 10
-15.749990000000009
 20
60.900020000000012
 30
0.0
 40
1.25
  0
CIRCLE
  5
171
  8
DATA
  6
CONTINUOUS
 62
     7
 10
-19.249980000000001
 20
60.900020000000012
 30
0.0
 40
1.25
  0
CIRCLE
  5
172
  8
DATA
  6
CONTINUOUS
 62
     7
 10
-22.749980000000001
 20
60.900020000000012
 30
0.0
 40
1.25
  0
ARC
  5
173
  8
DATA
  6
CONTINUOUS
 62
     7
 10
5.2500099999999881
 20
57.400020000000012
 30
0.0
 40
1.2500060288254691
 50
287.6445254060668
 51
95.475749888464904
  0
CIRCLE
  5
174
  8
DATA
  6
CONTINUOUS
 62
     7
 10
8.7500099999999872
 20
57.400020000000012
 30
0.0
 40
1.25
  0
CIRCLE
  5
175
  8
DATA
  6
CONTINUOUS
 62
     7
 10
12.25000999999998
 20
57.400020000000012
 30
0.0
 40
1.25
  0
CIRCLE
  5
176
  8
DATA
  6
CONTINUOUS
 62
     7
 10
15.75000999999998
 20
57.400020000000012
 30
0.0
 40
1.25
  0
CIRCLE
  5
177
  8
DATA
  6
CONTINUOUS
 62
     7
 10
19.250009999999989
 20
57.400020000000012
 30
0.0
 40
1.25
  0
CIRCLE
  5
178
  8
DATA
  6
CONTINUOUS
 62
     7
 10
22.750009999999989
 20
57.400020000000012
 30
0.0
 40
1.25
  0
ARC
  5
179
  8
DATA
  6
CONTINUOUS
 62
     7
 10
-5.249990000000011
 20
57.400020000000012
 30
0.0
 40
1.2499841746198119
 50
84.524206371635614
 51
252.3557724624346
  0
CIRCLE
  5
17A
  8
DATA
  6
CONTINUOUS
 62
     7
 10
-8.749990000000011
 20
57.400020000000012
 30
0.0
 40
1.25
  0
CIRCLE
  5
17B
  8
DATA
  6
CONTINUOUS
 62
     7
 10
-12.249990000000009
 20
57.400020000000012
 30
0.0
 40
1.25
  0
CIRCLE
  5
17C
  8
DATA
  6
CONTINUOUS
 62
     7
 10
-15.749990000000009
 20
57.400020000000012
 30
0.0
 40
1.25
  0
CIRCLE
  5
17D
  8
DATA
  6
CONTINUOUS
 62
     7
 10
-19.249980000000001
 20
57.400020000000012
 30
0.0
 40
1.25
  0
CIRCLE
  5
17E
  8
DATA
  6
CONTINUOUS
 62
     7
 10
-22.749980000000001
 20
57.400020000000012
 30
0.0
 40
1.25
  0
ARC
  5
17F
  8
DATA
  6
CONTINUOUS
 62
     7
 10
-26.249980000000011
 20
71.400020000000012
 30
0.0
 40
1.250003339595549
 50
293.23398004536767
 51
26.78233972333248
  0
ARC
  5
180
  8
DATA
  6
CONTINUOUS
 62
     7
 10
-26.249980000000011
 20
67.900020000000012
 30
0.0
 40
1.250016395612479
 50
237.18713788951339
 51
85.274385515880027
  0
CIRCLE
  5
181
  8
DATA
  6
CONTINUOUS
 62
     7
 10
-26.249980000000011
 20
64.400020000000012
 30
0.0
 40
1.25
  0
CIRCLE
  5
182
  8
DATA
  6
CONTINUOUS
 62
     7
 10
-26.249980000000011
 20
60.900020000000012
 30
0.0
 40
1.25
  0
CIRCLE
  5
183
  8
DATA
  6
CONTINUOUS
 62
     7
 10
-26.249980000000011
 20
57.400020000000012
 30
0.0
 40
1.25
  0
ARC
  5
184
  8
DATA
  6
CONTINUOUS
 62
     7
 10
-29.750000000000011
 20
60.900020000000012
 30
0.0
 40
1.2500299174419971
 50
303.49187944603233
 51
24.687264411792679
  0
ARC
  5
185
  8
DATA
  6
CONTINUOUS
 62
     7
 10
-29.750000000000011
 20
57.400020000000012
 30
0.0
 40
1.249999476479897
 50
256.67748759868158
 51
73.997308653471691
  0
ARC
  5
186
  8
DATA
  6
CONTINUOUS
 62
     7
 10
26.250009999999989
 20
71.400020000000012
 30
0.0
 40
1.250006782261599
 50
153.21745762380809
 51
246.76559876364439
  0
ARC
  5
187
  8
DATA
  6
CONTINUOUS
 62
     7
 10
26.250009999999989
 20
67.900020000000012
 30
0.0
 40
1.250009143166551
 50
94.725576722327574
 51
302.81286211048649
  0
CIRCLE
  5
188
  8
DATA
  6
CONTINUOUS
 62
     7
 10
26.250009999999989
 20
64.400020000000012
 30
0.0
 40
1.25
  0
CIRCLE
  5
189
  8
DATA
  6
CONTINUOUS
 62
     7
 10
26.250009999999989
 20
60.900020000000012
 30
0.0
 40
1.25
  0
CIRCLE
  5
18A
  8
DATA
  6
CONTINUOUS
 62
     7
 10
26.250009999999989
 20
57.400020000000012
 30
0.0
 40
1.25
  0
ARC
  5
18B
  8
DATA
  6
CONTINUOUS
 62
     7
 10
29.750009999999978
 20
60.900020000000012
 30
0.0
 40
1.2499982355587509
 50
155.3127691731128
 51
236.50901439814751
  0
ARC
  5
18C
  8
DATA
  6
CONTINUOUS
 62
     7
 10
29.750009999999978
 20
57.400020000000012
 30
0.0
 40
1.2499995799199159
 50
106.0011168069791
 51
283.32285280676138
  0
ARC
  5
18D
  8
DATA
  6
CONTINUOUS
 62
     7
 10
5.2500099999999881
 20
53.899999999999999
 30
0.0
 40
1.249998839399463
 50
286.93557778746299
 51
59.716936719034408
  0
CIRCLE
  5
18E
  8
DATA
  6
CONTINUOUS
 62
     7
 10
8.7500099999999872
 20
53.899999999999999
 30
0.0
 40
1.25
  0
CIRCLE
  5
18F
  8
DATA
  6
CONTINUOUS
 62
     7
 10
12.25000999999998
 20
53.899999999999999
 30
0.0
 40
1.25
  0
CIRCLE
  5
190
  8
DATA
  6
CONTINUOUS
 62
     7
 10
15.75000999999998
 20
53.899999999999999
 30
0.0
 40
1.25
  0
CIRCLE
  5
191
  8
DATA
  6
CONTINUOUS
 62
     7
 10
19.250009999999989
 20
53.899999999999999
 30
0.0
 40
1.25
  0
CIRCLE
  5
192
  8
DATA
  6
CONTINUOUS
 62
     7
 10
22.750009999999989
 20
53.899999999999999
 30
0.0
 40
1.25
  0
ARC
  5
193
  8
DATA
  6
CONTINUOUS
 62
     7
 10
-5.249990000000011
 20
53.899999999999999
 30
0.0
 40
1.249994013505666
 50
120.282667459358
 51
253.06486070218261
  0
CIRCLE
  5
194
  8
DATA
  6
CONTINUOUS
 62
     7
 10
-8.749990000000011
 20
53.899999999999999
 30
0.0
 40
1.25
  0
CIRCLE
  5
195
  8
DATA
  6
CONTINUOUS
 62
     7
 10
-12.249990000000009
 20
53.899999999999999
 30
0.0
 40
1.25
  0
CIRCLE
  5
196
  8
DATA
  6
CONTINUOUS
 62
     7
 10
-15.749990000000009
 20
53.899999999999999
 30
0.0
 40
1.25
  0
CIRCLE
  5
197
  8
DATA
  6
CONTINUOUS
 62
     7
 10
-19.249980000000001
 20
53.899999999999999
 30
0.0
 40
1.25
  0
CIRCLE
  5
198
  8
DATA
  6
CONTINUOUS
 62
     7
 10
-22.749980000000001
 20
53.899999999999999
 30
0.0
 40
1.25
  0
CIRCLE
  5
199
  8
DATA
  6
CONTINUOUS
 62
     7
 10
-26.249980000000011
 20
53.899999999999999
 30
0.0
 40
1.25
  0
ARC
  5
19A
  8
DATA
  6
CONTINUOUS
 62
     7
 10
-29.750000000000011
 20
53.899999999999999
 30
0.0
 40
1.2499912686495041
 50
215.5076786932087
 51
117.6913357134347
  0
CIRCLE
  5
19B
  8
DATA
  6
CONTINUOUS
 62
     7
 10
26.250009999999989
 20
53.899999999999999
 30
0.0
 40
1.25
  0
ARC
  5
19C
  8
DATA
  6
CONTINUOUS
 62
     7
 10
29.750009999999978
 20
53.899999999999999
 30
0.0
 40
1.250006983540493
 50
62.308065562916319
 51
324.49322688219308
  0
CIRCLE
  5
19D
  8
DATA
  6
CONTINUOUS
 62
     7
 10
5.2500099999999881
 20
50.399999999999999
 30
0.0
 40
1.25
  0
CIRCLE
  5
19E
  8
DATA
  6
CONTINUOUS
 62
     7
 10
8.7500099999999872
 20
50.399999999999999
 30
0.0
 40
1.25
  0
CIRCLE
  5
19F
  8
DATA
  6
CONTINUOUS
 62
     7
 10
12.25000999999998
 20
50.399999999999999
 30
0.0
 40
1.25
  0
CIRCLE
  5
1A0
  8
DATA
  6
CONTINUOUS
 62
     7
 10
15.75000999999998
 20
50.399999999999999
 30
0.0
 40
1.25
  0
CIRCLE
  5
1A1
  8
DATA
  6
CONTINUOUS
 62
     7
 10
19.250009999999989
 20
50.399999999999999
 30
0.0
 40
1.25
  0
CIRCLE
  5
1A2
  8
DATA
  6
CONTINUOUS
 62
     7
 10
22.750009999999989
 20
50.399999999999999
 30
0.0
 40
1.25
  0
CIRCLE
  5
1A3
  8
DATA
  6
CONTINUOUS
 62
     7
 10
-5.249990000000011
 20
50.399999999999999
 30
0.0
 40
1.25
  0
CIRCLE
  5
1A4
  8
DATA
  6
CONTINUOUS
 62
     7
 10
-8.749990000000011
 20
50.399999999999999
 30
0.0
 40
1.25
  0
CIRCLE
  5
1A5
  8
DATA
  6
CONTINUOUS
 62
     7
 10
-12.249990000000009
 20
50.399999999999999
 30
0.0
 40
1.25
  0
CIRCLE
  5
1A6
  8
DATA
  6
CONTINUOUS
 62
     7
 10
-15.749990000000009
 20
50.399999999999999
 30
0.0
 40
1.25
  0
CIRCLE
  5
1A7
  8
DATA
  6
CONTINUOUS
 62
     7
 10
-19.249980000000001
 20
50.399999999999999
 30
0.0
 40
1.25
  0
CIRCLE
  5
1A8
  8
DATA
  6
CONTINUOUS
 62
     7
 10
-22.749980000000001
 20
50.399999999999999
 30
0.0
 40
1.25
  0
CIRCLE
  5
1A9
  8
DATA
  6
CONTINUOUS
 62
     7
 10
-26.249980000000011
 20
50.399999999999999
 30
0.0
 40
1.25
  0
CIRCLE
  5
1AA
  8
DATA
  6
CONTINUOUS
 62
     7
 10
-29.750000000000011
 20
50.399999999999999
 30
0.0
 40
1.25
  0
CIRCLE
  5
1AB
  8
DATA
  6
CONTINUOUS
 62
     7
 10
26.250009999999989
 20
50.399999999999999
 30
0.0
 40
1.25
  0
CIRCLE
  5
1AC
  8
DATA
  6
CONTINUOUS
 62
     7
 10
29.750009999999978
 20
50.399999999999999
 30
0.0
 40
1.25
  0
CIRCLE
  5
1AD
  8
DATA
  6
CONTINUOUS
 62
     7
 10
-1.749990000000011
 20
50.399999999999999
 30
0.0
 40
1.25
  0
CIRCLE
  5
1AE
  8
DATA
  6
CONTINUOUS
 62
     7
 10
1.7500099999999881
 20
50.399999999999999
 30
0.0
 40
1.25
  0
CIRCLE
  5
1AF
  8
DATA
  6
CONTINUOUS
 62
     7
 10
5.2500099999999881
 20
46.899999999999999
 30
0.0
 40
1.25
  0
CIRCLE
  5
1B0
  8
DATA
  6
CONTINUOUS
 62
     7
 10
8.7500099999999872
 20
46.899999999999999
 30
0.0
 40
1.25
  0
CIRCLE
  5
1B1
  8
DATA
  6
CONTINUOUS
 62
     7
 10
12.25000999999998
 20
46.899999999999999
 30
0.0
 40
1.25
  0
CIRCLE
  5
1B2
  8
DATA
  6
CONTINUOUS
 62
     7
 10
15.75000999999998
 20
46.899999999999999
 30
0.0
 40
1.25
  0
CIRCLE
  5
1B3
  8
DATA
  6
CONTINUOUS
 62
     7
 10
19.250009999999989
 20
46.899999999999999
 30
0.0
 40
1.25
  0
CIRCLE
  5
1B4
  8
DATA
  6
CONTINUOUS
 62
     7
 10
22.750009999999989
 20
46.899999999999999
 30
0.0
 40
1.25
  0
CIRCLE
  5
1B5
  8
DATA
  6
CONTINUOUS
 62
     7
 10
-5.249990000000011
 20
46.899999999999999
 30
0.0
 40
1.25
  0
CIRCLE
  5
1B6
  8
DATA
  6
CONTINUOUS
 62
     7
 10
-8.749990000000011
 20
46.899999999999999
 30
0.0
 40
1.25
  0
CIRCLE
  5
1B7
  8
DATA
  6
CONTINUOUS
 62
     7
 10
-12.249990000000009
 20
46.899999999999999
 30
0.0
 40
1.25
  0
CIRCLE
  5
1B8
  8
DATA
  6
CONTINUOUS
 62
     7
 10
-15.749990000000009
 20
46.899999999999999
 30
0.0
 40
1.25
  0
CIRCLE
  5
1B9
  8
DATA
  6
CONTINUOUS
 62
     7
 10
-19.249980000000001
 20
46.899999999999999
 30
0.0
 40
1.25
  0
CIRCLE
  5
1BA
  8
DATA
  6
CONTINUOUS
 62
     7
 10
-22.749980000000001
 20
46.899999999999999
 30
0.0
 40
1.25
  0
CIRCLE
  5
1BB
  8
DATA
  6
CONTINUOUS
 62
     7
 10
-26.249980000000011
 20
46.899999999999999
 30
0.0
 40
1.25
  0
CIRCLE
  5
1BC
  8
DATA
  6
CONTINUOUS
 62
     7
 10
-29.750000000000011
 20
46.899999999999999
 30
0.0
 40
1.25
  0
CIRCLE
  5
1BD
  8
DATA
  6
CONTINUOUS
 62
     7
 10
26.250009999999989
 20
46.899999999999999
 30
0.0
 40
1.25
  0
CIRCLE
  5
1BE
  8
DATA
  6
CONTINUOUS
 62
     7
 10
29.750009999999978
 20
46.899999999999999
 30
0.0
 40
1.25
  0
CIRCLE
  5
1BF
  8
DATA
  6
CONTINUOUS
 62
     7
 10
-1.749990000000011
 20
46.899999999999999
 30
0.0
 40
1.25
  0
CIRCLE
  5
1C0
  8
DATA
  6
CONTINUOUS
 62
     7
 10
1.7500099999999881
 20
46.899999999999999
 30
0.0
 40
1.25
  0
CIRCLE
  5
1C1
  8
DATA
  6
CONTINUOUS
 62
     7
 10
5.2500099999999881
 20
46.899999999999999
 30
0.0
 40
1.25
  0
CIRCLE
  5
1C2
  8
DATA
  6
CONTINUOUS
 62
     7
 10
8.7500099999999872
 20
46.899999999999999
 30
0.0
 40
1.25
  0
CIRCLE
  5
1C3
  8
DATA
  6
CONTINUOUS
 62
     7
 10
12.25000999999998
 20
46.899999999999999
 30
0.0
 40
1.25
  0
CIRCLE
  5
1C4
  8
DATA
  6
CONTINUOUS
 62
     7
 10
15.75000999999998
 20
46.899999999999999
 30
0.0
 40
1.25
  0
CIRCLE
  5
1C5
  8
DATA
  6
CONTINUOUS
 62
     7
 10
19.250009999999989
 20
46.899999999999999
 30
0.0
 40
1.25
  0
CIRCLE
  5
1C6
  8
DATA
  6
CONTINUOUS
 62
     7
 10
22.750009999999989
 20
46.899999999999999
 30
0.0
 40
1.25
  0
CIRCLE
  5
1C7
  8
DATA
  6
CONTINUOUS
 62
     7
 10
-5.249990000000011
 20
46.899999999999999
 30
0.0
 40
1.25
  0
CIRCLE
  5
1C8
  8
DATA
  6
CONTINUOUS
 62
     7
 10
-8.749990000000011
 20
46.899999999999999
 30
0.0
 40
1.25
  0
CIRCLE
  5
1C9
  8
DATA
  6
CONTINUOUS
 62
     7
 10
-12.249990000000009
 20
46.899999999999999
 30
0.0
 40
1.25
  0
CIRCLE
  5
1CA
  8
DATA
  6
CONTINUOUS
 62
     7
 10
-15.749990000000009
 20
46.899999999999999
 30
0.0
 40
1.25
  0
CIRCLE
  5
1CB
  8
DATA
  6
CONTINUOUS
 62
     7
 10
-19.249980000000001
 20
46.899999999999999
 30
0.0
 40
1.25
  0
CIRCLE
  5
1CC
  8
DATA
  6
CONTINUOUS
 62
     7
 10
-22.749980000000001
 20
46.899999999999999
 30
0.0
 40
1.25
  0
CIRCLE
  5
1CD
  8
DATA
  6
CONTINUOUS
 62
     7
 10
-26.249980000000011
 20
46.899999999999999
 30
0.0
 40
1.25
  0
CIRCLE
  5
1CE
  8
DATA
  6
CONTINUOUS
 62
     7
 10
-29.750000000000011
 20
46.899999999999999
 30
0.0
 40
1.25
  0
CIRCLE
  5
1CF
  8
DATA
  6
CONTINUOUS
 62
     7
 10
26.250009999999989
 20
46.899999999999999
 30
0.0
 40
1.25
  0
CIRCLE
  5
1D0
  8
DATA
  6
CONTINUOUS
 62
     7
 10
29.750009999999978
 20
46.899999999999999
 30
0.0
 40
1.25
  0
CIRCLE
  5
1D1
  8
DATA
  6
CONTINUOUS
 62
     7
 10
-1.749990000000011
 20
46.899999999999999
 30
0.0
 40
1.25
  0
CIRCLE
  5
1D2
  8
DATA
  6
CONTINUOUS
 62
     7
 10
1.7500099999999881
 20
46.899999999999999
 30
0.0
 40
1.25
  0
CIRCLE
  5
1D3
  8
DATA
  6
CONTINUOUS
 62
     7
 10
5.2500099999999881
 20
43.399999999999999
 30
0.0
 40
1.25
  0
CIRCLE
  5
1D4
  8
DATA
  6
CONTINUOUS
 62
     7
 10
8.7500099999999872
 20
43.399999999999999
 30
0.0
 40
1.25
  0
CIRCLE
  5
1D5
  8
DATA
  6
CONTINUOUS
 62
     7
 10
12.25000999999998
 20
43.399999999999999
 30
0.0
 40
1.25
  0
CIRCLE
  5
1D6
  8
DATA
  6
CONTINUOUS
 62
     7
 10
15.75000999999998
 20
43.399999999999999
 30
0.0
 40
1.25
  0
CIRCLE
  5
1D7
  8
DATA
  6
CONTINUOUS
 62
     7
 10
19.250009999999989
 20
43.399999999999999
 30
0.0
 40
1.25
  0
CIRCLE
  5
1D8
  8
DATA
  6
CONTINUOUS
 62
     7
 10
22.750009999999989
 20
43.399999999999999
 30
0.0
 40
1.25
  0
CIRCLE
  5
1D9
  8
DATA
  6
CONTINUOUS
 62
     7
 10
-5.249990000000011
 20
43.399999999999999
 30
0.0
 40
1.25
  0
CIRCLE
  5
1DA
  8
DATA
  6
CONTINUOUS
 62
     7
 10
-8.749990000000011
 20
43.399999999999999
 30
0.0
 40
1.25
  0
CIRCLE
  5
1DB
  8
DATA
  6
CONTINUOUS
 62
     7
 10
-12.249990000000009
 20
43.399999999999999
 30
0.0
 40
1.25
  0
CIRCLE
  5
1DC
  8
DATA
  6
CONTINUOUS
 62
     7
 10
-15.749990000000009
 20
43.399999999999999
 30
0.0
 40
1.25
  0
CIRCLE
  5
1DD
  8
DATA
  6
CONTINUOUS
 62
     7
 10
-19.249980000000001
 20
43.399999999999999
 30
0.0
 40
1.25
  0
CIRCLE
  5
1DE
  8
DATA
  6
CONTINUOUS
 62
     7
 10
-22.749980000000001
 20
43.399999999999999
 30
0.0
 40
1.25
  0
CIRCLE
  5
1DF
  8
DATA
  6
CONTINUOUS
 62
     7
 10
-26.249980000000011
 20
43.399999999999999
 30
0.0
 40
1.25
  0
CIRCLE
  5
1E0
  8
DATA
  6
CONTINUOUS
 62
     7
 10
-29.750000000000011
 20
43.399999999999999
 30
0.0
 40
1.25
  0
CIRCLE
  5
1E1
  8
DATA
  6
CONTINUOUS
 62
     7
 10
26.250009999999989
 20
43.399999999999999
 30
0.0
 40
1.25
  0
CIRCLE
  5
1E2
  8
DATA
  6
CONTINUOUS
 62
     7
 10
29.750009999999978
 20
43.399999999999999
 30
0.0
 40
1.25
  0
CIRCLE
  5
1E3
  8
DATA
  6
CONTINUOUS
 62
     7
 10
-1.749990000000011
 20
43.399999999999999
 30
0.0
 40
1.25
  0
CIRCLE
  5
1E4
  8
DATA
  6
CONTINUOUS
 62
     7
 10
1.7500099999999881
 20
43.399999999999999
 30
0.0
 40
1.25
  0
ARC
  5
1E5
  8
DATA
  6
CONTINUOUS
 62
     7
 10
-33.250000000000007
 20
43.399999999999999
 30
0.0
 40
1.2499924201770189
 50
286.44947478645952
 51
54.905916468731562
  0
ARC
  5
1E6
  8
DATA
  6
CONTINUOUS
 62
     7
 10
33.250009999999982
 20
43.399999999999999
 30
0.0
 40
1.2500204494327261
 50
125.0939315246402
 51
253.55078480200561
  0
CIRCLE
  5
1E7
  8
DATA
  6
CONTINUOUS
 62
     7
 10
5.2500099999999881
 20
39.899999999999999
 30
0.0
 40
1.25
  0
CIRCLE
  5
1E8
  8
DATA
  6
CONTINUOUS
 62
     7
 10
8.7500099999999872
 20
39.899999999999999
 30
0.0
 40
1.25
  0
CIRCLE
  5
1E9
  8
DATA
  6
CONTINUOUS
 62
     7
 10
12.25000999999998
 20
39.899999999999999
 30
0.0
 40
1.25
  0
CIRCLE
  5
1EA
  8
DATA
  6
CONTINUOUS
 62
     7
 10
15.75000999999998
 20
39.899999999999999
 30
0.0
 40
1.25
  0
CIRCLE
  5
1EB
  8
DATA
  6
CONTINUOUS
 62
     7
 10
19.250009999999989
 20
39.899999999999999
 30
0.0
 40
1.25
  0
CIRCLE
  5
1EC
  8
DATA
  6
CONTINUOUS
 62
     7
 10
22.750009999999989
 20
39.899999999999999
 30
0.0
 40
1.25
  0
CIRCLE
  5
1ED
  8
DATA
  6
CONTINUOUS
 62
     7
 10
-5.249990000000011
 20
39.899999999999999
 30
0.0
 40
1.25
  0
CIRCLE
  5
1EE
  8
DATA
  6
CONTINUOUS
 62
     7
 10
-8.749990000000011
 20
39.899999999999999
 30
0.0
 40
1.25
  0
CIRCLE
  5
1EF
  8
DATA
  6
CONTINUOUS
 62
     7
 10
-12.249990000000009
 20
39.899999999999999
 30
0.0
 40
1.25
  0
CIRCLE
  5
1F0
  8
DATA
  6
CONTINUOUS
 62
     7
 10
-15.749990000000009
 20
39.899999999999999
 30
0.0
 40
1.25
  0
CIRCLE
  5
1F1
  8
DATA
  6
CONTINUOUS
 62
     7
 10
-19.249980000000001
 20
39.899999999999999
 30
0.0
 40
1.25
  0
CIRCLE
  5
1F2
  8
DATA
  6
CONTINUOUS
 62
     7
 10
-22.749980000000001
 20
39.899999999999999
 30
0.0
 40
1.25
  0
CIRCLE
  5
1F3
  8
DATA
  6
CONTINUOUS
 62
     7
 10
-26.249980000000011
 20
39.899999999999999
 30
0.0
 40
1.25
  0
CIRCLE
  5
1F4
  8
DATA
  6
CONTINUOUS
 62
     7
 10
-29.750000000000011
 20
39.899999999999999
 30
0.0
 40
1.25
  0
CIRCLE
  5
1F5
  8
DATA
  6
CONTINUOUS
 62
     7
 10
26.250009999999989
 20
39.899999999999999
 30
0.0
 40
1.25
  0
CIRCLE
  5
1F6
  8
DATA
  6
CONTINUOUS
 62
     7
 10
29.750009999999978
 20
39.899999999999999
 30
0.0
 40
1.25
  0
CIRCLE
  5
1F7
  8
DATA
  6
CONTINUOUS
 62
     7
 10
-1.749990000000011
 20
39.899999999999999
 30
0.0
 40
1.25
  0
CIRCLE
  5
1F8
  8
DATA
  6
CONTINUOUS
 62
     7
 10
1.7500099999999881
 20
39.899999999999999
 30
0.0
 40
1.25
  0
ARC
  5
1F9
  8
DATA
  6
CONTINUOUS
 62
     7
 10
-33.250000000000007
 20
39.899999999999999
 30
0.0
 40
1.2499860596022669
 50
262.69486998226171
 51
81.221393194518299
  0
ARC
  5
1FA
  8
DATA
  6
CONTINUOUS
 62
     7
 10
33.250009999999982
 20
39.899999999999999
 30
0.0
 40
1.2500030089963781
 50
98.778536851243246
 51
277.30598102732279
  0
CIRCLE
  5
1FB
  8
DATA
  6
CONTINUOUS
 62
     7
 10
5.2500099999999881
 20
36.399999999999999
 30
0.0
 40
1.25
  0
CIRCLE
  5
1FC
  8
DATA
  6
CONTINUOUS
 62
     7
 10
8.7500099999999872
 20
36.399999999999999
 30
0.0
 40
1.25
  0
CIRCLE
  5
1FD
  8
DATA
  6
CONTINUOUS
 62
     7
 10
12.25000999999998
 20
36.399999999999999
 30
0.0
 40
1.25
  0
CIRCLE
  5
1FE
  8
DATA
  6
CONTINUOUS
 62
     7
 10
15.75000999999998
 20
36.399999999999999
 30
0.0
 40
1.25
  0
CIRCLE
  5
1FF
  8
DATA
  6
CONTINUOUS
 62
     7
 10
19.250009999999989
 20
36.399999999999999
 30
0.0
 40
1.25
  0
CIRCLE
  5
200
  8
DATA
  6
CONTINUOUS
 62
     7
 10
22.750009999999989
 20
36.399999999999999
 30
0.0
 40
1.25
  0
CIRCLE
  5
201
  8
DATA
  6
CONTINUOUS
 62
     7
 10
-5.249990000000011
 20
36.399999999999999
 30
0.0
 40
1.25
  0
CIRCLE
  5
202
  8
DATA
  6
CONTINUOUS
 62
     7
 10
-8.749990000000011
 20
36.399999999999999
 30
0.0
 40
1.25
  0
CIRCLE
  5
203
  8
DATA
  6
CONTINUOUS
 62
     7
 10
-12.249990000000009
 20
36.399999999999999
 30
0.0
 40
1.25
  0
CIRCLE
  5
204
  8
DATA
  6
CONTINUOUS
 62
     7
 10
-15.749990000000009
 20
36.399999999999999
 30
0.0
 40
1.25
  0
CIRCLE
  5
205
  8
DATA
  6
CONTINUOUS
 62
     7
 10
-19.249980000000001
 20
36.399999999999999
 30
0.0
 40
1.25
  0
CIRCLE
  5
206
  8
DATA
  6
CONTINUOUS
 62
     7
 10
-22.749980000000001
 20
36.399999999999999
 30
0.0
 40
1.25
  0
CIRCLE
  5
207
  8
DATA
  6
CONTINUOUS
 62
     7
 10
-26.249980000000011
 20
36.399999999999999
 30
0.0
 40
1.25
  0
CIRCLE
  5
208
  8
DATA
  6
CONTINUOUS
 62
     7
 10
-29.750000000000011
 20
36.399999999999999
 30
0.0
 40
1.25
  0
CIRCLE
  5
209
  8
DATA
  6
CONTINUOUS
 62
     7
 10
26.250009999999989
 20
36.399999999999999
 30
0.0
 40
1.25
  0
CIRCLE
  5
20A
  8
DATA
  6
CONTINUOUS
 62
     7
 10
29.750009999999978
 20
36.399999999999999
 30
0.0
 40
1.25
  0
CIRCLE
  5
20B
  8
DATA
  6
CONTINUOUS
 62
     7
 10
-1.749990000000011
 20
36.399999999999999
 30
0.0
 40
1.25
  0
CIRCLE
  5
20C
  8
DATA
  6
CONTINUOUS
 62
     7
 10
1.7500099999999881
 20
36.399999999999999
 30
0.0
 40
1.25
  0
ARC
  5
20D
  8
DATA
  6
CONTINUOUS
 62
     7
 10
-33.250000000000007
 20
36.399999999999999
 30
0.0
 40
1.249973001068414
 50
242.87264663045229
 51
103.62112273373511
  0
ARC
  5
20E
  8
DATA
  6
CONTINUOUS
 62
     7
 10
33.250009999999982
 20
36.399999999999999
 30
0.0
 40
1.2500127529349421
 50
76.377864689899283
 51
297.12856713344678
  0
CIRCLE
  5
20F
  8
DATA
  6
CONTINUOUS
 62
     7
 10
5.2500099999999881
 20
32.899999999999999
 30
0.0
 40
1.25
  0
CIRCLE
  5
210
  8
DATA
  6
CONTINUOUS
 62
     7
 10
8.7500099999999872
 20
32.899999999999999
 30
0.0
 40
1.25
  0
CIRCLE
  5
211
  8
DATA
  6
CONTINUOUS
 62
     7
 10
12.25000999999998
 20
32.899999999999999
 30
0.0
 40
1.25
  0
CIRCLE
  5
212
  8
DATA
  6
CONTINUOUS
 62
     7
 10
15.75000999999998
 20
32.899999999999999
 30
0.0
 40
1.25
  0
CIRCLE
  5
213
  8
DATA
  6
CONTINUOUS
 62
     7
 10
19.250009999999989
 20
32.899999999999999
 30
0.0
 40
1.25
  0
CIRCLE
  5
214
  8
DATA
  6
CONTINUOUS
 62
     7
 10
22.750009999999989
 20
32.899999999999999
 30
0.0
 40
1.25
  0
CIRCLE
  5
215
  8
DATA
  6
CONTINUOUS
 62
     7
 10
-5.249990000000011
 20
32.899999999999999
 30
0.0
 40
1.25
  0
CIRCLE
  5
216
  8
DATA
  6
CONTINUOUS
 62
     7
 10
-8.749990000000011
 20
32.899999999999999
 30
0.0
 40
1.25
  0
CIRCLE
  5
217
  8
DATA
  6
CONTINUOUS
 62
     7
 10
-12.249990000000009
 20
32.899999999999999
 30
0.0
 40
1.25
  0
CIRCLE
  5
218
  8
DATA
  6
CONTINUOUS
 62
     7
 10
-15.749990000000009
 20
32.899999999999999
 30
0.0
 40
1.25
  0
CIRCLE
  5
219
  8
DATA
  6
CONTINUOUS
 62
     7
 10
-19.249980000000001
 20
32.899999999999999
 30
0.0
 40
1.25
  0
CIRCLE
  5
21A
  8
DATA
  6
CONTINUOUS
 62
     7
 10
-22.749980000000001
 20
32.899999999999999
 30
0.0
 40
1.25
  0
CIRCLE
  5
21B
  8
DATA
  6
CONTINUOUS
 62
     7
 10
-26.249980000000011
 20
32.899999999999999
 30
0.0
 40
1.25
  0
CIRCLE
  5
21C
  8
DATA
  6
CONTINUOUS
 62
     7
 10
-29.750000000000011
 20
32.899999999999999
 30
0.0
 40
1.25
  0
CIRCLE
  5
21D
  8
DATA
  6
CONTINUOUS
 62
     7
 10
26.250009999999989
 20
32.899999999999999
 30
0.0
 40
1.25
  0
CIRCLE
  5
21E
  8
DATA
  6
CONTINUOUS
 62
     7
 10
29.750009999999978
 20
32.899999999999999
 30
0.0
 40
1.25
  0
CIRCLE
  5
21F
  8
DATA
  6
CONTINUOUS
 62
     7
 10
-1.749990000000011
 20
32.899999999999999
 30
0.0
 40
1.25
  0
CIRCLE
  5
220
  8
DATA
  6
CONTINUOUS
 62
     7
 10
1.7500099999999881
 20
32.899999999999999
 30
0.0
 40
1.25
  0
ARC
  5
221
  8
DATA
  6
CONTINUOUS
 62
     7
 10
-33.250000000000007
 20
32.899999999999999
 30
0.0
 40
1.2499642124876911
 50
224.21397669780919
 51
124.87042830272929
  0
ARC
  5
222
  8
DATA
  6
CONTINUOUS
 62
     7
 10
33.250009999999982
 20
32.899999999999999
 30
0.0
 40
1.250010608954977
 50
55.128967623276701
 51
315.78664478786658
  0
CIRCLE
  5
223
  8
DATA
  6
CONTINUOUS
 62
     7
 10
5.2500099999999881
 20
29.399999999999999
 30
0.0
 40
1.25
  0
CIRCLE
  5
224
  8
DATA
  6
CONTINUOUS
 62
     7
 10
8.7500099999999872
 20
29.399999999999999
 30
0.0
 40
1.25
  0
CIRCLE
  5
225
  8
DATA
  6
CONTINUOUS
 62
     7
 10
12.25000999999998
 20
29.399999999999999
 30
0.0
 40
1.25
  0
CIRCLE
  5
226
  8
DATA
  6
CONTINUOUS
 62
     7
 10
15.75000999999998
 20
29.399999999999999
 30
0.0
 40
1.25
  0
CIRCLE
  5
227
  8
DATA
  6
CONTINUOUS
 62
     7
 10
19.250009999999989
 20
29.399999999999999
 30
0.0
 40
1.25
  0
CIRCLE
  5
228
  8
DATA
  6
CONTINUOUS
 62
     7
 10
22.750009999999989
 20
29.399999999999999
 30
0.0
 40
1.25
  0
CIRCLE
  5
229
  8
DATA
  6
CONTINUOUS
 62
     7
 10
-5.249990000000011
 20
29.399999999999999
 30
0.0
 40
1.25
  0
CIRCLE
  5
22A
  8
DATA
  6
CONTINUOUS
 62
     7
 10
-8.749990000000011
 20
29.399999999999999
 30
0.0
 40
1.25
  0
CIRCLE
  5
22B
  8
DATA
  6
CONTINUOUS
 62
     7
 10
-12.249990000000009
 20
29.399999999999999
 30
0.0
 40
1.25
  0
CIRCLE
  5
22C
  8
DATA
  6
CONTINUOUS
 62
     7
 10
-15.749990000000009
 20
29.399999999999999
 30
0.0
 40
1.25
  0
CIRCLE
  5
22D
  8
DATA
  6
CONTINUOUS
 62
     7
 10
-19.249980000000001
 20
29.399999999999999
 30
0.0
 40
1.25
  0
CIRCLE
  5
22E
  8
DATA
  6
CONTINUOUS
 62
     7
 10
-22.749980000000001
 20
29.399999999999999
 30
0.0
 40
1.25
  0
CIRCLE
  5
22F
  8
DATA
  6
CONTINUOUS
 62
     7
 10
-26.249980000000011
 20
29.399999999999999
 30
0.0
 40
1.25
  0
CIRCLE
  5
230
  8
DATA
  6
CONTINUOUS
 62
     7
 10
-29.750000000000011
 20
29.399999999999999
 30
0.0
 40
1.25
  0
CIRCLE
  5
231
  8
DATA
  6
CONTINUOUS
 62
     7
 10
26.250009999999989
 20
29.399999999999999
 30
0.0
 40
1.25
  0
CIRCLE
  5
232
  8
DATA
  6
CONTINUOUS
 62
     7
 10
29.750009999999978
 20
29.399999999999999
 30
0.0
 40
1.25
  0
CIRCLE
  5
233
  8
DATA
  6
CONTINUOUS
 62
     7
 10
-1.749990000000011
 20
29.399999999999999
 30
0.0
 40
1.25
  0
CIRCLE
  5
234
  8
DATA
  6
CONTINUOUS
 62
     7
 10
1.7500099999999881
 20
29.399999999999999
 30
0.0
 40
1.25
  0
ARC
  5
235
  8
DATA
  6
CONTINUOUS
 62
     7
 10
-33.250000000000007
 20
29.399999999999999
 30
0.0
 40
1.249976038890348
 50
203.80541313183639
 51
147.88184460373091
  0
ARC
  5
236
  8
DATA
  6
CONTINUOUS
 62
     7
 10
33.250009999999982
 20
29.399999999999999
 30
0.0
 40
1.250016529210719
 50
32.116936921414769
 51
336.19472253168618
  0
CIRCLE
  5
237
  8
DATA
  6
CONTINUOUS
 62
     7
 10
5.2500099999999881
 20
25.899999999999999
 30
0.0
 40
1.25
  0
CIRCLE
  5
238
  8
DATA
  6
CONTINUOUS
 62
     7
 10
8.7500099999999872
 20
25.899999999999999
 30
0.0
 40
1.25
  0
CIRCLE
  5
239
  8
DATA
  6
CONTINUOUS
 62
     7
 10
12.25000999999998
 20
25.899999999999999
 30
0.0
 40
1.25
  0
CIRCLE
  5
23A
  8
DATA
  6
CONTINUOUS
 62
     7
 10
15.75000999999998
 20
25.899999999999999
 30
0.0
 40
1.25
  0
CIRCLE
  5
23B
  8
DATA
  6
CONTINUOUS
 62
     7
 10
19.250009999999989
 20
25.899999999999999
 30
0.0
 40
1.25
  0
CIRCLE
  5
23C
  8
DATA
  6
CONTINUOUS
 62
     7
 10
22.750009999999989
 20
25.899999999999999
 30
0.0
 40
1.25
  0
CIRCLE
  5
23D
  8
DATA
  6
CONTINUOUS
 62
     7
 10
-5.249990000000011
 20
25.899999999999999
 30
0.0
 40
1.25
  0
CIRCLE
  5
23E
  8
DATA
  6
CONTINUOUS
 62
     7
 10
-8.749990000000011
 20
25.899999999999999
 30
0.0
 40
1.25
  0
CIRCLE
  5
23F
  8
DATA
  6
CONTINUOUS
 62
     7
 10
-12.249990000000009
 20
25.899999999999999
 30
0.0
 40
1.25
  0
CIRCLE
  5
240
  8
DATA
  6
CONTINUOUS
 62
     7
 10
-15.749990000000009
 20
25.899999999999999
 30
0.0
 40
1.25
  0
CIRCLE
  5
241
  8
DATA
  6
CONTINUOUS
 62
     7
 10
-19.249980000000001
 20
25.899999999999999
 30
0.0
 40
1.25
  0
CIRCLE
  5
242
  8
DATA
  6
CONTINUOUS
 62
     7
 10
-22.749980000000001
 20
25.899999999999999
 30
0.0
 40
1.25
  0
CIRCLE
  5
243
  8
DATA
  6
CONTINUOUS
 62
     7
 10
-26.249980000000011
 20
25.899999999999999
 30
0.0
 40
1.25
  0
CIRCLE
  5
244
  8
DATA
  6
CONTINUOUS
 62
     7
 10
-29.750000000000011
 20
25.899999999999999
 30
0.0
 40
1.25
  0
CIRCLE
  5
245
  8
DATA
  6
CONTINUOUS
 62
     7
 10
26.250009999999989
 20
25.899999999999999
 30
0.0
 40
1.25
  0
CIRCLE
  5
246
  8
DATA
  6
CONTINUOUS
 62
     7
 10
29.750009999999978
 20
25.899999999999999
 30
0.0
 40
1.25
  0
CIRCLE
  5
247
  8
DATA
  6
CONTINUOUS
 62
     7
 10
-1.749990000000011
 20
25.899999999999999
 30
0.0
 40
1.25
  0
CIRCLE
  5
248
  8
DATA
  6
CONTINUOUS
 62
     7
 10
1.7500099999999881
 20
25.899999999999999
 30
0.0
 40
1.25
  0
CIRCLE
  5
249
  8
DATA
  6
CONTINUOUS
 62
     7
 10
-33.250000000000007
 20
25.899999999999999
 30
0.0
 40
1.25
  0
CIRCLE
  5
24A
  8
DATA
  6
CONTINUOUS
 62
     7
 10
33.250009999999982
 20
25.899999999999999
 30
0.0
 40
1.25
  0
CIRCLE
  5
24B
  8
DATA
  6
CONTINUOUS
 62
     7
 10
5.2500099999999881
 20
22.399999999999999
 30
0.0
 40
1.25
  0
CIRCLE
  5
24C
  8
DATA
  6
CONTINUOUS
 62
     7
 10
8.7500099999999872
 20
22.399999999999999
 30
0.0
 40
1.25
  0
CIRCLE
  5
24D
  8
DATA
  6
CONTINUOUS
 62
     7
 10
12.25000999999998
 20
22.399999999999999
 30
0.0
 40
1.25
  0
CIRCLE
  5
24E
  8
DATA
  6
CONTINUOUS
 62
     7
 10
15.75000999999998
 20
22.399999999999999
 30
0.0
 40
1.25
  0
CIRCLE
  5
24F
  8
DATA
  6
CONTINUOUS
 62
     7
 10
19.250009999999989
 20
22.399999999999999
 30
0.0
 40
1.25
  0
CIRCLE
  5
250
  8
DATA
  6
CONTINUOUS
 62
     7
 10
22.750009999999989
 20
22.399999999999999
 30
0.0
 40
1.25
  0
CIRCLE
  5
251
  8
DATA
  6
CONTINUOUS
 62
     7
 10
-5.249990000000011
 20
22.399999999999999
 30
0.0
 40
1.25
  0
CIRCLE
  5
252
  8
DATA
  6
CONTINUOUS
 62
     7
 10
-8.749990000000011
 20
22.399999999999999
 30
0.0
 40
1.25
  0
CIRCLE
  5
253
  8
DATA
  6
CONTINUOUS
 62
     7
 10
-12.249990000000009
 20
22.399999999999999
 30
0.0
 40
1.25
  0
CIRCLE
  5
254
  8
DATA
  6
CONTINUOUS
 62
     7
 10
-15.749990000000009
 20
22.399999999999999
 30
0.0
 40
1.25
  0
CIRCLE
  5
255
  8
DATA
  6
CONTINUOUS
 62
     7
 10
-19.249980000000001
 20
22.399999999999999
 30
0.0
 40
1.25
  0
CIRCLE
  5
256
  8
DATA
  6
CONTINUOUS
 62
     7
 10
-22.749980000000001
 20
22.399999999999999
 30
0.0
 40
1.25
  0
CIRCLE
  5
257
  8
DATA
  6
CONTINUOUS
 62
     7
 10
-26.249980000000011
 20
22.399999999999999
 30
0.0
 40
1.25
  0
CIRCLE
  5
258
  8
DATA
  6
CONTINUOUS
 62
     7
 10
-29.750000000000011
 20
22.399999999999999
 30
0.0
 40
1.25
  0
CIRCLE
  5
259
  8
DATA
  6
CONTINUOUS
 62
     7
 10
26.250009999999989
 20
22.399999999999999
 30
0.0
 40
1.25
  0
CIRCLE
  5
25A
  8
DATA
  6
CONTINUOUS
 62
     7
 10
29.750009999999978
 20
22.399999999999999
 30
0.0
 40
1.25
  0
CIRCLE
  5
25B
  8
DATA
  6
CONTINUOUS
 62
     7
 10
-1.749990000000011
 20
22.399999999999999
 30
0.0
 40
1.25
  0
CIRCLE
  5
25C
  8
DATA
  6
CONTINUOUS
 62
     7
 10
1.7500099999999881
 20
22.399999999999999
 30
0.0
 40
1.25
  0
CIRCLE
  5
25D
  8
DATA
  6
CONTINUOUS
 62
     7
 10
-33.250000000000007
 20
22.399999999999999
 30
0.0
 40
1.25
  0
CIRCLE
  5
25E
  8
DATA
  6
CONTINUOUS
 62
     7
 10
33.250009999999982
 20
22.399999999999999
 30
0.0
 40
1.25
  0
CIRCLE
  5
25F
  8
DATA
  6
CONTINUOUS
 62
     7
 10
5.2500099999999881
 20
18.899999999999999
 30
0.0
 40
1.25
  0
CIRCLE
  5
260
  8
DATA
  6
CONTINUOUS
 62
     7
 10
8.7500099999999872
 20
18.899999999999999
 30
0.0
 40
1.25
  0
CIRCLE
  5
261
  8
DATA
  6
CONTINUOUS
 62
     7
 10
12.25000999999998
 20
18.899999999999999
 30
0.0
 40
1.25
  0
CIRCLE
  5
262
  8
DATA
  6
CONTINUOUS
 62
     7
 10
15.75000999999998
 20
18.899999999999999
 30
0.0
 40
1.25
  0
CIRCLE
  5
263
  8
DATA
  6
CONTINUOUS
 62
     7
 10
19.250009999999989
 20
18.899999999999999
 30
0.0
 40
1.25
  0
CIRCLE
  5
264
  8
DATA
  6
CONTINUOUS
 62
     7
 10
22.750009999999989
 20
18.899999999999999
 30
0.0
 40
1.25
  0
CIRCLE
  5
265
  8
DATA
  6
CONTINUOUS
 62
     7
 10
-5.249990000000011
 20
18.899999999999999
 30
0.0
 40
1.25
  0
CIRCLE
  5
266
  8
DATA
  6
CONTINUOUS
 62
     7
 10
-8.749990000000011
 20
18.899999999999999
 30
0.0
 40
1.25
  0
CIRCLE
  5
267
  8
DATA
  6
CONTINUOUS
 62
     7
 10
-12.249990000000009
 20
18.899999999999999
 30
0.0
 40
1.25
  0
CIRCLE
  5
268
  8
DATA
  6
CONTINUOUS
 62
     7
 10
-15.749990000000009
 20
18.899999999999999
 30
0.0
 40
1.25
  0
CIRCLE
  5
269
  8
DATA
  6
CONTINUOUS
 62
     7
 10
-19.249980000000001
 20
18.899999999999999
 30
0.0
 40
1.25
  0
CIRCLE
  5
26A
  8
DATA
  6
CONTINUOUS
 62
     7
 10
-22.749980000000001
 20
18.899999999999999
 30
0.0
 40
1.25
  0
CIRCLE
  5
26B
  8
DATA
  6
CONTINUOUS
 62
     7
 10
-26.249980000000011
 20
18.899999999999999
 30
0.0
 40
1.25
  0
CIRCLE
  5
26C
  8
DATA
  6
CONTINUOUS
 62
     7
 10
-29.750000000000011
 20
18.899999999999999
 30
0.0
 40
1.25
  0
CIRCLE
  5
26D
  8
DATA
  6
CONTINUOUS
 62
     7
 10
26.250009999999989
 20
18.899999999999999
 30
0.0
 40
1.25
  0
CIRCLE
  5
26E
  8
DATA
  6
CONTINUOUS
 62
     7
 10
29.750009999999978
 20
18.899999999999999
 30
0.0
 40
1.25
  0
CIRCLE
  5
26F
  8
DATA
  6
CONTINUOUS
 62
     7
 10
-1.749990000000011
 20
18.899999999999999
 30
0.0
 40
1.25
  0
CIRCLE
  5
270
  8
DATA
  6
CONTINUOUS
 62
     7
 10
1.7500099999999881
 20
18.899999999999999
 30
0.0
 40
1.25
  0
ARC
  5
271
  8
DATA
  6
CONTINUOUS
 62
     7
 10
-33.250000000000007
 20
18.899999999999999
 30
0.0
 40
1.24999978451998
 50
333.33224995636169
 51
159.98301906316581
  0
ARC
  5
272
  8
DATA
  6
CONTINUOUS
 62
     7
 10
33.250009999999982
 20
18.899999999999999
 30
0.0
 40
1.250018590661752
 50
20.016510249433171
 51
206.6675443229372
  0
CIRCLE
  5
273
  8
DATA
  6
CONTINUOUS
 62
     7
 10
5.2500099999999881
 20
15.4
 30
0.0
 40
1.25
  0
CIRCLE
  5
274
  8
DATA
  6
CONTINUOUS
 62
     7
 10
8.7500099999999872
 20
15.4
 30
0.0
 40
1.25
  0
CIRCLE
  5
275
  8
DATA
  6
CONTINUOUS
 62
     7
 10
12.25000999999998
 20
15.4
 30
0.0
 40
1.25
  0
CIRCLE
  5
276
  8
DATA
  6
CONTINUOUS
 62
     7
 10
15.75000999999998
 20
15.4
 30
0.0
 40
1.25
  0
CIRCLE
  5
277
  8
DATA
  6
CONTINUOUS
 62
     7
 10
19.250009999999989
 20
15.4
 30
0.0
 40
1.25
  0
ARC
  5
278
  8
DATA
  6
CONTINUOUS
 62
     7
 10
22.750009999999989
 20
15.4
 30
0.0
 40
1.2500114676273939
 50
2.3502227842306871
 51
209.19310815315291
  0
CIRCLE
  5
279
  8
DATA
  6
CONTINUOUS
 62
     7
 10
-5.249990000000011
 20
15.4
 30
0.0
 40
1.25
  0
CIRCLE
  5
27A
  8
DATA
  6
CONTINUOUS
 62
     7
 10
-8.749990000000011
 20
15.4
 30
0.0
 40
1.25
  0
CIRCLE
  5
27B
  8
DATA
  6
CONTINUOUS
 62
     7
 10
-12.249990000000009
 20
15.4
 30
0.0
 40
1.25
  0
CIRCLE
  5
27C
  8
DATA
  6
CONTINUOUS
 62
     7
 10
-15.749990000000009
 20
15.4
 30
0.0
 40
1.25
  0
CIRCLE
  5
27D
  8
DATA
  6
CONTINUOUS
 62
     7
 10
-19.249980000000001
 20
15.4
 30
0.0
 40
1.25
  0
ARC
  5
27E
  8
DATA
  6
CONTINUOUS
 62
     7
 10
-22.749980000000001
 20
15.4
 30
0.0
 40
1.250001923598528
 50
330.80711541676931
 51
177.65019760642369
  0
ARC
  5
27F
  8
DATA
  6
CONTINUOUS
 62
     7
 10
-26.249980000000011
 20
15.4
 30
0.0
 40
1.2499940385457831
 50
17.429822136539279
 51
126.4708370449905
  0
ARC
  5
280
  8
DATA
  6
CONTINUOUS
 62
     7
 10
26.250009999999989
 20
15.4
 30
0.0
 40
1.2500023041578781
 50
53.529066814720203
 51
162.5707524811796
  0
CIRCLE
  5
281
  8
DATA
  6
CONTINUOUS
 62
     7
 10
-1.749990000000011
 20
15.4
 30
0.0
 40
1.25
  0
CIRCLE
  5
282
  8
DATA
  6
CONTINUOUS
 62
     7
 10
1.7500099999999881
 20
15.4
 30
0.0
 40
1.25
  0
ARC
  5
283
  8
DATA
  6
CONTINUOUS
 62
     7
 10
5.2500099999999881
 20
11.9
 30
0.0
 40
1.2499945123879539
 50
13.84269503365574
 51
173.3058820075625
  0
ARC
  5
284
  8
DATA
  6
CONTINUOUS
 62
     7
 10
8.7500099999999872
 20
11.9
 30
0.0
 40
1.250018178467821
 50
30.1223846789897
 51
161.7643539056923
  0
ARC
  5
285
  8
DATA
  6
CONTINUOUS
 62
     7
 10
12.25000999999998
 20
11.9
 30
0.0
 40
1.250011320908734
 50
57.196804230448961
 51
139.38662418296809
  0
ARC
  5
286
  8
DATA
  6
CONTINUOUS
 62
     7
 10
-5.249990000000011
 20
11.9
 30
0.0
 40
1.2500126953355311
 50
6.694466367895938
 51
166.1573049663445
  0
ARC
  5
287
  8
DATA
  6
CONTINUOUS
 62
     7
 10
-8.749990000000011
 20
11.9
 30
0.0
 40
1.250008487371185
 50
18.235646094307381
 51
149.87778175627011
  0
ARC
  5
288
  8
DATA
  6
CONTINUOUS
 62
     7
 10
-12.249990000000009
 20
11.9
 30
0.0
 40
1.2500227423531221
 50
40.613127027908128
 51
122.8021769075542
  0
ARC
  5
289
  8
DATA
  6
CONTINUOUS
 62
     7
 10
-1.749990000000011
 20
11.9
 30
0.0
 40
1.2499921820955531
 50
2.362186746194848
 51
175.25272651950709
  0
ARC
  5
28A
  8
DATA
  6
CONTINUOUS
 62
     7
 10
1.7500099999999881
 20
11.9
 30
0.0
 40
1.2499989502795621
 50
4.747692339879948
 51
177.63827123356009
  0
LINE
  5
28B
  8
DATA
  6
CONTINUOUS
 62
     7
 10
124.99997999999989
 20
108.2000199999999
 30
0.0
 11
123.99997999999989
 21
108.2000199999999
 31
0.0
  0
CIRCLE
  5
28C
  8
DATA
  6
CONTINUOUS
 62
     7
 10
111.4499999999999
 20
85.400010000000009
 30
0.0
 40
1.25
  0
CIRCLE
  5
28D
  8
DATA
  6
CONTINUOUS
 62
     7
 10
114.9499999999999
 20
85.400010000000009
 30
0.0
 40
1.25
  0
CIRCLE
  5
28E
  8
DATA
  6
CONTINUOUS
 62
     7
 10
118.4499999999999
 20
85.400010000000009
 30
0.0
 40
1.25
  0
CIRCLE
  5
28F
  8
DATA
  6
CONTINUOUS
 62
     7
 10
111.4499999999999
 20
88.900010000000009
 30
0.0
 40
1.25
  0
CIRCLE
  5
290
  8
DATA
  6
CONTINUOUS
 62
     7
 10
114.9499999999999
 20
88.900010000000009
 30
0.0
 40
1.25
  0
CIRCLE
  5
291
  8
DATA
  6
CONTINUOUS
 62
     7
 10
118.4499999999999
 20
88.900010000000009
 30
0.0
 40
1.25
  0
CIRCLE
  5
292
  8
DATA
  6
CONTINUOUS
 62
     7
 10
111.4499999999999
 20
92.400010000000009
 30
0.0
 40
1.25
  0
ARC
  5
293
  8
DATA
  6
CONTINUOUS
 62
     7
 10
114.9499999999999
 20
92.400010000000009
 30
0.0
 40
1.249997398797295
 50
109.2887266863959
 51
23.714940176340608
  0
ARC
  5
294
  8
DATA
  6
CONTINUOUS
 62
     7
 10
118.4499999999999
 20
92.400010000000009
 30
0.0
 40
1.25000291107661
 50
178.9933783056704
 51
298.02718932027699
  0
CIRCLE
  5
295
  8
DATA
  6
CONTINUOUS
 62
     7
 10
111.4499999999999
 20
81.900009999999995
 30
0.0
 40
1.25
  0
CIRCLE
  5
296
  8
DATA
  6
CONTINUOUS
 62
     7
 10
114.9499999999999
 20
81.900009999999995
 30
0.0
 40
1.25
  0
CIRCLE
  5
297
  8
DATA
  6
CONTINUOUS
 62
     7
 10
118.4499999999999
 20
81.900009999999995
 30
0.0
 40
1.25
  0
CIRCLE
  5
298
  8
DATA
  6
CONTINUOUS
 62
     7
 10
111.4499999999999
 20
78.400020000000012
 30
0.0
 40
1.2499899999999959
  0
ARC
  5
299
  8
DATA
  6
CONTINUOUS
 62
     7
 10
107.9499899999999
 20
78.400020000000012
 30
0.0
 40
1.2500106051550131
 50
216.9262762236601
 51
129.76671981750621
  0
CIRCLE
  5
29A
  8
DATA
  6
CONTINUOUS
 62
     7
 10
114.9499999999999
 20
78.400020000000012
 30
0.0
 40
1.2499899999999959
  0
CIRCLE
  5
29B
  8
DATA
  6
CONTINUOUS
 62
     7
 10
118.4499999999999
 20
78.400020000000012
 30
0.0
 40
1.2499899999999959
  0
CIRCLE
  5
29C
  8
DATA
  6
CONTINUOUS
 62
     7
 10
111.4499999999999
 20
74.900020000000012
 30
0.0
 40
1.249999999999992
  0
CIRCLE
  5
29D
  8
DATA
  6
CONTINUOUS
 62
     7
 10
107.9499899999999
 20
74.900020000000012
 30
0.0
 40
1.249999999999992
  0
CIRCLE
  5
29E
  8
DATA
  6
CONTINUOUS
 62
     7
 10
114.9499999999999
 20
74.900020000000012
 30
0.0
 40
1.249999999999992
  0
CIRCLE
  5
29F
  8
DATA
  6
CONTINUOUS
 62
     7
 10
118.4499999999999
 20
74.900020000000012
 30
0.0
 40
1.249999999999992
  0
CIRCLE
  5
2A0
  8
DATA
  6
CONTINUOUS
 62
     7
 10
111.4499999999999
 20
71.400020000000012
 30
0.0
 40
1.25
  0
CIRCLE
  5
2A1
  8
DATA
  6
CONTINUOUS
 62
     7
 10
107.9499899999999
 20
71.400020000000012
 30
0.0
 40
1.25
  0
CIRCLE
  5
2A2
  8
DATA
  6
CONTINUOUS
 62
     7
 10
114.9499999999999
 20
71.400020000000012
 30
0.0
 40
1.25
  0
CIRCLE
  5
2A3
  8
DATA
  6
CONTINUOUS
 62
     7
 10
118.4499999999999
 20
71.400020000000012
 30
0.0
 40
1.25
  0
CIRCLE
  5
2A4
  8
DATA
  6
CONTINUOUS
 62
     7
 10
111.4499999999999
 20
67.900020000000012
 30
0.0
 40
1.25
  0
CIRCLE
  5
2A5
  8
DATA
  6
CONTINUOUS
 62
     7
 10
107.9499899999999
 20
67.900020000000012
 30
0.0
 40
1.25
  0
CIRCLE
  5
2A6
  8
DATA
  6
CONTINUOUS
 62
     7
 10
114.9499999999999
 20
67.900020000000012
 30
0.0
 40
1.25
  0
CIRCLE
  5
2A7
  8
DATA
  6
CONTINUOUS
 62
     7
 10
118.4499999999999
 20
67.900020000000012
 30
0.0
 40
1.25
  0
CIRCLE
  5
2A8
  8
DATA
  6
CONTINUOUS
 62
     7
 10
111.4499999999999
 20
64.400020000000012
 30
0.0
 40
1.25
  0
CIRCLE
  5
2A9
  8
DATA
  6
CONTINUOUS
 62
     7
 10
107.9499899999999
 20
64.400020000000012
 30
0.0
 40
1.25
  0
CIRCLE
  5
2AA
  8
DATA
  6
CONTINUOUS
 62
     7
 10
114.9499999999999
 20
64.400020000000012
 30
0.0
 40
1.25
  0
CIRCLE
  5
2AB
  8
DATA
  6
CONTINUOUS
 62
     7
 10
118.4499999999999
 20
64.400020000000012
 30
0.0
 40
1.25
  0
CIRCLE
  5
2AC
  8
DATA
  6
CONTINUOUS
 62
     7
 10
111.4499999999999
 20
60.900020000000012
 30
0.0
 40
1.25
  0
CIRCLE
  5
2AD
  8
DATA
  6
CONTINUOUS
 62
     7
 10
107.9499899999999
 20
60.900020000000012
 30
0.0
 40
1.25
  0
CIRCLE
  5
2AE
  8
DATA
  6
CONTINUOUS
 62
     7
 10
114.9499999999999
 20
60.900020000000012
 30
0.0
 40
1.25
  0
CIRCLE
  5
2AF
  8
DATA
  6
CONTINUOUS
 62
     7
 10
118.4499999999999
 20
60.900020000000012
 30
0.0
 40
1.25
  0
CIRCLE
  5
2B0
  8
DATA
  6
CONTINUOUS
 62
     7
 10
111.4499999999999
 20
57.400020000000012
 30
0.0
 40
1.25
  0
CIRCLE
  5
2B1
  8
DATA
  6
CONTINUOUS
 62
     7
 10
107.9499899999999
 20
57.400020000000012
 30
0.0
 40
1.25
  0
CIRCLE
  5
2B2
  8
DATA
  6
CONTINUOUS
 62
     7
 10
114.9499999999999
 20
57.400020000000012
 30
0.0
 40
1.25
  0
CIRCLE
  5
2B3
  8
DATA
  6
CONTINUOUS
 62
     7
 10
118.4499999999999
 20
57.400020000000012
 30
0.0
 40
1.25
  0
CIRCLE
  5
2B4
  8
DATA
  6
CONTINUOUS
 62
     7
 10
111.4499999999999
 20
53.899999999999999
 30
0.0
 40
1.25
  0
CIRCLE
  5
2B5
  8
DATA
  6
CONTINUOUS
 62
     7
 10
107.9499899999999
 20
53.899999999999999
 30
0.0
 40
1.25
  0
CIRCLE
  5
2B6
  8
DATA
  6
CONTINUOUS
 62
     7
 10
114.9499999999999
 20
53.899999999999999
 30
0.0
 40
1.25
  0
CIRCLE
  5
2B7
  8
DATA
  6
CONTINUOUS
 62
     7
 10
118.4499999999999
 20
53.899999999999999
 30
0.0
 40
1.25
  0
CIRCLE
  5
2B8
  8
DATA
  6
CONTINUOUS
 62
     7
 10
111.4499999999999
 20
50.399999999999999
 30
0.0
 40
1.25
  0
CIRCLE
  5
2B9
  8
DATA
  6
CONTINUOUS
 62
     7
 10
107.9499899999999
 20
50.399999999999999
 30
0.0
 40
1.25
  0
CIRCLE
  5
2BA
  8
DATA
  6
CONTINUOUS
 62
     7
 10
114.9499999999999
 20
50.399999999999999
 30
0.0
 40
1.25
  0
CIRCLE
  5
2BB
  8
DATA
  6
CONTINUOUS
 62
     7
 10
118.4499999999999
 20
50.399999999999999
 30
0.0
 40
1.25
  0
CIRCLE
  5
2BC
  8
DATA
  6
CONTINUOUS
 62
     7
 10
111.4499999999999
 20
46.899999999999999
 30
0.0
 40
1.25
  0
CIRCLE
  5
2BD
  8
DATA
  6
CONTINUOUS
 62
     7
 10
107.9499899999999
 20
46.899999999999999
 30
0.0
 40
1.25
  0
CIRCLE
  5
2BE
  8
DATA
  6
CONTINUOUS
 62
     7
 10
114.9499999999999
 20
46.899999999999999
 30
0.0
 40
1.25
  0
CIRCLE
  5
2BF
  8
DATA
  6
CONTINUOUS
 62
     7
 10
118.4499999999999
 20
46.899999999999999
 30
0.0
 40
1.25
  0
CIRCLE
  5
2C0
  8
DATA
  6
CONTINUOUS
 62
     7
 10
111.4499999999999
 20
43.399999999999999
 30
0.0
 40
1.25
  0
CIRCLE
  5
2C1
  8
DATA
  6
CONTINUOUS
 62
     7
 10
107.9499899999999
 20
43.399999999999999
 30
0.0
 40
1.25
  0
CIRCLE
  5
2C2
  8
DATA
  6
CONTINUOUS
 62
     7
 10
114.9499999999999
 20
43.399999999999999
 30
0.0
 40
1.25
  0
CIRCLE
  5
2C3
  8
DATA
  6
CONTINUOUS
 62
     7
 10
118.4499999999999
 20
43.399999999999999
 30
0.0
 40
1.25
  0
CIRCLE
  5
2C4
  8
DATA
  6
CONTINUOUS
 62
     7
 10
111.4499999999999
 20
39.899999999999999
 30
0.0
 40
1.25
  0
CIRCLE
  5
2C5
  8
DATA
  6
CONTINUOUS
 62
     7
 10
114.9499999999999
 20
39.899999999999999
 30
0.0
 40
1.25
  0
CIRCLE
  5
2C6
  8
DATA
  6
CONTINUOUS
 62
     7
 10
118.4499999999999
 20
39.899999999999999
 30
0.0
 40
1.25
  0
CIRCLE
  5
2C7
  8
DATA
  6
CONTINUOUS
 62
     7
 10
111.4499999999999
 20
36.399999999999999
 30
0.0
 40
1.25
  0
CIRCLE
  5
2C8
  8
DATA
  6
CONTINUOUS
 62
     7
 10
114.9499999999999
 20
36.399999999999999
 30
0.0
 40
1.25
  0
CIRCLE
  5
2C9
  8
DATA
  6
CONTINUOUS
 62
     7
 10
118.4499999999999
 20
36.399999999999999
 30
0.0
 40
1.25
  0
CIRCLE
  5
2CA
  8
DATA
  6
CONTINUOUS
 62
     7
 10
111.4499999999999
 20
32.899999999999999
 30
0.0
 40
1.25
  0
CIRCLE
  5
2CB
  8
DATA
  6
CONTINUOUS
 62
     7
 10
114.9499999999999
 20
32.899999999999999
 30
0.0
 40
1.25
  0
CIRCLE
  5
2CC
  8
DATA
  6
CONTINUOUS
 62
     7
 10
118.4499999999999
 20
32.899999999999999
 30
0.0
 40
1.25
  0
CIRCLE
  5
2CD
  8
DATA
  6
CONTINUOUS
 62
     7
 10
114.9499999999999
 20
29.399999999999999
 30
0.0
 40
1.25
  0
CIRCLE
  5
2CE
  8
DATA
  6
CONTINUOUS
 62
     7
 10
118.4499999999999
 20
29.399999999999999
 30
0.0
 40
1.25
  0
CIRCLE
  5
2CF
  8
DATA
  6
CONTINUOUS
 62
     7
 10
114.9499999999999
 20
25.899999999999999
 30
0.0
 40
1.25
  0
CIRCLE
  5
2D0
  8
DATA
  6
CONTINUOUS
 62
     7
 10
118.4499999999999
 20
25.899999999999999
 30
0.0
 40
1.25
  0
CIRCLE
  5
2D1
  8
DATA
  6
CONTINUOUS
 62
     7
 10
114.9499999999999
 20
22.399999999999999
 30
0.0
 40
1.25
  0
CIRCLE
  5
2D2
  8
DATA
  6
CONTINUOUS
 62
     7
 10
118.4499999999999
 20
22.399999999999999
 30
0.0
 40
1.25
  0
CIRCLE
  5
2D3
  8
DATA
  6
CONTINUOUS
 62
     7
 10
118.4499999999999
 20
18.899999999999999
 30
0.0
 40
1.25
  0
ARC
  5
2D4
  8
DATA
  6
CONTINUOUS
 62
     7
 10
3.1250099999999881
 20
170.62497999999991
 30
0.0
 40
4.4194173824159222
 50
225.0
 51
315.0
  0
ARC
  5
2D5
  8
DATA
  6
CONTINUOUS
 62
     7
 10
-3.124990000000011
 20
164.37497999999991
 30
0.0
 40
4.4194173824159222
 50
45.0
 51
135.0000916733938
  0
LINE
  5
2D6
  8
DATA
  6
CONTINUOUS
 62
     7
 10
30.37887471908347
 20
-43.059630803822927
 30
0.0
 11
30.804129999999979
 21
-44.675589999999957
 31
0.0
  0
ARC
  5
2D7
  8
DATA
  6
CONTINUOUS
 62
     7
 10
-29.837030000000009
 20
-44.930109999999978
 30
0.0
 40
0.9999901918019057
 50
165.2552998038
 51
263.97731832968623
  0
ARC
  5
2D8
  8
DATA
  6
CONTINUOUS
 62
     7
 10
29.83706999999999
 20
-44.930109999999978
 30
0.0
 40
0.9999893935937581
 50
276.02262155370857
 51
14.74470019620008
  0
ARC
  5
2D9
  8
DATA
  6
CONTINUOUS
 62
     7
 10
115.5999799999999
 20
17.169609999999999
 30
0.0
 40
4.9999976971694711
 50
301.70138665730832
 51
0.0
  0
CIRCLE
  5
2DA
  8
DATA
  6
CONTINUOUS
 62
     7
 10
118.4499999999999
 20
15.4
 30
0.0
 40
1.25
  0
ARC
  5
2DB
  8
DATA
  6
CONTINUOUS
 62
     7
 10
115.5999799999999
 20
87.665570000000002
 30
0.0
 40
5.0
 50
0.0
 51
66.501484583671981
  0
LINE
  5
2DC
  8
DATA
  6
CONTINUOUS
 62
     7
 10
-1.44998000000001
 20
168.4646799999999
 30
0.0
 11
-1.44998000000001
 21
204.94999000000001
 31
0.0
  0
LINE
  5
2DD
  8
DATA
  6
CONTINUOUS
 62
     7
 10
-1.44998000000001
 20
204.94999000000001
 30
0.0
 11
1.5500199999999891
 21
204.94999000000001
 31
0.0
  0
LINE
  5
2DE
  8
DATA
  6
CONTINUOUS
 62
     7
 10
-1.02139000000001
 20
204.94999000000001
 30
0.0
 11
-1.02139000000001
 21
212.25
 31
0.0
  0
LINE
  5
2DF
  8
DATA
  6
CONTINUOUS
 62
     7
 10
-0.5928400000000096
 20
204.94999000000001
 30
0.0
 11
-0.5928400000000096
 21
212.25
 31
0.0
  0
LINE
  5
2E0
  8
DATA
  6
CONTINUOUS
 62
     7
 10
-0.1642500000000098
 20
204.94999000000001
 30
0.0
 11
-0.1642500000000098
 21
212.25
 31
0.0
  0
LINE
  5
2E1
  8
DATA
  6
CONTINUOUS
 62
     7
 10
0.2642999999999915
 20
204.94999000000001
 30
0.0
 11
0.2642999999999915
 21
212.25
 31
0.0
  0
LINE
  5
2E2
  8
DATA
  6
CONTINUOUS
 62
     7
 10
0.6928799999999882
 20
204.94999000000001
 30
0.0
 11
0.6928799999999882
 21
212.25
 31
0.0
  0
LINE
  5
2E3
  8
DATA
  6
CONTINUOUS
 62
     7
 10
1.121439999999992
 20
204.94999000000001
 30
0.0
 11
1.121439999999992
 21
212.25
 31
0.0
  0
LINE
  5
2E4
  8
DATA
  6
CONTINUOUS
 62
     7
 10
1.5500199999999891
 20
204.94999000000001
 30
0.0
 11
1.5500199999999891
 21
166.49574000000001
 31
0.0
  0
LINE
  5
2E5
  8
DATA
  6
CONTINUOUS
 62
     7
 10
118.2099799999999
 20
168.4646799999999
 30
0.0
 11
118.2099799999999
 21
204.94999000000001
 31
0.0
  0
LINE
  5
2E6
  8
DATA
  6
CONTINUOUS
 62
     7
 10
118.2099799999999
 20
204.94999000000001
 30
0.0
 11
121.20998999999991
 21
204.94999000000001
 31
0.0
  0
LINE
  5
2E7
  8
DATA
  6
CONTINUOUS
 62
     7
 10
118.6385599999999
 20
204.94999000000001
 30
0.0
 11
118.6385599999999
 21
212.25
 31
0.0
  0
LINE
  5
2E8
  8
DATA
  6
CONTINUOUS
 62
     7
 10
119.06712999999991
 20
204.94999000000001
 30
0.0
 11
119.06712999999991
 21
212.25
 31
0.0
  0
LINE
  5
2E9
  8
DATA
  6
CONTINUOUS
 62
     7
 10
119.4957099999999
 20
204.94999000000001
 30
0.0
 11
119.4957099999999
 21
212.25
 31
0.0
  0
LINE
  5
2EA
  8
DATA
  6
CONTINUOUS
 62
     7
 10
119.9242899999999
 20
204.94999000000001
 30
0.0
 11
119.9242899999999
 21
212.25
 31
0.0
  0
LINE
  5
2EB
  8
DATA
  6
CONTINUOUS
 62
     7
 10
120.35286000000001
 20
204.94999000000001
 30
0.0
 11
120.35286000000001
 21
212.25
 31
0.0
  0
LINE
  5
2EC
  8
DATA
  6
CONTINUOUS
 62
     7
 10
120.78140999999989
 20
204.94999000000001
 30
0.0
 11
120.78140999999989
 21
212.25
 31
0.0
  0
ARC
  5
2ED
  8
DATA
  6
CONTINUOUS
 62
     7
 10
122.7849799999999
 20
165.62497999999991
 30
0.0
 40
4.4194173824159222
 50
225.0
 51
315.0
  0
ARC
  5
2EE
  8
DATA
  6
CONTINUOUS
 62
     7
 10
116.5349999999999
 20
159.375
 30
0.0
 40
4.41938909814467
 50
45.0
 51
135.0004583684362
  0
LINE
  5
2EF
  8
DATA
  6
CONTINUOUS
 62
     7
 10
121.20998999999991
 20
204.94999000000001
 30
0.0
 11
121.20998999999991
 21
166.49574000000001
 31
0.0
  0
ARC
  5
2F0
  8
DATA
  6
CONTINUOUS
 62
     7
 10
122.7849799999999
 20
170.62497999999991
 30
0.0
 40
4.4194173824159222
 50
225.0
 51
315.0
  0
ARC
  5
2F1
  8
DATA
  6
CONTINUOUS
 62
     7
 10
116.5349999999999
 20
164.37497999999991
 30
0.0
 40
4.4194032403029233
 50
45.000183347081169
 51
135.0001833464944
  0
LINE
  5
2F2
  8
DATA
  6
CONTINUOUS
 62
     7
 10
-7.8932900000000066
 20
48.600000000000009
 30
0.0
 11
7.8933199999999877
 21
48.600000000000009
 31
0.0
  0
ARC
  5
2F3
  8
DATA
  6
CONTINUOUS
 62
     7
 10
-7.8932900000000066
 20
43.599980000000002
 30
0.0
 40
5.0000200000000063
 50
90.0
 51
136.11477573433791
  0
ARC
  5
2F4
  8
DATA
  6
CONTINUOUS
 62
     7
 10
7.8933199999999877
 20
43.600000000000009
 30
0.0
 40
4.9999865245918409
 50
43.885055933218283
 51
90.0
  0
ARC
  5
2F5
  8
DATA
  6
CONTINUOUS
 62
     7
 10
0.000009999999989
 20
97.165809999999993
 30
0.0
 40
96.417609889749897
 50
253.47646266425679
 51
286.52352426083422
  0
ARC
  5
2F6
  8
DATA
  6
CONTINUOUS
 62
     7
 10
0.000009999999989
 20
-29.49999
 30
0.0
 40
1.4999992001664519
 50
18.508993219862329
 51
161.49052330561489
  0
ARC
  5
2F7
  8
DATA
  6
CONTINUOUS
 62
     7
 10
-2.617456300895852
 20
-30.767814232999228
 30
0.0
 40
0.3885007539240812
 50
112.309733709895
 51
169.9450677079441
  0
ARC
  5
2F8
  8
DATA
  6
CONTINUOUS
 62
     7
 10
-1.821009312881344
 20
-32.429862991784709
 30
0.0
 40
2.230993658649274
 50
88.175792914975347
 51
115.030278397191
  0
ARC
  5
2F9
  8
DATA
  6
CONTINUOUS
 62
     7
 10
-2.617456300895852
 20
-30.632155767000711
 30
0.0
 40
0.3885007539240797
 50
190.05493229205581
 51
247.69026629010489
  0
ARC
  5
2FA
  8
DATA
  6
CONTINUOUS
 62
     7
 10
-1.821009312881344
 20
-28.970107008215219
 30
0.0
 40
2.2309936586492811
 50
244.9697216028089
 51
271.82420708502468
  0
ARC
  5
2FB
  8
DATA
  6
CONTINUOUS
 62
     7
 10
-0.8825236991041691
 20
-30.767814232999228
 30
0.0
 40
0.3885007539240797
 50
10.05493229205589
 51
67.690266290104915
  0
ARC
  5
2FC
  8
DATA
  6
CONTINUOUS
 62
     7
 10
-1.678970687118678
 20
-32.429862991784709
 30
0.0
 40
2.2309936586492811
 50
64.969721602808974
 51
91.824207085024653
  0
ARC
  5
2FD
  8
DATA
  6
CONTINUOUS
 62
     7
 10
-0.8825236991041691
 20
-30.632155767000711
 30
0.0
 40
0.3885007539240812
 50
292.30973370989511
 51
349.94506770794408
  0
ARC
  5
2FE
  8
DATA
  6
CONTINUOUS
 62
     7
 10
-1.678970687118678
 20
-28.970107008215219
 30
0.0
 40
2.230993658649274
 50
268.17579291497532
 51
295.03027839719101
  0
ARC
  5
2FF
  8
DATA
  6
CONTINUOUS
 62
     7
 10
-2.617456300895852
 20
-32.267814232999228
 30
0.0
 40
0.3885007539240812
 50
112.309733709895
 51
169.9450677079441
  0
ARC
  5
300
  8
DATA
  6
CONTINUOUS
 62
     7
 10
-1.821009312881344
 20
-33.929862991784709
 30
0.0
 40
2.230993658649274
 50
88.175792914975347
 51
115.030278397191
  0
ARC
  5
301
  8
DATA
  6
CONTINUOUS
 62
     7
 10
-2.617456300895852
 20
-32.132155767000711
 30
0.0
 40
0.3885007539240797
 50
190.05493229205581
 51
247.69026629010489
  0
ARC
  5
302
  8
DATA
  6
CONTINUOUS
 62
     7
 10
-1.821009312881344
 20
-30.470107008215219
 30
0.0
 40
2.2309936586492811
 50
244.9697216028089
 51
271.82420708502468
  0
ARC
  5
303
  8
DATA
  6
CONTINUOUS
 62
     7
 10
-0.8825236991041691
 20
-32.267814232999228
 30
0.0
 40
0.3885007539240797
 50
10.05493229205589
 51
67.690266290104915
  0
ARC
  5
304
  8
DATA
  6
CONTINUOUS
 62
     7
 10
-1.678970687118678
 20
-33.929862991784709
 30
0.0
 40
2.2309936586492811
 50
64.969721602808974
 51
91.824207085024653
  0
ARC
  5
305
  8
DATA
  6
CONTINUOUS
 62
     7
 10
-0.8825236991041691
 20
-32.132155767000711
 30
0.0
 40
0.3885007539240812
 50
292.30973370989511
 51
349.94506770794408
  0
ARC
  5
306
  8
DATA
  6
CONTINUOUS
 62
     7
 10
-1.678970687118678
 20
-30.470107008215219
 30
0.0
 40
2.230993658649274
 50
268.17579291497532
 51
295.03027839719101
  0
ARC
  5
307
  8
DATA
  6
CONTINUOUS
 62
     7
 10
0.882543699104147
 20
-30.767814232999228
 30
0.0
 40
0.3885007539240812
 50
112.309733709895
 51
169.9450677079441
  0
ARC
  5
308
  8
DATA
  6
CONTINUOUS
 62
     7
 10
1.6789906871186551
 20
-32.429862991784709
 30
0.0
 40
2.230993658649274
 50
88.175792914975347
 51
115.030278397191
  0
ARC
  5
309
  8
DATA
  6
CONTINUOUS
 62
     7
 10
0.882543699104147
 20
-30.632155767000711
 30
0.0
 40
0.3885007539240797
 50
190.05493229205581
 51
247.69026629010489
  0
ARC
  5
30A
  8
DATA
  6
CONTINUOUS
 62
     7
 10
1.6789906871186551
 20
-28.970107008215219
 30
0.0
 40
2.2309936586492811
 50
244.9697216028089
 51
271.82420708502468
  0
ARC
  5
30B
  8
DATA
  6
CONTINUOUS
 62
     7
 10
2.6174763008958299
 20
-30.767814232999228
 30
0.0
 40
0.3885007539240797
 50
10.05493229205589
 51
67.690266290104915
  0
ARC
  5
30C
  8
DATA
  6
CONTINUOUS
 62
     7
 10
1.8210293128813211
 20
-32.429862991784709
 30
0.0
 40
2.2309936586492811
 50
64.969721602808974
 51
91.824207085024653
  0
ARC
  5
30D
  8
DATA
  6
CONTINUOUS
 62
     7
 10
2.6174763008958299
 20
-30.632155767000711
 30
0.0
 40
0.3885007539240812
 50
292.30973370989511
 51
349.94506770794408
  0
ARC
  5
30E
  8
DATA
  6
CONTINUOUS
 62
     7
 10
1.8210293128813211
 20
-28.970107008215219
 30
0.0
 40
2.230993658649274
 50
268.17579291497532
 51
295.03027839719101
  0
LINE
  5
30F
  8
DATA
  6
CONTINUOUS
 62
     7
 10
30.999999999999979
 20
9.5234691027236522
 30
0.0
 11
30.999999999999979
 21
16.843994146287649
 31
0.0
  0
LINE
  5
310
  8
DATA
  6
CONTINUOUS
 62
     7
 10
-31.000000000000011
 20
9.5234750359291525
 30
0.0
 11
-31.000000000000011
 21
16.844002036710371
 31
0.0
  0
ARC
  5
311
  8
DATA
  6
CONTINUOUS
 62
     7
 10
70.482658482432299
 20
-28.823843675736669
 30
0.0
 40
111.713635814688
 50
137.20904512903971
 51
155.28761474415191
  0
ARC
  5
312
  8
DATA
  6
CONTINUOUS
 62
     7
 10
-26.000000000000011
 20
9.5234750359291525
 30
0.0
 40
5.0
 50
180.0
 51
253.47646266425679
  0
ARC
  5
313
  8
DATA
  6
CONTINUOUS
 62
     7
 10
25.999999999999979
 20
9.5234691027236522
 30
0.0
 40
5.0000000000000009
 50
286.52352426083428
 51
0.0
  0
ARC
  5
314
  8
DATA
  6
CONTINUOUS
 62
     7
 10
-70.482658482432313
 20
-28.823843675736669
 30
0.0
 40
111.713635814688
 50
24.712385255848091
 51
42.790954870960242
  0
LINE
  5
315
  8
DATA
  6
CONTINUOUS
 62
     7
 10
-30.999999999999979
 20
-42.99998999999999
 30
0.0
 11
-38.100009999999983
 21
-49.499989999999997
 31
0.0
  0
LINE
  5
316
  8
DATA
  6
CONTINUOUS
 62
     7
 10
32.100009999999983
 20
-46.499989999999997
 30
0.0
 11
35.923092307692279
 21
-49.99998999999999
 31
0.0
  0
LINE
  5
317
  8
DATA
  6
CONTINUOUS
 62
     7
 10
-32.100009999999983
 20
-46.499989999999997
 30
0.0
 11
-35.923092307692301
 21
-49.99998999999999
 31
0.0
  0
ARC
  5
318
  8
DATA
  6
CONTINUOUS
 62
     7
 10
-0.0000000000000142
 20
296.22022399999992
 30
0.0
 40
344.22021400000011
 50
264.64914835245111
 51
275.35085164754878
  0
ARC
  5
319
  8
DATA
  6
CONTINUOUS
 62
     7
 10
-0.0000000000000142
 20
276.58334333329998
 30
0.0
 40
321.08333333330017
 50
264.45956840559899
 51
275.5404315944009
  0
ARC
  5
31A
  8
DATA
  6
CONTINUOUS
 62
     7
 10
0.000009999999989
 20
238.32349999999991
 30
0.0
 40
285.32349301949608
 50
267.471876085698
 51
272.52811969213911
  0
ARC
  5
31B
  8
DATA
  6
CONTINUOUS
 62
     7
 10
-0.0000000000000142
 20
276.08334333329998
 30
0.0
 40
321.08333333330017
 50
267.76035872400053
 51
272.23964127599743
  0
LINE
  5
31C
  8
DATA
  6
CONTINUOUS
 62
     7
 10
-13.25466675928493
 20
-46.022966252156969
 30
0.0
 11
-13.25466675928493
 21
-45.709122103232232
 31
0.0
  0
LINE
  5
31D
  8
DATA
  6
CONTINUOUS
 62
     7
 10
-13.25466675928493
 20
-45.709122103232232
 30
0.0
 11
-12.54766716979065
 21
-44.754720170735197
 31
0.0
  0
LINE
  5
31E
  8
DATA
  6
CONTINUOUS
 62
     7
 10
13.25466675928493
 20
-46.022967177318407
 30
0.0
 11
13.25466675928493
 21
-45.709122103232232
 31
0.0
  0
LINE
  5
31F
  8
DATA
  6
CONTINUOUS
 62
     7
 10
13.25466675928493
 20
-45.709122103232232
 30
0.0
 11
12.54766716979065
 21
-44.754720170735197
 31
0.0
  0
ARC
  5
320
  8
DATA
  6
CONTINUOUS
 62
     7
 10
12.55466680329166
 20
-46.022967177318407
 30
0.0
 40
0.6999999559932884
 50
272.52803811030981
 51
0.0
  0
ARC
  5
321
  8
DATA
  6
CONTINUOUS
 62
     7
 10
-12.55466675928492
 20
-46.022966252156969
 30
0.0
 40
0.700000000000003
 50
180.0
 51
267.47187608569789
  0
ARC
  5
322
  8
DATA
  6
CONTINUOUS
 62
     7
 10
0.000009999999989
 20
-67.99998999998337
 30
0.0
 40
38.999999999984652
 50
67.380135051950177
 51
112.61986494804979
  0
ARC
  5
323
  8
DATA
  6
CONTINUOUS
 62
     7
 10
15.194467890948809
 20
-93.055607109073549
 30
0.0
 40
68.113828756707505
 50
116.3142468392241
 51
132.702765700924
  0
ARC
  5
324
  8
DATA
  6
CONTINUOUS
 62
     7
 10
-15.19444789094883
 20
-93.055607109073549
 30
0.0
 40
68.113828756707505
 50
47.297234299076003
 51
63.685753160775818
  0
ARC
  5
325
  8
DATA
  6
CONTINUOUS
 62
     7
 10
0.882543699104147
 20
-32.267814232999228
 30
0.0
 40
0.3885007539240812
 50
112.309733709895
 51
169.9450677079441
  0
ARC
  5
326
  8
DATA
  6
CONTINUOUS
 62
     7
 10
1.6789906871186551
 20
-33.929862991784709
 30
0.0
 40
2.230993658649274
 50
88.175792914975347
 51
115.030278397191
  0
ARC
  5
327
  8
DATA
  6
CONTINUOUS
 62
     7
 10
0.882543699104147
 20
-32.132155767000711
 30
0.0
 40
0.3885007539240797
 50
190.05493229205581
 51
247.69026629010489
  0
ARC
  5
328
  8
DATA
  6
CONTINUOUS
 62
     7
 10
1.6789906871186551
 20
-30.470107008215219
 30
0.0
 40
2.2309936586492811
 50
244.9697216028089
 51
271.82420708502468
  0
ARC
  5
329
  8
DATA
  6
CONTINUOUS
 62
     7
 10
2.6174763008958299
 20
-32.267814232999228
 30
0.0
 40
0.3885007539240797
 50
10.05493229205589
 51
67.690266290104915
  0
ARC
  5
32A
  8
DATA
  6
CONTINUOUS
 62
     7
 10
1.8210293128813211
 20
-33.929862991784709
 30
0.0
 40
2.2309936586492811
 50
64.969721602808974
 51
91.824207085024653
  0
ARC
  5
32B
  8
DATA
  6
CONTINUOUS
 62
     7
 10
2.6174763008958299
 20
-32.132155767000711
 30
0.0
 40
0.3885007539240812
 50
292.30973370989511
 51
349.94506770794408
  0
ARC
  5
32C
  8
DATA
  6
CONTINUOUS
 62
     7
 10
1.8210293128813211
 20
-30.470107008215219
 30
0.0
 40
2.230993658649274
 50
268.17579291497532
 51
295.03027839719101
  0
ARC
  5
32D
  8
DATA
  6
CONTINUOUS
 62
     7
 10
-2.617456300895852
 20
-33.767814232999221
 30
0.0
 40
0.3885007539240812
 50
112.309733709895
 51
169.9450677079441
  0
ARC
  5
32E
  8
DATA
  6
CONTINUOUS
 62
     7
 10
-1.821009312881344
 20
-35.429862991784709
 30
0.0
 40
2.230993658649274
 50
88.175792914975347
 51
115.030278397191
  0
ARC
  5
32F
  8
DATA
  6
CONTINUOUS
 62
     7
 10
-2.617456300895852
 20
-33.632155767000711
 30
0.0
 40
0.3885007539240797
 50
190.05493229205581
 51
247.69026629010489
  0
ARC
  5
330
  8
DATA
  6
CONTINUOUS
 62
     7
 10
-1.821009312881344
 20
-31.970107008215219
 30
0.0
 40
2.2309936586492811
 50
244.9697216028089
 51
271.82420708502468
  0
ARC
  5
331
  8
DATA
  6
CONTINUOUS
 62
     7
 10
-0.8825236991041691
 20
-33.767814232999221
 30
0.0
 40
0.3885007539240797
 50
10.05493229205589
 51
67.690266290104915
  0
ARC
  5
332
  8
DATA
  6
CONTINUOUS
 62
     7
 10
-1.678970687118678
 20
-35.429862991784709
 30
0.0
 40
2.2309936586492811
 50
64.969721602808974
 51
91.824207085024653
  0
ARC
  5
333
  8
DATA
  6
CONTINUOUS
 62
     7
 10
-0.8825236991041691
 20
-33.632155767000711
 30
0.0
 40
0.3885007539240812
 50
292.30973370989511
 51
349.94506770794408
  0
ARC
  5
334
  8
DATA
  6
CONTINUOUS
 62
     7
 10
-1.678970687118678
 20
-31.970107008215219
 30
0.0
 40
2.230993658649274
 50
268.17579291497532
 51
295.03027839719101
  0
ARC
  5
335
  8
DATA
  6
CONTINUOUS
 62
     7
 10
0.882543699104147
 20
-33.767814232999221
 30
0.0
 40
0.3885007539240812
 50
112.309733709895
 51
169.9450677079441
  0
ARC
  5
336
  8
DATA
  6
CONTINUOUS
 62
     7
 10
1.6789906871186551
 20
-35.429862991784709
 30
0.0
 40
2.230993658649274
 50
88.175792914975347
 51
115.030278397191
  0
ARC
  5
337
  8
DATA
  6
CONTINUOUS
 62
     7
 10
0.882543699104147
 20
-33.632155767000711
 30
0.0
 40
0.3885007539240797
 50
190.05493229205581
 51
247.69026629010489
  0
ARC
  5
338
  8
DATA
  6
CONTINUOUS
 62
     7
 10
1.6789906871186551
 20
-31.970107008215219
 30
0.0
 40
2.2309936586492811
 50
244.9697216028089
 51
271.82420708502468
  0
ARC
  5
339
  8
DATA
  6
CONTINUOUS
 62
     7
 10
2.6174763008958299
 20
-33.767814232999221
 30
0.0
 40
0.3885007539240797
 50
10.05493229205589
 51
67.690266290104915
  0
ARC
  5
33A
  8
DATA
  6
CONTINUOUS
 62
     7
 10
1.8210293128813211
 20
-35.429862991784709
 30
0.0
 40
2.2309936586492811
 50
64.969721602808974
 51
91.824207085024653
  0
ARC
  5
33B
  8
DATA
  6
CONTINUOUS
 62
     7
 10
2.6174763008958299
 20
-33.632155767000711
 30
0.0
 40
0.3885007539240812
 50
292.30973370989511
 51
349.94506770794408
  0
ARC
  5
33C
  8
DATA
  6
CONTINUOUS
 62
     7
 10
1.8210293128813211
 20
-31.970107008215219
 30
0.0
 40
2.230993658649274
 50
268.17579291497532
 51
295.03027839719101
  0
ARC
  5
33D
  8
DATA
  6
CONTINUOUS
 62
     7
 10
-2.617456300895852
 20
-35.267814232999221
 30
0.0
 40
0.3885007539240812
 50
112.309733709895
 51
169.9450677079441
  0
ARC
  5
33E
  8
DATA
  6
CONTINUOUS
 62
     7
 10
-1.821009312881344
 20
-36.929862991784709
 30
0.0
 40
2.230993658649274
 50
88.175792914975347
 51
115.030278397191
  0
ARC
  5
33F
  8
DATA
  6
CONTINUOUS
 62
     7
 10
-2.617456300895852
 20
-35.132155767000711
 30
0.0
 40
0.3885007539240797
 50
190.05493229205581
 51
247.69026629010489
  0
ARC
  5
340
  8
DATA
  6
CONTINUOUS
 62
     7
 10
-1.821009312881344
 20
-33.470107008215223
 30
0.0
 40
2.2309936586492811
 50
244.9697216028089
 51
271.82420708502468
  0
ARC
  5
341
  8
DATA
  6
CONTINUOUS
 62
     7
 10
-0.8825236991041691
 20
-35.267814232999221
 30
0.0
 40
0.3885007539240797
 50
10.05493229205589
 51
67.690266290104915
  0
ARC
  5
342
  8
DATA
  6
CONTINUOUS
 62
     7
 10
-1.678970687118678
 20
-36.929862991784709
 30
0.0
 40
2.2309936586492811
 50
64.969721602808974
 51
91.824207085024653
  0
ARC
  5
343
  8
DATA
  6
CONTINUOUS
 62
     7
 10
-0.8825236991041691
 20
-35.132155767000711
 30
0.0
 40
0.3885007539240812
 50
292.30973370989511
 51
349.94506770794408
  0
ARC
  5
344
  8
DATA
  6
CONTINUOUS
 62
     7
 10
-1.678970687118678
 20
-33.470107008215223
 30
0.0
 40
2.230993658649274
 50
268.17579291497532
 51
295.03027839719101
  0
ARC
  5
345
  8
DATA
  6
CONTINUOUS
 62
     7
 10
0.882543699104147
 20
-35.267814232999221
 30
0.0
 40
0.3885007539240812
 50
112.309733709895
 51
169.9450677079441
  0
ARC
  5
346
  8
DATA
  6
CONTINUOUS
 62
     7
 10
1.6789906871186551
 20
-36.929862991784709
 30
0.0
 40
2.230993658649274
 50
88.175792914975347
 51
115.030278397191
  0
ARC
  5
347
  8
DATA
  6
CONTINUOUS
 62
     7
 10
0.882543699104147
 20
-35.132155767000711
 30
0.0
 40
0.3885007539240797
 50
190.05493229205581
 51
247.69026629010489
  0
ARC
  5
348
  8
DATA
  6
CONTINUOUS
 62
     7
 10
1.6789906871186551
 20
-33.470107008215223
 30
0.0
 40
2.2309936586492811
 50
244.9697216028089
 51
271.82420708502468
  0
ARC
  5
349
  8
DATA
  6
CONTINUOUS
 62
     7
 10
2.6174763008958299
 20
-35.267814232999221
 30
0.0
 40
0.3885007539240797
 50
10.05493229205589
 51
67.690266290104915
  0
ARC
  5
34A
  8
DATA
  6
CONTINUOUS
 62
     7
 10
1.8210293128813211
 20
-36.929862991784709
 30
0.0
 40
2.2309936586492811
 50
64.969721602808974
 51
91.824207085024653
  0
ARC
  5
34B
  8
DATA
  6
CONTINUOUS
 62
     7
 10
2.6174763008958299
 20
-35.132155767000711
 30
0.0
 40
0.3885007539240812
 50
292.30973370989511
 51
349.94506770794408
  0
ARC
  5
34C
  8
DATA
  6
CONTINUOUS
 62
     7
 10
1.8210293128813211
 20
-33.470107008215223
 30
0.0
 40
2.230993658649274
 50
268.17579291497532
 51
295.03027839719101
  0
ARC
  5
34D
  8
DATA
  6
CONTINUOUS
 62
     7
 10
-2.617456300895852
 20
-36.767814232999228
 30
0.0
 40
0.3885007539240812
 50
112.309733709895
 51
169.9450677079441
  0
ARC
  5
34E
  8
DATA
  6
CONTINUOUS
 62
     7
 10
-1.821009312881344
 20
-38.429862991784717
 30
0.0
 40
2.230993658649274
 50
88.175792914975347
 51
115.030278397191
  0
ARC
  5
34F
  8
DATA
  6
CONTINUOUS
 62
     7
 10
-2.617456300895852
 20
-36.632155767000711
 30
0.0
 40
0.3885007539240797
 50
190.05493229205581
 51
247.69026629010489
  0
ARC
  5
350
  8
DATA
  6
CONTINUOUS
 62
     7
 10
-1.821009312881344
 20
-34.970107008215223
 30
0.0
 40
2.2309936586492811
 50
244.9697216028089
 51
271.82420708502468
  0
ARC
  5
351
  8
DATA
  6
CONTINUOUS
 62
     7
 10
-0.8825236991041691
 20
-36.767814232999228
 30
0.0
 40
0.3885007539240797
 50
10.05493229205589
 51
67.690266290104915
  0
ARC
  5
352
  8
DATA
  6
CONTINUOUS
 62
     7
 10
-1.678970687118678
 20
-38.429862991784717
 30
0.0
 40
2.2309936586492811
 50
64.969721602808974
 51
91.824207085024653
  0
ARC
  5
353
  8
DATA
  6
CONTINUOUS
 62
     7
 10
-0.8825236991041691
 20
-36.632155767000711
 30
0.0
 40
0.3885007539240812
 50
292.30973370989511
 51
349.94506770794408
  0
ARC
  5
354
  8
DATA
  6
CONTINUOUS
 62
     7
 10
-1.678970687118678
 20
-34.970107008215223
 30
0.0
 40
2.230993658649274
 50
268.17579291497532
 51
295.03027839719101
  0
ARC
  5
355
  8
DATA
  6
CONTINUOUS
 62
     7
 10
0.882543699104147
 20
-36.767814232999228
 30
0.0
 40
0.3885007539240812
 50
112.309733709895
 51
169.9450677079441
  0
ARC
  5
356
  8
DATA
  6
CONTINUOUS
 62
     7
 10
1.6789906871186551
 20
-38.429862991784717
 30
0.0
 40
2.230993658649274
 50
88.175792914975347
 51
115.030278397191
  0
ARC
  5
357
  8
DATA
  6
CONTINUOUS
 62
     7
 10
0.882543699104147
 20
-36.632155767000711
 30
0.0
 40
0.3885007539240797
 50
190.05493229205581
 51
247.69026629010489
  0
ARC
  5
358
  8
DATA
  6
CONTINUOUS
 62
     7
 10
1.6789906871186551
 20
-34.970107008215223
 30
0.0
 40
2.2309936586492811
 50
244.9697216028089
 51
271.82420708502468
  0
ARC
  5
359
  8
DATA
  6
CONTINUOUS
 62
     7
 10
2.6174763008958299
 20
-36.767814232999228
 30
0.0
 40
0.3885007539240797
 50
10.05493229205589
 51
67.690266290104915
  0
ARC
  5
35A
  8
DATA
  6
CONTINUOUS
 62
     7
 10
1.8210293128813211
 20
-38.429862991784717
 30
0.0
 40
2.2309936586492811
 50
64.969721602808974
 51
91.824207085024653
  0
ARC
  5
35B
  8
DATA
  6
CONTINUOUS
 62
     7
 10
2.6174763008958299
 20
-36.632155767000711
 30
0.0
 40
0.3885007539240812
 50
292.30973370989511
 51
349.94506770794408
  0
ARC
  5
35C
  8
DATA
  6
CONTINUOUS
 62
     7
 10
1.8210293128813211
 20
-34.970107008215223
 30
0.0
 40
2.230993658649274
 50
268.17579291497532
 51
295.03027839719101
  0
ARC
  5
35D
  8
DATA
  6
CONTINUOUS
 62
     7
 10
-2.617456300895852
 20
-38.267814232999228
 30
0.0
 40
0.3885007539240812
 50
112.309733709895
 51
169.9450677079441
  0
ARC
  5
35E
  8
DATA
  6
CONTINUOUS
 62
     7
 10
-1.821009312881344
 20
-39.929862991784717
 30
0.0
 40
2.230993658649274
 50
88.175792914975347
 51
115.030278397191
  0
ARC
  5
35F
  8
DATA
  6
CONTINUOUS
 62
     7
 10
-2.617456300895852
 20
-38.132155767000711
 30
0.0
 40
0.3885007539240797
 50
190.05493229205581
 51
247.69026629010489
  0
ARC
  5
360
  8
DATA
  6
CONTINUOUS
 62
     7
 10
-1.821009312881344
 20
-36.470107008215223
 30
0.0
 40
2.2309936586492811
 50
244.9697216028089
 51
271.82420708502468
  0
ARC
  5
361
  8
DATA
  6
CONTINUOUS
 62
     7
 10
-0.8825236991041691
 20
-38.267814232999228
 30
0.0
 40
0.3885007539240797
 50
10.05493229205589
 51
67.690266290104915
  0
ARC
  5
362
  8
DATA
  6
CONTINUOUS
 62
     7
 10
-1.678970687118678
 20
-39.929862991784717
 30
0.0
 40
2.2309936586492811
 50
64.969721602808974
 51
91.824207085024653
  0
ARC
  5
363
  8
DATA
  6
CONTINUOUS
 62
     7
 10
-0.8825236991041691
 20
-38.132155767000711
 30
0.0
 40
0.3885007539240812
 50
292.30973370989511
 51
349.94506770794408
  0
ARC
  5
364
  8
DATA
  6
CONTINUOUS
 62
     7
 10
-1.678970687118678
 20
-36.470107008215223
 30
0.0
 40
2.230993658649274
 50
268.17579291497532
 51
295.03027839719101
  0
ARC
  5
365
  8
DATA
  6
CONTINUOUS
 62
     7
 10
0.882543699104147
 20
-38.267814232999228
 30
0.0
 40
0.3885007539240812
 50
112.309733709895
 51
169.9450677079441
  0
ARC
  5
366
  8
DATA
  6
CONTINUOUS
 62
     7
 10
1.6789906871186551
 20
-39.929862991784717
 30
0.0
 40
2.230993658649274
 50
88.175792914975347
 51
115.030278397191
  0
ARC
  5
367
  8
DATA
  6
CONTINUOUS
 62
     7
 10
0.882543699104147
 20
-38.132155767000711
 30
0.0
 40
0.3885007539240797
 50
190.05493229205581
 51
247.69026629010489
  0
ARC
  5
368
  8
DATA
  6
CONTINUOUS
 62
     7
 10
1.6789906871186551
 20
-36.470107008215223
 30
0.0
 40
2.2309936586492811
 50
244.9697216028089
 51
271.82420708502468
  0
ARC
  5
369
  8
DATA
  6
CONTINUOUS
 62
     7
 10
2.6174763008958299
 20
-38.267814232999228
 30
0.0
 40
0.3885007539240797
 50
10.05493229205589
 51
67.690266290104915
  0
ARC
  5
36A
  8
DATA
  6
CONTINUOUS
 62
     7
 10
1.8210293128813211
 20
-39.929862991784717
 30
0.0
 40
2.2309936586492811
 50
64.969721602808974
 51
91.824207085024653
  0
ARC
  5
36B
  8
DATA
  6
CONTINUOUS
 62
     7
 10
2.6174763008958299
 20
-38.132155767000711
 30
0.0
 40
0.3885007539240812
 50
292.30973370989511
 51
349.94506770794408
  0
ARC
  5
36C
  8
DATA
  6
CONTINUOUS
 62
     7
 10
1.8210293128813211
 20
-36.470107008215223
 30
0.0
 40
2.230993658649274
 50
268.17579291497532
 51
295.03027839719101
  0
ARC
  5
36D
  8
DATA
  6
CONTINUOUS
 62
     7
 10
-2.617456300895852
 20
-39.767814232999228
 30
0.0
 40
0.3885007539240812
 50
112.309733709895
 51
169.9450677079441
  0
ARC
  5
36E
  8
DATA
  6
CONTINUOUS
 62
     7
 10
-1.821009312881344
 20
-41.429862991784709
 30
0.0
 40
2.230993658649274
 50
88.175792914975347
 51
115.030278397191
  0
ARC
  5
36F
  8
DATA
  6
CONTINUOUS
 62
     7
 10
-2.617456300895852
 20
-39.632155767000711
 30
0.0
 40
0.3885007539240797
 50
190.05493229205581
 51
247.69026629010489
  0
ARC
  5
370
  8
DATA
  6
CONTINUOUS
 62
     7
 10
-1.821009312881344
 20
-37.970107008215223
 30
0.0
 40
2.2309936586492811
 50
244.9697216028089
 51
271.82420708502468
  0
ARC
  5
371
  8
DATA
  6
CONTINUOUS
 62
     7
 10
-0.8825236991041691
 20
-39.767814232999228
 30
0.0
 40
0.3885007539240797
 50
10.05493229205589
 51
67.690266290104915
  0
ARC
  5
372
  8
DATA
  6
CONTINUOUS
 62
     7
 10
-1.678970687118678
 20
-41.429862991784709
 30
0.0
 40
2.2309936586492811
 50
64.969721602808974
 51
91.824207085024653
  0
ARC
  5
373
  8
DATA
  6
CONTINUOUS
 62
     7
 10
-0.8825236991041691
 20
-39.632155767000711
 30
0.0
 40
0.3885007539240812
 50
292.30973370989511
 51
349.94506770794408
  0
ARC
  5
374
  8
DATA
  6
CONTINUOUS
 62
     7
 10
-1.678970687118678
 20
-37.970107008215223
 30
0.0
 40
2.230993658649274
 50
268.17579291497532
 51
295.03027839719101
  0
ARC
  5
375
  8
DATA
  6
CONTINUOUS
 62
     7
 10
0.882543699104147
 20
-39.767814232999228
 30
0.0
 40
0.3885007539240812
 50
112.309733709895
 51
169.9450677079441
  0
ARC
  5
376
  8
DATA
  6
CONTINUOUS
 62
     7
 10
1.6789906871186551
 20
-41.429862991784709
 30
0.0
 40
2.230993658649274
 50
88.175792914975347
 51
115.030278397191
  0
ARC
  5
377
  8
DATA
  6
CONTINUOUS
 62
     7
 10
0.882543699104147
 20
-39.632155767000711
 30
0.0
 40
0.3885007539240797
 50
190.05493229205581
 51
247.69026629010489
  0
ARC
  5
378
  8
DATA
  6
CONTINUOUS
 62
     7
 10
1.6789906871186551
 20
-37.970107008215223
 30
0.0
 40
2.2309936586492811
 50
244.9697216028089
 51
271.82420708502468
  0
ARC
  5
379
  8
DATA
  6
CONTINUOUS
 62
     7
 10
2.6174763008958299
 20
-39.767814232999228
 30
0.0
 40
0.3885007539240797
 50
10.05493229205589
 51
67.690266290104915
  0
ARC
  5
37A
  8
DATA
  6
CONTINUOUS
 62
     7
 10
1.8210293128813211
 20
-41.429862991784709
 30
0.0
 40
2.2309936586492811
 50
64.969721602808974
 51
91.824207085024653
  0
ARC
  5
37B
  8
DATA
  6
CONTINUOUS
 62
     7
 10
2.6174763008958299
 20
-39.632155767000711
 30
0.0
 40
0.3885007539240812
 50
292.30973370989511
 51
349.94506770794408
  0
ARC
  5
37C
  8
DATA
  6
CONTINUOUS
 62
     7
 10
1.8210293128813211
 20
-37.970107008215223
 30
0.0
 40
2.230993658649274
 50
268.17579291497532
 51
295.03027839719101
  0
ARC
  5
37D
  8
DATA
  6
CONTINUOUS
 62
     7
 10
-2.617456300895852
 20
-41.267814232999228
 30
0.0
 40
0.3885007539240812
 50
112.309733709895
 51
169.9450677079441
  0
ARC
  5
37E
  8
DATA
  6
CONTINUOUS
 62
     7
 10
-1.821009312881344
 20
-42.929862991784717
 30
0.0
 40
2.230993658649274
 50
88.175792914975347
 51
115.030278397191
  0
ARC
  5
37F
  8
DATA
  6
CONTINUOUS
 62
     7
 10
-2.617456300895852
 20
-41.132155767000711
 30
0.0
 40
0.3885007539240797
 50
190.05493229205581
 51
247.69026629010489
  0
ARC
  5
380
  8
DATA
  6
CONTINUOUS
 62
     7
 10
-1.821009312881344
 20
-39.470107008215223
 30
0.0
 40
2.2309936586492811
 50
244.9697216028089
 51
271.82420708502468
  0
ARC
  5
381
  8
DATA
  6
CONTINUOUS
 62
     7
 10
-0.8825236991041691
 20
-41.267814232999228
 30
0.0
 40
0.3885007539240797
 50
10.05493229205589
 51
67.690266290104915
  0
ARC
  5
382
  8
DATA
  6
CONTINUOUS
 62
     7
 10
-1.678970687118678
 20
-42.929862991784717
 30
0.0
 40
2.2309936586492811
 50
64.969721602808974
 51
91.824207085024653
  0
ARC
  5
383
  8
DATA
  6
CONTINUOUS
 62
     7
 10
-0.8825236991041691
 20
-41.132155767000711
 30
0.0
 40
0.3885007539240812
 50
292.30973370989511
 51
349.94506770794408
  0
ARC
  5
384
  8
DATA
  6
CONTINUOUS
 62
     7
 10
-1.678970687118678
 20
-39.470107008215223
 30
0.0
 40
2.230993658649274
 50
268.17579291497532
 51
295.03027839719101
  0
ARC
  5
385
  8
DATA
  6
CONTINUOUS
 62
     7
 10
0.882543699104147
 20
-41.267814232999228
 30
0.0
 40
0.3885007539240812
 50
112.309733709895
 51
169.9450677079441
  0
ARC
  5
386
  8
DATA
  6
CONTINUOUS
 62
     7
 10
1.6789906871186551
 20
-42.929862991784717
 30
0.0
 40
2.230993658649274
 50
88.175792914975347
 51
115.030278397191
  0
ARC
  5
387
  8
DATA
  6
CONTINUOUS
 62
     7
 10
0.882543699104147
 20
-41.132155767000711
 30
0.0
 40
0.3885007539240797
 50
190.05493229205581
 51
247.69026629010489
  0
ARC
  5
388
  8
DATA
  6
CONTINUOUS
 62
     7
 10
1.6789906871186551
 20
-39.470107008215223
 30
0.0
 40
2.2309936586492811
 50
244.9697216028089
 51
271.82420708502468
  0
ARC
  5
389
  8
DATA
  6
CONTINUOUS
 62
     7
 10
2.6174763008958299
 20
-41.267814232999228
 30
0.0
 40
0.3885007539240797
 50
10.05493229205589
 51
67.690266290104915
  0
ARC
  5
38A
  8
DATA
  6
CONTINUOUS
 62
     7
 10
1.8210293128813211
 20
-42.929862991784717
 30
0.0
 40
2.2309936586492811
 50
64.969721602808974
 51
91.824207085024653
  0
ARC
  5
38B
  8
DATA
  6
CONTINUOUS
 62
     7
 10
2.6174763008958299
 20
-41.132155767000711
 30
0.0
 40
0.3885007539240812
 50
292.30973370989511
 51
349.94506770794408
  0
ARC
  5
38C
  8
DATA
  6
CONTINUOUS
 62
     7
 10
1.8210293128813211
 20
-39.470107008215223
 30
0.0
 40
2.230993658649274
 50
268.17579291497532
 51
295.03027839719101
  0
ARC
  5
38D
  8
DATA
  6
CONTINUOUS
 62
     7
 10
-2.617456300895852
 20
-42.767814232999221
 30
0.0
 40
0.3885007539240812
 50
112.309733709895
 51
169.9450677079441
  0
ARC
  5
38E
  8
DATA
  6
CONTINUOUS
 62
     7
 10
-1.821009312881344
 20
-44.429862991784709
 30
0.0
 40
2.230993658649274
 50
88.175792914975347
 51
115.030278397191
  0
ARC
  5
38F
  8
DATA
  6
CONTINUOUS
 62
     7
 10
-2.617456300895852
 20
-42.632155767000711
 30
0.0
 40
0.3885007539240797
 50
190.05493229205581
 51
247.69026629010489
  0
ARC
  5
390
  8
DATA
  6
CONTINUOUS
 62
     7
 10
-1.821009312881344
 20
-40.970107008215223
 30
0.0
 40
2.2309936586492811
 50
244.9697216028089
 51
271.82420708502468
  0
ARC
  5
391
  8
DATA
  6
CONTINUOUS
 62
     7
 10
-0.8825236991041691
 20
-42.767814232999221
 30
0.0
 40
0.3885007539240797
 50
10.05493229205589
 51
67.690266290104915
  0
ARC
  5
392
  8
DATA
  6
CONTINUOUS
 62
     7
 10
-1.678970687118678
 20
-44.429862991784709
 30
0.0
 40
2.2309936586492811
 50
64.969721602808974
 51
91.824207085024653
  0
ARC
  5
393
  8
DATA
  6
CONTINUOUS
 62
     7
 10
-0.8825236991041691
 20
-42.632155767000711
 30
0.0
 40
0.3885007539240812
 50
292.30973370989511
 51
349.94506770794408
  0
ARC
  5
394
  8
DATA
  6
CONTINUOUS
 62
     7
 10
-1.678970687118678
 20
-40.970107008215223
 30
0.0
 40
2.230993658649274
 50
268.17579291497532
 51
295.03027839719101
  0
ARC
  5
395
  8
DATA
  6
CONTINUOUS
 62
     7
 10
0.882543699104147
 20
-42.767814232999221
 30
0.0
 40
0.3885007539240812
 50
112.309733709895
 51
169.9450677079441
  0
ARC
  5
396
  8
DATA
  6
CONTINUOUS
 62
     7
 10
1.6789906871186551
 20
-44.429862991784709
 30
0.0
 40
2.230993658649274
 50
88.175792914975347
 51
115.030278397191
  0
ARC
  5
397
  8
DATA
  6
CONTINUOUS
 62
     7
 10
0.882543699104147
 20
-42.632155767000711
 30
0.0
 40
0.3885007539240797
 50
190.05493229205581
 51
247.69026629010489
  0
ARC
  5
398
  8
DATA
  6
CONTINUOUS
 62
     7
 10
1.6789906871186551
 20
-40.970107008215223
 30
0.0
 40
2.2309936586492811
 50
244.9697216028089
 51
271.82420708502468
  0
ARC
  5
399
  8
DATA
  6
CONTINUOUS
 62
     7
 10
2.6174763008958299
 20
-42.767814232999221
 30
0.0
 40
0.3885007539240797
 50
10.05493229205589
 51
67.690266290104915
  0
ARC
  5
39A
  8
DATA
  6
CONTINUOUS
 62
     7
 10
1.8210293128813211
 20
-44.429862991784709
 30
0.0
 40
2.2309936586492811
 50
64.969721602808974
 51
91.824207085024653
  0
ARC
  5
39B
  8
DATA
  6
CONTINUOUS
 62
     7
 10
2.6174763008958299
 20
-42.632155767000711
 30
0.0
 40
0.3885007539240812
 50
292.30973370989511
 51
349.94506770794408
  0
ARC
  5
39C
  8
DATA
  6
CONTINUOUS
 62
     7
 10
1.8210293128813211
 20
-40.970107008215223
 30
0.0
 40
2.230993658649274
 50
268.17579291497532
 51
295.03027839719101
  0
ARC
  5
39D
  8
DATA
  6
CONTINUOUS
 62
     7
 10
4.3825436991041471
 20
-30.767814232999228
 30
0.0
 40
0.3885007539240812
 50
112.309733709895
 51
169.9450677079441
  0
ARC
  5
39E
  8
DATA
  6
CONTINUOUS
 62
     7
 10
5.1789906871186551
 20
-32.429862991784709
 30
0.0
 40
2.230993658649274
 50
88.175792914975347
 51
115.030278397191
  0
ARC
  5
39F
  8
DATA
  6
CONTINUOUS
 62
     7
 10
4.3825436991041471
 20
-30.632155767000711
 30
0.0
 40
0.3885007539240797
 50
190.05493229205581
 51
247.69026629010489
  0
ARC
  5
3A0
  8
DATA
  6
CONTINUOUS
 62
     7
 10
5.1789906871186551
 20
-28.970107008215219
 30
0.0
 40
2.2309936586492811
 50
244.9697216028089
 51
271.82420708502468
  0
ARC
  5
3A1
  8
DATA
  6
CONTINUOUS
 62
     7
 10
6.1174763008958299
 20
-30.767814232999228
 30
0.0
 40
0.3885007539240797
 50
10.05493229205589
 51
67.690266290104915
  0
ARC
  5
3A2
  8
DATA
  6
CONTINUOUS
 62
     7
 10
5.3210293128813211
 20
-32.429862991784709
 30
0.0
 40
2.2309936586492811
 50
64.969721602808974
 51
91.824207085024653
  0
ARC
  5
3A3
  8
DATA
  6
CONTINUOUS
 62
     7
 10
6.1174763008958299
 20
-30.632155767000711
 30
0.0
 40
0.3885007539240812
 50
292.30973370989511
 51
349.94506770794408
  0
ARC
  5
3A4
  8
DATA
  6
CONTINUOUS
 62
     7
 10
5.3210293128813211
 20
-28.970107008215219
 30
0.0
 40
2.230993658649274
 50
268.17579291497532
 51
295.03027839719101
  0
ARC
  5
3A5
  8
DATA
  6
CONTINUOUS
 62
     7
 10
4.3825436991041471
 20
-32.267814232999228
 30
0.0
 40
0.3885007539240812
 50
112.309733709895
 51
169.9450677079441
  0
ARC
  5
3A6
  8
DATA
  6
CONTINUOUS
 62
     7
 10
5.1789906871186551
 20
-33.929862991784709
 30
0.0
 40
2.230993658649274
 50
88.175792914975347
 51
115.030278397191
  0
ARC
  5
3A7
  8
DATA
  6
CONTINUOUS
 62
     7
 10
4.3825436991041471
 20
-32.132155767000711
 30
0.0
 40
0.3885007539240797
 50
190.05493229205581
 51
247.69026629010489
  0
ARC
  5
3A8
  8
DATA
  6
CONTINUOUS
 62
     7
 10
5.1789906871186551
 20
-30.470107008215219
 30
0.0
 40
2.2309936586492811
 50
244.9697216028089
 51
271.82420708502468
  0
ARC
  5
3A9
  8
DATA
  6
CONTINUOUS
 62
     7
 10
6.1174763008958299
 20
-32.267814232999228
 30
0.0
 40
0.3885007539240797
 50
10.05493229205589
 51
67.690266290104915
  0
ARC
  5
3AA
  8
DATA
  6
CONTINUOUS
 62
     7
 10
5.3210293128813211
 20
-33.929862991784709
 30
0.0
 40
2.2309936586492811
 50
64.969721602808974
 51
91.824207085024653
  0
ARC
  5
3AB
  8
DATA
  6
CONTINUOUS
 62
     7
 10
6.1174763008958299
 20
-32.132155767000711
 30
0.0
 40
0.3885007539240812
 50
292.30973370989511
 51
349.94506770794408
  0
ARC
  5
3AC
  8
DATA
  6
CONTINUOUS
 62
     7
 10
5.3210293128813211
 20
-30.470107008215219
 30
0.0
 40
2.230993658649274
 50
268.17579291497532
 51
295.03027839719101
  0
ARC
  5
3AD
  8
DATA
  6
CONTINUOUS
 62
     7
 10
4.3825436991041471
 20
-33.767814232999221
 30
0.0
 40
0.3885007539240812
 50
112.309733709895
 51
169.9450677079441
  0
ARC
  5
3AE
  8
DATA
  6
CONTINUOUS
 62
     7
 10
5.1789906871186551
 20
-35.429862991784709
 30
0.0
 40
2.230993658649274
 50
88.175792914975347
 51
115.030278397191
  0
ARC
  5
3AF
  8
DATA
  6
CONTINUOUS
 62
     7
 10
4.3825436991041471
 20
-33.632155767000711
 30
0.0
 40
0.3885007539240797
 50
190.05493229205581
 51
247.69026629010489
  0
ARC
  5
3B0
  8
DATA
  6
CONTINUOUS
 62
     7
 10
5.1789906871186551
 20
-31.970107008215219
 30
0.0
 40
2.2309936586492811
 50
244.9697216028089
 51
271.82420708502468
  0
ARC
  5
3B1
  8
DATA
  6
CONTINUOUS
 62
     7
 10
6.1174763008958299
 20
-33.767814232999221
 30
0.0
 40
0.3885007539240797
 50
10.05493229205589
 51
67.690266290104915
  0
ARC
  5
3B2
  8
DATA
  6
CONTINUOUS
 62
     7
 10
5.3210293128813211
 20
-35.429862991784709
 30
0.0
 40
2.2309936586492811
 50
64.969721602808974
 51
91.824207085024653
  0
ARC
  5
3B3
  8
DATA
  6
CONTINUOUS
 62
     7
 10
6.1174763008958299
 20
-33.632155767000711
 30
0.0
 40
0.3885007539240812
 50
292.30973370989511
 51
349.94506770794408
  0
ARC
  5
3B4
  8
DATA
  6
CONTINUOUS
 62
     7
 10
5.3210293128813211
 20
-31.970107008215219
 30
0.0
 40
2.230993658649274
 50
268.17579291497532
 51
295.03027839719101
  0
ARC
  5
3B5
  8
DATA
  6
CONTINUOUS
 62
     7
 10
4.3825436991041471
 20
-35.267814232999221
 30
0.0
 40
0.3885007539240812
 50
112.309733709895
 51
169.9450677079441
  0
ARC
  5
3B6
  8
DATA
  6
CONTINUOUS
 62
     7
 10
5.1789906871186551
 20
-36.929862991784709
 30
0.0
 40
2.230993658649274
 50
88.175792914975347
 51
115.030278397191
  0
ARC
  5
3B7
  8
DATA
  6
CONTINUOUS
 62
     7
 10
4.3825436991041471
 20
-35.132155767000711
 30
0.0
 40
0.3885007539240797
 50
190.05493229205581
 51
247.69026629010489
  0
ARC
  5
3B8
  8
DATA
  6
CONTINUOUS
 62
     7
 10
5.1789906871186551
 20
-33.470107008215223
 30
0.0
 40
2.2309936586492811
 50
244.9697216028089
 51
271.82420708502468
  0
ARC
  5
3B9
  8
DATA
  6
CONTINUOUS
 62
     7
 10
6.1174763008958299
 20
-35.267814232999221
 30
0.0
 40
0.3885007539240797
 50
10.05493229205589
 51
67.690266290104915
  0
ARC
  5
3BA
  8
DATA
  6
CONTINUOUS
 62
     7
 10
5.3210293128813211
 20
-36.929862991784709
 30
0.0
 40
2.2309936586492811
 50
64.969721602808974
 51
91.824207085024653
  0
ARC
  5
3BB
  8
DATA
  6
CONTINUOUS
 62
     7
 10
6.1174763008958299
 20
-35.132155767000711
 30
0.0
 40
0.3885007539240812
 50
292.30973370989511
 51
349.94506770794408
  0
ARC
  5
3BC
  8
DATA
  6
CONTINUOUS
 62
     7
 10
5.3210293128813211
 20
-33.470107008215223
 30
0.0
 40
2.230993658649274
 50
268.17579291497532
 51
295.03027839719101
  0
ARC
  5
3BD
  8
DATA
  6
CONTINUOUS
 62
     7
 10
4.3825436991041471
 20
-36.767814232999228
 30
0.0
 40
0.3885007539240812
 50
112.309733709895
 51
169.9450677079441
  0
ARC
  5
3BE
  8
DATA
  6
CONTINUOUS
 62
     7
 10
5.1789906871186551
 20
-38.429862991784717
 30
0.0
 40
2.230993658649274
 50
88.175792914975347
 51
115.030278397191
  0
ARC
  5
3BF
  8
DATA
  6
CONTINUOUS
 62
     7
 10
4.3825436991041471
 20
-36.632155767000711
 30
0.0
 40
0.3885007539240797
 50
190.05493229205581
 51
247.69026629010489
  0
ARC
  5
3C0
  8
DATA
  6
CONTINUOUS
 62
     7
 10
5.1789906871186551
 20
-34.970107008215223
 30
0.0
 40
2.2309936586492811
 50
244.9697216028089
 51
271.82420708502468
  0
ARC
  5
3C1
  8
DATA
  6
CONTINUOUS
 62
     7
 10
6.1174763008958299
 20
-36.767814232999228
 30
0.0
 40
0.3885007539240797
 50
10.05493229205589
 51
67.690266290104915
  0
ARC
  5
3C2
  8
DATA
  6
CONTINUOUS
 62
     7
 10
5.3210293128813211
 20
-38.429862991784717
 30
0.0
 40
2.2309936586492811
 50
64.969721602808974
 51
91.824207085024653
  0
ARC
  5
3C3
  8
DATA
  6
CONTINUOUS
 62
     7
 10
6.1174763008958299
 20
-36.632155767000711
 30
0.0
 40
0.3885007539240812
 50
292.30973370989511
 51
349.94506770794408
  0
ARC
  5
3C4
  8
DATA
  6
CONTINUOUS
 62
     7
 10
5.3210293128813211
 20
-34.970107008215223
 30
0.0
 40
2.230993658649274
 50
268.17579291497532
 51
295.03027839719101
  0
ARC
  5
3C5
  8
DATA
  6
CONTINUOUS
 62
     7
 10
4.3825436991041471
 20
-38.267814232999228
 30
0.0
 40
0.3885007539240812
 50
112.309733709895
 51
169.9450677079441
  0
ARC
  5
3C6
  8
DATA
  6
CONTINUOUS
 62
     7
 10
5.1789906871186551
 20
-39.929862991784717
 30
0.0
 40
2.230993658649274
 50
88.175792914975347
 51
115.030278397191
  0
ARC
  5
3C7
  8
DATA
  6
CONTINUOUS
 62
     7
 10
4.3825436991041471
 20
-38.132155767000711
 30
0.0
 40
0.3885007539240797
 50
190.05493229205581
 51
247.69026629010489
  0
ARC
  5
3C8
  8
DATA
  6
CONTINUOUS
 62
     7
 10
5.1789906871186551
 20
-36.470107008215223
 30
0.0
 40
2.2309936586492811
 50
244.9697216028089
 51
271.82420708502468
  0
ARC
  5
3C9
  8
DATA
  6
CONTINUOUS
 62
     7
 10
6.1174763008958299
 20
-38.267814232999228
 30
0.0
 40
0.3885007539240797
 50
10.05493229205589
 51
67.690266290104915
  0
ARC
  5
3CA
  8
DATA
  6
CONTINUOUS
 62
     7
 10
5.3210293128813211
 20
-39.929862991784717
 30
0.0
 40
2.2309936586492811
 50
64.969721602808974
 51
91.824207085024653
  0
ARC
  5
3CB
  8
DATA
  6
CONTINUOUS
 62
     7
 10
6.1174763008958299
 20
-38.132155767000711
 30
0.0
 40
0.3885007539240812
 50
292.30973370989511
 51
349.94506770794408
  0
ARC
  5
3CC
  8
DATA
  6
CONTINUOUS
 62
     7
 10
5.3210293128813211
 20
-36.470107008215223
 30
0.0
 40
2.230993658649274
 50
268.17579291497532
 51
295.03027839719101
  0
ARC
  5
3CD
  8
DATA
  6
CONTINUOUS
 62
     7
 10
4.3825436991041471
 20
-39.767814232999228
 30
0.0
 40
0.3885007539240812
 50
112.309733709895
 51
169.9450677079441
  0
ARC
  5
3CE
  8
DATA
  6
CONTINUOUS
 62
     7
 10
5.1789906871186551
 20
-41.429862991784709
 30
0.0
 40
2.230993658649274
 50
88.175792914975347
 51
115.030278397191
  0
ARC
  5
3CF
  8
DATA
  6
CONTINUOUS
 62
     7
 10
4.3825436991041471
 20
-39.632155767000711
 30
0.0
 40
0.3885007539240797
 50
190.05493229205581
 51
247.69026629010489
  0
ARC
  5
3D0
  8
DATA
  6
CONTINUOUS
 62
     7
 10
5.1789906871186551
 20
-37.970107008215223
 30
0.0
 40
2.2309936586492811
 50
244.9697216028089
 51
271.82420708502468
  0
ARC
  5
3D1
  8
DATA
  6
CONTINUOUS
 62
     7
 10
6.1174763008958299
 20
-39.767814232999228
 30
0.0
 40
0.3885007539240797
 50
10.05493229205589
 51
67.690266290104915
  0
ARC
  5
3D2
  8
DATA
  6
CONTINUOUS
 62
     7
 10
5.3210293128813211
 20
-41.429862991784709
 30
0.0
 40
2.2309936586492811
 50
64.969721602808974
 51
91.824207085024653
  0
ARC
  5
3D3
  8
DATA
  6
CONTINUOUS
 62
     7
 10
6.1174763008958299
 20
-39.632155767000711
 30
0.0
 40
0.3885007539240812
 50
292.30973370989511
 51
349.94506770794408
  0
ARC
  5
3D4
  8
DATA
  6
CONTINUOUS
 62
     7
 10
5.3210293128813211
 20
-37.970107008215223
 30
0.0
 40
2.230993658649274
 50
268.17579291497532
 51
295.03027839719101
  0
ARC
  5
3D5
  8
DATA
  6
CONTINUOUS
 62
     7
 10
4.3825436991041471
 20
-41.267814232999228
 30
0.0
 40
0.3885007539240812
 50
112.309733709895
 51
169.9450677079441
  0
ARC
  5
3D6
  8
DATA
  6
CONTINUOUS
 62
     7
 10
5.1789906871186551
 20
-42.929862991784717
 30
0.0
 40
2.230993658649274
 50
88.175792914975347
 51
115.030278397191
  0
ARC
  5
3D7
  8
DATA
  6
CONTINUOUS
 62
     7
 10
4.3825436991041471
 20
-41.132155767000711
 30
0.0
 40
0.3885007539240797
 50
190.05493229205581
 51
247.69026629010489
  0
ARC
  5
3D8
  8
DATA
  6
CONTINUOUS
 62
     7
 10
5.1789906871186551
 20
-39.470107008215223
 30
0.0
 40
2.2309936586492811
 50
244.9697216028089
 51
271.82420708502468
  0
ARC
  5
3D9
  8
DATA
  6
CONTINUOUS
 62
     7
 10
6.1174763008958299
 20
-41.267814232999228
 30
0.0
 40
0.3885007539240797
 50
10.05493229205589
 51
67.690266290104915
  0
ARC
  5
3DA
  8
DATA
  6
CONTINUOUS
 62
     7
 10
5.3210293128813211
 20
-42.929862991784717
 30
0.0
 40
2.2309936586492811
 50
64.969721602808974
 51
91.824207085024653
  0
ARC
  5
3DB
  8
DATA
  6
CONTINUOUS
 62
     7
 10
6.1174763008958299
 20
-41.132155767000711
 30
0.0
 40
0.3885007539240812
 50
292.30973370989511
 51
349.94506770794408
  0
ARC
  5
3DC
  8
DATA
  6
CONTINUOUS
 62
     7
 10
5.3210293128813211
 20
-39.470107008215223
 30
0.0
 40
2.230993658649274
 50
268.17579291497532
 51
295.03027839719101
  0
ARC
  5
3DD
  8
DATA
  6
CONTINUOUS
 62
     7
 10
4.3825436991041471
 20
-42.767814232999221
 30
0.0
 40
0.3885007539240812
 50
112.309733709895
 51
169.9450677079441
  0
ARC
  5
3DE
  8
DATA
  6
CONTINUOUS
 62
     7
 10
5.1789906871186551
 20
-44.429862991784709
 30
0.0
 40
2.230993658649274
 50
88.175792914975347
 51
115.030278397191
  0
ARC
  5
3DF
  8
DATA
  6
CONTINUOUS
 62
     7
 10
4.3825436991041471
 20
-42.632155767000711
 30
0.0
 40
0.3885007539240797
 50
190.05493229205581
 51
247.69026629010489
  0
ARC
  5
3E0
  8
DATA
  6
CONTINUOUS
 62
     7
 10
5.1789906871186551
 20
-40.970107008215223
 30
0.0
 40
2.2309936586492811
 50
244.9697216028089
 51
271.82420708502468
  0
ARC
  5
3E1
  8
DATA
  6
CONTINUOUS
 62
     7
 10
6.1174763008958299
 20
-42.767814232999221
 30
0.0
 40
0.3885007539240797
 50
10.05493229205589
 51
67.690266290104915
  0
ARC
  5
3E2
  8
DATA
  6
CONTINUOUS
 62
     7
 10
5.3210293128813211
 20
-44.429862991784709
 30
0.0
 40
2.2309936586492811
 50
64.969721602808974
 51
91.824207085024653
  0
ARC
  5
3E3
  8
DATA
  6
CONTINUOUS
 62
     7
 10
6.1174763008958299
 20
-42.632155767000711
 30
0.0
 40
0.3885007539240812
 50
292.30973370989511
 51
349.94506770794408
  0
ARC
  5
3E4
  8
DATA
  6
CONTINUOUS
 62
     7
 10
5.3210293128813211
 20
-40.970107008215223
 30
0.0
 40
2.230993658649274
 50
268.17579291497532
 51
295.03027839719101
  0
ARC
  5
3E5
  8
DATA
  6
CONTINUOUS
 62
     7
 10
7.8825436991041471
 20
-30.767814232999228
 30
0.0
 40
0.3885007539240812
 50
112.309733709895
 51
169.9450677079441
  0
ARC
  5
3E6
  8
DATA
  6
CONTINUOUS
 62
     7
 10
8.6789906871186542
 20
-32.429862991784709
 30
0.0
 40
2.230993658649274
 50
88.175792914975347
 51
115.030278397191
  0
ARC
  5
3E7
  8
DATA
  6
CONTINUOUS
 62
     7
 10
7.8825436991041471
 20
-30.632155767000711
 30
0.0
 40
0.3885007539240797
 50
190.05493229205581
 51
247.69026629010489
  0
ARC
  5
3E8
  8
DATA
  6
CONTINUOUS
 62
     7
 10
8.6789906871186542
 20
-28.970107008215219
 30
0.0
 40
2.2309936586492811
 50
244.9697216028089
 51
271.82420708502468
  0
ARC
  5
3E9
  8
DATA
  6
CONTINUOUS
 62
     7
 10
9.6174763008958308
 20
-30.767814232999228
 30
0.0
 40
0.3885007539240797
 50
10.05493229205589
 51
67.690266290104915
  0
ARC
  5
3EA
  8
DATA
  6
CONTINUOUS
 62
     7
 10
8.8210293128813202
 20
-32.429862991784709
 30
0.0
 40
2.2309936586492811
 50
64.969721602808974
 51
91.824207085024653
  0
ARC
  5
3EB
  8
DATA
  6
CONTINUOUS
 62
     7
 10
9.6174763008958308
 20
-30.632155767000711
 30
0.0
 40
0.3885007539240812
 50
292.30973370989511
 51
349.94506770794408
  0
ARC
  5
3EC
  8
DATA
  6
CONTINUOUS
 62
     7
 10
8.8210293128813202
 20
-28.970107008215219
 30
0.0
 40
2.230993658649274
 50
268.17579291497532
 51
295.03027839719101
  0
ARC
  5
3ED
  8
DATA
  6
CONTINUOUS
 62
     7
 10
7.8825436991041471
 20
-32.267814232999228
 30
0.0
 40
0.3885007539240812
 50
112.309733709895
 51
169.9450677079441
  0
ARC
  5
3EE
  8
DATA
  6
CONTINUOUS
 62
     7
 10
8.6789906871186542
 20
-33.929862991784709
 30
0.0
 40
2.230993658649274
 50
88.175792914975347
 51
115.030278397191
  0
ARC
  5
3EF
  8
DATA
  6
CONTINUOUS
 62
     7
 10
7.8825436991041471
 20
-32.132155767000711
 30
0.0
 40
0.3885007539240797
 50
190.05493229205581
 51
247.69026629010489
  0
ARC
  5
3F0
  8
DATA
  6
CONTINUOUS
 62
     7
 10
8.6789906871186542
 20
-30.470107008215219
 30
0.0
 40
2.2309936586492811
 50
244.9697216028089
 51
271.82420708502468
  0
ARC
  5
3F1
  8
DATA
  6
CONTINUOUS
 62
     7
 10
9.6174763008958308
 20
-32.267814232999228
 30
0.0
 40
0.3885007539240797
 50
10.05493229205589
 51
67.690266290104915
  0
ARC
  5
3F2
  8
DATA
  6
CONTINUOUS
 62
     7
 10
8.8210293128813202
 20
-33.929862991784709
 30
0.0
 40
2.2309936586492811
 50
64.969721602808974
 51
91.824207085024653
  0
ARC
  5
3F3
  8
DATA
  6
CONTINUOUS
 62
     7
 10
9.6174763008958308
 20
-32.132155767000711
 30
0.0
 40
0.3885007539240812
 50
292.30973370989511
 51
349.94506770794408
  0
ARC
  5
3F4
  8
DATA
  6
CONTINUOUS
 62
     7
 10
8.8210293128813202
 20
-30.470107008215219
 30
0.0
 40
2.230993658649274
 50
268.17579291497532
 51
295.03027839719101
  0
ARC
  5
3F5
  8
DATA
  6
CONTINUOUS
 62
     7
 10
7.8825436991041471
 20
-33.767814232999221
 30
0.0
 40
0.3885007539240812
 50
112.309733709895
 51
169.9450677079441
  0
ARC
  5
3F6
  8
DATA
  6
CONTINUOUS
 62
     7
 10
8.6789906871186542
 20
-35.429862991784709
 30
0.0
 40
2.230993658649274
 50
88.175792914975347
 51
115.030278397191
  0
ARC
  5
3F7
  8
DATA
  6
CONTINUOUS
 62
     7
 10
7.8825436991041471
 20
-33.632155767000711
 30
0.0
 40
0.3885007539240797
 50
190.05493229205581
 51
247.69026629010489
  0
ARC
  5
3F8
  8
DATA
  6
CONTINUOUS
 62
     7
 10
8.6789906871186542
 20
-31.970107008215219
 30
0.0
 40
2.2309936586492811
 50
244.9697216028089
 51
271.82420708502468
  0
ARC
  5
3F9
  8
DATA
  6
CONTINUOUS
 62
     7
 10
9.6174763008958308
 20
-33.767814232999221
 30
0.0
 40
0.3885007539240797
 50
10.05493229205589
 51
67.690266290104915
  0
ARC
  5
3FA
  8
DATA
  6
CONTINUOUS
 62
     7
 10
8.8210293128813202
 20
-35.429862991784709
 30
0.0
 40
2.2309936586492811
 50
64.969721602808974
 51
91.824207085024653
  0
ARC
  5
3FB
  8
DATA
  6
CONTINUOUS
 62
     7
 10
9.6174763008958308
 20
-33.632155767000711
 30
0.0
 40
0.3885007539240812
 50
292.30973370989511
 51
349.94506770794408
  0
ARC
  5
3FC
  8
DATA
  6
CONTINUOUS
 62
     7
 10
8.8210293128813202
 20
-31.970107008215219
 30
0.0
 40
2.230993658649274
 50
268.17579291497532
 51
295.03027839719101
  0
ARC
  5
3FD
  8
DATA
  6
CONTINUOUS
 62
     7
 10
7.8825436991041471
 20
-35.267814232999221
 30
0.0
 40
0.3885007539240812
 50
112.309733709895
 51
169.9450677079441
  0
ARC
  5
3FE
  8
DATA
  6
CONTINUOUS
 62
     7
 10
8.6789906871186542
 20
-36.929862991784709
 30
0.0
 40
2.230993658649274
 50
88.175792914975347
 51
115.030278397191
  0
ARC
  5
3FF
  8
DATA
  6
CONTINUOUS
 62
     7
 10
7.8825436991041471
 20
-35.132155767000711
 30
0.0
 40
0.3885007539240797
 50
190.05493229205581
 51
247.69026629010489
  0
ARC
  5
400
  8
DATA
  6
CONTINUOUS
 62
     7
 10
8.6789906871186542
 20
-33.470107008215223
 30
0.0
 40
2.2309936586492811
 50
244.9697216028089
 51
271.82420708502468
  0
ARC
  5
401
  8
DATA
  6
CONTINUOUS
 62
     7
 10
9.6174763008958308
 20
-35.267814232999221
 30
0.0
 40
0.3885007539240797
 50
10.05493229205589
 51
67.690266290104915
  0
ARC
  5
402
  8
DATA
  6
CONTINUOUS
 62
     7
 10
8.8210293128813202
 20
-36.929862991784709
 30
0.0
 40
2.2309936586492811
 50
64.969721602808974
 51
91.824207085024653
  0
ARC
  5
403
  8
DATA
  6
CONTINUOUS
 62
     7
 10
9.6174763008958308
 20
-35.132155767000711
 30
0.0
 40
0.3885007539240812
 50
292.30973370989511
 51
349.94506770794408
  0
ARC
  5
404
  8
DATA
  6
CONTINUOUS
 62
     7
 10
8.8210293128813202
 20
-33.470107008215223
 30
0.0
 40
2.230993658649274
 50
268.17579291497532
 51
295.03027839719101
  0
ARC
  5
405
  8
DATA
  6
CONTINUOUS
 62
     7
 10
7.8825436991041471
 20
-36.767814232999228
 30
0.0
 40
0.3885007539240812
 50
112.309733709895
 51
169.9450677079441
  0
ARC
  5
406
  8
DATA
  6
CONTINUOUS
 62
     7
 10
8.6789906871186542
 20
-38.429862991784717
 30
0.0
 40
2.230993658649274
 50
88.175792914975347
 51
115.030278397191
  0
ARC
  5
407
  8
DATA
  6
CONTINUOUS
 62
     7
 10
7.8825436991041471
 20
-36.632155767000711
 30
0.0
 40
0.3885007539240797
 50
190.05493229205581
 51
247.69026629010489
  0
ARC
  5
408
  8
DATA
  6
CONTINUOUS
 62
     7
 10
8.6789906871186542
 20
-34.970107008215223
 30
0.0
 40
2.2309936586492811
 50
244.9697216028089
 51
271.82420708502468
  0
ARC
  5
409
  8
DATA
  6
CONTINUOUS
 62
     7
 10
9.6174763008958308
 20
-36.767814232999228
 30
0.0
 40
0.3885007539240797
 50
10.05493229205589
 51
67.690266290104915
  0
ARC
  5
40A
  8
DATA
  6
CONTINUOUS
 62
     7
 10
8.8210293128813202
 20
-38.429862991784717
 30
0.0
 40
2.2309936586492811
 50
64.969721602808974
 51
91.824207085024653
  0
ARC
  5
40B
  8
DATA
  6
CONTINUOUS
 62
     7
 10
9.6174763008958308
 20
-36.632155767000711
 30
0.0
 40
0.3885007539240812
 50
292.30973370989511
 51
349.94506770794408
  0
ARC
  5
40C
  8
DATA
  6
CONTINUOUS
 62
     7
 10
8.8210293128813202
 20
-34.970107008215223
 30
0.0
 40
2.230993658649274
 50
268.17579291497532
 51
295.03027839719101
  0
ARC
  5
40D
  8
DATA
  6
CONTINUOUS
 62
     7
 10
7.8825436991041471
 20
-38.267814232999228
 30
0.0
 40
0.3885007539240812
 50
112.309733709895
 51
169.9450677079441
  0
ARC
  5
40E
  8
DATA
  6
CONTINUOUS
 62
     7
 10
8.6789906871186542
 20
-39.929862991784717
 30
0.0
 40
2.230993658649274
 50
88.175792914975347
 51
115.030278397191
  0
ARC
  5
40F
  8
DATA
  6
CONTINUOUS
 62
     7
 10
7.8825436991041471
 20
-38.132155767000711
 30
0.0
 40
0.3885007539240797
 50
190.05493229205581
 51
247.69026629010489
  0
ARC
  5
410
  8
DATA
  6
CONTINUOUS
 62
     7
 10
8.6789906871186542
 20
-36.470107008215223
 30
0.0
 40
2.2309936586492811
 50
244.9697216028089
 51
271.82420708502468
  0
ARC
  5
411
  8
DATA
  6
CONTINUOUS
 62
     7
 10
9.6174763008958308
 20
-38.267814232999228
 30
0.0
 40
0.3885007539240797
 50
10.05493229205589
 51
67.690266290104915
  0
ARC
  5
412
  8
DATA
  6
CONTINUOUS
 62
     7
 10
8.8210293128813202
 20
-39.929862991784717
 30
0.0
 40
2.2309936586492811
 50
64.969721602808974
 51
91.824207085024653
  0
ARC
  5
413
  8
DATA
  6
CONTINUOUS
 62
     7
 10
9.6174763008958308
 20
-38.132155767000711
 30
0.0
 40
0.3885007539240812
 50
292.30973370989511
 51
349.94506770794408
  0
ARC
  5
414
  8
DATA
  6
CONTINUOUS
 62
     7
 10
8.8210293128813202
 20
-36.470107008215223
 30
0.0
 40
2.230993658649274
 50
268.17579291497532
 51
295.03027839719101
  0
ARC
  5
415
  8
DATA
  6
CONTINUOUS
 62
     7
 10
7.8825436991041471
 20
-39.767814232999228
 30
0.0
 40
0.3885007539240812
 50
112.309733709895
 51
169.9450677079441
  0
ARC
  5
416
  8
DATA
  6
CONTINUOUS
 62
     7
 10
8.6789906871186542
 20
-41.429862991784709
 30
0.0
 40
2.230993658649274
 50
88.175792914975347
 51
115.030278397191
  0
ARC
  5
417
  8
DATA
  6
CONTINUOUS
 62
     7
 10
7.8825436991041471
 20
-39.632155767000711
 30
0.0
 40
0.3885007539240797
 50
190.05493229205581
 51
247.69026629010489
  0
ARC
  5
418
  8
DATA
  6
CONTINUOUS
 62
     7
 10
8.6789906871186542
 20
-37.970107008215223
 30
0.0
 40
2.2309936586492811
 50
244.9697216028089
 51
271.82420708502468
  0
ARC
  5
419
  8
DATA
  6
CONTINUOUS
 62
     7
 10
9.6174763008958308
 20
-39.767814232999228
 30
0.0
 40
0.3885007539240797
 50
10.05493229205589
 51
67.690266290104915
  0
ARC
  5
41A
  8
DATA
  6
CONTINUOUS
 62
     7
 10
8.8210293128813202
 20
-41.429862991784709
 30
0.0
 40
2.2309936586492811
 50
64.969721602808974
 51
91.824207085024653
  0
ARC
  5
41B
  8
DATA
  6
CONTINUOUS
 62
     7
 10
9.6174763008958308
 20
-39.632155767000711
 30
0.0
 40
0.3885007539240812
 50
292.30973370989511
 51
349.94506770794408
  0
ARC
  5
41C
  8
DATA
  6
CONTINUOUS
 62
     7
 10
8.8210293128813202
 20
-37.970107008215223
 30
0.0
 40
2.230993658649274
 50
268.17579291497532
 51
295.03027839719101
  0
ARC
  5
41D
  8
DATA
  6
CONTINUOUS
 62
     7
 10
7.8825436991041471
 20
-41.267814232999228
 30
0.0
 40
0.3885007539240812
 50
112.309733709895
 51
169.9450677079441
  0
ARC
  5
41E
  8
DATA
  6
CONTINUOUS
 62
     7
 10
8.6789906871186542
 20
-42.929862991784717
 30
0.0
 40
2.230993658649274
 50
88.175792914975347
 51
115.030278397191
  0
ARC
  5
41F
  8
DATA
  6
CONTINUOUS
 62
     7
 10
7.8825436991041471
 20
-41.132155767000711
 30
0.0
 40
0.3885007539240797
 50
190.05493229205581
 51
247.69026629010489
  0
ARC
  5
420
  8
DATA
  6
CONTINUOUS
 62
     7
 10
8.6789906871186542
 20
-39.470107008215223
 30
0.0
 40
2.2309936586492811
 50
244.9697216028089
 51
271.82420708502468
  0
ARC
  5
421
  8
DATA
  6
CONTINUOUS
 62
     7
 10
9.6174763008958308
 20
-41.267814232999228
 30
0.0
 40
0.3885007539240797
 50
10.05493229205589
 51
67.690266290104915
  0
ARC
  5
422
  8
DATA
  6
CONTINUOUS
 62
     7
 10
8.8210293128813202
 20
-42.929862991784717
 30
0.0
 40
2.2309936586492811
 50
64.969721602808974
 51
91.824207085024653
  0
ARC
  5
423
  8
DATA
  6
CONTINUOUS
 62
     7
 10
9.6174763008958308
 20
-41.132155767000711
 30
0.0
 40
0.3885007539240812
 50
292.30973370989511
 51
349.94506770794408
  0
ARC
  5
424
  8
DATA
  6
CONTINUOUS
 62
     7
 10
8.8210293128813202
 20
-39.470107008215223
 30
0.0
 40
2.230993658649274
 50
268.17579291497532
 51
295.03027839719101
  0
ARC
  5
425
  8
DATA
  6
CONTINUOUS
 62
     7
 10
7.8825436991041471
 20
-42.767814232999221
 30
0.0
 40
0.3885007539240812
 50
112.309733709895
 51
169.9450677079441
  0
ARC
  5
426
  8
DATA
  6
CONTINUOUS
 62
     7
 10
8.6789906871186542
 20
-44.429862991784709
 30
0.0
 40
2.230993658649274
 50
88.175792914975347
 51
115.030278397191
  0
ARC
  5
427
  8
DATA
  6
CONTINUOUS
 62
     7
 10
7.8825436991041471
 20
-42.632155767000711
 30
0.0
 40
0.3885007539240797
 50
190.05493229205581
 51
247.69026629010489
  0
ARC
  5
428
  8
DATA
  6
CONTINUOUS
 62
     7
 10
8.6789906871186542
 20
-40.970107008215223
 30
0.0
 40
2.2309936586492811
 50
244.9697216028089
 51
271.82420708502468
  0
ARC
  5
429
  8
DATA
  6
CONTINUOUS
 62
     7
 10
9.6174763008958308
 20
-42.767814232999221
 30
0.0
 40
0.3885007539240797
 50
10.05493229205589
 51
67.690266290104915
  0
ARC
  5
42A
  8
DATA
  6
CONTINUOUS
 62
     7
 10
8.8210293128813202
 20
-44.429862991784709
 30
0.0
 40
2.2309936586492811
 50
64.969721602808974
 51
91.824207085024653
  0
ARC
  5
42B
  8
DATA
  6
CONTINUOUS
 62
     7
 10
9.6174763008958308
 20
-42.632155767000711
 30
0.0
 40
0.3885007539240812
 50
292.30973370989511
 51
349.94506770794408
  0
ARC
  5
42C
  8
DATA
  6
CONTINUOUS
 62
     7
 10
8.8210293128813202
 20
-40.970107008215223
 30
0.0
 40
2.230993658649274
 50
268.17579291497532
 51
295.03027839719101
  0
ARC
  5
42D
  8
DATA
  6
CONTINUOUS
 62
     7
 10
11.38254369910414
 20
-32.267814232999228
 30
0.0
 40
0.3885007539240812
 50
112.309733709895
 51
169.9450677079441
  0
ARC
  5
42E
  8
DATA
  6
CONTINUOUS
 62
     7
 10
12.178990687118651
 20
-33.929862991784709
 30
0.0
 40
2.230993658649274
 50
88.175792914975347
 51
115.030278397191
  0
ARC
  5
42F
  8
DATA
  6
CONTINUOUS
 62
     7
 10
11.38254369910414
 20
-32.132155767000711
 30
0.0
 40
0.3885007539240797
 50
190.05493229205581
 51
247.69026629010489
  0
ARC
  5
430
  8
DATA
  6
CONTINUOUS
 62
     7
 10
12.178990687118651
 20
-30.470107008215219
 30
0.0
 40
2.2309936586492811
 50
244.9697216028089
 51
271.82420708502468
  0
ARC
  5
431
  8
DATA
  6
CONTINUOUS
 62
     7
 10
13.117476300895831
 20
-32.267814232999228
 30
0.0
 40
0.3885007539240797
 50
10.05493229205589
 51
67.690266290104915
  0
ARC
  5
432
  8
DATA
  6
CONTINUOUS
 62
     7
 10
12.32102931288132
 20
-33.929862991784709
 30
0.0
 40
2.2309936586492811
 50
64.969721602808974
 51
91.824207085024653
  0
ARC
  5
433
  8
DATA
  6
CONTINUOUS
 62
     7
 10
13.117476300895831
 20
-32.132155767000711
 30
0.0
 40
0.3885007539240812
 50
292.30973370989511
 51
349.94506770794408
  0
ARC
  5
434
  8
DATA
  6
CONTINUOUS
 62
     7
 10
12.32102931288132
 20
-30.470107008215219
 30
0.0
 40
2.230993658649274
 50
268.17579291497532
 51
295.03027839719101
  0
ARC
  5
435
  8
DATA
  6
CONTINUOUS
 62
     7
 10
11.38254369910414
 20
-33.767814232999221
 30
0.0
 40
0.3885007539240812
 50
112.309733709895
 51
169.9450677079441
  0
ARC
  5
436
  8
DATA
  6
CONTINUOUS
 62
     7
 10
12.178990687118651
 20
-35.429862991784709
 30
0.0
 40
2.230993658649274
 50
88.175792914975347
 51
115.030278397191
  0
ARC
  5
437
  8
DATA
  6
CONTINUOUS
 62
     7
 10
11.38254369910414
 20
-33.632155767000711
 30
0.0
 40
0.3885007539240797
 50
190.05493229205581
 51
247.69026629010489
  0
ARC
  5
438
  8
DATA
  6
CONTINUOUS
 62
     7
 10
12.178990687118651
 20
-31.970107008215219
 30
0.0
 40
2.2309936586492811
 50
244.9697216028089
 51
271.82420708502468
  0
ARC
  5
439
  8
DATA
  6
CONTINUOUS
 62
     7
 10
13.117476300895831
 20
-33.767814232999221
 30
0.0
 40
0.3885007539240797
 50
10.05493229205589
 51
67.690266290104915
  0
ARC
  5
43A
  8
DATA
  6
CONTINUOUS
 62
     7
 10
12.32102931288132
 20
-35.429862991784709
 30
0.0
 40
2.2309936586492811
 50
64.969721602808974
 51
91.824207085024653
  0
ARC
  5
43B
  8
DATA
  6
CONTINUOUS
 62
     7
 10
13.117476300895831
 20
-33.632155767000711
 30
0.0
 40
0.3885007539240812
 50
292.30973370989511
 51
349.94506770794408
  0
ARC
  5
43C
  8
DATA
  6
CONTINUOUS
 62
     7
 10
12.32102931288132
 20
-31.970107008215219
 30
0.0
 40
2.230993658649274
 50
268.17579291497532
 51
295.03027839719101
  0
ARC
  5
43D
  8
DATA
  6
CONTINUOUS
 62
     7
 10
11.38254369910414
 20
-35.267814232999221
 30
0.0
 40
0.3885007539240812
 50
112.309733709895
 51
169.9450677079441
  0
ARC
  5
43E
  8
DATA
  6
CONTINUOUS
 62
     7
 10
12.178990687118651
 20
-36.929862991784709
 30
0.0
 40
2.230993658649274
 50
88.175792914975347
 51
115.030278397191
  0
ARC
  5
43F
  8
DATA
  6
CONTINUOUS
 62
     7
 10
11.38254369910414
 20
-35.132155767000711
 30
0.0
 40
0.3885007539240797
 50
190.05493229205581
 51
247.69026629010489
  0
ARC
  5
440
  8
DATA
  6
CONTINUOUS
 62
     7
 10
12.178990687118651
 20
-33.470107008215223
 30
0.0
 40
2.2309936586492811
 50
244.9697216028089
 51
271.82420708502468
  0
ARC
  5
441
  8
DATA
  6
CONTINUOUS
 62
     7
 10
13.117476300895831
 20
-35.267814232999221
 30
0.0
 40
0.3885007539240797
 50
10.05493229205589
 51
67.690266290104915
  0
ARC
  5
442
  8
DATA
  6
CONTINUOUS
 62
     7
 10
12.32102931288132
 20
-36.929862991784709
 30
0.0
 40
2.2309936586492811
 50
64.969721602808974
 51
91.824207085024653
  0
ARC
  5
443
  8
DATA
  6
CONTINUOUS
 62
     7
 10
13.117476300895831
 20
-35.132155767000711
 30
0.0
 40
0.3885007539240812
 50
292.30973370989511
 51
349.94506770794408
  0
ARC
  5
444
  8
DATA
  6
CONTINUOUS
 62
     7
 10
12.32102931288132
 20
-33.470107008215223
 30
0.0
 40
2.230993658649274
 50
268.17579291497532
 51
295.03027839719101
  0
ARC
  5
445
  8
DATA
  6
CONTINUOUS
 62
     7
 10
11.38254369910414
 20
-36.767814232999228
 30
0.0
 40
0.3885007539240812
 50
112.309733709895
 51
169.9450677079441
  0
ARC
  5
446
  8
DATA
  6
CONTINUOUS
 62
     7
 10
12.178990687118651
 20
-38.429862991784717
 30
0.0
 40
2.230993658649274
 50
88.175792914975347
 51
115.030278397191
  0
ARC
  5
447
  8
DATA
  6
CONTINUOUS
 62
     7
 10
11.38254369910414
 20
-36.632155767000711
 30
0.0
 40
0.3885007539240797
 50
190.05493229205581
 51
247.69026629010489
  0
ARC
  5
448
  8
DATA
  6
CONTINUOUS
 62
     7
 10
12.178990687118651
 20
-34.970107008215223
 30
0.0
 40
2.2309936586492811
 50
244.9697216028089
 51
271.82420708502468
  0
ARC
  5
449
  8
DATA
  6
CONTINUOUS
 62
     7
 10
13.117476300895831
 20
-36.767814232999228
 30
0.0
 40
0.3885007539240797
 50
10.05493229205589
 51
67.690266290104915
  0
ARC
  5
44A
  8
DATA
  6
CONTINUOUS
 62
     7
 10
12.32102931288132
 20
-38.429862991784717
 30
0.0
 40
2.2309936586492811
 50
64.969721602808974
 51
91.824207085024653
  0
ARC
  5
44B
  8
DATA
  6
CONTINUOUS
 62
     7
 10
13.117476300895831
 20
-36.632155767000711
 30
0.0
 40
0.3885007539240812
 50
292.30973370989511
 51
349.94506770794408
  0
ARC
  5
44C
  8
DATA
  6
CONTINUOUS
 62
     7
 10
12.32102931288132
 20
-34.970107008215223
 30
0.0
 40
2.230993658649274
 50
268.17579291497532
 51
295.03027839719101
  0
ARC
  5
44D
  8
DATA
  6
CONTINUOUS
 62
     7
 10
11.38254369910414
 20
-38.267814232999228
 30
0.0
 40
0.3885007539240812
 50
112.309733709895
 51
169.9450677079441
  0
ARC
  5
44E
  8
DATA
  6
CONTINUOUS
 62
     7
 10
12.178990687118651
 20
-39.929862991784717
 30
0.0
 40
2.230993658649274
 50
88.175792914975347
 51
115.030278397191
  0
ARC
  5
44F
  8
DATA
  6
CONTINUOUS
 62
     7
 10
11.38254369910414
 20
-38.132155767000711
 30
0.0
 40
0.3885007539240797
 50
190.05493229205581
 51
247.69026629010489
  0
ARC
  5
450
  8
DATA
  6
CONTINUOUS
 62
     7
 10
12.178990687118651
 20
-36.470107008215223
 30
0.0
 40
2.2309936586492811
 50
244.9697216028089
 51
271.82420708502468
  0
ARC
  5
451
  8
DATA
  6
CONTINUOUS
 62
     7
 10
13.117476300895831
 20
-38.267814232999228
 30
0.0
 40
0.3885007539240797
 50
10.05493229205589
 51
67.690266290104915
  0
ARC
  5
452
  8
DATA
  6
CONTINUOUS
 62
     7
 10
12.32102931288132
 20
-39.929862991784717
 30
0.0
 40
2.2309936586492811
 50
64.969721602808974
 51
91.824207085024653
  0
ARC
  5
453
  8
DATA
  6
CONTINUOUS
 62
     7
 10
13.117476300895831
 20
-38.132155767000711
 30
0.0
 40
0.3885007539240812
 50
292.30973370989511
 51
349.94506770794408
  0
ARC
  5
454
  8
DATA
  6
CONTINUOUS
 62
     7
 10
12.32102931288132
 20
-36.470107008215223
 30
0.0
 40
2.230993658649274
 50
268.17579291497532
 51
295.03027839719101
  0
ARC
  5
455
  8
DATA
  6
CONTINUOUS
 62
     7
 10
11.38254369910414
 20
-39.767814232999228
 30
0.0
 40
0.3885007539240812
 50
112.309733709895
 51
169.9450677079441
  0
ARC
  5
456
  8
DATA
  6
CONTINUOUS
 62
     7
 10
12.178990687118651
 20
-41.429862991784709
 30
0.0
 40
2.230993658649274
 50
88.175792914975347
 51
115.030278397191
  0
ARC
  5
457
  8
DATA
  6
CONTINUOUS
 62
     7
 10
11.38254369910414
 20
-39.632155767000711
 30
0.0
 40
0.3885007539240797
 50
190.05493229205581
 51
247.69026629010489
  0
ARC
  5
458
  8
DATA
  6
CONTINUOUS
 62
     7
 10
12.178990687118651
 20
-37.970107008215223
 30
0.0
 40
2.2309936586492811
 50
244.9697216028089
 51
271.82420708502468
  0
ARC
  5
459
  8
DATA
  6
CONTINUOUS
 62
     7
 10
13.117476300895831
 20
-39.767814232999228
 30
0.0
 40
0.3885007539240797
 50
10.05493229205589
 51
67.690266290104915
  0
ARC
  5
45A
  8
DATA
  6
CONTINUOUS
 62
     7
 10
12.32102931288132
 20
-41.429862991784709
 30
0.0
 40
2.2309936586492811
 50
64.969721602808974
 51
91.824207085024653
  0
ARC
  5
45B
  8
DATA
  6
CONTINUOUS
 62
     7
 10
13.117476300895831
 20
-39.632155767000711
 30
0.0
 40
0.3885007539240812
 50
292.30973370989511
 51
349.94506770794408
  0
ARC
  5
45C
  8
DATA
  6
CONTINUOUS
 62
     7
 10
12.32102931288132
 20
-37.970107008215223
 30
0.0
 40
2.230993658649274
 50
268.17579291497532
 51
295.03027839719101
  0
ARC
  5
45D
  8
DATA
  6
CONTINUOUS
 62
     7
 10
11.38254369910414
 20
-41.267814232999228
 30
0.0
 40
0.3885007539240812
 50
112.309733709895
 51
169.9450677079441
  0
ARC
  5
45E
  8
DATA
  6
CONTINUOUS
 62
     7
 10
12.178990687118651
 20
-42.929862991784717
 30
0.0
 40
2.230993658649274
 50
88.175792914975347
 51
115.030278397191
  0
ARC
  5
45F
  8
DATA
  6
CONTINUOUS
 62
     7
 10
11.38254369910414
 20
-41.132155767000711
 30
0.0
 40
0.3885007539240797
 50
190.05493229205581
 51
247.69026629010489
  0
ARC
  5
460
  8
DATA
  6
CONTINUOUS
 62
     7
 10
12.178990687118651
 20
-39.470107008215223
 30
0.0
 40
2.2309936586492811
 50
244.9697216028089
 51
271.82420708502468
  0
ARC
  5
461
  8
DATA
  6
CONTINUOUS
 62
     7
 10
13.117476300895831
 20
-41.267814232999228
 30
0.0
 40
0.3885007539240797
 50
10.05493229205589
 51
67.690266290104915
  0
ARC
  5
462
  8
DATA
  6
CONTINUOUS
 62
     7
 10
12.32102931288132
 20
-42.929862991784717
 30
0.0
 40
2.2309936586492811
 50
64.969721602808974
 51
91.824207085024653
  0
ARC
  5
463
  8
DATA
  6
CONTINUOUS
 62
     7
 10
13.117476300895831
 20
-41.132155767000711
 30
0.0
 40
0.3885007539240812
 50
292.30973370989511
 51
349.94506770794408
  0
ARC
  5
464
  8
DATA
  6
CONTINUOUS
 62
     7
 10
12.32102931288132
 20
-39.470107008215223
 30
0.0
 40
2.230993658649274
 50
268.17579291497532
 51
295.03027839719101
  0
ARC
  5
465
  8
DATA
  6
CONTINUOUS
 62
     7
 10
11.38254369910414
 20
-42.767814232999221
 30
0.0
 40
0.3885007539240812
 50
112.309733709895
 51
169.9450677079441
  0
ARC
  5
466
  8
DATA
  6
CONTINUOUS
 62
     7
 10
12.178990687118651
 20
-44.429862991784709
 30
0.0
 40
2.230993658649274
 50
88.175792914975347
 51
115.030278397191
  0
ARC
  5
467
  8
DATA
  6
CONTINUOUS
 62
     7
 10
11.38254369910414
 20
-42.632155767000711
 30
0.0
 40
0.3885007539240797
 50
190.05493229205581
 51
247.69026629010489
  0
ARC
  5
468
  8
DATA
  6
CONTINUOUS
 62
     7
 10
12.178990687118651
 20
-40.970107008215223
 30
0.0
 40
2.2309936586492811
 50
244.9697216028089
 51
271.82420708502468
  0
ARC
  5
469
  8
DATA
  6
CONTINUOUS
 62
     7
 10
13.117476300895831
 20
-42.767814232999221
 30
0.0
 40
0.3885007539240797
 50
10.05493229205589
 51
67.690266290104915
  0
ARC
  5
46A
  8
DATA
  6
CONTINUOUS
 62
     7
 10
12.32102931288132
 20
-44.429862991784709
 30
0.0
 40
2.2309936586492811
 50
64.969721602808974
 51
91.824207085024653
  0
ARC
  5
46B
  8
DATA
  6
CONTINUOUS
 62
     7
 10
13.117476300895831
 20
-42.632155767000711
 30
0.0
 40
0.3885007539240812
 50
292.30973370989511
 51
349.94506770794408
  0
ARC
  5
46C
  8
DATA
  6
CONTINUOUS
 62
     7
 10
12.32102931288132
 20
-40.970107008215223
 30
0.0
 40
2.230993658649274
 50
268.17579291497532
 51
295.03027839719101
  0
ARC
  5
46D
  8
DATA
  6
CONTINUOUS
 62
     7
 10
14.88254369910414
 20
-33.767814232999221
 30
0.0
 40
0.3885007539240812
 50
112.309733709895
 51
169.9450677079441
  0
ARC
  5
46E
  8
DATA
  6
CONTINUOUS
 62
     7
 10
15.678990687118651
 20
-35.429862991784709
 30
0.0
 40
2.230993658649274
 50
88.175792914975347
 51
115.030278397191
  0
ARC
  5
46F
  8
DATA
  6
CONTINUOUS
 62
     7
 10
14.88254369910414
 20
-33.632155767000711
 30
0.0
 40
0.3885007539240797
 50
190.05493229205581
 51
247.69026629010489
  0
ARC
  5
470
  8
DATA
  6
CONTINUOUS
 62
     7
 10
15.678990687118651
 20
-31.970107008215219
 30
0.0
 40
2.2309936586492811
 50
244.9697216028089
 51
271.82420708502468
  0
ARC
  5
471
  8
DATA
  6
CONTINUOUS
 62
     7
 10
16.617476300895831
 20
-33.767814232999221
 30
0.0
 40
0.3885007539240797
 50
10.05493229205589
 51
67.690266290104915
  0
ARC
  5
472
  8
DATA
  6
CONTINUOUS
 62
     7
 10
15.82102931288132
 20
-35.429862991784709
 30
0.0
 40
2.2309936586492811
 50
64.969721602808974
 51
91.824207085024653
  0
ARC
  5
473
  8
DATA
  6
CONTINUOUS
 62
     7
 10
16.617476300895831
 20
-33.632155767000711
 30
0.0
 40
0.3885007539240812
 50
292.30973370989511
 51
349.94506770794408
  0
ARC
  5
474
  8
DATA
  6
CONTINUOUS
 62
     7
 10
15.82102931288132
 20
-31.970107008215219
 30
0.0
 40
2.230993658649274
 50
268.17579291497532
 51
295.03027839719101
  0
ARC
  5
475
  8
DATA
  6
CONTINUOUS
 62
     7
 10
14.88254369910414
 20
-35.267814232999221
 30
0.0
 40
0.3885007539240812
 50
112.309733709895
 51
169.9450677079441
  0
ARC
  5
476
  8
DATA
  6
CONTINUOUS
 62
     7
 10
15.678990687118651
 20
-36.929862991784709
 30
0.0
 40
2.230993658649274
 50
88.175792914975347
 51
115.030278397191
  0
ARC
  5
477
  8
DATA
  6
CONTINUOUS
 62
     7
 10
14.88254369910414
 20
-35.132155767000711
 30
0.0
 40
0.3885007539240797
 50
190.05493229205581
 51
247.69026629010489
  0
ARC
  5
478
  8
DATA
  6
CONTINUOUS
 62
     7
 10
15.678990687118651
 20
-33.470107008215223
 30
0.0
 40
2.2309936586492811
 50
244.9697216028089
 51
271.82420708502468
  0
ARC
  5
479
  8
DATA
  6
CONTINUOUS
 62
     7
 10
16.617476300895831
 20
-35.267814232999221
 30
0.0
 40
0.3885007539240797
 50
10.05493229205589
 51
67.690266290104915
  0
ARC
  5
47A
  8
DATA
  6
CONTINUOUS
 62
     7
 10
15.82102931288132
 20
-36.929862991784709
 30
0.0
 40
2.2309936586492811
 50
64.969721602808974
 51
91.824207085024653
  0
ARC
  5
47B
  8
DATA
  6
CONTINUOUS
 62
     7
 10
16.617476300895831
 20
-35.132155767000711
 30
0.0
 40
0.3885007539240812
 50
292.30973370989511
 51
349.94506770794408
  0
ARC
  5
47C
  8
DATA
  6
CONTINUOUS
 62
     7
 10
15.82102931288132
 20
-33.470107008215223
 30
0.0
 40
2.230993658649274
 50
268.17579291497532
 51
295.03027839719101
  0
ARC
  5
47D
  8
DATA
  6
CONTINUOUS
 62
     7
 10
14.88254369910414
 20
-36.767814232999228
 30
0.0
 40
0.3885007539240812
 50
112.309733709895
 51
169.9450677079441
  0
ARC
  5
47E
  8
DATA
  6
CONTINUOUS
 62
     7
 10
15.678990687118651
 20
-38.429862991784717
 30
0.0
 40
2.230993658649274
 50
88.175792914975347
 51
115.030278397191
  0
ARC
  5
47F
  8
DATA
  6
CONTINUOUS
 62
     7
 10
14.88254369910414
 20
-36.632155767000711
 30
0.0
 40
0.3885007539240797
 50
190.05493229205581
 51
247.69026629010489
  0
ARC
  5
480
  8
DATA
  6
CONTINUOUS
 62
     7
 10
15.678990687118651
 20
-34.970107008215223
 30
0.0
 40
2.2309936586492811
 50
244.9697216028089
 51
271.82420708502468
  0
ARC
  5
481
  8
DATA
  6
CONTINUOUS
 62
     7
 10
16.617476300895831
 20
-36.767814232999228
 30
0.0
 40
0.3885007539240797
 50
10.05493229205589
 51
67.690266290104915
  0
ARC
  5
482
  8
DATA
  6
CONTINUOUS
 62
     7
 10
15.82102931288132
 20
-38.429862991784717
 30
0.0
 40
2.2309936586492811
 50
64.969721602808974
 51
91.824207085024653
  0
ARC
  5
483
  8
DATA
  6
CONTINUOUS
 62
     7
 10
16.617476300895831
 20
-36.632155767000711
 30
0.0
 40
0.3885007539240812
 50
292.30973370989511
 51
349.94506770794408
  0
ARC
  5
484
  8
DATA
  6
CONTINUOUS
 62
     7
 10
15.82102931288132
 20
-34.970107008215223
 30
0.0
 40
2.230993658649274
 50
268.17579291497532
 51
295.03027839719101
  0
ARC
  5
485
  8
DATA
  6
CONTINUOUS
 62
     7
 10
14.88254369910414
 20
-38.267814232999228
 30
0.0
 40
0.3885007539240812
 50
112.309733709895
 51
169.9450677079441
  0
ARC
  5
486
  8
DATA
  6
CONTINUOUS
 62
     7
 10
15.678990687118651
 20
-39.929862991784717
 30
0.0
 40
2.230993658649274
 50
88.175792914975347
 51
115.030278397191
  0
ARC
  5
487
  8
DATA
  6
CONTINUOUS
 62
     7
 10
14.88254369910414
 20
-38.132155767000711
 30
0.0
 40
0.3885007539240797
 50
190.05493229205581
 51
247.69026629010489
  0
ARC
  5
488
  8
DATA
  6
CONTINUOUS
 62
     7
 10
15.678990687118651
 20
-36.470107008215223
 30
0.0
 40
2.2309936586492811
 50
244.9697216028089
 51
271.82420708502468
  0
ARC
  5
489
  8
DATA
  6
CONTINUOUS
 62
     7
 10
16.617476300895831
 20
-38.267814232999228
 30
0.0
 40
0.3885007539240797
 50
10.05493229205589
 51
67.690266290104915
  0
ARC
  5
48A
  8
DATA
  6
CONTINUOUS
 62
     7
 10
15.82102931288132
 20
-39.929862991784717
 30
0.0
 40
2.2309936586492811
 50
64.969721602808974
 51
91.824207085024653
  0
ARC
  5
48B
  8
DATA
  6
CONTINUOUS
 62
     7
 10
16.617476300895831
 20
-38.132155767000711
 30
0.0
 40
0.3885007539240812
 50
292.30973370989511
 51
349.94506770794408
  0
ARC
  5
48C
  8
DATA
  6
CONTINUOUS
 62
     7
 10
15.82102931288132
 20
-36.470107008215223
 30
0.0
 40
2.230993658649274
 50
268.17579291497532
 51
295.03027839719101
  0
ARC
  5
48D
  8
DATA
  6
CONTINUOUS
 62
     7
 10
14.88254369910414
 20
-39.767814232999228
 30
0.0
 40
0.3885007539240812
 50
112.309733709895
 51
169.9450677079441
  0
ARC
  5
48E
  8
DATA
  6
CONTINUOUS
 62
     7
 10
15.678990687118651
 20
-41.429862991784709
 30
0.0
 40
2.230993658649274
 50
88.175792914975347
 51
115.030278397191
  0
ARC
  5
48F
  8
DATA
  6
CONTINUOUS
 62
     7
 10
14.88254369910414
 20
-39.632155767000711
 30
0.0
 40
0.3885007539240797
 50
190.05493229205581
 51
247.69026629010489
  0
ARC
  5
490
  8
DATA
  6
CONTINUOUS
 62
     7
 10
15.678990687118651
 20
-37.970107008215223
 30
0.0
 40
2.2309936586492811
 50
244.9697216028089
 51
271.82420708502468
  0
ARC
  5
491
  8
DATA
  6
CONTINUOUS
 62
     7
 10
16.617476300895831
 20
-39.767814232999228
 30
0.0
 40
0.3885007539240797
 50
10.05493229205589
 51
67.690266290104915
  0
ARC
  5
492
  8
DATA
  6
CONTINUOUS
 62
     7
 10
15.82102931288132
 20
-41.429862991784709
 30
0.0
 40
2.2309936586492811
 50
64.969721602808974
 51
91.824207085024653
  0
ARC
  5
493
  8
DATA
  6
CONTINUOUS
 62
     7
 10
16.617476300895831
 20
-39.632155767000711
 30
0.0
 40
0.3885007539240812
 50
292.30973370989511
 51
349.94506770794408
  0
ARC
  5
494
  8
DATA
  6
CONTINUOUS
 62
     7
 10
15.82102931288132
 20
-37.970107008215223
 30
0.0
 40
2.230993658649274
 50
268.17579291497532
 51
295.03027839719101
  0
ARC
  5
495
  8
DATA
  6
CONTINUOUS
 62
     7
 10
14.88254369910414
 20
-41.267814232999228
 30
0.0
 40
0.3885007539240812
 50
112.309733709895
 51
169.9450677079441
  0
ARC
  5
496
  8
DATA
  6
CONTINUOUS
 62
     7
 10
15.678990687118651
 20
-42.929862991784717
 30
0.0
 40
2.230993658649274
 50
88.175792914975347
 51
115.030278397191
  0
ARC
  5
497
  8
DATA
  6
CONTINUOUS
 62
     7
 10
14.88254369910414
 20
-41.132155767000711
 30
0.0
 40
0.3885007539240797
 50
190.05493229205581
 51
247.69026629010489
  0
ARC
  5
498
  8
DATA
  6
CONTINUOUS
 62
     7
 10
15.678990687118651
 20
-39.470107008215223
 30
0.0
 40
2.2309936586492811
 50
244.9697216028089
 51
271.82420708502468
  0
ARC
  5
499
  8
DATA
  6
CONTINUOUS
 62
     7
 10
16.617476300895831
 20
-41.267814232999228
 30
0.0
 40
0.3885007539240797
 50
10.05493229205589
 51
67.690266290104915
  0
ARC
  5
49A
  8
DATA
  6
CONTINUOUS
 62
     7
 10
15.82102931288132
 20
-42.929862991784717
 30
0.0
 40
2.2309936586492811
 50
64.969721602808974
 51
91.824207085024653
  0
ARC
  5
49B
  8
DATA
  6
CONTINUOUS
 62
     7
 10
16.617476300895831
 20
-41.132155767000711
 30
0.0
 40
0.3885007539240812
 50
292.30973370989511
 51
349.94506770794408
  0
ARC
  5
49C
  8
DATA
  6
CONTINUOUS
 62
     7
 10
15.82102931288132
 20
-39.470107008215223
 30
0.0
 40
2.230993658649274
 50
268.17579291497532
 51
295.03027839719101
  0
ARC
  5
49D
  8
DATA
  6
CONTINUOUS
 62
     7
 10
14.88254369910414
 20
-42.767814232999221
 30
0.0
 40
0.3885007539240812
 50
112.309733709895
 51
169.9450677079441
  0
ARC
  5
49E
  8
DATA
  6
CONTINUOUS
 62
     7
 10
15.678990687118651
 20
-44.429862991784709
 30
0.0
 40
2.230993658649274
 50
88.175792914975347
 51
115.030278397191
  0
ARC
  5
49F
  8
DATA
  6
CONTINUOUS
 62
     7
 10
14.88254369910414
 20
-42.632155767000711
 30
0.0
 40
0.3885007539240797
 50
190.05493229205581
 51
247.69026629010489
  0
ARC
  5
4A0
  8
DATA
  6
CONTINUOUS
 62
     7
 10
15.678990687118651
 20
-40.970107008215223
 30
0.0
 40
2.2309936586492811
 50
244.9697216028089
 51
271.82420708502468
  0
ARC
  5
4A1
  8
DATA
  6
CONTINUOUS
 62
     7
 10
16.617476300895831
 20
-42.767814232999221
 30
0.0
 40
0.3885007539240797
 50
10.05493229205589
 51
67.690266290104915
  0
ARC
  5
4A2
  8
DATA
  6
CONTINUOUS
 62
     7
 10
15.82102931288132
 20
-44.429862991784709
 30
0.0
 40
2.2309936586492811
 50
64.969721602808974
 51
91.824207085024653
  0
ARC
  5
4A3
  8
DATA
  6
CONTINUOUS
 62
     7
 10
16.617476300895831
 20
-42.632155767000711
 30
0.0
 40
0.3885007539240812
 50
292.30973370989511
 51
349.94506770794408
  0
ARC
  5
4A4
  8
DATA
  6
CONTINUOUS
 62
     7
 10
15.82102931288132
 20
-40.970107008215223
 30
0.0
 40
2.230993658649274
 50
268.17579291497532
 51
295.03027839719101
  0
ARC
  5
4A5
  8
DATA
  6
CONTINUOUS
 62
     7
 10
18.38254369910414
 20
-35.267814232999221
 30
0.0
 40
0.3885007539240812
 50
112.309733709895
 51
169.9450677079441
  0
ARC
  5
4A6
  8
DATA
  6
CONTINUOUS
 62
     7
 10
19.178990687118649
 20
-36.929862991784709
 30
0.0
 40
2.230993658649274
 50
88.175792914975347
 51
115.030278397191
  0
ARC
  5
4A7
  8
DATA
  6
CONTINUOUS
 62
     7
 10
18.38254369910414
 20
-35.132155767000711
 30
0.0
 40
0.3885007539240797
 50
190.05493229205581
 51
247.69026629010489
  0
ARC
  5
4A8
  8
DATA
  6
CONTINUOUS
 62
     7
 10
19.178990687118649
 20
-33.470107008215223
 30
0.0
 40
2.2309936586492811
 50
244.9697216028089
 51
271.82420708502468
  0
ARC
  5
4A9
  8
DATA
  6
CONTINUOUS
 62
     7
 10
20.117476300895831
 20
-35.267814232999221
 30
0.0
 40
0.3885007539240797
 50
10.05493229205589
 51
67.690266290104915
  0
ARC
  5
4AA
  8
DATA
  6
CONTINUOUS
 62
     7
 10
19.321029312881318
 20
-36.929862991784709
 30
0.0
 40
2.2309936586492811
 50
64.969721602808974
 51
91.824207085024653
  0
ARC
  5
4AB
  8
DATA
  6
CONTINUOUS
 62
     7
 10
20.117476300895831
 20
-35.132155767000711
 30
0.0
 40
0.3885007539240812
 50
292.30973370989511
 51
349.94506770794408
  0
ARC
  5
4AC
  8
DATA
  6
CONTINUOUS
 62
     7
 10
19.321029312881318
 20
-33.470107008215223
 30
0.0
 40
2.230993658649274
 50
268.17579291497532
 51
295.03027839719101
  0
ARC
  5
4AD
  8
DATA
  6
CONTINUOUS
 62
     7
 10
18.38254369910414
 20
-36.767814232999228
 30
0.0
 40
0.3885007539240812
 50
112.309733709895
 51
169.9450677079441
  0
ARC
  5
4AE
  8
DATA
  6
CONTINUOUS
 62
     7
 10
19.178990687118649
 20
-38.429862991784717
 30
0.0
 40
2.230993658649274
 50
88.175792914975347
 51
115.030278397191
  0
ARC
  5
4AF
  8
DATA
  6
CONTINUOUS
 62
     7
 10
18.38254369910414
 20
-36.632155767000711
 30
0.0
 40
0.3885007539240797
 50
190.05493229205581
 51
247.69026629010489
  0
ARC
  5
4B0
  8
DATA
  6
CONTINUOUS
 62
     7
 10
19.178990687118649
 20
-34.970107008215223
 30
0.0
 40
2.2309936586492811
 50
244.9697216028089
 51
271.82420708502468
  0
ARC
  5
4B1
  8
DATA
  6
CONTINUOUS
 62
     7
 10
20.117476300895831
 20
-36.767814232999228
 30
0.0
 40
0.3885007539240797
 50
10.05493229205589
 51
67.690266290104915
  0
ARC
  5
4B2
  8
DATA
  6
CONTINUOUS
 62
     7
 10
19.321029312881318
 20
-38.429862991784717
 30
0.0
 40
2.2309936586492811
 50
64.969721602808974
 51
91.824207085024653
  0
ARC
  5
4B3
  8
DATA
  6
CONTINUOUS
 62
     7
 10
20.117476300895831
 20
-36.632155767000711
 30
0.0
 40
0.3885007539240812
 50
292.30973370989511
 51
349.94506770794408
  0
ARC
  5
4B4
  8
DATA
  6
CONTINUOUS
 62
     7
 10
19.321029312881318
 20
-34.970107008215223
 30
0.0
 40
2.230993658649274
 50
268.17579291497532
 51
295.03027839719101
  0
ARC
  5
4B5
  8
DATA
  6
CONTINUOUS
 62
     7
 10
18.38254369910414
 20
-38.267814232999228
 30
0.0
 40
0.3885007539240812
 50
112.309733709895
 51
169.9450677079441
  0
ARC
  5
4B6
  8
DATA
  6
CONTINUOUS
 62
     7
 10
19.178990687118649
 20
-39.929862991784717
 30
0.0
 40
2.230993658649274
 50
88.175792914975347
 51
115.030278397191
  0
ARC
  5
4B7
  8
DATA
  6
CONTINUOUS
 62
     7
 10
18.38254369910414
 20
-38.132155767000711
 30
0.0
 40
0.3885007539240797
 50
190.05493229205581
 51
247.69026629010489
  0
ARC
  5
4B8
  8
DATA
  6
CONTINUOUS
 62
     7
 10
19.178990687118649
 20
-36.470107008215223
 30
0.0
 40
2.2309936586492811
 50
244.9697216028089
 51
271.82420708502468
  0
ARC
  5
4B9
  8
DATA
  6
CONTINUOUS
 62
     7
 10
20.117476300895831
 20
-38.267814232999228
 30
0.0
 40
0.3885007539240797
 50
10.05493229205589
 51
67.690266290104915
  0
ARC
  5
4BA
  8
DATA
  6
CONTINUOUS
 62
     7
 10
19.321029312881318
 20
-39.929862991784717
 30
0.0
 40
2.2309936586492811
 50
64.969721602808974
 51
91.824207085024653
  0
ARC
  5
4BB
  8
DATA
  6
CONTINUOUS
 62
     7
 10
20.117476300895831
 20
-38.132155767000711
 30
0.0
 40
0.3885007539240812
 50
292.30973370989511
 51
349.94506770794408
  0
ARC
  5
4BC
  8
DATA
  6
CONTINUOUS
 62
     7
 10
19.321029312881318
 20
-36.470107008215223
 30
0.0
 40
2.230993658649274
 50
268.17579291497532
 51
295.03027839719101
  0
ARC
  5
4BD
  8
DATA
  6
CONTINUOUS
 62
     7
 10
18.38254369910414
 20
-39.767814232999228
 30
0.0
 40
0.3885007539240812
 50
112.309733709895
 51
169.9450677079441
  0
ARC
  5
4BE
  8
DATA
  6
CONTINUOUS
 62
     7
 10
19.178990687118649
 20
-41.429862991784709
 30
0.0
 40
2.230993658649274
 50
88.175792914975347
 51
115.030278397191
  0
ARC
  5
4BF
  8
DATA
  6
CONTINUOUS
 62
     7
 10
18.38254369910414
 20
-39.632155767000711
 30
0.0
 40
0.3885007539240797
 50
190.05493229205581
 51
247.69026629010489
  0
ARC
  5
4C0
  8
DATA
  6
CONTINUOUS
 62
     7
 10
19.178990687118649
 20
-37.970107008215223
 30
0.0
 40
2.2309936586492811
 50
244.9697216028089
 51
271.82420708502468
  0
ARC
  5
4C1
  8
DATA
  6
CONTINUOUS
 62
     7
 10
20.117476300895831
 20
-39.767814232999228
 30
0.0
 40
0.3885007539240797
 50
10.05493229205589
 51
67.690266290104915
  0
ARC
  5
4C2
  8
DATA
  6
CONTINUOUS
 62
     7
 10
19.321029312881318
 20
-41.429862991784709
 30
0.0
 40
2.2309936586492811
 50
64.969721602808974
 51
91.824207085024653
  0
ARC
  5
4C3
  8
DATA
  6
CONTINUOUS
 62
     7
 10
20.117476300895831
 20
-39.632155767000711
 30
0.0
 40
0.3885007539240812
 50
292.30973370989511
 51
349.94506770794408
  0
ARC
  5
4C4
  8
DATA
  6
CONTINUOUS
 62
     7
 10
19.321029312881318
 20
-37.970107008215223
 30
0.0
 40
2.230993658649274
 50
268.17579291497532
 51
295.03027839719101
  0
ARC
  5
4C5
  8
DATA
  6
CONTINUOUS
 62
     7
 10
18.38254369910414
 20
-41.267814232999228
 30
0.0
 40
0.3885007539240812
 50
112.309733709895
 51
169.9450677079441
  0
ARC
  5
4C6
  8
DATA
  6
CONTINUOUS
 62
     7
 10
19.178990687118649
 20
-42.929862991784717
 30
0.0
 40
2.230993658649274
 50
88.175792914975347
 51
115.030278397191
  0
ARC
  5
4C7
  8
DATA
  6
CONTINUOUS
 62
     7
 10
18.38254369910414
 20
-41.132155767000711
 30
0.0
 40
0.3885007539240797
 50
190.05493229205581
 51
247.69026629010489
  0
ARC
  5
4C8
  8
DATA
  6
CONTINUOUS
 62
     7
 10
19.178990687118649
 20
-39.470107008215223
 30
0.0
 40
2.2309936586492811
 50
244.9697216028089
 51
271.82420708502468
  0
ARC
  5
4C9
  8
DATA
  6
CONTINUOUS
 62
     7
 10
20.117476300895831
 20
-41.267814232999228
 30
0.0
 40
0.3885007539240797
 50
10.05493229205589
 51
67.690266290104915
  0
ARC
  5
4CA
  8
DATA
  6
CONTINUOUS
 62
     7
 10
19.321029312881318
 20
-42.929862991784717
 30
0.0
 40
2.2309936586492811
 50
64.969721602808974
 51
91.824207085024653
  0
ARC
  5
4CB
  8
DATA
  6
CONTINUOUS
 62
     7
 10
20.117476300895831
 20
-41.132155767000711
 30
0.0
 40
0.3885007539240812
 50
292.30973370989511
 51
349.94506770794408
  0
ARC
  5
4CC
  8
DATA
  6
CONTINUOUS
 62
     7
 10
19.321029312881318
 20
-39.470107008215223
 30
0.0
 40
2.230993658649274
 50
268.17579291497532
 51
295.03027839719101
  0
ARC
  5
4CD
  8
DATA
  6
CONTINUOUS
 62
     7
 10
18.38254369910414
 20
-42.767814232999221
 30
0.0
 40
0.3885007539240812
 50
112.309733709895
 51
169.9450677079441
  0
ARC
  5
4CE
  8
DATA
  6
CONTINUOUS
 62
     7
 10
19.178990687118649
 20
-44.429862991784709
 30
0.0
 40
2.230993658649274
 50
88.175792914975347
 51
115.030278397191
  0
ARC
  5
4CF
  8
DATA
  6
CONTINUOUS
 62
     7
 10
18.38254369910414
 20
-42.632155767000711
 30
0.0
 40
0.3885007539240797
 50
190.05493229205581
 51
247.69026629010489
  0
ARC
  5
4D0
  8
DATA
  6
CONTINUOUS
 62
     7
 10
19.178990687118649
 20
-40.970107008215223
 30
0.0
 40
2.2309936586492811
 50
244.9697216028089
 51
271.82420708502468
  0
ARC
  5
4D1
  8
DATA
  6
CONTINUOUS
 62
     7
 10
20.117476300895831
 20
-42.767814232999221
 30
0.0
 40
0.3885007539240797
 50
10.05493229205589
 51
67.690266290104915
  0
ARC
  5
4D2
  8
DATA
  6
CONTINUOUS
 62
     7
 10
19.321029312881318
 20
-44.429862991784709
 30
0.0
 40
2.2309936586492811
 50
64.969721602808974
 51
91.824207085024653
  0
ARC
  5
4D3
  8
DATA
  6
CONTINUOUS
 62
     7
 10
20.117476300895831
 20
-42.632155767000711
 30
0.0
 40
0.3885007539240812
 50
292.30973370989511
 51
349.94506770794408
  0
ARC
  5
4D4
  8
DATA
  6
CONTINUOUS
 62
     7
 10
19.321029312881318
 20
-40.970107008215223
 30
0.0
 40
2.230993658649274
 50
268.17579291497532
 51
295.03027839719101
  0
ARC
  5
4D5
  8
DATA
  6
CONTINUOUS
 62
     7
 10
21.88254369910414
 20
-36.767814232999228
 30
0.0
 40
0.3885007539240812
 50
112.309733709895
 51
169.9450677079441
  0
ARC
  5
4D6
  8
DATA
  6
CONTINUOUS
 62
     7
 10
22.678990687118649
 20
-38.429862991784717
 30
0.0
 40
2.230993658649274
 50
98.482121063230963
 51
115.030278397191
  0
ARC
  5
4D7
  8
DATA
  6
CONTINUOUS
 62
     7
 10
21.88254369910414
 20
-36.632155767000711
 30
0.0
 40
0.3885007539240797
 50
190.05493229205581
 51
247.69026629010489
  0
ARC
  5
4D8
  8
DATA
  6
CONTINUOUS
 62
     7
 10
22.678990687118649
 20
-34.970107008215223
 30
0.0
 40
2.2309936586492811
 50
244.9697216028089
 51
271.82420708502468
  0
ARC
  5
4D9
  8
DATA
  6
CONTINUOUS
 62
     7
 10
22.821029312881318
 20
-34.970107008215223
 30
0.0
 40
2.230993658649274
 50
268.17579291497532
 51
290.2182061240336
  0
ARC
  5
4DA
  8
DATA
  6
CONTINUOUS
 62
     7
 10
21.88254369910414
 20
-38.267814232999228
 30
0.0
 40
0.3885007539240812
 50
112.309733709895
 51
169.9450677079441
  0
ARC
  5
4DB
  8
DATA
  6
CONTINUOUS
 62
     7
 10
22.678990687118649
 20
-39.929862991784717
 30
0.0
 40
2.230993658649274
 50
88.175792914975347
 51
115.030278397191
  0
ARC
  5
4DC
  8
DATA
  6
CONTINUOUS
 62
     7
 10
21.88254369910414
 20
-38.132155767000711
 30
0.0
 40
0.3885007539240797
 50
190.05493229205581
 51
247.69026629010489
  0
ARC
  5
4DD
  8
DATA
  6
CONTINUOUS
 62
     7
 10
22.678990687118649
 20
-36.470107008215223
 30
0.0
 40
2.2309936586492811
 50
244.9697216028089
 51
271.82420708502468
  0
ARC
  5
4DE
  8
DATA
  6
CONTINUOUS
 62
     7
 10
23.61747630089582
 20
-38.267814232999228
 30
0.0
 40
0.3885007539240797
 50
10.05493229205589
 51
67.690266290104915
  0
ARC
  5
4DF
  8
DATA
  6
CONTINUOUS
 62
     7
 10
22.821029312881318
 20
-39.929862991784717
 30
0.0
 40
2.2309936586492811
 50
64.969721602808974
 51
91.824207085024653
  0
ARC
  5
4E0
  8
DATA
  6
CONTINUOUS
 62
     7
 10
23.61747630089582
 20
-38.132155767000711
 30
0.0
 40
0.3885007539240812
 50
292.30973370989511
 51
349.94506770794408
  0
ARC
  5
4E1
  8
DATA
  6
CONTINUOUS
 62
     7
 10
22.821029312881318
 20
-36.470107008215223
 30
0.0
 40
2.230993658649274
 50
268.17579291497532
 51
295.03027839719101
  0
ARC
  5
4E2
  8
DATA
  6
CONTINUOUS
 62
     7
 10
21.88254369910414
 20
-39.767814232999228
 30
0.0
 40
0.3885007539240812
 50
112.309733709895
 51
169.9450677079441
  0
ARC
  5
4E3
  8
DATA
  6
CONTINUOUS
 62
     7
 10
22.678990687118649
 20
-41.429862991784709
 30
0.0
 40
2.230993658649274
 50
88.175792914975347
 51
115.030278397191
  0
ARC
  5
4E4
  8
DATA
  6
CONTINUOUS
 62
     7
 10
21.88254369910414
 20
-39.632155767000711
 30
0.0
 40
0.3885007539240797
 50
190.05493229205581
 51
247.69026629010489
  0
ARC
  5
4E5
  8
DATA
  6
CONTINUOUS
 62
     7
 10
22.678990687118649
 20
-37.970107008215223
 30
0.0
 40
2.2309936586492811
 50
244.9697216028089
 51
271.82420708502468
  0
ARC
  5
4E6
  8
DATA
  6
CONTINUOUS
 62
     7
 10
23.61747630089582
 20
-39.767814232999228
 30
0.0
 40
0.3885007539240797
 50
10.05493229205589
 51
67.690266290104915
  0
ARC
  5
4E7
  8
DATA
  6
CONTINUOUS
 62
     7
 10
22.821029312881318
 20
-41.429862991784709
 30
0.0
 40
2.2309936586492811
 50
64.969721602808974
 51
91.824207085024653
  0
ARC
  5
4E8
  8
DATA
  6
CONTINUOUS
 62
     7
 10
23.61747630089582
 20
-39.632155767000711
 30
0.0
 40
0.3885007539240812
 50
292.30973370989511
 51
349.94506770794408
  0
ARC
  5
4E9
  8
DATA
  6
CONTINUOUS
 62
     7
 10
22.821029312881318
 20
-37.970107008215223
 30
0.0
 40
2.230993658649274
 50
268.17579291497532
 51
295.03027839719101
  0
ARC
  5
4EA
  8
DATA
  6
CONTINUOUS
 62
     7
 10
21.88254369910414
 20
-41.267814232999228
 30
0.0
 40
0.3885007539240812
 50
112.309733709895
 51
169.9450677079441
  0
ARC
  5
4EB
  8
DATA
  6
CONTINUOUS
 62
     7
 10
22.678990687118649
 20
-42.929862991784717
 30
0.0
 40
2.230993658649274
 50
88.175792914975347
 51
115.030278397191
  0
ARC
  5
4EC
  8
DATA
  6
CONTINUOUS
 62
     7
 10
21.88254369910414
 20
-41.132155767000711
 30
0.0
 40
0.3885007539240797
 50
190.05493229205581
 51
247.69026629010489
  0
ARC
  5
4ED
  8
DATA
  6
CONTINUOUS
 62
     7
 10
22.678990687118649
 20
-39.470107008215223
 30
0.0
 40
2.2309936586492811
 50
244.9697216028089
 51
271.82420708502468
  0
ARC
  5
4EE
  8
DATA
  6
CONTINUOUS
 62
     7
 10
23.61747630089582
 20
-41.267814232999228
 30
0.0
 40
0.3885007539240797
 50
10.05493229205589
 51
67.690266290104915
  0
ARC
  5
4EF
  8
DATA
  6
CONTINUOUS
 62
     7
 10
22.821029312881318
 20
-42.929862991784717
 30
0.0
 40
2.2309936586492811
 50
64.969721602808974
 51
91.824207085024653
  0
ARC
  5
4F0
  8
DATA
  6
CONTINUOUS
 62
     7
 10
23.61747630089582
 20
-41.132155767000711
 30
0.0
 40
0.3885007539240812
 50
292.30973370989511
 51
349.94506770794408
  0
ARC
  5
4F1
  8
DATA
  6
CONTINUOUS
 62
     7
 10
22.821029312881318
 20
-39.470107008215223
 30
0.0
 40
2.230993658649274
 50
268.17579291497532
 51
295.03027839719101
  0
ARC
  5
4F2
  8
DATA
  6
CONTINUOUS
 62
     7
 10
21.88254369910414
 20
-42.767814232999221
 30
0.0
 40
0.3885007539240812
 50
112.309733709895
 51
169.9450677079441
  0
ARC
  5
4F3
  8
DATA
  6
CONTINUOUS
 62
     7
 10
22.678990687118649
 20
-44.429862991784709
 30
0.0
 40
2.230993658649274
 50
88.175792914975347
 51
115.030278397191
  0
ARC
  5
4F4
  8
DATA
  6
CONTINUOUS
 62
     7
 10
21.88254369910414
 20
-42.632155767000711
 30
0.0
 40
0.3885007539240797
 50
190.05493229205581
 51
247.69026629010489
  0
ARC
  5
4F5
  8
DATA
  6
CONTINUOUS
 62
     7
 10
22.678990687118649
 20
-40.970107008215223
 30
0.0
 40
2.2309936586492811
 50
244.9697216028089
 51
271.82420708502468
  0
ARC
  5
4F6
  8
DATA
  6
CONTINUOUS
 62
     7
 10
23.61747630089582
 20
-42.767814232999221
 30
0.0
 40
0.3885007539240797
 50
10.05493229205589
 51
67.690266290104915
  0
ARC
  5
4F7
  8
DATA
  6
CONTINUOUS
 62
     7
 10
22.821029312881318
 20
-44.429862991784709
 30
0.0
 40
2.2309936586492811
 50
64.969721602808974
 51
91.824207085024653
  0
ARC
  5
4F8
  8
DATA
  6
CONTINUOUS
 62
     7
 10
23.61747630089582
 20
-42.632155767000711
 30
0.0
 40
0.3885007539240812
 50
292.30973370989511
 51
349.94506770794408
  0
ARC
  5
4F9
  8
DATA
  6
CONTINUOUS
 62
     7
 10
22.821029312881318
 20
-40.970107008215223
 30
0.0
 40
2.230993658649274
 50
268.17579291497532
 51
295.03027839719101
  0
ARC
  5
4FA
  8
DATA
  6
CONTINUOUS
 62
     7
 10
25.38254369910414
 20
-39.767814232999228
 30
0.0
 40
0.3885007539240812
 50
112.309733709895
 51
169.9450677079441
  0
ARC
  5
4FB
  8
DATA
  6
CONTINUOUS
 62
     7
 10
26.178990687118649
 20
-41.429862991784709
 30
0.0
 40
2.230993658649274
 50
88.175792914975347
 51
115.030278397191
  0
ARC
  5
4FC
  8
DATA
  6
CONTINUOUS
 62
     7
 10
25.38254369910414
 20
-39.632155767000711
 30
0.0
 40
0.3885007539240797
 50
190.05493229205581
 51
247.69026629010489
  0
ARC
  5
4FD
  8
DATA
  6
CONTINUOUS
 62
     7
 10
26.178990687118649
 20
-37.970107008215223
 30
0.0
 40
2.2309936586492811
 50
244.9697216028089
 51
271.82420708502468
  0
ARC
  5
4FE
  8
DATA
  6
CONTINUOUS
 62
     7
 10
26.321029312881318
 20
-41.429862991784709
 30
0.0
 40
2.230993658649286
 50
84.950386306525104
 51
91.824207085024639
  0
ARC
  5
4FF
  8
DATA
  6
CONTINUOUS
 62
     7
 10
27.117476300895831
 20
-39.632155767000711
 30
0.0
 40
0.3885007539240812
 50
292.30973370989511
 51
316.17900974024462
  0
ARC
  5
500
  8
DATA
  6
CONTINUOUS
 62
     7
 10
26.321029312881318
 20
-37.970107008215223
 30
0.0
 40
2.230993658649274
 50
268.17579291497532
 51
295.03027839719101
  0
ARC
  5
501
  8
DATA
  6
CONTINUOUS
 62
     7
 10
25.38254369910414
 20
-41.267814232999228
 30
0.0
 40
0.3885007539240812
 50
112.309733709895
 51
169.9450677079441
  0
ARC
  5
502
  8
DATA
  6
CONTINUOUS
 62
     7
 10
26.178990687118649
 20
-42.929862991784717
 30
0.0
 40
2.230993658649274
 50
88.175792914975347
 51
115.030278397191
  0
ARC
  5
503
  8
DATA
  6
CONTINUOUS
 62
     7
 10
25.38254369910414
 20
-41.132155767000711
 30
0.0
 40
0.3885007539240797
 50
190.05493229205581
 51
247.69026629010489
  0
ARC
  5
504
  8
DATA
  6
CONTINUOUS
 62
     7
 10
26.178990687118649
 20
-39.470107008215223
 30
0.0
 40
2.2309936586492811
 50
244.9697216028089
 51
271.82420708502468
  0
ARC
  5
505
  8
DATA
  6
CONTINUOUS
 62
     7
 10
27.117476300895831
 20
-41.267814232999228
 30
0.0
 40
0.3885007539240797
 50
10.05493229205589
 51
67.690266290104915
  0
ARC
  5
506
  8
DATA
  6
CONTINUOUS
 62
     7
 10
26.321029312881318
 20
-42.929862991784717
 30
0.0
 40
2.2309936586492811
 50
64.969721602808974
 51
91.824207085024653
  0
ARC
  5
507
  8
DATA
  6
CONTINUOUS
 62
     7
 10
27.117476300895831
 20
-41.132155767000711
 30
0.0
 40
0.3885007539240812
 50
292.30973370989511
 51
349.94506770794408
  0
ARC
  5
508
  8
DATA
  6
CONTINUOUS
 62
     7
 10
26.321029312881318
 20
-39.470107008215223
 30
0.0
 40
2.230993658649274
 50
268.17579291497532
 51
295.03027839719101
  0
ARC
  5
509
  8
DATA
  6
CONTINUOUS
 62
     7
 10
25.38254369910414
 20
-42.767814232999221
 30
0.0
 40
0.3885007539240812
 50
112.309733709895
 51
169.9450677079441
  0
ARC
  5
50A
  8
DATA
  6
CONTINUOUS
 62
     7
 10
26.178990687118649
 20
-44.429862991784709
 30
0.0
 40
2.230993658649274
 50
88.175792914975347
 51
115.030278397191
  0
ARC
  5
50B
  8
DATA
  6
CONTINUOUS
 62
     7
 10
25.38254369910414
 20
-42.632155767000711
 30
0.0
 40
0.3885007539240797
 50
190.05493229205581
 51
247.69026629010489
  0
ARC
  5
50C
  8
DATA
  6
CONTINUOUS
 62
     7
 10
26.178990687118649
 20
-40.970107008215223
 30
0.0
 40
2.2309936586492811
 50
244.9697216028089
 51
271.82420708502468
  0
ARC
  5
50D
  8
DATA
  6
CONTINUOUS
 62
     7
 10
27.117476300895831
 20
-42.767814232999221
 30
0.0
 40
0.3885007539240797
 50
10.05493229205589
 51
67.690266290104915
  0
ARC
  5
50E
  8
DATA
  6
CONTINUOUS
 62
     7
 10
26.321029312881318
 20
-44.429862991784709
 30
0.0
 40
2.2309936586492811
 50
64.969721602808974
 51
91.824207085024653
  0
ARC
  5
50F
  8
DATA
  6
CONTINUOUS
 62
     7
 10
27.117476300895831
 20
-42.632155767000711
 30
0.0
 40
0.3885007539240812
 50
292.30973370989511
 51
349.94506770794408
  0
ARC
  5
510
  8
DATA
  6
CONTINUOUS
 62
     7
 10
26.321029312881318
 20
-40.970107008215223
 30
0.0
 40
2.230993658649274
 50
268.17579291497532
 51
295.03027839719101
  0
ARC
  5
511
  8
DATA
  6
CONTINUOUS
 62
     7
 10
28.882543699104151
 20
-42.767814232999221
 30
0.0
 40
0.3885007539240812
 50
112.309733709895
 51
169.9450677079441
  0
ARC
  5
512
  8
DATA
  6
CONTINUOUS
 62
     7
 10
29.678990687118649
 20
-44.429862991784709
 30
0.0
 40
2.230993658649274
 50
88.175792914975347
 51
115.030278397191
  0
ARC
  5
513
  8
DATA
  6
CONTINUOUS
 62
     7
 10
28.882543699104151
 20
-42.632155767000711
 30
0.0
 40
0.3885007539240797
 50
190.05493229205581
 51
247.69026629010489
  0
ARC
  5
514
  8
DATA
  6
CONTINUOUS
 62
     7
 10
29.678990687118649
 20
-40.970107008215223
 30
0.0
 40
2.2309936586492811
 50
244.9697216028089
 51
259.41661091780048
  0
ARC
  5
515
  8
DATA
  6
CONTINUOUS
 62
     7
 10
29.821029312881318
 20
-44.429862991784709
 30
0.0
 40
2.230993658649274
 50
81.710231328547536
 51
91.824207085024653
  0
ARC
  5
516
  8
DATA
  6
CONTINUOUS
 62
     7
 10
-6.117456300895852
 20
-30.767814232999228
 30
0.0
 40
0.3885007539240812
 50
112.309733709895
 51
169.9450677079441
  0
ARC
  5
517
  8
DATA
  6
CONTINUOUS
 62
     7
 10
-5.321009312881344
 20
-32.429862991784709
 30
0.0
 40
2.230993658649274
 50
88.175792914975347
 51
115.030278397191
  0
ARC
  5
518
  8
DATA
  6
CONTINUOUS
 62
     7
 10
-6.117456300895852
 20
-30.632155767000711
 30
0.0
 40
0.3885007539240797
 50
190.05493229205581
 51
247.69026629010489
  0
ARC
  5
519
  8
DATA
  6
CONTINUOUS
 62
     7
 10
-5.321009312881344
 20
-28.970107008215219
 30
0.0
 40
2.2309936586492811
 50
244.9697216028089
 51
271.82420708502468
  0
ARC
  5
51A
  8
DATA
  6
CONTINUOUS
 62
     7
 10
-4.3825236991041692
 20
-30.767814232999228
 30
0.0
 40
0.3885007539240797
 50
10.05493229205589
 51
67.690266290104915
  0
ARC
  5
51B
  8
DATA
  6
CONTINUOUS
 62
     7
 10
-5.178970687118678
 20
-32.429862991784709
 30
0.0
 40
2.2309936586492811
 50
64.969721602808974
 51
91.824207085024653
  0
ARC
  5
51C
  8
DATA
  6
CONTINUOUS
 62
     7
 10
-4.3825236991041692
 20
-30.632155767000711
 30
0.0
 40
0.3885007539240812
 50
292.30973370989511
 51
349.94506770794408
  0
ARC
  5
51D
  8
DATA
  6
CONTINUOUS
 62
     7
 10
-5.178970687118678
 20
-28.970107008215219
 30
0.0
 40
2.230993658649274
 50
268.17579291497532
 51
295.03027839719101
  0
ARC
  5
51E
  8
DATA
  6
CONTINUOUS
 62
     7
 10
-6.117456300895852
 20
-32.267814232999228
 30
0.0
 40
0.3885007539240812
 50
112.309733709895
 51
169.9450677079441
  0
ARC
  5
51F
  8
DATA
  6
CONTINUOUS
 62
     7
 10
-5.321009312881344
 20
-33.929862991784709
 30
0.0
 40
2.230993658649274
 50
88.175792914975347
 51
115.030278397191
  0
ARC
  5
520
  8
DATA
  6
CONTINUOUS
 62
     7
 10
-6.117456300895852
 20
-32.132155767000711
 30
0.0
 40
0.3885007539240797
 50
190.05493229205581
 51
247.69026629010489
  0
ARC
  5
521
  8
DATA
  6
CONTINUOUS
 62
     7
 10
-5.321009312881344
 20
-30.470107008215219
 30
0.0
 40
2.2309936586492811
 50
244.9697216028089
 51
271.82420708502468
  0
ARC
  5
522
  8
DATA
  6
CONTINUOUS
 62
     7
 10
-4.3825236991041692
 20
-32.267814232999228
 30
0.0
 40
0.3885007539240797
 50
10.05493229205589
 51
67.690266290104915
  0
ARC
  5
523
  8
DATA
  6
CONTINUOUS
 62
     7
 10
-5.178970687118678
 20
-33.929862991784709
 30
0.0
 40
2.2309936586492811
 50
64.969721602808974
 51
91.824207085024653
  0
ARC
  5
524
  8
DATA
  6
CONTINUOUS
 62
     7
 10
-4.3825236991041692
 20
-32.132155767000711
 30
0.0
 40
0.3885007539240812
 50
292.30973370989511
 51
349.94506770794408
  0
ARC
  5
525
  8
DATA
  6
CONTINUOUS
 62
     7
 10
-5.178970687118678
 20
-30.470107008215219
 30
0.0
 40
2.230993658649274
 50
268.17579291497532
 51
295.03027839719101
  0
ARC
  5
526
  8
DATA
  6
CONTINUOUS
 62
     7
 10
-6.117456300895852
 20
-33.767814232999221
 30
0.0
 40
0.3885007539240812
 50
112.309733709895
 51
169.9450677079441
  0
ARC
  5
527
  8
DATA
  6
CONTINUOUS
 62
     7
 10
-5.321009312881344
 20
-35.429862991784709
 30
0.0
 40
2.230993658649274
 50
88.175792914975347
 51
115.030278397191
  0
ARC
  5
528
  8
DATA
  6
CONTINUOUS
 62
     7
 10
-6.117456300895852
 20
-33.632155767000711
 30
0.0
 40
0.3885007539240797
 50
190.05493229205581
 51
247.69026629010489
  0
ARC
  5
529
  8
DATA
  6
CONTINUOUS
 62
     7
 10
-5.321009312881344
 20
-31.970107008215219
 30
0.0
 40
2.2309936586492811
 50
244.9697216028089
 51
271.82420708502468
  0
ARC
  5
52A
  8
DATA
  6
CONTINUOUS
 62
     7
 10
-4.3825236991041692
 20
-33.767814232999221
 30
0.0
 40
0.3885007539240797
 50
10.05493229205589
 51
67.690266290104915
  0
ARC
  5
52B
  8
DATA
  6
CONTINUOUS
 62
     7
 10
-5.178970687118678
 20
-35.429862991784709
 30
0.0
 40
2.2309936586492811
 50
64.969721602808974
 51
91.824207085024653
  0
ARC
  5
52C
  8
DATA
  6
CONTINUOUS
 62
     7
 10
-4.3825236991041692
 20
-33.632155767000711
 30
0.0
 40
0.3885007539240812
 50
292.30973370989511
 51
349.94506770794408
  0
ARC
  5
52D
  8
DATA
  6
CONTINUOUS
 62
     7
 10
-5.178970687118678
 20
-31.970107008215219
 30
0.0
 40
2.230993658649274
 50
268.17579291497532
 51
295.03027839719101
  0
ARC
  5
52E
  8
DATA
  6
CONTINUOUS
 62
     7
 10
-6.117456300895852
 20
-35.267814232999221
 30
0.0
 40
0.3885007539240812
 50
112.309733709895
 51
169.9450677079441
  0
ARC
  5
52F
  8
DATA
  6
CONTINUOUS
 62
     7
 10
-5.321009312881344
 20
-36.929862991784709
 30
0.0
 40
2.230993658649274
 50
88.175792914975347
 51
115.030278397191
  0
ARC
  5
530
  8
DATA
  6
CONTINUOUS
 62
     7
 10
-6.117456300895852
 20
-35.132155767000711
 30
0.0
 40
0.3885007539240797
 50
190.05493229205581
 51
247.69026629010489
  0
ARC
  5
531
  8
DATA
  6
CONTINUOUS
 62
     7
 10
-5.321009312881344
 20
-33.470107008215223
 30
0.0
 40
2.2309936586492811
 50
244.9697216028089
 51
271.82420708502468
  0
ARC
  5
532
  8
DATA
  6
CONTINUOUS
 62
     7
 10
-4.3825236991041692
 20
-35.267814232999221
 30
0.0
 40
0.3885007539240797
 50
10.05493229205589
 51
67.690266290104915
  0
ARC
  5
533
  8
DATA
  6
CONTINUOUS
 62
     7
 10
-5.178970687118678
 20
-36.929862991784709
 30
0.0
 40
2.2309936586492811
 50
64.969721602808974
 51
91.824207085024653
  0
ARC
  5
534
  8
DATA
  6
CONTINUOUS
 62
     7
 10
-4.3825236991041692
 20
-35.132155767000711
 30
0.0
 40
0.3885007539240812
 50
292.30973370989511
 51
349.94506770794408
  0
ARC
  5
535
  8
DATA
  6
CONTINUOUS
 62
     7
 10
-5.178970687118678
 20
-33.470107008215223
 30
0.0
 40
2.230993658649274
 50
268.17579291497532
 51
295.03027839719101
  0
ARC
  5
536
  8
DATA
  6
CONTINUOUS
 62
     7
 10
-6.117456300895852
 20
-36.767814232999228
 30
0.0
 40
0.3885007539240812
 50
112.309733709895
 51
169.9450677079441
  0
ARC
  5
537
  8
DATA
  6
CONTINUOUS
 62
     7
 10
-5.321009312881344
 20
-38.429862991784717
 30
0.0
 40
2.230993658649274
 50
88.175792914975347
 51
115.030278397191
  0
ARC
  5
538
  8
DATA
  6
CONTINUOUS
 62
     7
 10
-6.117456300895852
 20
-36.632155767000711
 30
0.0
 40
0.3885007539240797
 50
190.05493229205581
 51
247.69026629010489
  0
ARC
  5
539
  8
DATA
  6
CONTINUOUS
 62
     7
 10
-5.321009312881344
 20
-34.970107008215223
 30
0.0
 40
2.2309936586492811
 50
244.9697216028089
 51
271.82420708502468
  0
ARC
  5
53A
  8
DATA
  6
CONTINUOUS
 62
     7
 10
-4.3825236991041692
 20
-36.767814232999228
 30
0.0
 40
0.3885007539240797
 50
10.05493229205589
 51
67.690266290104915
  0
ARC
  5
53B
  8
DATA
  6
CONTINUOUS
 62
     7
 10
-5.178970687118678
 20
-38.429862991784717
 30
0.0
 40
2.2309936586492811
 50
64.969721602808974
 51
91.824207085024653
  0
ARC
  5
53C
  8
DATA
  6
CONTINUOUS
 62
     7
 10
-4.3825236991041692
 20
-36.632155767000711
 30
0.0
 40
0.3885007539240812
 50
292.30973370989511
 51
349.94506770794408
  0
ARC
  5
53D
  8
DATA
  6
CONTINUOUS
 62
     7
 10
-5.178970687118678
 20
-34.970107008215223
 30
0.0
 40
2.230993658649274
 50
268.17579291497532
 51
295.03027839719101
  0
ARC
  5
53E
  8
DATA
  6
CONTINUOUS
 62
     7
 10
-6.117456300895852
 20
-38.267814232999228
 30
0.0
 40
0.3885007539240812
 50
112.309733709895
 51
169.9450677079441
  0
ARC
  5
53F
  8
DATA
  6
CONTINUOUS
 62
     7
 10
-5.321009312881344
 20
-39.929862991784717
 30
0.0
 40
2.230993658649274
 50
88.175792914975347
 51
115.030278397191
  0
ARC
  5
540
  8
DATA
  6
CONTINUOUS
 62
     7
 10
-6.117456300895852
 20
-38.132155767000711
 30
0.0
 40
0.3885007539240797
 50
190.05493229205581
 51
247.69026629010489
  0
ARC
  5
541
  8
DATA
  6
CONTINUOUS
 62
     7
 10
-5.321009312881344
 20
-36.470107008215223
 30
0.0
 40
2.2309936586492811
 50
244.9697216028089
 51
271.82420708502468
  0
ARC
  5
542
  8
DATA
  6
CONTINUOUS
 62
     7
 10
-4.3825236991041692
 20
-38.267814232999228
 30
0.0
 40
0.3885007539240797
 50
10.05493229205589
 51
67.690266290104915
  0
ARC
  5
543
  8
DATA
  6
CONTINUOUS
 62
     7
 10
-5.178970687118678
 20
-39.929862991784717
 30
0.0
 40
2.2309936586492811
 50
64.969721602808974
 51
91.824207085024653
  0
ARC
  5
544
  8
DATA
  6
CONTINUOUS
 62
     7
 10
-4.3825236991041692
 20
-38.132155767000711
 30
0.0
 40
0.3885007539240812
 50
292.30973370989511
 51
349.94506770794408
  0
ARC
  5
545
  8
DATA
  6
CONTINUOUS
 62
     7
 10
-5.178970687118678
 20
-36.470107008215223
 30
0.0
 40
2.230993658649274
 50
268.17579291497532
 51
295.03027839719101
  0
ARC
  5
546
  8
DATA
  6
CONTINUOUS
 62
     7
 10
-6.117456300895852
 20
-39.767814232999228
 30
0.0
 40
0.3885007539240812
 50
112.309733709895
 51
169.9450677079441
  0
ARC
  5
547
  8
DATA
  6
CONTINUOUS
 62
     7
 10
-5.321009312881344
 20
-41.429862991784709
 30
0.0
 40
2.230993658649274
 50
88.175792914975347
 51
115.030278397191
  0
ARC
  5
548
  8
DATA
  6
CONTINUOUS
 62
     7
 10
-6.117456300895852
 20
-39.632155767000711
 30
0.0
 40
0.3885007539240797
 50
190.05493229205581
 51
247.69026629010489
  0
ARC
  5
549
  8
DATA
  6
CONTINUOUS
 62
     7
 10
-5.321009312881344
 20
-37.970107008215223
 30
0.0
 40
2.2309936586492811
 50
244.9697216028089
 51
271.82420708502468
  0
ARC
  5
54A
  8
DATA
  6
CONTINUOUS
 62
     7
 10
-4.3825236991041692
 20
-39.767814232999228
 30
0.0
 40
0.3885007539240797
 50
10.05493229205589
 51
67.690266290104915
  0
ARC
  5
54B
  8
DATA
  6
CONTINUOUS
 62
     7
 10
-5.178970687118678
 20
-41.429862991784709
 30
0.0
 40
2.2309936586492811
 50
64.969721602808974
 51
91.824207085024653
  0
ARC
  5
54C
  8
DATA
  6
CONTINUOUS
 62
     7
 10
-4.3825236991041692
 20
-39.632155767000711
 30
0.0
 40
0.3885007539240812
 50
292.30973370989511
 51
349.94506770794408
  0
ARC
  5
54D
  8
DATA
  6
CONTINUOUS
 62
     7
 10
-5.178970687118678
 20
-37.970107008215223
 30
0.0
 40
2.230993658649274
 50
268.17579291497532
 51
295.03027839719101
  0
ARC
  5
54E
  8
DATA
  6
CONTINUOUS
 62
     7
 10
-6.117456300895852
 20
-41.267814232999228
 30
0.0
 40
0.3885007539240812
 50
112.309733709895
 51
169.9450677079441
  0
ARC
  5
54F
  8
DATA
  6
CONTINUOUS
 62
     7
 10
-5.321009312881344
 20
-42.929862991784717
 30
0.0
 40
2.230993658649274
 50
88.175792914975347
 51
115.030278397191
  0
ARC
  5
550
  8
DATA
  6
CONTINUOUS
 62
     7
 10
-6.117456300895852
 20
-41.132155767000711
 30
0.0
 40
0.3885007539240797
 50
190.05493229205581
 51
247.69026629010489
  0
ARC
  5
551
  8
DATA
  6
CONTINUOUS
 62
     7
 10
-5.321009312881344
 20
-39.470107008215223
 30
0.0
 40
2.2309936586492811
 50
244.9697216028089
 51
271.82420708502468
  0
ARC
  5
552
  8
DATA
  6
CONTINUOUS
 62
     7
 10
-4.3825236991041692
 20
-41.267814232999228
 30
0.0
 40
0.3885007539240797
 50
10.05493229205589
 51
67.690266290104915
  0
ARC
  5
553
  8
DATA
  6
CONTINUOUS
 62
     7
 10
-5.178970687118678
 20
-42.929862991784717
 30
0.0
 40
2.2309936586492811
 50
64.969721602808974
 51
91.824207085024653
  0
ARC
  5
554
  8
DATA
  6
CONTINUOUS
 62
     7
 10
-4.3825236991041692
 20
-41.132155767000711
 30
0.0
 40
0.3885007539240812
 50
292.30973370989511
 51
349.94506770794408
  0
ARC
  5
555
  8
DATA
  6
CONTINUOUS
 62
     7
 10
-5.178970687118678
 20
-39.470107008215223
 30
0.0
 40
2.230993658649274
 50
268.17579291497532
 51
295.03027839719101
  0
ARC
  5
556
  8
DATA
  6
CONTINUOUS
 62
     7
 10
-6.117456300895852
 20
-42.767814232999221
 30
0.0
 40
0.3885007539240812
 50
112.309733709895
 51
169.9450677079441
  0
ARC
  5
557
  8
DATA
  6
CONTINUOUS
 62
     7
 10
-5.321009312881344
 20
-44.429862991784709
 30
0.0
 40
2.230993658649274
 50
88.175792914975347
 51
115.030278397191
  0
ARC
  5
558
  8
DATA
  6
CONTINUOUS
 62
     7
 10
-6.117456300895852
 20
-42.632155767000711
 30
0.0
 40
0.3885007539240797
 50
190.05493229205581
 51
247.69026629010489
  0
ARC
  5
559
  8
DATA
  6
CONTINUOUS
 62
     7
 10
-5.321009312881344
 20
-40.970107008215223
 30
0.0
 40
2.2309936586492811
 50
244.9697216028089
 51
271.82420708502468
  0
ARC
  5
55A
  8
DATA
  6
CONTINUOUS
 62
     7
 10
-4.3825236991041692
 20
-42.767814232999221
 30
0.0
 40
0.3885007539240797
 50
10.05493229205589
 51
67.690266290104915
  0
ARC
  5
55B
  8
DATA
  6
CONTINUOUS
 62
     7
 10
-5.178970687118678
 20
-44.429862991784709
 30
0.0
 40
2.2309936586492811
 50
64.969721602808974
 51
91.824207085024653
  0
ARC
  5
55C
  8
DATA
  6
CONTINUOUS
 62
     7
 10
-4.3825236991041692
 20
-42.632155767000711
 30
0.0
 40
0.3885007539240812
 50
292.30973370989511
 51
349.94506770794408
  0
ARC
  5
55D
  8
DATA
  6
CONTINUOUS
 62
     7
 10
-5.178970687118678
 20
-40.970107008215223
 30
0.0
 40
2.230993658649274
 50
268.17579291497532
 51
295.03027839719101
  0
ARC
  5
55E
  8
DATA
  6
CONTINUOUS
 62
     7
 10
-9.6174563008958511
 20
-30.767814232999228
 30
0.0
 40
0.3885007539240812
 50
112.309733709895
 51
169.9450677079441
  0
ARC
  5
55F
  8
DATA
  6
CONTINUOUS
 62
     7
 10
-8.821009312881344
 20
-32.429862991784709
 30
0.0
 40
2.230993658649274
 50
88.175792914975347
 51
115.030278397191
  0
ARC
  5
560
  8
DATA
  6
CONTINUOUS
 62
     7
 10
-9.6174563008958511
 20
-30.632155767000711
 30
0.0
 40
0.3885007539240797
 50
190.05493229205581
 51
247.69026629010489
  0
ARC
  5
561
  8
DATA
  6
CONTINUOUS
 62
     7
 10
-8.821009312881344
 20
-28.970107008215219
 30
0.0
 40
2.2309936586492811
 50
244.9697216028089
 51
271.82420708502468
  0
ARC
  5
562
  8
DATA
  6
CONTINUOUS
 62
     7
 10
-7.8825236991041692
 20
-30.767814232999228
 30
0.0
 40
0.3885007539240797
 50
10.05493229205589
 51
67.690266290104915
  0
ARC
  5
563
  8
DATA
  6
CONTINUOUS
 62
     7
 10
-8.678970687118678
 20
-32.429862991784709
 30
0.0
 40
2.2309936586492811
 50
64.969721602808974
 51
91.824207085024653
  0
ARC
  5
564
  8
DATA
  6
CONTINUOUS
 62
     7
 10
-7.8825236991041692
 20
-30.632155767000711
 30
0.0
 40
0.3885007539240812
 50
292.30973370989511
 51
349.94506770794408
  0
ARC
  5
565
  8
DATA
  6
CONTINUOUS
 62
     7
 10
-8.678970687118678
 20
-28.970107008215219
 30
0.0
 40
2.230993658649274
 50
268.17579291497532
 51
295.03027839719101
  0
ARC
  5
566
  8
DATA
  6
CONTINUOUS
 62
     7
 10
-9.6174563008958511
 20
-32.267814232999228
 30
0.0
 40
0.3885007539240812
 50
112.309733709895
 51
169.9450677079441
  0
ARC
  5
567
  8
DATA
  6
CONTINUOUS
 62
     7
 10
-8.821009312881344
 20
-33.929862991784709
 30
0.0
 40
2.230993658649274
 50
88.175792914975347
 51
115.030278397191
  0
ARC
  5
568
  8
DATA
  6
CONTINUOUS
 62
     7
 10
-9.6174563008958511
 20
-32.132155767000711
 30
0.0
 40
0.3885007539240797
 50
190.05493229205581
 51
247.69026629010489
  0
ARC
  5
569
  8
DATA
  6
CONTINUOUS
 62
     7
 10
-8.821009312881344
 20
-30.470107008215219
 30
0.0
 40
2.2309936586492811
 50
244.9697216028089
 51
271.82420708502468
  0
ARC
  5
56A
  8
DATA
  6
CONTINUOUS
 62
     7
 10
-7.8825236991041692
 20
-32.267814232999228
 30
0.0
 40
0.3885007539240797
 50
10.05493229205589
 51
67.690266290104915
  0
ARC
  5
56B
  8
DATA
  6
CONTINUOUS
 62
     7
 10
-8.678970687118678
 20
-33.929862991784709
 30
0.0
 40
2.2309936586492811
 50
64.969721602808974
 51
91.824207085024653
  0
ARC
  5
56C
  8
DATA
  6
CONTINUOUS
 62
     7
 10
-7.8825236991041692
 20
-32.132155767000711
 30
0.0
 40
0.3885007539240812
 50
292.30973370989511
 51
349.94506770794408
  0
ARC
  5
56D
  8
DATA
  6
CONTINUOUS
 62
     7
 10
-8.678970687118678
 20
-30.470107008215219
 30
0.0
 40
2.230993658649274
 50
268.17579291497532
 51
295.03027839719101
  0
ARC
  5
56E
  8
DATA
  6
CONTINUOUS
 62
     7
 10
-9.6174563008958511
 20
-33.767814232999221
 30
0.0
 40
0.3885007539240812
 50
112.309733709895
 51
169.9450677079441
  0
ARC
  5
56F
  8
DATA
  6
CONTINUOUS
 62
     7
 10
-8.821009312881344
 20
-35.429862991784709
 30
0.0
 40
2.230993658649274
 50
88.175792914975347
 51
115.030278397191
  0
ARC
  5
570
  8
DATA
  6
CONTINUOUS
 62
     7
 10
-9.6174563008958511
 20
-33.632155767000711
 30
0.0
 40
0.3885007539240797
 50
190.05493229205581
 51
247.69026629010489
  0
ARC
  5
571
  8
DATA
  6
CONTINUOUS
 62
     7
 10
-8.821009312881344
 20
-31.970107008215219
 30
0.0
 40
2.2309936586492811
 50
244.9697216028089
 51
271.82420708502468
  0
ARC
  5
572
  8
DATA
  6
CONTINUOUS
 62
     7
 10
-7.8825236991041692
 20
-33.767814232999221
 30
0.0
 40
0.3885007539240797
 50
10.05493229205589
 51
67.690266290104915
  0
ARC
  5
573
  8
DATA
  6
CONTINUOUS
 62
     7
 10
-8.678970687118678
 20
-35.429862991784709
 30
0.0
 40
2.2309936586492811
 50
64.969721602808974
 51
91.824207085024653
  0
ARC
  5
574
  8
DATA
  6
CONTINUOUS
 62
     7
 10
-7.8825236991041692
 20
-33.632155767000711
 30
0.0
 40
0.3885007539240812
 50
292.30973370989511
 51
349.94506770794408
  0
ARC
  5
575
  8
DATA
  6
CONTINUOUS
 62
     7
 10
-8.678970687118678
 20
-31.970107008215219
 30
0.0
 40
2.230993658649274
 50
268.17579291497532
 51
295.03027839719101
  0
ARC
  5
576
  8
DATA
  6
CONTINUOUS
 62
     7
 10
-9.6174563008958511
 20
-35.267814232999221
 30
0.0
 40
0.3885007539240812
 50
112.309733709895
 51
169.9450677079441
  0
ARC
  5
577
  8
DATA
  6
CONTINUOUS
 62
     7
 10
-8.821009312881344
 20
-36.929862991784709
 30
0.0
 40
2.230993658649274
 50
88.175792914975347
 51
115.030278397191
  0
ARC
  5
578
  8
DATA
  6
CONTINUOUS
 62
     7
 10
-9.6174563008958511
 20
-35.132155767000711
 30
0.0
 40
0.3885007539240797
 50
190.05493229205581
 51
247.69026629010489
  0
ARC
  5
579
  8
DATA
  6
CONTINUOUS
 62
     7
 10
-8.821009312881344
 20
-33.470107008215223
 30
0.0
 40
2.2309936586492811
 50
244.9697216028089
 51
271.82420708502468
  0
ARC
  5
57A
  8
DATA
  6
CONTINUOUS
 62
     7
 10
-7.8825236991041692
 20
-35.267814232999221
 30
0.0
 40
0.3885007539240797
 50
10.05493229205589
 51
67.690266290104915
  0
ARC
  5
57B
  8
DATA
  6
CONTINUOUS
 62
     7
 10
-8.678970687118678
 20
-36.929862991784709
 30
0.0
 40
2.2309936586492811
 50
64.969721602808974
 51
91.824207085024653
  0
ARC
  5
57C
  8
DATA
  6
CONTINUOUS
 62
     7
 10
-7.8825236991041692
 20
-35.132155767000711
 30
0.0
 40
0.3885007539240812
 50
292.30973370989511
 51
349.94506770794408
  0
ARC
  5
57D
  8
DATA
  6
CONTINUOUS
 62
     7
 10
-8.678970687118678
 20
-33.470107008215223
 30
0.0
 40
2.230993658649274
 50
268.17579291497532
 51
295.03027839719101
  0
ARC
  5
57E
  8
DATA
  6
CONTINUOUS
 62
     7
 10
-9.6174563008958511
 20
-36.767814232999228
 30
0.0
 40
0.3885007539240812
 50
112.309733709895
 51
169.9450677079441
  0
ARC
  5
57F
  8
DATA
  6
CONTINUOUS
 62
     7
 10
-8.821009312881344
 20
-38.429862991784717
 30
0.0
 40
2.230993658649274
 50
88.175792914975347
 51
115.030278397191
  0
ARC
  5
580
  8
DATA
  6
CONTINUOUS
 62
     7
 10
-9.6174563008958511
 20
-36.632155767000711
 30
0.0
 40
0.3885007539240797
 50
190.05493229205581
 51
247.69026629010489
  0
ARC
  5
581
  8
DATA
  6
CONTINUOUS
 62
     7
 10
-8.821009312881344
 20
-34.970107008215223
 30
0.0
 40
2.2309936586492811
 50
244.9697216028089
 51
271.82420708502468
  0
ARC
  5
582
  8
DATA
  6
CONTINUOUS
 62
     7
 10
-7.8825236991041692
 20
-36.767814232999228
 30
0.0
 40
0.3885007539240797
 50
10.05493229205589
 51
67.690266290104915
  0
ARC
  5
583
  8
DATA
  6
CONTINUOUS
 62
     7
 10
-8.678970687118678
 20
-38.429862991784717
 30
0.0
 40
2.2309936586492811
 50
64.969721602808974
 51
91.824207085024653
  0
ARC
  5
584
  8
DATA
  6
CONTINUOUS
 62
     7
 10
-7.8825236991041692
 20
-36.632155767000711
 30
0.0
 40
0.3885007539240812
 50
292.30973370989511
 51
349.94506770794408
  0
ARC
  5
585
  8
DATA
  6
CONTINUOUS
 62
     7
 10
-8.678970687118678
 20
-34.970107008215223
 30
0.0
 40
2.230993658649274
 50
268.17579291497532
 51
295.03027839719101
  0
ARC
  5
586
  8
DATA
  6
CONTINUOUS
 62
     7
 10
-9.6174563008958511
 20
-38.267814232999228
 30
0.0
 40
0.3885007539240812
 50
112.309733709895
 51
169.9450677079441
  0
ARC
  5
587
  8
DATA
  6
CONTINUOUS
 62
     7
 10
-8.821009312881344
 20
-39.929862991784717
 30
0.0
 40
2.230993658649274
 50
88.175792914975347
 51
115.030278397191
  0
ARC
  5
588
  8
DATA
  6
CONTINUOUS
 62
     7
 10
-9.6174563008958511
 20
-38.132155767000711
 30
0.0
 40
0.3885007539240797
 50
190.05493229205581
 51
247.69026629010489
  0
ARC
  5
589
  8
DATA
  6
CONTINUOUS
 62
     7
 10
-8.821009312881344
 20
-36.470107008215223
 30
0.0
 40
2.2309936586492811
 50
244.9697216028089
 51
271.82420708502468
  0
ARC
  5
58A
  8
DATA
  6
CONTINUOUS
 62
     7
 10
-7.8825236991041692
 20
-38.267814232999228
 30
0.0
 40
0.3885007539240797
 50
10.05493229205589
 51
67.690266290104915
  0
ARC
  5
58B
  8
DATA
  6
CONTINUOUS
 62
     7
 10
-8.678970687118678
 20
-39.929862991784717
 30
0.0
 40
2.2309936586492811
 50
64.969721602808974
 51
91.824207085024653
  0
ARC
  5
58C
  8
DATA
  6
CONTINUOUS
 62
     7
 10
-7.8825236991041692
 20
-38.132155767000711
 30
0.0
 40
0.3885007539240812
 50
292.30973370989511
 51
349.94506770794408
  0
ARC
  5
58D
  8
DATA
  6
CONTINUOUS
 62
     7
 10
-8.678970687118678
 20
-36.470107008215223
 30
0.0
 40
2.230993658649274
 50
268.17579291497532
 51
295.03027839719101
  0
ARC
  5
58E
  8
DATA
  6
CONTINUOUS
 62
     7
 10
-9.6174563008958511
 20
-39.767814232999228
 30
0.0
 40
0.3885007539240812
 50
112.309733709895
 51
169.9450677079441
  0
ARC
  5
58F
  8
DATA
  6
CONTINUOUS
 62
     7
 10
-8.821009312881344
 20
-41.429862991784709
 30
0.0
 40
2.230993658649274
 50
88.175792914975347
 51
115.030278397191
  0
ARC
  5
590
  8
DATA
  6
CONTINUOUS
 62
     7
 10
-9.6174563008958511
 20
-39.632155767000711
 30
0.0
 40
0.3885007539240797
 50
190.05493229205581
 51
247.69026629010489
  0
ARC
  5
591
  8
DATA
  6
CONTINUOUS
 62
     7
 10
-8.821009312881344
 20
-37.970107008215223
 30
0.0
 40
2.2309936586492811
 50
244.9697216028089
 51
271.82420708502468
  0
ARC
  5
592
  8
DATA
  6
CONTINUOUS
 62
     7
 10
-7.8825236991041692
 20
-39.767814232999228
 30
0.0
 40
0.3885007539240797
 50
10.05493229205589
 51
67.690266290104915
  0
ARC
  5
593
  8
DATA
  6
CONTINUOUS
 62
     7
 10
-8.678970687118678
 20
-41.429862991784709
 30
0.0
 40
2.2309936586492811
 50
64.969721602808974
 51
91.824207085024653
  0
ARC
  5
594
  8
DATA
  6
CONTINUOUS
 62
     7
 10
-7.8825236991041692
 20
-39.632155767000711
 30
0.0
 40
0.3885007539240812
 50
292.30973370989511
 51
349.94506770794408
  0
ARC
  5
595
  8
DATA
  6
CONTINUOUS
 62
     7
 10
-8.678970687118678
 20
-37.970107008215223
 30
0.0
 40
2.230993658649274
 50
268.17579291497532
 51
295.03027839719101
  0
ARC
  5
596
  8
DATA
  6
CONTINUOUS
 62
     7
 10
-9.6174563008958511
 20
-41.267814232999228
 30
0.0
 40
0.3885007539240812
 50
112.309733709895
 51
169.9450677079441
  0
ARC
  5
597
  8
DATA
  6
CONTINUOUS
 62
     7
 10
-8.821009312881344
 20
-42.929862991784717
 30
0.0
 40
2.230993658649274
 50
88.175792914975347
 51
115.030278397191
  0
ARC
  5
598
  8
DATA
  6
CONTINUOUS
 62
     7
 10
-9.6174563008958511
 20
-41.132155767000711
 30
0.0
 40
0.3885007539240797
 50
190.05493229205581
 51
247.69026629010489
  0
ARC
  5
599
  8
DATA
  6
CONTINUOUS
 62
     7
 10
-8.821009312881344
 20
-39.470107008215223
 30
0.0
 40
2.2309936586492811
 50
244.9697216028089
 51
271.82420708502468
  0
ARC
  5
59A
  8
DATA
  6
CONTINUOUS
 62
     7
 10
-7.8825236991041692
 20
-41.267814232999228
 30
0.0
 40
0.3885007539240797
 50
10.05493229205589
 51
67.690266290104915
  0
ARC
  5
59B
  8
DATA
  6
CONTINUOUS
 62
     7
 10
-8.678970687118678
 20
-42.929862991784717
 30
0.0
 40
2.2309936586492811
 50
64.969721602808974
 51
91.824207085024653
  0
ARC
  5
59C
  8
DATA
  6
CONTINUOUS
 62
     7
 10
-7.8825236991041692
 20
-41.132155767000711
 30
0.0
 40
0.3885007539240812
 50
292.30973370989511
 51
349.94506770794408
  0
ARC
  5
59D
  8
DATA
  6
CONTINUOUS
 62
     7
 10
-8.678970687118678
 20
-39.470107008215223
 30
0.0
 40
2.230993658649274
 50
268.17579291497532
 51
295.03027839719101
  0
ARC
  5
59E
  8
DATA
  6
CONTINUOUS
 62
     7
 10
-9.6174563008958511
 20
-42.767814232999221
 30
0.0
 40
0.3885007539240812
 50
112.309733709895
 51
169.9450677079441
  0
ARC
  5
59F
  8
DATA
  6
CONTINUOUS
 62
     7
 10
-8.821009312881344
 20
-44.429862991784709
 30
0.0
 40
2.230993658649274
 50
88.175792914975347
 51
115.030278397191
  0
ARC
  5
5A0
  8
DATA
  6
CONTINUOUS
 62
     7
 10
-9.6174563008958511
 20
-42.632155767000711
 30
0.0
 40
0.3885007539240797
 50
190.05493229205581
 51
247.69026629010489
  0
ARC
  5
5A1
  8
DATA
  6
CONTINUOUS
 62
     7
 10
-8.821009312881344
 20
-40.970107008215223
 30
0.0
 40
2.2309936586492811
 50
244.9697216028089
 51
271.82420708502468
  0
ARC
  5
5A2
  8
DATA
  6
CONTINUOUS
 62
     7
 10
-7.8825236991041692
 20
-42.767814232999221
 30
0.0
 40
0.3885007539240797
 50
10.05493229205589
 51
67.690266290104915
  0
ARC
  5
5A3
  8
DATA
  6
CONTINUOUS
 62
     7
 10
-8.678970687118678
 20
-44.429862991784709
 30
0.0
 40
2.2309936586492811
 50
64.969721602808974
 51
91.824207085024653
  0
ARC
  5
5A4
  8
DATA
  6
CONTINUOUS
 62
     7
 10
-7.8825236991041692
 20
-42.632155767000711
 30
0.0
 40
0.3885007539240812
 50
292.30973370989511
 51
349.94506770794408
  0
ARC
  5
5A5
  8
DATA
  6
CONTINUOUS
 62
     7
 10
-8.678970687118678
 20
-40.970107008215223
 30
0.0
 40
2.230993658649274
 50
268.17579291497532
 51
295.03027839719101
  0
ARC
  5
5A6
  8
DATA
  6
CONTINUOUS
 62
     7
 10
-13.117456300895849
 20
-32.267814232999228
 30
0.0
 40
0.3885007539240812
 50
112.309733709895
 51
169.9450677079441
  0
ARC
  5
5A7
  8
DATA
  6
CONTINUOUS
 62
     7
 10
-12.32100931288134
 20
-33.929862991784709
 30
0.0
 40
2.230993658649274
 50
88.175792914975347
 51
115.030278397191
  0
ARC
  5
5A8
  8
DATA
  6
CONTINUOUS
 62
     7
 10
-13.117456300895849
 20
-32.132155767000711
 30
0.0
 40
0.3885007539240797
 50
190.05493229205581
 51
247.69026629010489
  0
ARC
  5
5A9
  8
DATA
  6
CONTINUOUS
 62
     7
 10
-12.32100931288134
 20
-30.470107008215219
 30
0.0
 40
2.2309936586492811
 50
244.9697216028089
 51
271.82420708502468
  0
ARC
  5
5AA
  8
DATA
  6
CONTINUOUS
 62
     7
 10
-11.382523699104169
 20
-32.267814232999228
 30
0.0
 40
0.3885007539240797
 50
10.05493229205589
 51
67.690266290104915
  0
ARC
  5
5AB
  8
DATA
  6
CONTINUOUS
 62
     7
 10
-12.178970687118669
 20
-33.929862991784709
 30
0.0
 40
2.2309936586492811
 50
64.969721602808974
 51
91.824207085024653
  0
ARC
  5
5AC
  8
DATA
  6
CONTINUOUS
 62
     7
 10
-11.382523699104169
 20
-32.132155767000711
 30
0.0
 40
0.3885007539240812
 50
292.30973370989511
 51
349.94506770794408
  0
ARC
  5
5AD
  8
DATA
  6
CONTINUOUS
 62
     7
 10
-12.178970687118669
 20
-30.470107008215219
 30
0.0
 40
2.230993658649274
 50
268.17579291497532
 51
295.03027839719101
  0
ARC
  5
5AE
  8
DATA
  6
CONTINUOUS
 62
     7
 10
-13.117456300895849
 20
-33.767814232999221
 30
0.0
 40
0.3885007539240812
 50
112.309733709895
 51
169.9450677079441
  0
ARC
  5
5AF
  8
DATA
  6
CONTINUOUS
 62
     7
 10
-12.32100931288134
 20
-35.429862991784709
 30
0.0
 40
2.230993658649274
 50
88.175792914975347
 51
115.030278397191
  0
ARC
  5
5B0
  8
DATA
  6
CONTINUOUS
 62
     7
 10
-13.117456300895849
 20
-33.632155767000711
 30
0.0
 40
0.3885007539240797
 50
190.05493229205581
 51
247.69026629010489
  0
ARC
  5
5B1
  8
DATA
  6
CONTINUOUS
 62
     7
 10
-12.32100931288134
 20
-31.970107008215219
 30
0.0
 40
2.2309936586492811
 50
244.9697216028089
 51
271.82420708502468
  0
ARC
  5
5B2
  8
DATA
  6
CONTINUOUS
 62
     7
 10
-11.382523699104169
 20
-33.767814232999221
 30
0.0
 40
0.3885007539240797
 50
10.05493229205589
 51
67.690266290104915
  0
ARC
  5
5B3
  8
DATA
  6
CONTINUOUS
 62
     7
 10
-12.178970687118669
 20
-35.429862991784709
 30
0.0
 40
2.2309936586492811
 50
64.969721602808974
 51
91.824207085024653
  0
ARC
  5
5B4
  8
DATA
  6
CONTINUOUS
 62
     7
 10
-11.382523699104169
 20
-33.632155767000711
 30
0.0
 40
0.3885007539240812
 50
292.30973370989511
 51
349.94506770794408
  0
ARC
  5
5B5
  8
DATA
  6
CONTINUOUS
 62
     7
 10
-12.178970687118669
 20
-31.970107008215219
 30
0.0
 40
2.230993658649274
 50
268.17579291497532
 51
295.03027839719101
  0
ARC
  5
5B6
  8
DATA
  6
CONTINUOUS
 62
     7
 10
-13.117456300895849
 20
-35.267814232999221
 30
0.0
 40
0.3885007539240812
 50
112.309733709895
 51
169.9450677079441
  0
ARC
  5
5B7
  8
DATA
  6
CONTINUOUS
 62
     7
 10
-12.32100931288134
 20
-36.929862991784709
 30
0.0
 40
2.230993658649274
 50
88.175792914975347
 51
115.030278397191
  0
ARC
  5
5B8
  8
DATA
  6
CONTINUOUS
 62
     7
 10
-13.117456300895849
 20
-35.132155767000711
 30
0.0
 40
0.3885007539240797
 50
190.05493229205581
 51
247.69026629010489
  0
ARC
  5
5B9
  8
DATA
  6
CONTINUOUS
 62
     7
 10
-12.32100931288134
 20
-33.470107008215223
 30
0.0
 40
2.2309936586492811
 50
244.9697216028089
 51
271.82420708502468
  0
ARC
  5
5BA
  8
DATA
  6
CONTINUOUS
 62
     7
 10
-11.382523699104169
 20
-35.267814232999221
 30
0.0
 40
0.3885007539240797
 50
10.05493229205589
 51
67.690266290104915
  0
ARC
  5
5BB
  8
DATA
  6
CONTINUOUS
 62
     7
 10
-12.178970687118669
 20
-36.929862991784709
 30
0.0
 40
2.2309936586492811
 50
64.969721602808974
 51
91.824207085024653
  0
ARC
  5
5BC
  8
DATA
  6
CONTINUOUS
 62
     7
 10
-11.382523699104169
 20
-35.132155767000711
 30
0.0
 40
0.3885007539240812
 50
292.30973370989511
 51
349.94506770794408
  0
ARC
  5
5BD
  8
DATA
  6
CONTINUOUS
 62
     7
 10
-12.178970687118669
 20
-33.470107008215223
 30
0.0
 40
2.230993658649274
 50
268.17579291497532
 51
295.03027839719101
  0
ARC
  5
5BE
  8
DATA
  6
CONTINUOUS
 62
     7
 10
-13.117456300895849
 20
-36.767814232999228
 30
0.0
 40
0.3885007539240812
 50
112.309733709895
 51
169.9450677079441
  0
ARC
  5
5BF
  8
DATA
  6
CONTINUOUS
 62
     7
 10
-12.32100931288134
 20
-38.429862991784717
 30
0.0
 40
2.230993658649274
 50
88.175792914975347
 51
115.030278397191
  0
ARC
  5
5C0
  8
DATA
  6
CONTINUOUS
 62
     7
 10
-13.117456300895849
 20
-36.632155767000711
 30
0.0
 40
0.3885007539240797
 50
190.05493229205581
 51
247.69026629010489
  0
ARC
  5
5C1
  8
DATA
  6
CONTINUOUS
 62
     7
 10
-12.32100931288134
 20
-34.970107008215223
 30
0.0
 40
2.2309936586492811
 50
244.9697216028089
 51
271.82420708502468
  0
ARC
  5
5C2
  8
DATA
  6
CONTINUOUS
 62
     7
 10
-11.382523699104169
 20
-36.767814232999228
 30
0.0
 40
0.3885007539240797
 50
10.05493229205589
 51
67.690266290104915
  0
ARC
  5
5C3
  8
DATA
  6
CONTINUOUS
 62
     7
 10
-12.178970687118669
 20
-38.429862991784717
 30
0.0
 40
2.2309936586492811
 50
64.969721602808974
 51
91.824207085024653
  0
ARC
  5
5C4
  8
DATA
  6
CONTINUOUS
 62
     7
 10
-11.382523699104169
 20
-36.632155767000711
 30
0.0
 40
0.3885007539240812
 50
292.30973370989511
 51
349.94506770794408
  0
ARC
  5
5C5
  8
DATA
  6
CONTINUOUS
 62
     7
 10
-12.178970687118669
 20
-34.970107008215223
 30
0.0
 40
2.230993658649274
 50
268.17579291497532
 51
295.03027839719101
  0
ARC
  5
5C6
  8
DATA
  6
CONTINUOUS
 62
     7
 10
-13.117456300895849
 20
-38.267814232999228
 30
0.0
 40
0.3885007539240812
 50
112.309733709895
 51
169.9450677079441
  0
ARC
  5
5C7
  8
DATA
  6
CONTINUOUS
 62
     7
 10
-12.32100931288134
 20
-39.929862991784717
 30
0.0
 40
2.230993658649274
 50
88.175792914975347
 51
115.030278397191
  0
ARC
  5
5C8
  8
DATA
  6
CONTINUOUS
 62
     7
 10
-13.117456300895849
 20
-38.132155767000711
 30
0.0
 40
0.3885007539240797
 50
190.05493229205581
 51
247.69026629010489
  0
ARC
  5
5C9
  8
DATA
  6
CONTINUOUS
 62
     7
 10
-12.32100931288134
 20
-36.470107008215223
 30
0.0
 40
2.2309936586492811
 50
244.9697216028089
 51
271.82420708502468
  0
ARC
  5
5CA
  8
DATA
  6
CONTINUOUS
 62
     7
 10
-11.382523699104169
 20
-38.267814232999228
 30
0.0
 40
0.3885007539240797
 50
10.05493229205589
 51
67.690266290104915
  0
ARC
  5
5CB
  8
DATA
  6
CONTINUOUS
 62
     7
 10
-12.178970687118669
 20
-39.929862991784717
 30
0.0
 40
2.2309936586492811
 50
64.969721602808974
 51
91.824207085024653
  0
ARC
  5
5CC
  8
DATA
  6
CONTINUOUS
 62
     7
 10
-11.382523699104169
 20
-38.132155767000711
 30
0.0
 40
0.3885007539240812
 50
292.30973370989511
 51
349.94506770794408
  0
ARC
  5
5CD
  8
DATA
  6
CONTINUOUS
 62
     7
 10
-12.178970687118669
 20
-36.470107008215223
 30
0.0
 40
2.230993658649274
 50
268.17579291497532
 51
295.03027839719101
  0
ARC
  5
5CE
  8
DATA
  6
CONTINUOUS
 62
     7
 10
-13.117456300895849
 20
-39.767814232999228
 30
0.0
 40
0.3885007539240812
 50
112.309733709895
 51
169.9450677079441
  0
ARC
  5
5CF
  8
DATA
  6
CONTINUOUS
 62
     7
 10
-12.32100931288134
 20
-41.429862991784709
 30
0.0
 40
2.230993658649274
 50
88.175792914975347
 51
115.030278397191
  0
ARC
  5
5D0
  8
DATA
  6
CONTINUOUS
 62
     7
 10
-13.117456300895849
 20
-39.632155767000711
 30
0.0
 40
0.3885007539240797
 50
190.05493229205581
 51
247.69026629010489
  0
ARC
  5
5D1
  8
DATA
  6
CONTINUOUS
 62
     7
 10
-12.32100931288134
 20
-37.970107008215223
 30
0.0
 40
2.2309936586492811
 50
244.9697216028089
 51
271.82420708502468
  0
ARC
  5
5D2
  8
DATA
  6
CONTINUOUS
 62
     7
 10
-11.382523699104169
 20
-39.767814232999228
 30
0.0
 40
0.3885007539240797
 50
10.05493229205589
 51
67.690266290104915
  0
ARC
  5
5D3
  8
DATA
  6
CONTINUOUS
 62
     7
 10
-12.178970687118669
 20
-41.429862991784709
 30
0.0
 40
2.2309936586492811
 50
64.969721602808974
 51
91.824207085024653
  0
ARC
  5
5D4
  8
DATA
  6
CONTINUOUS
 62
     7
 10
-11.382523699104169
 20
-39.632155767000711
 30
0.0
 40
0.3885007539240812
 50
292.30973370989511
 51
349.94506770794408
  0
ARC
  5
5D5
  8
DATA
  6
CONTINUOUS
 62
     7
 10
-12.178970687118669
 20
-37.970107008215223
 30
0.0
 40
2.230993658649274
 50
268.17579291497532
 51
295.03027839719101
  0
ARC
  5
5D6
  8
DATA
  6
CONTINUOUS
 62
     7
 10
-13.117456300895849
 20
-41.267814232999228
 30
0.0
 40
0.3885007539240812
 50
112.309733709895
 51
169.9450677079441
  0
ARC
  5
5D7
  8
DATA
  6
CONTINUOUS
 62
     7
 10
-12.32100931288134
 20
-42.929862991784717
 30
0.0
 40
2.230993658649274
 50
88.175792914975347
 51
115.030278397191
  0
ARC
  5
5D8
  8
DATA
  6
CONTINUOUS
 62
     7
 10
-13.117456300895849
 20
-41.132155767000711
 30
0.0
 40
0.3885007539240797
 50
190.05493229205581
 51
247.69026629010489
  0
ARC
  5
5D9
  8
DATA
  6
CONTINUOUS
 62
     7
 10
-12.32100931288134
 20
-39.470107008215223
 30
0.0
 40
2.2309936586492811
 50
244.9697216028089
 51
271.82420708502468
  0
ARC
  5
5DA
  8
DATA
  6
CONTINUOUS
 62
     7
 10
-11.382523699104169
 20
-41.267814232999228
 30
0.0
 40
0.3885007539240797
 50
10.05493229205589
 51
67.690266290104915
  0
ARC
  5
5DB
  8
DATA
  6
CONTINUOUS
 62
     7
 10
-12.178970687118669
 20
-42.929862991784717
 30
0.0
 40
2.2309936586492811
 50
64.969721602808974
 51
91.824207085024653
  0
ARC
  5
5DC
  8
DATA
  6
CONTINUOUS
 62
     7
 10
-11.382523699104169
 20
-41.132155767000711
 30
0.0
 40
0.3885007539240812
 50
292.30973370989511
 51
349.94506770794408
  0
ARC
  5
5DD
  8
DATA
  6
CONTINUOUS
 62
     7
 10
-12.178970687118669
 20
-39.470107008215223
 30
0.0
 40
2.230993658649274
 50
268.17579291497532
 51
295.03027839719101
  0
ARC
  5
5DE
  8
DATA
  6
CONTINUOUS
 62
     7
 10
-13.117456300895849
 20
-42.767814232999221
 30
0.0
 40
0.3885007539240812
 50
112.309733709895
 51
169.9450677079441
  0
ARC
  5
5DF
  8
DATA
  6
CONTINUOUS
 62
     7
 10
-12.32100931288134
 20
-44.429862991784709
 30
0.0
 40
2.230993658649274
 50
88.175792914975347
 51
115.030278397191
  0
ARC
  5
5E0
  8
DATA
  6
CONTINUOUS
 62
     7
 10
-13.117456300895849
 20
-42.632155767000711
 30
0.0
 40
0.3885007539240797
 50
190.05493229205581
 51
247.69026629010489
  0
ARC
  5
5E1
  8
DATA
  6
CONTINUOUS
 62
     7
 10
-12.32100931288134
 20
-40.970107008215223
 30
0.0
 40
2.2309936586492811
 50
244.9697216028089
 51
271.82420708502468
  0
ARC
  5
5E2
  8
DATA
  6
CONTINUOUS
 62
     7
 10
-11.382523699104169
 20
-42.767814232999221
 30
0.0
 40
0.3885007539240797
 50
10.05493229205589
 51
67.690266290104915
  0
ARC
  5
5E3
  8
DATA
  6
CONTINUOUS
 62
     7
 10
-12.178970687118669
 20
-44.429862991784709
 30
0.0
 40
2.2309936586492811
 50
64.969721602808974
 51
91.824207085024653
  0
ARC
  5
5E4
  8
DATA
  6
CONTINUOUS
 62
     7
 10
-11.382523699104169
 20
-42.632155767000711
 30
0.0
 40
0.3885007539240812
 50
292.30973370989511
 51
349.94506770794408
  0
ARC
  5
5E5
  8
DATA
  6
CONTINUOUS
 62
     7
 10
-12.178970687118669
 20
-40.970107008215223
 30
0.0
 40
2.230993658649274
 50
268.17579291497532
 51
295.03027839719101
  0
ARC
  5
5E6
  8
DATA
  6
CONTINUOUS
 62
     7
 10
-16.617456300895849
 20
-33.767814232999221
 30
0.0
 40
0.3885007539240812
 50
112.309733709895
 51
169.9450677079441
  0
ARC
  5
5E7
  8
DATA
  6
CONTINUOUS
 62
     7
 10
-15.82100931288134
 20
-35.429862991784709
 30
0.0
 40
2.230993658649274
 50
88.175792914975347
 51
115.030278397191
  0
ARC
  5
5E8
  8
DATA
  6
CONTINUOUS
 62
     7
 10
-16.617456300895849
 20
-33.632155767000711
 30
0.0
 40
0.3885007539240797
 50
190.05493229205581
 51
247.69026629010489
  0
ARC
  5
5E9
  8
DATA
  6
CONTINUOUS
 62
     7
 10
-15.82100931288134
 20
-31.970107008215219
 30
0.0
 40
2.2309936586492811
 50
244.9697216028089
 51
271.82420708502468
  0
ARC
  5
5EA
  8
DATA
  6
CONTINUOUS
 62
     7
 10
-14.882523699104169
 20
-33.767814232999221
 30
0.0
 40
0.3885007539240797
 50
10.05493229205589
 51
67.690266290104915
  0
ARC
  5
5EB
  8
DATA
  6
CONTINUOUS
 62
     7
 10
-15.678970687118669
 20
-35.429862991784709
 30
0.0
 40
2.2309936586492811
 50
64.969721602808974
 51
91.824207085024653
  0
ARC
  5
5EC
  8
DATA
  6
CONTINUOUS
 62
     7
 10
-14.882523699104169
 20
-33.632155767000711
 30
0.0
 40
0.3885007539240812
 50
292.30973370989511
 51
349.94506770794408
  0
ARC
  5
5ED
  8
DATA
  6
CONTINUOUS
 62
     7
 10
-15.678970687118669
 20
-31.970107008215219
 30
0.0
 40
2.230993658649274
 50
268.17579291497532
 51
295.03027839719101
  0
ARC
  5
5EE
  8
DATA
  6
CONTINUOUS
 62
     7
 10
-16.617456300895849
 20
-35.267814232999221
 30
0.0
 40
0.3885007539240812
 50
112.309733709895
 51
169.9450677079441
  0
ARC
  5
5EF
  8
DATA
  6
CONTINUOUS
 62
     7
 10
-15.82100931288134
 20
-36.929862991784709
 30
0.0
 40
2.230993658649274
 50
88.175792914975347
 51
115.030278397191
  0
ARC
  5
5F0
  8
DATA
  6
CONTINUOUS
 62
     7
 10
-16.617456300895849
 20
-35.132155767000711
 30
0.0
 40
0.3885007539240797
 50
190.05493229205581
 51
247.69026629010489
  0
ARC
  5
5F1
  8
DATA
  6
CONTINUOUS
 62
     7
 10
-15.82100931288134
 20
-33.470107008215223
 30
0.0
 40
2.2309936586492811
 50
244.9697216028089
 51
271.82420708502468
  0
ARC
  5
5F2
  8
DATA
  6
CONTINUOUS
 62
     7
 10
-14.882523699104169
 20
-35.267814232999221
 30
0.0
 40
0.3885007539240797
 50
10.05493229205589
 51
67.690266290104915
  0
ARC
  5
5F3
  8
DATA
  6
CONTINUOUS
 62
     7
 10
-15.678970687118669
 20
-36.929862991784709
 30
0.0
 40
2.2309936586492811
 50
64.969721602808974
 51
91.824207085024653
  0
ARC
  5
5F4
  8
DATA
  6
CONTINUOUS
 62
     7
 10
-14.882523699104169
 20
-35.132155767000711
 30
0.0
 40
0.3885007539240812
 50
292.30973370989511
 51
349.94506770794408
  0
ARC
  5
5F5
  8
DATA
  6
CONTINUOUS
 62
     7
 10
-15.678970687118669
 20
-33.470107008215223
 30
0.0
 40
2.230993658649274
 50
268.17579291497532
 51
295.03027839719101
  0
ARC
  5
5F6
  8
DATA
  6
CONTINUOUS
 62
     7
 10
-16.617456300895849
 20
-36.767814232999228
 30
0.0
 40
0.3885007539240812
 50
112.309733709895
 51
169.9450677079441
  0
ARC
  5
5F7
  8
DATA
  6
CONTINUOUS
 62
     7
 10
-15.82100931288134
 20
-38.429862991784717
 30
0.0
 40
2.230993658649274
 50
88.175792914975347
 51
115.030278397191
  0
ARC
  5
5F8
  8
DATA
  6
CONTINUOUS
 62
     7
 10
-16.617456300895849
 20
-36.632155767000711
 30
0.0
 40
0.3885007539240797
 50
190.05493229205581
 51
247.69026629010489
  0
ARC
  5
5F9
  8
DATA
  6
CONTINUOUS
 62
     7
 10
-15.82100931288134
 20
-34.970107008215223
 30
0.0
 40
2.2309936586492811
 50
244.9697216028089
 51
271.82420708502468
  0
ARC
  5
5FA
  8
DATA
  6
CONTINUOUS
 62
     7
 10
-14.882523699104169
 20
-36.767814232999228
 30
0.0
 40
0.3885007539240797
 50
10.05493229205589
 51
67.690266290104915
  0
ARC
  5
5FB
  8
DATA
  6
CONTINUOUS
 62
     7
 10
-15.678970687118669
 20
-38.429862991784717
 30
0.0
 40
2.2309936586492811
 50
64.969721602808974
 51
91.824207085024653
  0
ARC
  5
5FC
  8
DATA
  6
CONTINUOUS
 62
     7
 10
-14.882523699104169
 20
-36.632155767000711
 30
0.0
 40
0.3885007539240812
 50
292.30973370989511
 51
349.94506770794408
  0
ARC
  5
5FD
  8
DATA
  6
CONTINUOUS
 62
     7
 10
-15.678970687118669
 20
-34.970107008215223
 30
0.0
 40
2.230993658649274
 50
268.17579291497532
 51
295.03027839719101
  0
ARC
  5
5FE
  8
DATA
  6
CONTINUOUS
 62
     7
 10
-16.617456300895849
 20
-38.267814232999228
 30
0.0
 40
0.3885007539240812
 50
112.309733709895
 51
169.9450677079441
  0
ARC
  5
5FF
  8
DATA
  6
CONTINUOUS
 62
     7
 10
-15.82100931288134
 20
-39.929862991784717
 30
0.0
 40
2.230993658649274
 50
88.175792914975347
 51
115.030278397191
  0
ARC
  5
600
  8
DATA
  6
CONTINUOUS
 62
     7
 10
-16.617456300895849
 20
-38.132155767000711
 30
0.0
 40
0.3885007539240797
 50
190.05493229205581
 51
247.69026629010489
  0
ARC
  5
601
  8
DATA
  6
CONTINUOUS
 62
     7
 10
-15.82100931288134
 20
-36.470107008215223
 30
0.0
 40
2.2309936586492811
 50
244.9697216028089
 51
271.82420708502468
  0
ARC
  5
602
  8
DATA
  6
CONTINUOUS
 62
     7
 10
-14.882523699104169
 20
-38.267814232999228
 30
0.0
 40
0.3885007539240797
 50
10.05493229205589
 51
67.690266290104915
  0
ARC
  5
603
  8
DATA
  6
CONTINUOUS
 62
     7
 10
-15.678970687118669
 20
-39.929862991784717
 30
0.0
 40
2.2309936586492811
 50
64.969721602808974
 51
91.824207085024653
  0
ARC
  5
604
  8
DATA
  6
CONTINUOUS
 62
     7
 10
-14.882523699104169
 20
-38.132155767000711
 30
0.0
 40
0.3885007539240812
 50
292.30973370989511
 51
349.94506770794408
  0
ARC
  5
605
  8
DATA
  6
CONTINUOUS
 62
     7
 10
-15.678970687118669
 20
-36.470107008215223
 30
0.0
 40
2.230993658649274
 50
268.17579291497532
 51
295.03027839719101
  0
ARC
  5
606
  8
DATA
  6
CONTINUOUS
 62
     7
 10
-16.617456300895849
 20
-39.767814232999228
 30
0.0
 40
0.3885007539240812
 50
112.309733709895
 51
169.9450677079441
  0
ARC
  5
607
  8
DATA
  6
CONTINUOUS
 62
     7
 10
-15.82100931288134
 20
-41.429862991784709
 30
0.0
 40
2.230993658649274
 50
88.175792914975347
 51
115.030278397191
  0
ARC
  5
608
  8
DATA
  6
CONTINUOUS
 62
     7
 10
-16.617456300895849
 20
-39.632155767000711
 30
0.0
 40
0.3885007539240797
 50
190.05493229205581
 51
247.69026629010489
  0
ARC
  5
609
  8
DATA
  6
CONTINUOUS
 62
     7
 10
-15.82100931288134
 20
-37.970107008215223
 30
0.0
 40
2.2309936586492811
 50
244.9697216028089
 51
271.82420708502468
  0
ARC
  5
60A
  8
DATA
  6
CONTINUOUS
 62
     7
 10
-14.882523699104169
 20
-39.767814232999228
 30
0.0
 40
0.3885007539240797
 50
10.05493229205589
 51
67.690266290104915
  0
ARC
  5
60B
  8
DATA
  6
CONTINUOUS
 62
     7
 10
-15.678970687118669
 20
-41.429862991784709
 30
0.0
 40
2.2309936586492811
 50
64.969721602808974
 51
91.824207085024653
  0
ARC
  5
60C
  8
DATA
  6
CONTINUOUS
 62
     7
 10
-14.882523699104169
 20
-39.632155767000711
 30
0.0
 40
0.3885007539240812
 50
292.30973370989511
 51
349.94506770794408
  0
ARC
  5
60D
  8
DATA
  6
CONTINUOUS
 62
     7
 10
-15.678970687118669
 20
-37.970107008215223
 30
0.0
 40
2.230993658649274
 50
268.17579291497532
 51
295.03027839719101
  0
ARC
  5
60E
  8
DATA
  6
CONTINUOUS
 62
     7
 10
-16.617456300895849
 20
-41.267814232999228
 30
0.0
 40
0.3885007539240812
 50
112.309733709895
 51
169.9450677079441
  0
ARC
  5
60F
  8
DATA
  6
CONTINUOUS
 62
     7
 10
-15.82100931288134
 20
-42.929862991784717
 30
0.0
 40
2.230993658649274
 50
88.175792914975347
 51
115.030278397191
  0
ARC
  5
610
  8
DATA
  6
CONTINUOUS
 62
     7
 10
-16.617456300895849
 20
-41.132155767000711
 30
0.0
 40
0.3885007539240797
 50
190.05493229205581
 51
247.69026629010489
  0
ARC
  5
611
  8
DATA
  6
CONTINUOUS
 62
     7
 10
-15.82100931288134
 20
-39.470107008215223
 30
0.0
 40
2.2309936586492811
 50
244.9697216028089
 51
271.82420708502468
  0
ARC
  5
612
  8
DATA
  6
CONTINUOUS
 62
     7
 10
-14.882523699104169
 20
-41.267814232999228
 30
0.0
 40
0.3885007539240797
 50
10.05493229205589
 51
67.690266290104915
  0
ARC
  5
613
  8
DATA
  6
CONTINUOUS
 62
     7
 10
-15.678970687118669
 20
-42.929862991784717
 30
0.0
 40
2.2309936586492811
 50
64.969721602808974
 51
91.824207085024653
  0
ARC
  5
614
  8
DATA
  6
CONTINUOUS
 62
     7
 10
-14.882523699104169
 20
-41.132155767000711
 30
0.0
 40
0.3885007539240812
 50
292.30973370989511
 51
349.94506770794408
  0
ARC
  5
615
  8
DATA
  6
CONTINUOUS
 62
     7
 10
-15.678970687118669
 20
-39.470107008215223
 30
0.0
 40
2.230993658649274
 50
268.17579291497532
 51
295.03027839719101
  0
ARC
  5
616
  8
DATA
  6
CONTINUOUS
 62
     7
 10
-16.617456300895849
 20
-42.767814232999221
 30
0.0
 40
0.3885007539240812
 50
112.309733709895
 51
169.9450677079441
  0
ARC
  5
617
  8
DATA
  6
CONTINUOUS
 62
     7
 10
-15.82100931288134
 20
-44.429862991784709
 30
0.0
 40
2.230993658649274
 50
88.175792914975347
 51
115.030278397191
  0
ARC
  5
618
  8
DATA
  6
CONTINUOUS
 62
     7
 10
-16.617456300895849
 20
-42.632155767000711
 30
0.0
 40
0.3885007539240797
 50
190.05493229205581
 51
247.69026629010489
  0
ARC
  5
619
  8
DATA
  6
CONTINUOUS
 62
     7
 10
-15.82100931288134
 20
-40.970107008215223
 30
0.0
 40
2.2309936586492811
 50
244.9697216028089
 51
271.82420708502468
  0
ARC
  5
61A
  8
DATA
  6
CONTINUOUS
 62
     7
 10
-14.882523699104169
 20
-42.767814232999221
 30
0.0
 40
0.3885007539240797
 50
10.05493229205589
 51
67.690266290104915
  0
ARC
  5
61B
  8
DATA
  6
CONTINUOUS
 62
     7
 10
-15.678970687118669
 20
-44.429862991784709
 30
0.0
 40
2.2309936586492811
 50
64.969721602808974
 51
91.824207085024653
  0
ARC
  5
61C
  8
DATA
  6
CONTINUOUS
 62
     7
 10
-14.882523699104169
 20
-42.632155767000711
 30
0.0
 40
0.3885007539240812
 50
292.30973370989511
 51
349.94506770794408
  0
ARC
  5
61D
  8
DATA
  6
CONTINUOUS
 62
     7
 10
-15.678970687118669
 20
-40.970107008215223
 30
0.0
 40
2.230993658649274
 50
268.17579291497532
 51
295.03027839719101
  0
ARC
  5
61E
  8
DATA
  6
CONTINUOUS
 62
     7
 10
-20.117456300895849
 20
-35.267814232999221
 30
0.0
 40
0.3885007539240812
 50
112.309733709895
 51
169.9450677079441
  0
ARC
  5
61F
  8
DATA
  6
CONTINUOUS
 62
     7
 10
-19.32100931288134
 20
-36.929862991784709
 30
0.0
 40
2.230993658649274
 50
88.175792914975347
 51
115.030278397191
  0
ARC
  5
620
  8
DATA
  6
CONTINUOUS
 62
     7
 10
-20.117456300895849
 20
-35.132155767000711
 30
0.0
 40
0.3885007539240797
 50
190.05493229205581
 51
247.69026629010489
  0
ARC
  5
621
  8
DATA
  6
CONTINUOUS
 62
     7
 10
-19.32100931288134
 20
-33.470107008215223
 30
0.0
 40
2.2309936586492811
 50
244.9697216028089
 51
271.82420708502468
  0
ARC
  5
622
  8
DATA
  6
CONTINUOUS
 62
     7
 10
-18.382523699104159
 20
-35.267814232999221
 30
0.0
 40
0.3885007539240797
 50
10.05493229205589
 51
67.690266290104915
  0
ARC
  5
623
  8
DATA
  6
CONTINUOUS
 62
     7
 10
-19.178970687118671
 20
-36.929862991784709
 30
0.0
 40
2.2309936586492811
 50
64.969721602808974
 51
91.824207085024653
  0
ARC
  5
624
  8
DATA
  6
CONTINUOUS
 62
     7
 10
-18.382523699104159
 20
-35.132155767000711
 30
0.0
 40
0.3885007539240812
 50
292.30973370989511
 51
349.94506770794408
  0
ARC
  5
625
  8
DATA
  6
CONTINUOUS
 62
     7
 10
-19.178970687118671
 20
-33.470107008215223
 30
0.0
 40
2.230993658649274
 50
268.17579291497532
 51
295.03027839719101
  0
ARC
  5
626
  8
DATA
  6
CONTINUOUS
 62
     7
 10
-20.117456300895849
 20
-36.767814232999228
 30
0.0
 40
0.3885007539240812
 50
112.309733709895
 51
169.9450677079441
  0
ARC
  5
627
  8
DATA
  6
CONTINUOUS
 62
     7
 10
-19.32100931288134
 20
-38.429862991784717
 30
0.0
 40
2.230993658649274
 50
88.175792914975347
 51
115.030278397191
  0
ARC
  5
628
  8
DATA
  6
CONTINUOUS
 62
     7
 10
-20.117456300895849
 20
-36.632155767000711
 30
0.0
 40
0.3885007539240797
 50
190.05493229205581
 51
247.69026629010489
  0
ARC
  5
629
  8
DATA
  6
CONTINUOUS
 62
     7
 10
-19.32100931288134
 20
-34.970107008215223
 30
0.0
 40
2.2309936586492811
 50
244.9697216028089
 51
271.82420708502468
  0
ARC
  5
62A
  8
DATA
  6
CONTINUOUS
 62
     7
 10
-18.382523699104159
 20
-36.767814232999228
 30
0.0
 40
0.3885007539240797
 50
10.05493229205589
 51
67.690266290104915
  0
ARC
  5
62B
  8
DATA
  6
CONTINUOUS
 62
     7
 10
-19.178970687118671
 20
-38.429862991784717
 30
0.0
 40
2.2309936586492811
 50
64.969721602808974
 51
91.824207085024653
  0
ARC
  5
62C
  8
DATA
  6
CONTINUOUS
 62
     7
 10
-18.382523699104159
 20
-36.632155767000711
 30
0.0
 40
0.3885007539240812
 50
292.30973370989511
 51
349.94506770794408
  0
ARC
  5
62D
  8
DATA
  6
CONTINUOUS
 62
     7
 10
-19.178970687118671
 20
-34.970107008215223
 30
0.0
 40
2.230993658649274
 50
268.17579291497532
 51
295.03027839719101
  0
ARC
  5
62E
  8
DATA
  6
CONTINUOUS
 62
     7
 10
-20.117456300895849
 20
-38.267814232999228
 30
0.0
 40
0.3885007539240812
 50
112.309733709895
 51
169.9450677079441
  0
ARC
  5
62F
  8
DATA
  6
CONTINUOUS
 62
     7
 10
-19.32100931288134
 20
-39.929862991784717
 30
0.0
 40
2.230993658649274
 50
88.175792914975347
 51
115.030278397191
  0
ARC
  5
630
  8
DATA
  6
CONTINUOUS
 62
     7
 10
-20.117456300895849
 20
-38.132155767000711
 30
0.0
 40
0.3885007539240797
 50
190.05493229205581
 51
247.69026629010489
  0
ARC
  5
631
  8
DATA
  6
CONTINUOUS
 62
     7
 10
-19.32100931288134
 20
-36.470107008215223
 30
0.0
 40
2.2309936586492811
 50
244.9697216028089
 51
271.82420708502468
  0
ARC
  5
632
  8
DATA
  6
CONTINUOUS
 62
     7
 10
-18.382523699104159
 20
-38.267814232999228
 30
0.0
 40
0.3885007539240797
 50
10.05493229205589
 51
67.690266290104915
  0
ARC
  5
633
  8
DATA
  6
CONTINUOUS
 62
     7
 10
-19.178970687118671
 20
-39.929862991784717
 30
0.0
 40
2.2309936586492811
 50
64.969721602808974
 51
91.824207085024653
  0
ARC
  5
634
  8
DATA
  6
CONTINUOUS
 62
     7
 10
-18.382523699104159
 20
-38.132155767000711
 30
0.0
 40
0.3885007539240812
 50
292.30973370989511
 51
349.94506770794408
  0
ARC
  5
635
  8
DATA
  6
CONTINUOUS
 62
     7
 10
-19.178970687118671
 20
-36.470107008215223
 30
0.0
 40
2.230993658649274
 50
268.17579291497532
 51
295.03027839719101
  0
ARC
  5
636
  8
DATA
  6
CONTINUOUS
 62
     7
 10
-20.117456300895849
 20
-39.767814232999228
 30
0.0
 40
0.3885007539240812
 50
112.309733709895
 51
169.9450677079441
  0
ARC
  5
637
  8
DATA
  6
CONTINUOUS
 62
     7
 10
-19.32100931288134
 20
-41.429862991784709
 30
0.0
 40
2.230993658649274
 50
88.175792914975347
 51
115.030278397191
  0
ARC
  5
638
  8
DATA
  6
CONTINUOUS
 62
     7
 10
-20.117456300895849
 20
-39.632155767000711
 30
0.0
 40
0.3885007539240797
 50
190.05493229205581
 51
247.69026629010489
  0
ARC
  5
639
  8
DATA
  6
CONTINUOUS
 62
     7
 10
-19.32100931288134
 20
-37.970107008215223
 30
0.0
 40
2.2309936586492811
 50
244.9697216028089
 51
271.82420708502468
  0
ARC
  5
63A
  8
DATA
  6
CONTINUOUS
 62
     7
 10
-18.382523699104159
 20
-39.767814232999228
 30
0.0
 40
0.3885007539240797
 50
10.05493229205589
 51
67.690266290104915
  0
ARC
  5
63B
  8
DATA
  6
CONTINUOUS
 62
     7
 10
-19.178970687118671
 20
-41.429862991784709
 30
0.0
 40
2.2309936586492811
 50
64.969721602808974
 51
91.824207085024653
  0
ARC
  5
63C
  8
DATA
  6
CONTINUOUS
 62
     7
 10
-18.382523699104159
 20
-39.632155767000711
 30
0.0
 40
0.3885007539240812
 50
292.30973370989511
 51
349.94506770794408
  0
ARC
  5
63D
  8
DATA
  6
CONTINUOUS
 62
     7
 10
-19.178970687118671
 20
-37.970107008215223
 30
0.0
 40
2.230993658649274
 50
268.17579291497532
 51
295.03027839719101
  0
ARC
  5
63E
  8
DATA
  6
CONTINUOUS
 62
     7
 10
-20.117456300895849
 20
-41.267814232999228
 30
0.0
 40
0.3885007539240812
 50
112.309733709895
 51
169.9450677079441
  0
ARC
  5
63F
  8
DATA
  6
CONTINUOUS
 62
     7
 10
-19.32100931288134
 20
-42.929862991784717
 30
0.0
 40
2.230993658649274
 50
88.175792914975347
 51
115.030278397191
  0
ARC
  5
640
  8
DATA
  6
CONTINUOUS
 62
     7
 10
-20.117456300895849
 20
-41.132155767000711
 30
0.0
 40
0.3885007539240797
 50
190.05493229205581
 51
247.69026629010489
  0
ARC
  5
641
  8
DATA
  6
CONTINUOUS
 62
     7
 10
-19.32100931288134
 20
-39.470107008215223
 30
0.0
 40
2.2309936586492811
 50
244.9697216028089
 51
271.82420708502468
  0
ARC
  5
642
  8
DATA
  6
CONTINUOUS
 62
     7
 10
-18.382523699104159
 20
-41.267814232999228
 30
0.0
 40
0.3885007539240797
 50
10.05493229205589
 51
67.690266290104915
  0
ARC
  5
643
  8
DATA
  6
CONTINUOUS
 62
     7
 10
-19.178970687118671
 20
-42.929862991784717
 30
0.0
 40
2.2309936586492811
 50
64.969721602808974
 51
91.824207085024653
  0
ARC
  5
644
  8
DATA
  6
CONTINUOUS
 62
     7
 10
-18.382523699104159
 20
-41.132155767000711
 30
0.0
 40
0.3885007539240812
 50
292.30973370989511
 51
349.94506770794408
  0
ARC
  5
645
  8
DATA
  6
CONTINUOUS
 62
     7
 10
-19.178970687118671
 20
-39.470107008215223
 30
0.0
 40
2.230993658649274
 50
268.17579291497532
 51
295.03027839719101
  0
ARC
  5
646
  8
DATA
  6
CONTINUOUS
 62
     7
 10
-20.117456300895849
 20
-42.767814232999221
 30
0.0
 40
0.3885007539240812
 50
112.309733709895
 51
169.9450677079441
  0
ARC
  5
647
  8
DATA
  6
CONTINUOUS
 62
     7
 10
-19.32100931288134
 20
-44.429862991784709
 30
0.0
 40
2.230993658649274
 50
88.175792914975347
 51
115.030278397191
  0
ARC
  5
648
  8
DATA
  6
CONTINUOUS
 62
     7
 10
-20.117456300895849
 20
-42.632155767000711
 30
0.0
 40
0.3885007539240797
 50
190.05493229205581
 51
247.69026629010489
  0
ARC
  5
649
  8
DATA
  6
CONTINUOUS
 62
     7
 10
-19.32100931288134
 20
-40.970107008215223
 30
0.0
 40
2.2309936586492811
 50
244.9697216028089
 51
271.82420708502468
  0
ARC
  5
64A
  8
DATA
  6
CONTINUOUS
 62
     7
 10
-18.382523699104159
 20
-42.767814232999221
 30
0.0
 40
0.3885007539240797
 50
10.05493229205589
 51
67.690266290104915
  0
ARC
  5
64B
  8
DATA
  6
CONTINUOUS
 62
     7
 10
-19.178970687118671
 20
-44.429862991784709
 30
0.0
 40
2.2309936586492811
 50
64.969721602808974
 51
91.824207085024653
  0
ARC
  5
64C
  8
DATA
  6
CONTINUOUS
 62
     7
 10
-18.382523699104159
 20
-42.632155767000711
 30
0.0
 40
0.3885007539240812
 50
292.30973370989511
 51
349.94506770794408
  0
ARC
  5
64D
  8
DATA
  6
CONTINUOUS
 62
     7
 10
-19.178970687118671
 20
-40.970107008215223
 30
0.0
 40
2.230993658649274
 50
268.17579291497532
 51
295.03027839719101
  0
ARC
  5
64E
  8
DATA
  6
CONTINUOUS
 62
     7
 10
-22.82100931288134
 20
-34.970107008215223
 30
0.0
 40
2.2309936586492931
 50
249.78179387596651
 51
271.82420708502468
  0
ARC
  5
64F
  8
DATA
  6
CONTINUOUS
 62
     7
 10
-21.882523699104159
 20
-36.767814232999228
 30
0.0
 40
0.3885007539240797
 50
10.05493229205589
 51
67.690266290104915
  0
ARC
  5
650
  8
DATA
  6
CONTINUOUS
 62
     7
 10
-22.678970687118671
 20
-38.429862991784717
 30
0.0
 40
2.2309936586492811
 50
64.969721602808974
 51
81.517878936769037
  0
ARC
  5
651
  8
DATA
  6
CONTINUOUS
 62
     7
 10
-21.882523699104159
 20
-36.632155767000711
 30
0.0
 40
0.3885007539240812
 50
292.30973370989511
 51
349.94506770794408
  0
ARC
  5
652
  8
DATA
  6
CONTINUOUS
 62
     7
 10
-22.678970687118671
 20
-34.970107008215223
 30
0.0
 40
2.230993658649274
 50
268.17579291497532
 51
295.03027839719101
  0
ARC
  5
653
  8
DATA
  6
CONTINUOUS
 62
     7
 10
-23.617456300895849
 20
-38.267814232999228
 30
0.0
 40
0.3885007539240812
 50
112.309733709895
 51
169.9450677079441
  0
ARC
  5
654
  8
DATA
  6
CONTINUOUS
 62
     7
 10
-22.82100931288134
 20
-39.929862991784717
 30
0.0
 40
2.230993658649274
 50
88.175792914975347
 51
115.030278397191
  0
ARC
  5
655
  8
DATA
  6
CONTINUOUS
 62
     7
 10
-23.617456300895849
 20
-38.132155767000711
 30
0.0
 40
0.3885007539240797
 50
190.05493229205581
 51
247.69026629010489
  0
ARC
  5
656
  8
DATA
  6
CONTINUOUS
 62
     7
 10
-22.82100931288134
 20
-36.470107008215223
 30
0.0
 40
2.2309936586492811
 50
244.9697216028089
 51
271.82420708502468
  0
ARC
  5
657
  8
DATA
  6
CONTINUOUS
 62
     7
 10
-21.882523699104159
 20
-38.267814232999228
 30
0.0
 40
0.3885007539240797
 50
10.05493229205589
 51
67.690266290104915
  0
ARC
  5
658
  8
DATA
  6
CONTINUOUS
 62
     7
 10
-22.678970687118671
 20
-39.929862991784717
 30
0.0
 40
2.2309936586492811
 50
64.969721602808974
 51
91.824207085024653
  0
ARC
  5
659
  8
DATA
  6
CONTINUOUS
 62
     7
 10
-21.882523699104159
 20
-38.132155767000711
 30
0.0
 40
0.3885007539240812
 50
292.30973370989511
 51
349.94506770794408
  0
ARC
  5
65A
  8
DATA
  6
CONTINUOUS
 62
     7
 10
-22.678970687118671
 20
-36.470107008215223
 30
0.0
 40
2.230993658649274
 50
268.17579291497532
 51
295.03027839719101
  0
ARC
  5
65B
  8
DATA
  6
CONTINUOUS
 62
     7
 10
-23.617456300895849
 20
-39.767814232999228
 30
0.0
 40
0.3885007539240812
 50
112.309733709895
 51
169.9450677079441
  0
ARC
  5
65C
  8
DATA
  6
CONTINUOUS
 62
     7
 10
-22.82100931288134
 20
-41.429862991784709
 30
0.0
 40
2.230993658649274
 50
88.175792914975347
 51
115.030278397191
  0
ARC
  5
65D
  8
DATA
  6
CONTINUOUS
 62
     7
 10
-23.617456300895849
 20
-39.632155767000711
 30
0.0
 40
0.3885007539240797
 50
190.05493229205581
 51
247.69026629010489
  0
ARC
  5
65E
  8
DATA
  6
CONTINUOUS
 62
     7
 10
-22.82100931288134
 20
-37.970107008215223
 30
0.0
 40
2.2309936586492811
 50
244.9697216028089
 51
271.82420708502468
  0
ARC
  5
65F
  8
DATA
  6
CONTINUOUS
 62
     7
 10
-21.882523699104159
 20
-39.767814232999228
 30
0.0
 40
0.3885007539240797
 50
10.05493229205589
 51
67.690266290104915
  0
ARC
  5
660
  8
DATA
  6
CONTINUOUS
 62
     7
 10
-22.678970687118671
 20
-41.429862991784709
 30
0.0
 40
2.2309936586492811
 50
64.969721602808974
 51
91.824207085024653
  0
ARC
  5
661
  8
DATA
  6
CONTINUOUS
 62
     7
 10
-21.882523699104159
 20
-39.632155767000711
 30
0.0
 40
0.3885007539240812
 50
292.30973370989511
 51
349.94506770794408
  0
ARC
  5
662
  8
DATA
  6
CONTINUOUS
 62
     7
 10
-22.678970687118671
 20
-37.970107008215223
 30
0.0
 40
2.230993658649274
 50
268.17579291497532
 51
295.03027839719101
  0
ARC
  5
663
  8
DATA
  6
CONTINUOUS
 62
     7
 10
-23.617456300895849
 20
-41.267814232999228
 30
0.0
 40
0.3885007539240812
 50
112.309733709895
 51
169.9450677079441
  0
ARC
  5
664
  8
DATA
  6
CONTINUOUS
 62
     7
 10
-22.82100931288134
 20
-42.929862991784717
 30
0.0
 40
2.230993658649274
 50
88.175792914975347
 51
115.030278397191
  0
ARC
  5
665
  8
DATA
  6
CONTINUOUS
 62
     7
 10
-23.617456300895849
 20
-41.132155767000711
 30
0.0
 40
0.3885007539240797
 50
190.05493229205581
 51
247.69026629010489
  0
ARC
  5
666
  8
DATA
  6
CONTINUOUS
 62
     7
 10
-22.82100931288134
 20
-39.470107008215223
 30
0.0
 40
2.2309936586492811
 50
244.9697216028089
 51
271.82420708502468
  0
ARC
  5
667
  8
DATA
  6
CONTINUOUS
 62
     7
 10
-21.882523699104159
 20
-41.267814232999228
 30
0.0
 40
0.3885007539240797
 50
10.05493229205589
 51
67.690266290104915
  0
ARC
  5
668
  8
DATA
  6
CONTINUOUS
 62
     7
 10
-22.678970687118671
 20
-42.929862991784717
 30
0.0
 40
2.2309936586492811
 50
64.969721602808974
 51
91.824207085024653
  0
ARC
  5
669
  8
DATA
  6
CONTINUOUS
 62
     7
 10
-21.882523699104159
 20
-41.132155767000711
 30
0.0
 40
0.3885007539240812
 50
292.30973370989511
 51
349.94506770794408
  0
ARC
  5
66A
  8
DATA
  6
CONTINUOUS
 62
     7
 10
-22.678970687118671
 20
-39.470107008215223
 30
0.0
 40
2.230993658649274
 50
268.17579291497532
 51
295.03027839719101
  0
ARC
  5
66B
  8
DATA
  6
CONTINUOUS
 62
     7
 10
-23.617456300895849
 20
-42.767814232999221
 30
0.0
 40
0.3885007539240812
 50
112.309733709895
 51
169.9450677079441
  0
ARC
  5
66C
  8
DATA
  6
CONTINUOUS
 62
     7
 10
-22.82100931288134
 20
-44.429862991784709
 30
0.0
 40
2.230993658649274
 50
88.175792914975347
 51
115.030278397191
  0
ARC
  5
66D
  8
DATA
  6
CONTINUOUS
 62
     7
 10
-23.617456300895849
 20
-42.632155767000711
 30
0.0
 40
0.3885007539240797
 50
190.05493229205581
 51
247.69026629010489
  0
ARC
  5
66E
  8
DATA
  6
CONTINUOUS
 62
     7
 10
-22.82100931288134
 20
-40.970107008215223
 30
0.0
 40
2.2309936586492811
 50
244.9697216028089
 51
271.82420708502468
  0
ARC
  5
66F
  8
DATA
  6
CONTINUOUS
 62
     7
 10
-21.882523699104159
 20
-42.767814232999221
 30
0.0
 40
0.3885007539240797
 50
10.05493229205589
 51
67.690266290104915
  0
ARC
  5
670
  8
DATA
  6
CONTINUOUS
 62
     7
 10
-22.678970687118671
 20
-44.429862991784709
 30
0.0
 40
2.2309936586492811
 50
64.969721602808974
 51
91.824207085024653
  0
ARC
  5
671
  8
DATA
  6
CONTINUOUS
 62
     7
 10
-21.882523699104159
 20
-42.632155767000711
 30
0.0
 40
0.3885007539240812
 50
292.30973370989511
 51
349.94506770794408
  0
ARC
  5
672
  8
DATA
  6
CONTINUOUS
 62
     7
 10
-22.678970687118671
 20
-40.970107008215223
 30
0.0
 40
2.230993658649274
 50
268.17579291497532
 51
295.03027839719101
  0
ARC
  5
673
  8
DATA
  6
CONTINUOUS
 62
     7
 10
-26.32100931288134
 20
-41.429862991784709
 30
0.0
 40
2.230993658649274
 50
88.175792914975347
 51
95.049613693474896
  0
ARC
  5
674
  8
DATA
  6
CONTINUOUS
 62
     7
 10
-27.117456300895849
 20
-39.632155767000711
 30
0.0
 40
0.3885007539240944
 50
223.82099025975529
 51
247.69026629010489
  0
ARC
  5
675
  8
DATA
  6
CONTINUOUS
 62
     7
 10
-26.32100931288134
 20
-37.970107008215223
 30
0.0
 40
2.2309936586492811
 50
244.9697216028089
 51
271.82420708502468
  0
ARC
  5
676
  8
DATA
  6
CONTINUOUS
 62
     7
 10
-25.382523699104159
 20
-39.767814232999228
 30
0.0
 40
0.3885007539240797
 50
10.05493229205589
 51
67.690266290104915
  0
ARC
  5
677
  8
DATA
  6
CONTINUOUS
 62
     7
 10
-26.178970687118671
 20
-41.429862991784709
 30
0.0
 40
2.2309936586492811
 50
64.969721602808974
 51
91.824207085024653
  0
ARC
  5
678
  8
DATA
  6
CONTINUOUS
 62
     7
 10
-25.382523699104159
 20
-39.632155767000711
 30
0.0
 40
0.3885007539240812
 50
292.30973370989511
 51
349.94506770794408
  0
ARC
  5
679
  8
DATA
  6
CONTINUOUS
 62
     7
 10
-26.178970687118671
 20
-37.970107008215223
 30
0.0
 40
2.230993658649274
 50
268.17579291497532
 51
295.03027839719101
  0
ARC
  5
67A
  8
DATA
  6
CONTINUOUS
 62
     7
 10
-27.117456300895849
 20
-41.267814232999228
 30
0.0
 40
0.3885007539240812
 50
112.309733709895
 51
169.9450677079441
  0
ARC
  5
67B
  8
DATA
  6
CONTINUOUS
 62
     7
 10
-26.32100931288134
 20
-42.929862991784717
 30
0.0
 40
2.230993658649274
 50
88.175792914975347
 51
115.030278397191
  0
ARC
  5
67C
  8
DATA
  6
CONTINUOUS
 62
     7
 10
-27.117456300895849
 20
-41.132155767000711
 30
0.0
 40
0.3885007539240797
 50
190.05493229205581
 51
247.69026629010489
  0
ARC
  5
67D
  8
DATA
  6
CONTINUOUS
 62
     7
 10
-26.32100931288134
 20
-39.470107008215223
 30
0.0
 40
2.2309936586492811
 50
244.9697216028089
 51
271.82420708502468
  0
ARC
  5
67E
  8
DATA
  6
CONTINUOUS
 62
     7
 10
-25.382523699104159
 20
-41.267814232999228
 30
0.0
 40
0.3885007539240797
 50
10.05493229205589
 51
67.690266290104915
  0
ARC
  5
67F
  8
DATA
  6
CONTINUOUS
 62
     7
 10
-26.178970687118671
 20
-42.929862991784717
 30
0.0
 40
2.2309936586492811
 50
64.969721602808974
 51
91.824207085024653
  0
ARC
  5
680
  8
DATA
  6
CONTINUOUS
 62
     7
 10
-25.382523699104159
 20
-41.132155767000711
 30
0.0
 40
0.3885007539240812
 50
292.30973370989511
 51
349.94506770794408
  0
ARC
  5
681
  8
DATA
  6
CONTINUOUS
 62
     7
 10
-26.178970687118671
 20
-39.470107008215223
 30
0.0
 40
2.230993658649274
 50
268.17579291497532
 51
295.03027839719101
  0
ARC
  5
682
  8
DATA
  6
CONTINUOUS
 62
     7
 10
-27.117456300895849
 20
-42.767814232999221
 30
0.0
 40
0.3885007539240812
 50
112.309733709895
 51
169.9450677079441
  0
ARC
  5
683
  8
DATA
  6
CONTINUOUS
 62
     7
 10
-26.32100931288134
 20
-44.429862991784709
 30
0.0
 40
2.230993658649274
 50
88.175792914975347
 51
115.030278397191
  0
ARC
  5
684
  8
DATA
  6
CONTINUOUS
 62
     7
 10
-27.117456300895849
 20
-42.632155767000711
 30
0.0
 40
0.3885007539240797
 50
190.05493229205581
 51
247.69026629010489
  0
ARC
  5
685
  8
DATA
  6
CONTINUOUS
 62
     7
 10
-26.32100931288134
 20
-40.970107008215223
 30
0.0
 40
2.2309936586492811
 50
244.9697216028089
 51
271.82420708502468
  0
ARC
  5
686
  8
DATA
  6
CONTINUOUS
 62
     7
 10
-25.382523699104159
 20
-42.767814232999221
 30
0.0
 40
0.3885007539240797
 50
10.05493229205589
 51
67.690266290104915
  0
ARC
  5
687
  8
DATA
  6
CONTINUOUS
 62
     7
 10
-26.178970687118671
 20
-44.429862991784709
 30
0.0
 40
2.2309936586492811
 50
64.969721602808974
 51
91.824207085024653
  0
ARC
  5
688
  8
DATA
  6
CONTINUOUS
 62
     7
 10
-25.382523699104159
 20
-42.632155767000711
 30
0.0
 40
0.3885007539240812
 50
292.30973370989511
 51
349.94506770794408
  0
ARC
  5
689
  8
DATA
  6
CONTINUOUS
 62
     7
 10
-26.178970687118671
 20
-40.970107008215223
 30
0.0
 40
2.230993658649274
 50
268.17579291497532
 51
295.03027839719101
  0
ARC
  5
68A
  8
DATA
  6
CONTINUOUS
 62
     7
 10
-29.82100931288134
 20
-44.429862991784709
 30
0.0
 40
2.230993658649274
 50
88.175792914975347
 51
98.289768671452464
  0
ARC
  5
68B
  8
DATA
  6
CONTINUOUS
 62
     7
 10
-28.882523699104159
 20
-42.767814232999221
 30
0.0
 40
0.3885007539240797
 50
10.05493229205589
 51
67.690266290106862
  0
ARC
  5
68C
  8
DATA
  6
CONTINUOUS
 62
     7
 10
-29.678970687118671
 20
-44.429862991784709
 30
0.0
 40
2.2309936586492749
 50
64.969721602809301
 51
91.824207085024653
  0
ARC
  5
68D
  8
DATA
  6
CONTINUOUS
 62
     7
 10
-28.882523699104159
 20
-42.632155767000711
 30
0.0
 40
0.3885007539240758
 50
292.30973370989312
 51
349.94506770794408
  0
ARC
  5
68E
  8
DATA
  6
CONTINUOUS
 62
     7
 10
-29.678970687118671
 20
-40.970107008215223
 30
0.0
 40
2.2309936586492731
 50
280.58321726388618
 51
295.03027839719061
  0
ARC
  5
68F
  8
DATA
  6
CONTINUOUS
 62
     7
 10
104.4999999999999
 20
54.900000000000013
 30
0.0
 40
1.5000200000000079
 50
80.840805977984004
 51
267.72752598277202
  0
ARC
  5
690
  8
DATA
  6
CONTINUOUS
 62
     7
 10
104.4499899999999
 20
57.400020000000012
 30
0.0
 40
1.25
 50
282.4082090477304
 51
66.160122913025475
  0
ARC
  5
691
  8
DATA
  6
CONTINUOUS
 62
     7
 10
104.4499899999999
 20
53.899999999999999
 30
0.0
 40
1.2500000000000011
 50
266.12989146611932
 51
82.438440494635785
  0
ARC
  5
692
  8
DATA
  6
CONTINUOUS
 62
     7
 10
104.4499899999999
 20
50.399999999999999
 30
0.0
 40
1.2499999999999889
 50
250.00439679531971
 51
98.56393516543551
  0
ARC
  5
693
  8
DATA
  6
CONTINUOUS
 62
     7
 10
107.9499999999999
 20
39.899999999999999
 30
0.0
 40
1.250000000000002
 50
247.57411142435859
 51
149.8444578505061
  0
ARC
  5
694
  8
DATA
  6
CONTINUOUS
 62
     7
 10
107.9499999999999
 20
36.399999999999999
 30
0.0
 40
1.249999999999998
 50
302.61402871095891
 51
94.804540563906272
  0
ARC
  5
695
  8
DATA
  6
CONTINUOUS
 62
     7
 10
111.4499999999999
 20
29.399999999999999
 30
0.0
 40
1.2500000000000031
 50
250.725199477389
 51
146.69336979747661
  0
ARC
  5
696
  8
DATA
  6
CONTINUOUS
 62
     7
 10
111.4499999999999
 20
25.899999999999999
 30
0.0
 40
1.249999999999996
 50
305.13091355229591
 51
92.287655722569127
  0
ARC
  5
697
  8
DATA
  6
CONTINUOUS
 62
     7
 10
104.4499899999999
 20
46.899999999999999
 30
0.0
 40
1.249999999999994
 50
300.12468614204312
 51
97.293883132821946
  0
ARC
  5
698
  8
DATA
  6
CONTINUOUS
 62
     7
 10
104.4499899999999
 20
60.900020000000012
 30
0.0
 40
1.2500000000000011
 50
300.43695388811238
 51
48.131378072642939
  0
ARC
  5
699
  8
DATA
  6
CONTINUOUS
 62
     7
 10
107.9499999999999
 20
85.400010000000009
 30
0.0
 40
1.2499999999999989
 50
259.01378108907778
 51
87.678223629725707
  0
ARC
  5
69A
  8
DATA
  6
CONTINUOUS
 62
     7
 10
107.9499999999999
 20
88.900010000000009
 30
0.0
 40
1.2500000000000011
 50
277.7587697507343
 51
68.933234968069414
  0
ARC
  5
69B
  8
DATA
  6
CONTINUOUS
 62
     7
 10
107.9499999999999
 20
92.400010000000009
 30
0.0
 40
1.25
 50
298.33023049137199
 51
48.361774227431731
  0
ARC
  5
69C
  8
DATA
  6
CONTINUOUS
 62
     7
 10
107.9499999999999
 20
81.900009999999995
 30
0.0
 40
1.249999999999998
 50
239.7687796223251
 51
106.9232250964783
  0
ARC
  5
69D
  8
DATA
  6
CONTINUOUS
 62
     7
 10
114.9499999999999
 20
18.899999999999999
 30
0.0
 40
1.250000000000002
 50
253.74627902912869
 51
143.67229024573689
  0
ARC
  5
69E
  8
DATA
  6
CONTINUOUS
 62
     7
 10
114.9499999999999
 20
15.4
 30
0.0
 40
1.2499999999999949
 50
307.68084130096162
 51
89.737727973903844
  0
TEXT
  5
69F
  8
0
  6
CONTINUOUS
 62
     7
 10
-59.999990000000039
 20
-107.7381699999999
 30
0.0
 40
3.3866666666666658
  1
仕様および外観は予告なく変更されることがありますので、ご了承ください。
  0
ENDSEC
  0
EOF
